999
DXF file: C:\Users\sesa63760\Dev\_Creo\CAD\MCADFD0002484_3D-CAD\drw0001_7.dxf
999
Pro/ENGINEER 2019471 by Parametric Technology Corporation
  0
SECTION
  2
HEADER
  9
$ACADVER
  1
AC1024
  9
$DWGCODEPAGE
  3
ANSI_1252
  9
$EXTMAX
 10
108.9115201287
 20
154.0320070392
 30
0.0
  9
$EXTMIN
 10
0.0
 20
0.0
 30
0.0
  9
$LIMMIN
 10
0.0
 20
0.0
  9
$LIMMAX
 10
108.9115201287
 20
154.0320070392
  9
$VIEWCTR
 10
54.4557600644
 20
77.0160035196
  9
$VIEWSIZE
 40
154.0320070392
  9
$CLAYER
  8
0
  9
$LTSCALE
 40
10.0406049033
  9
$CELTYPE
  6
BYLAYER
  9
$DIMSCALE
 40
1.0
  9
$DIMASZ
 40
1.2965657158
  9
$DIMEXO
 40
1.0
  9
$DIMDLI
 40
6.9371452059
  9
$DIMEXE
 40
1.0
  9
$DIMCEN
 40
1.6430080751
  9
$DIMLFAC
 40
1.0
  9
$DIMBLK
  1
_FILLED
  9
$DIMALT
 70
0
  9
$DIMALTF
 40
0.0393700787
  9
$DIMTXT
 40
1.8151920021
  9
$DIMTOL
 70
1
  9
$DIMLIM
 70
0
  9
$DIMTFAC
 40
1.0
  9
$DIMTP
 40
0.01
  9
$DIMTM
 40
0.01
  9
$DIMGAP
 40
0.625
  9
$DIMDSEP
 70
46
  9
$AUNITS
 70
0
  9
$PDMODE
 70
3
  9
$PDSIZE
 40
0.3125
  9
$HANDSEED
  5
455
  9
$TILEMODE
 70
1
  9
$MEASUREMENT
 70
1
  9
$INSUNITS
 70
4
  0
ENDSEC
  0
SECTION
  2
CLASSES
  0
CLASS
  1
ACDBDICTIONARYWDFLT
  2
AcDbDictionaryWithDefault
  3
AutoCAD 2000
 90
0
 91
1
280
0
281
0
  0
CLASS
  1
ACDBPLACEHOLDER
  2
AcDbPlaceHolder
  3
AutoCAD 2000
 90
0
 91
1
280
0
281
0
  0
CLASS
  1
LAYOUT
  2
AcDbLayout
  3
AutoCAD 2000
 90
0
 91
0
280
0
281
0
  0
ENDSEC
  0
SECTION
  2
TABLES
  0
TABLE
  2
VPORT
  5
8
100
AcDbSymbolTable
 70
2
  0
VPORT
  5
1F4
100
AcDbSymbolTableRecord
100
AcDbViewportTableRecord
  2
*ACTIVE
 70
0
 10
0.0
 20
0.0
 11
1.0
 21
1.0
 12
54.4557600644
 22
77.0160035196
 13
0.0
 23
0.0
 14
1.0
 24
1.0
 15
0.0
 25
0.0
 16
0.0
 26
0.0
 36
1.0
 17
0.0
 27
0.0
 37
0.0
 40
154.0320070392
 41
0.7070707071
 42
50.0
 43
0.0
 44
0.0
 50
0.0
 51
0.0
 71
0
 72
100
 73
1
 74
1
 75
0
 76
0
 77
0
 78
0
  0
ENDTAB
  0
TABLE
  2
LTYPE
  5
5
100
AcDbSymbolTable
 70
6
  0
LTYPE
  5
14
100
AcDbSymbolTableRecord
100
AcDbLinetypeTableRecord
  2
BYBLOCK
 70
0
  3

 72
65
 73
0
 40
0.0
  0
LTYPE
  5
15
100
AcDbSymbolTableRecord
100
AcDbLinetypeTableRecord
  2
BYLAYER
 70
0
  3

 72
65
 73
0
 40
0.0
  0
LTYPE
  5
16
100
AcDbSymbolTableRecord
100
AcDbLinetypeTableRecord
  2
CONTINUOUS
 70
64
  3
Solid line
 72
65
 73
0
 40
0.0
  0
LTYPE
  5
1F5
100
AcDbSymbolTableRecord
100
AcDbLinetypeTableRecord
  2
CENTER
 70
64
  3
____ _ ____ _ ____ _ ____ _ ____ _ ____ _ ____
 72
65
 73
4
 40
0.6
 49
0.375
 74
0
 49
-0.075
 74
0
 49
0.075
 74
0
 49
-0.075
 74
0
  0
LTYPE
  5
1F6
100
AcDbSymbolTableRecord
100
AcDbLinetypeTableRecord
  2
HIDDEN
 70
64
  3
- - - - - - - - - - - - - - - - - - - -
 72
65
 73
2
 40
0.2
 49
0.1
 74
0
 49
-0.1
 74
0
  0
LTYPE
  5
1F7
100
AcDbSymbolTableRecord
100
AcDbLinetypeTableRecord
  2
PHANTOM
 70
64
  3
_____ _ _ _____ _ _ _____ _ _ _____
 72
65
 73
6
 40
0.8
 49
0.45
 74
0
 49
-0.05
 74
0
 49
0.1
 74
0
 49
-0.05
 74
0
 49
0.1
 74
0
 49
-0.05
 74
0
  0
LTYPE
  5
1F8
100
AcDbSymbolTableRecord
100
AcDbLinetypeTableRecord
  2
DOT
 70
64
  3
. . . . . . . . . . . . . . . . . . . .
 72
65
 73
2
 40
0.2
 49
0.1
 74
0
 49
-0.1
 74
0
  0
LTYPE
  5
1F9
100
AcDbSymbolTableRecord
100
AcDbLinetypeTableRecord
  2
DASHED
 70
64
  3
- - - - - - - - - - - - - - - - - - - -
 72
65
 73
2
 40
0.2
 49
0.1
 74
0
 49
-0.1
 74
0
  0
ENDTAB
  0
TABLE
  2
LAYER
  5
2
100
AcDbSymbolTable
 70
36
  0
LAYER
  5
10
100
AcDbSymbolTableRecord
100
AcDbLayerTableRecord
  2
0
 70
0
 62
7
  6
CONTINUOUS
370
-3
390
F
  0
LAYER
  5
1FA
100
AcDbSymbolTableRecord
100
AcDbLayerTableRecord
  2
DEFAULT_1
 70
0
 62
7
  6
CENTER
370
-3
390
F
  0
LAYER
  5
1FB
100
AcDbSymbolTableRecord
100
AcDbLayerTableRecord
  2
DEFAULT_2
 70
0
 62
8
  6
HIDDEN
370
-3
390
F
  0
LAYER
  5
1FC
100
AcDbSymbolTableRecord
100
AcDbLayerTableRecord
  2
DEFAULT_3
 70
0
 62
7
  6
PHANTOM
370
-3
390
F
  0
LAYER
  5
1FD
100
AcDbSymbolTableRecord
100
AcDbLayerTableRecord
  2
00_COMPONENTS
 70
0
 62
7
  6
CONTINUOUS
370
-3
390
F
  0
LAYER
  5
1FE
100
AcDbSymbolTableRecord
100
AcDbLayerTableRecord
  2
01_1_DEFAULT_DATUMS
 70
0
 62
7
  6
CONTINUOUS
370
-3
390
F
  0
LAYER
  5
1FF
100
AcDbSymbolTableRecord
100
AcDbLayerTableRecord
  2
01_PLANES
 70
0
 62
7
  6
CONTINUOUS
370
-3
390
F
  0
LAYER
  5
200
100
AcDbSymbolTableRecord
100
AcDbLayerTableRecord
  2
02_COORD_SYS
 70
0
 62
7
  6
CONTINUOUS
370
-3
390
F
  0
LAYER
  5
201
100
AcDbSymbolTableRecord
100
AcDbLayerTableRecord
  2
03_AXES
 70
0
 62
7
  6
CONTINUOUS
370
-3
390
F
  0
LAYER
  5
202
100
AcDbSymbolTableRecord
100
AcDbLayerTableRecord
  2
04_POINTS
 70
0
 62
7
  6
CONTINUOUS
370
-3
390
F
  0
LAYER
  5
203
100
AcDbSymbolTableRecord
100
AcDbLayerTableRecord
  2
05_CURVES
 70
0
 62
7
  6
CONTINUOUS
370
-3
390
F
  0
LAYER
  5
204
100
AcDbSymbolTableRecord
100
AcDbLayerTableRecord
  2
06_SURFS
 70
0
 62
7
  6
CONTINUOUS
370
-3
390
F
  0
LAYER
  5
205
100
AcDbSymbolTableRecord
100
AcDbLayerTableRecord
  2
07_COSMETICS
 70
0
 62
7
  6
CONTINUOUS
370
-3
390
F
  0
LAYER
  5
206
100
AcDbSymbolTableRecord
100
AcDbLayerTableRecord
  2
10_NOTES
 70
0
 62
7
  6
CONTINUOUS
370
-3
390
F
  0
LAYER
  5
207
100
AcDbSymbolTableRecord
100
AcDbLayerTableRecord
  2
11_NOTES_PUB
 70
0
 62
7
  6
CONTINUOUS
370
-3
390
F
  0
LAYER
  5
208
100
AcDbSymbolTableRecord
100
AcDbLayerTableRecord
  2
13_REF_GTOL
 70
0
 62
7
  6
CONTINUOUS
370
-3
390
F
  0
LAYER
  5
209
100
AcDbSymbolTableRecord
100
AcDbLayerTableRecord
  2
16_MISC
 70
0
 62
7
  6
CONTINUOUS
370
-3
390
F
  0
LAYER
  5
20A
100
AcDbSymbolTableRecord
100
AcDbLayerTableRecord
  2
17_NO_PRINT
 70
0
 62
7
  6
CONTINUOUS
370
-3
390
F
  0
LAYER
  5
20B
100
AcDbSymbolTableRecord
100
AcDbLayerTableRecord
  2
18_DATUM_CAMS_JOINTS
 70
0
 62
7
  6
CONTINUOUS
370
-3
390
F
  0
LAYER
  5
20C
100
AcDbSymbolTableRecord
100
AcDbLayerTableRecord
  2
19_DATUM_FUNCTIONAL
 70
0
 62
7
  6
CONTINUOUS
370
-3
390
F
  0
LAYER
  5
20D
100
AcDbSymbolTableRecord
100
AcDbLayerTableRecord
  2
20_DATUM_KINEMATIC_SCHEME
 70
0
 62
7
  6
CONTINUOUS
370
-3
390
F
  0
ENDTAB
  0
TABLE
  2
STYLE
  5
3
100
AcDbSymbolTable
 70
1
  0
STYLE
  5
11
100
AcDbSymbolTableRecord
100
AcDbTextStyleTableRecord
  2
STANDARD
 70
0
 40
0.0
 41
0.8
 50
0.0
 71
0
 42
0.2
  3
txt
  4

  0
STYLE
  5
20E
100
AcDbSymbolTableRecord
100
AcDbTextStyleTableRecord
  2
TEXTSTYLE_1
 70
0
 40
0.0
 41
0.8
 50
0.0
 71
0
 42
0.2
  3
gdt
  4

  0
ENDTAB
  0
TABLE
  2
VIEW
  5
6
100
AcDbSymbolTable
 70
0
  0
ENDTAB
  0
TABLE
  2
UCS
  5
7
100
AcDbSymbolTable
 70
0
  0
ENDTAB
  0
TABLE
  2
APPID
  5
9
100
AcDbSymbolTable
 70
1
  0
APPID
  5
20F
100
AcDbSymbolTableRecord
100
AcDbRegAppTableRecord
  2
ACAD
 70
0
  0
ENDTAB
  0
TABLE
  2
BLOCK_RECORD
  5
1
100
AcDbSymbolTable
 70
0
  0
BLOCK_RECORD
  5
210
100
AcDbSymbolTableRecord
100
AcDbBlockTableRecord
  2
*Model_Space
  0
BLOCK_RECORD
  5
211
100
AcDbSymbolTableRecord
100
AcDbBlockTableRecord
  2
*Paper_Space
  0
BLOCK_RECORD
  5
212
100
AcDbSymbolTableRecord
100
AcDbBlockTableRecord
  2
_FILLED
  0
ENDTAB
  0
TABLE
  2
DIMSTYLE
  5
A
100
AcDbSymbolTable
 70
1
100
AcDbDimStyleTable
 71
0
  0
DIMSTYLE
105
213
100
AcDbSymbolTableRecord
100
AcDbDimStyleTableRecord
  2
STANDARD
 70
0
  3

  4

 40
1.0
 41
1.2965657158
 42
1.0
 43
0.38
 44
1.0
 45
0.0
 46
0.0
 47
0.01
 48
0.01
140
1.8151920021
141
0.09
142
0.0
143
25.4
144
1.0
145
0.0
146
1.0
147
0.625
 71
1
 72
0
 73
0
 74
0
 75
0
 76
0
 77
1
 78
8
 79
2
170
0
171
1
172
0
173
0
174
0
175
0
176
0
177
0
178
0
270
2
179
2
271
2
272
2
273
2
274
2
275
0
280
0
281
0
282
0
283
1
284
8
285
0
286
0
287
3
288
0
340
11
278
46
341
212
342
212
343
212
344
212
  0
ENDTAB
  0
ENDSEC
  0
SECTION
  2
BLOCKS
  0
BLOCK
  5
20
100
AcDbEntity
  8
0
100
AcDbBlockBegin
  2
*Model_Space
 70
0
 10
0.0
 20
0.0
 30
0.0
  3
*Model_Space
  1

  0
ENDBLK
  5
21
100
AcDbEntity
  8
0
100
AcDbBlockEnd
  0
BLOCK
  5
1C
100
AcDbEntity
  8
0
100
AcDbBlockBegin
  2
*Paper_Space
 70
0
 10
0.0
 20
0.0
 30
0.0
  3
*Paper_Space
  1

  0
ENDBLK
  5
1D
100
AcDbEntity
  8
0
100
AcDbBlockEnd
  0
BLOCK
  5
214
100
AcDbEntity
  8
0
100
AcDbBlockBegin
  2
_FILLED
 70
64
 10
0.0
 20
0.0
  3
_FILLED
  1

  0
SOLID
  5
215
100
AcDbEntity
  8
0
  6
BYBLOCK
 62
0
100
AcDbTrace
 10
0.0
 20
0.0
 11
-1.0
 21
0.25
 12
-1.0
 22
-0.25
 13
-1.0
 23
-0.25
  0
ENDBLK
  5
216
100
AcDbEntity
  8
0
  6
BYBLOCK
 62
0
100
AcDbBlockEnd
  0
ENDSEC
  0
SECTION
  2
ENTITIES
  0
LINE
  5
217
100
AcDbEntity
  8
0
100
AcDbLine
 62
7
  6
CONTINUOUS
 10
11.8025578672
 20
46.5492787624
 11
11.7730987993
 21
54.0483830657
  0
LINE
  5
218
100
AcDbEntity
  8
0
100
AcDbLine
 62
7
  6
CONTINUOUS
 10
11.733034467
 20
64.2471649182
 11
11.7035753991
 21
71.7462692215
  0
LINE
  5
219
100
AcDbEntity
  8
0
100
AcDbLine
 62
7
  6
CONTINUOUS
 10
11.6635110668
 20
81.945051074
 11
11.6340519989
 21
89.4441553773
  0
LINE
  5
21A
100
AcDbEntity
  8
0
100
AcDbLine
 62
7
  6
CONTINUOUS
 10
11.5939876666
 20
99.6429372298
 11
11.5645285988
 21
107.1420415331
  0
LINE
  5
21B
100
AcDbEntity
  8
0
100
AcDbLine
 62
7
  6
CONTINUOUS
 10
11.5645285988
 20
107.1420415331
 11
11.5645562493
 21
107.1571152675
  0
LINE
  5
21C
100
AcDbEntity
  8
0
100
AcDbLine
 62
7
  6
CONTINUOUS
 10
11.6340519989
 20
89.4441553773
 11
11.6340796494
 21
89.4592291117
  0
LINE
  5
21D
100
AcDbEntity
  8
0
100
AcDbLine
 62
7
  6
CONTINUOUS
 10
11.7035753991
 20
71.7462692215
 11
11.7036030496
 21
71.7613429559
  0
LINE
  5
21E
100
AcDbEntity
  8
0
100
AcDbLine
 62
7
  6
CONTINUOUS
 10
11.7730987993
 20
54.0483830657
 11
11.7731264498
 21
54.0634568001
  0
LINE
  5
21F
100
AcDbEntity
  8
0
100
AcDbLine
 62
7
  6
CONTINUOUS
 10
12.9792806085
 20
103.4100455601
 11
12.9792473309
 21
103.3979866639
  0
LINE
  5
220
100
AcDbEntity
  8
0
100
AcDbLine
 62
7
  6
CONTINUOUS
 10
13.0488040087
 20
85.7121594043
 11
13.048770731
 21
85.7001005081
  0
LINE
  5
221
100
AcDbEntity
  8
0
100
AcDbLine
 62
7
  6
CONTINUOUS
 10
13.1183274089
 20
68.0142732485
 11
13.1182941312
 21
68.0022143522
  0
LINE
  5
222
100
AcDbEntity
  8
0
100
AcDbLine
 62
7
  6
CONTINUOUS
 10
13.1878508091
 20
50.3163870927
 11
13.1878175314
 21
50.3043281964
  0
LINE
  5
223
100
AcDbEntity
  8
0
100
AcDbLine
 62
7
  6
CONTINUOUS
 10
13.3072844322
 20
104.3257091725
 11
13.30716571
 21
104.2928252608
  0
LINE
  5
224
100
AcDbEntity
  8
0
100
AcDbLine
 62
7
  6
CONTINUOUS
 10
13.3768078324
 20
86.6278230167
 11
13.3766891102
 21
86.594939105
  0
LINE
  5
225
100
AcDbEntity
  8
0
100
AcDbLine
 62
7
  6
CONTINUOUS
 10
13.4463312325
 20
68.9299368609
 11
13.4462125104
 21
68.8970529492
  0
LINE
  5
226
100
AcDbEntity
  8
0
100
AcDbLine
 62
7
  6
CONTINUOUS
 10
13.6018279869
 20
97.6510293428
 11
13.6016499036
 21
97.6017034752
  0
LINE
  5
227
100
AcDbEntity
  8
0
100
AcDbLine
 62
7
  6
CONTINUOUS
 10
13.5158546327
 20
51.2320507051
 11
13.5157359106
 21
51.1991667933
  0
LINE
  5
228
100
AcDbEntity
  8
0
100
AcDbLine
 62
7
  6
CONTINUOUS
 10
13.6713513871
 20
79.953143187
 11
13.6711733038
 21
79.9038173194
  0
LINE
  5
229
100
AcDbEntity
  8
0
100
AcDbLine
 62
7
  6
CONTINUOUS
 10
13.7408747872
 20
62.2552570312
 11
13.740696704
 21
62.2059311636
  0
LINE
  5
22A
100
AcDbEntity
  8
0
100
AcDbLine
 62
7
  6
CONTINUOUS
 10
13.8103981874
 20
44.5573708754
 11
13.8102201042
 21
44.5080450078
  0
LINE
  5
22B
100
AcDbEntity
  8
0
100
AcDbLine
 62
7
  6
CONTINUOUS
 10
14.5684333277
 20
106.1539408502
 11
14.5729503848
 21
105.0040781904
  0
LINE
  5
22C
100
AcDbEntity
  8
0
100
AcDbLine
 62
7
  6
CONTINUOUS
 10
14.5855195871
 20
101.8044603543
 11
14.5900366441
 21
100.6545976945
  0
LINE
  5
22D
100
AcDbEntity
  8
0
100
AcDbLine
 62
7
  6
CONTINUOUS
 10
14.6379567279
 20
88.4560546944
 11
14.642473785
 21
87.3061920346
  0
LINE
  5
22E
100
AcDbEntity
  8
0
100
AcDbLine
 62
7
  6
CONTINUOUS
 10
14.6550429872
 20
84.1065741985
 11
14.6595600443
 21
82.9567115387
  0
LINE
  5
22F
100
AcDbEntity
  8
0
100
AcDbLine
 62
7
  6
CONTINUOUS
 10
14.7074801281
 20
70.7581685386
 11
14.7119971851
 21
69.6083058788
  0
LINE
  5
230
100
AcDbEntity
  8
0
100
AcDbLine
 62
7
  6
CONTINUOUS
 10
14.7245663874
 20
66.4086880427
 11
14.7290834445
 21
65.2588253828
  0
LINE
  5
231
100
AcDbEntity
  8
0
100
AcDbLine
 62
7
  6
CONTINUOUS
 10
14.7770035282
 20
53.0602823828
 11
14.7815205853
 21
51.910419723
  0
LINE
  5
232
100
AcDbEntity
  8
0
100
AcDbLine
 62
7
  6
CONTINUOUS
 10
14.7940897876
 20
48.7108018869
 11
14.7986068447
 21
47.560939227
  0
LINE
  5
233
100
AcDbEntity
  8
0
100
AcDbLine
 62
7
  6
CONTINUOUS
 10
16.7985914135
 20
47.5687924876
 11
16.7769880971
 21
53.0681356434
  0
LINE
  5
234
100
AcDbEntity
  8
0
100
AcDbLine
 62
7
  6
CONTINUOUS
 10
16.7290680133
 20
65.2666786434
 11
16.7074646969
 21
70.7660217992
  0
LINE
  5
235
100
AcDbEntity
  8
0
100
AcDbLine
 62
7
  6
CONTINUOUS
 10
16.6595446131
 20
82.9645647993
 11
16.6379412967
 21
88.463907955
  0
LINE
  5
236
100
AcDbEntity
  8
0
100
AcDbLine
 62
7
  6
CONTINUOUS
 10
16.590021213
 20
100.6624509551
 11
16.5684178965
 21
106.1617941108
  0
LINE
  5
237
100
AcDbEntity
  8
0
100
AcDbLine
 62
7
  6
CONTINUOUS
 10
16.9248603696
 20
42.1096552067
 11
16.6467667688
 21
112.90119983
  0
LINE
  5
238
100
AcDbEntity
  8
0
100
AcDbLine
 62
7
  6
CONTINUOUS
 10
14.5684510388
 20
106.1614776873
 11
14.5684333277
 21
106.1539408502
  0
LINE
  5
239
100
AcDbEntity
  8
0
100
AcDbLine
 62
7
  6
CONTINUOUS
 10
14.637974439
 20
88.4635915315
 11
14.6379567279
 21
88.4560546944
  0
LINE
  5
23A
100
AcDbEntity
  8
0
100
AcDbLine
 62
7
  6
CONTINUOUS
 10
14.7074978391
 20
70.7657053757
 11
14.7074801281
 21
70.7581685386
  0
LINE
  5
23B
100
AcDbEntity
  8
0
100
AcDbLine
 62
7
  6
CONTINUOUS
 10
14.7770212393
 20
53.0678192199
 11
14.7770035282
 21
53.0602823828
  0
LINE
  5
23C
100
AcDbEntity
  8
0
100
AcDbLine
 62
7
  6
CONTINUOUS
 10
16.5900035019
 20
100.654914118
 11
16.590021213
 21
100.6624509551
  0
LINE
  5
23D
100
AcDbEntity
  8
0
100
AcDbLine
 62
7
  6
CONTINUOUS
 10
16.6595269021
 20
82.9570279622
 11
16.6595446131
 21
82.9645647993
  0
LINE
  5
23E
100
AcDbEntity
  8
0
100
AcDbLine
 62
7
  6
CONTINUOUS
 10
16.7290503023
 20
65.2591418064
 11
16.7290680133
 21
65.2666786434
  0
LINE
  5
23F
100
AcDbEntity
  8
0
100
AcDbLine
 62
7
  6
CONTINUOUS
 10
16.7985737024
 20
47.5612556505
 11
16.7985914135
 21
47.5687924876
  0
LINE
  5
240
100
AcDbEntity
  8
0
100
AcDbLine
 62
7
  6
CONTINUOUS
 10
14.5729503848
 20
105.0040781904
 11
14.5727723015
 21
104.9547523227
  0
LINE
  5
241
100
AcDbEntity
  8
0
100
AcDbLine
 62
7
  6
CONTINUOUS
 10
14.642473785
 20
87.3061920346
 11
14.6422957017
 21
87.2568661669
  0
LINE
  5
242
100
AcDbEntity
  8
0
100
AcDbLine
 62
7
  6
CONTINUOUS
 10
14.7119971851
 20
69.6083058788
 11
14.7118191019
 21
69.5589800111
  0
LINE
  5
243
100
AcDbEntity
  8
0
100
AcDbLine
 62
7
  6
CONTINUOUS
 10
14.7815205853
 20
51.910419723
 11
14.7813425021
 21
51.8610938553
  0
LINE
  5
244
100
AcDbEntity
  8
0
100
AcDbLine
 62
7
  6
CONTINUOUS
 10
16.6016267569
 20
97.6134833661
 11
16.6018048401
 21
97.6628092337
  0
LINE
  5
245
100
AcDbEntity
  8
0
100
AcDbLine
 62
7
  6
CONTINUOUS
 10
16.671150157
 20
79.9155972103
 11
16.6713282403
 21
79.9649230779
  0
LINE
  5
246
100
AcDbEntity
  8
0
100
AcDbLine
 62
7
  6
CONTINUOUS
 10
16.7406735572
 20
62.2177110545
 11
16.7408516405
 21
62.2670369221
  0
LINE
  5
247
100
AcDbEntity
  8
0
100
AcDbLine
 62
7
  6
CONTINUOUS
 10
16.8101969574
 20
44.5198248987
 11
16.8103750407
 21
44.5691507663
  0
LINE
  5
248
100
AcDbEntity
  8
0
100
AcDbLine
 62
7
  6
CONTINUOUS
 10
16.9222538784
 20
41.3877038712
 11
16.9248603696
 21
42.1096552067
  0
LINE
  5
249
100
AcDbEntity
  8
0
100
AcDbLine
 62
7
  6
CONTINUOUS
 10
17.6468130179
 20
112.9200736929
 11
17.9249066186
 21
42.1285290697
  0
LINE
  5
24A
100
AcDbEntity
  8
0
100
AcDbLine
 62
7
  6
CONTINUOUS
 10
19.5816210371
 20
104.1057238489
 11
19.5815600583
 21
104.0785912126
  0
LINE
  5
24B
100
AcDbEntity
  8
0
100
AcDbLine
 62
7
  6
CONTINUOUS
 10
19.6511444373
 20
86.4078376931
 11
19.6510834585
 21
86.3807050567
  0
LINE
  5
24C
100
AcDbEntity
  8
0
100
AcDbLine
 62
7
  6
CONTINUOUS
 10
19.7206678375
 20
68.7099515373
 11
19.7206068587
 21
68.6828189009
  0
LINE
  5
24D
100
AcDbEntity
  8
0
100
AcDbLine
 62
7
  6
CONTINUOUS
 10
19.7901912377
 20
51.0120653815
 11
19.7901302589
 21
50.9849327451
  0
LINE
  5
24E
100
AcDbEntity
  8
0
100
AcDbLine
 62
7
  6
CONTINUOUS
 10
38.8223007655
 20
41.5334860053
 11
37.8221735695
 21
41.4921912934
  0
LINE
  5
24F
100
AcDbEntity
  8
0
100
AcDbLine
 62
7
  6
CONTINUOUS
 10
37.8221735695
 20
41.4921912934
 11
36.322104196
 21
41.4638804991
  0
LINE
  5
250
100
AcDbEntity
  8
0
100
AcDbLine
 62
7
  6
CONTINUOUS
 10
45.1286158298
 20
43.0842466811
 11
44.9851533291
 21
43.0816003818
  0
LINE
  5
251
100
AcDbEntity
  8
0
100
AcDbLine
 62
7
  6
CONTINUOUS
 10
41.9438498468
 20
43.1005152379
 11
39.6385563432
 21
43.0579919543
  0
LINE
  5
252
100
AcDbEntity
  8
0
100
AcDbLine
 62
7
  6
CONTINUOUS
 10
72.2478407741
 20
41.6482586515
 11
74.8220607795
 21
41.6853077589
  0
LINE
  5
253
100
AcDbEntity
  8
0
100
AcDbLine
 62
7
  6
CONTINUOUS
 10
97.7217221986
 20
41.7303858949
 11
88.0805257528
 21
41.6671182535
  0
LINE
  5
254
100
AcDbEntity
  8
0
100
AcDbLine
 62
7
  6
CONTINUOUS
 10
88.0805257528
 20
41.6671182535
 11
82.8217454211
 21
41.646468808
  0
LINE
  5
255
100
AcDbEntity
  8
0
100
AcDbLine
 62
7
  6
CONTINUOUS
 10
36.322104196
 20
41.4638804991
 11
16.9222538784
 21
41.3877038712
  0
LINE
  5
256
100
AcDbEntity
  8
0
100
AcDbLine
 62
7
  6
CONTINUOUS
 10
74.8221039512
 20
41.697265545
 11
38.8223817124
 21
41.5559068542
  0
LINE
  5
257
100
AcDbEntity
  8
0
100
AcDbLine
 62
7
  6
CONTINUOUS
 10
96.7242986301
 20
42.4379475373
 11
79.8244290236
 21
42.3715874852
  0
LINE
  5
258
100
AcDbEntity
  8
0
100
AcDbLine
 62
7
  6
CONTINUOUS
 10
34.8247762251
 20
42.1948891217
 11
17.9249066186
 21
42.1285290697
  0
LINE
  5
259
100
AcDbEntity
  8
0
100
AcDbLine
 62
7
  6
CONTINUOUS
 10
36.9255694917
 20
42.4273435346
 11
41.525534
 21
42.445406034
  0
LINE
  5
25A
100
AcDbEntity
  8
0
100
AcDbLine
 62
7
  6
CONTINUOUS
 10
42.7190356931
 20
42.4680289349
 11
41.5255987575
 21
42.4633427132
  0
LINE
  5
25B
100
AcDbEntity
  8
0
100
AcDbLine
 62
7
  6
CONTINUOUS
 10
36.8256350208
 20
42.4448875507
 11
36.9256342492
 21
42.4452802138
  0
LINE
  5
25C
100
AcDbEntity
  8
0
100
AcDbLine
 62
7
  6
CONTINUOUS
 10
54.9320491744
 20
42.5159852937
 11
77.8253186816
 21
42.605879393
  0
LINE
  5
25D
100
AcDbEntity
  8
0
100
AcDbLine
 62
7
  6
CONTINUOUS
 10
41.4703220616
 20
43.0167660486
 11
39.6320531386
 21
43.0099460477
  0
LINE
  5
25E
100
AcDbEntity
  8
0
100
AcDbLine
 62
7
  6
CONTINUOUS
 10
44.9851533291
 20
43.0816003818
 11
44.6983594776
 21
43.080536373
  0
LINE
  5
25F
100
AcDbEntity
  8
0
100
AcDbLine
 62
7
  6
CONTINUOUS
 10
82.8217454211
 20
41.646468808
 11
72.2219290213
 21
41.6330474511
  0
LINE
  5
260
100
AcDbEntity
  8
0
100
AcDbLine
 62
7
  6
CONTINUOUS
 10
43.484138817
 20
43.1283394568
 11
43.4932725418
 21
43.1283346835
  0
LINE
  5
261
100
AcDbEntity
  8
0
100
AcDbLine
 62
7
  6
CONTINUOUS
 10
43.4932725418
 20
43.1283346835
 11
45.1553594161
 21
43.1118285712
  0
LINE
  5
262
100
AcDbEntity
  8
0
100
AcDbLine
 62
7
  6
CONTINUOUS
 10
44.6983594776
 20
43.080536373
 11
42.6460037586
 21
43.1031931256
  0
LINE
  5
263
100
AcDbEntity
  8
0
100
AcDbLine
 62
7
  6
CONTINUOUS
 10
45.1535465392
 20
43.5733147694
 11
45.3479023679
 21
43.5711691999
  0
LINE
  5
264
100
AcDbEntity
  8
0
100
AcDbLine
 62
7
  6
CONTINUOUS
 10
39.623466927
 20
43.0474396214
 11
41.6179569095
 21
43.0237154814
  0
LINE
  5
265
100
AcDbEntity
  8
0
100
AcDbLine
 62
7
  6
CONTINUOUS
 10
39.6320531386
 20
43.0099460477
 11
38.1390831804
 21
43.0296034778
  0
LINE
  5
266
100
AcDbEntity
  8
0
100
AcDbLine
 62
7
  6
CONTINUOUS
 10
21.5016055181
 20
104.7275521068
 11
21.5071045441
 21
103.3277193035
  0
LINE
  5
267
100
AcDbEntity
  8
0
100
AcDbLine
 62
7
  6
CONTINUOUS
 10
21.5711289183
 20
87.029665951
 11
21.5766279443
 21
85.6298331477
  0
LINE
  5
268
100
AcDbEntity
  8
0
100
AcDbLine
 62
7
  6
CONTINUOUS
 10
21.6406523185
 20
69.3317797952
 11
21.6461513445
 21
67.9319469919
  0
LINE
  5
269
100
AcDbEntity
  8
0
100
AcDbLine
 62
7
  6
CONTINUOUS
 10
21.7101757187
 20
51.6338936394
 11
21.7156747447
 21
50.2340608361
  0
LINE
  5
26A
100
AcDbEntity
  8
0
100
AcDbLine
 62
7
  6
CONTINUOUS
 10
22.4915691014
 20
101.4241024038
 11
22.494689986
 21
100.6158926247
  0
LINE
  5
26B
100
AcDbEntity
  8
0
100
AcDbLine
 62
7
  6
CONTINUOUS
 10
22.4674085002
 20
107.5489902367
 11
22.4785769417
 21
104.731388342
  0
LINE
  5
26C
100
AcDbEntity
  8
0
100
AcDbLine
 62
7
  6
CONTINUOUS
 10
22.5369319003
 20
89.8511040809
 11
22.5481003418
 21
87.0335021862
  0
LINE
  5
26D
100
AcDbEntity
  8
0
100
AcDbLine
 62
7
  6
CONTINUOUS
 10
22.6064553005
 20
72.1532179251
 11
22.617623742
 21
69.3356160304
  0
LINE
  5
26E
100
AcDbEntity
  8
0
100
AcDbLine
 62
7
  6
CONTINUOUS
 10
22.6759787007
 20
54.4553317693
 11
22.6871471422
 21
51.6377298746
  0
LINE
  5
26F
100
AcDbEntity
  8
0
100
AcDbLine
 62
7
  6
CONTINUOUS
 10
22.7001393019
 20
48.3304439364
 11
22.6926461682
 21
50.2378970713
  0
LINE
  5
270
100
AcDbEntity
  8
0
100
AcDbLine
 62
7
  6
CONTINUOUS
 10
22.5642133862
 20
82.9180064689
 11
22.5535993678
 21
85.6336693829
  0
LINE
  5
271
100
AcDbEntity
  8
0
100
AcDbLine
 62
7
  6
CONTINUOUS
 10
22.4915691014
 20
101.4241024038
 11
22.4840759677
 21
103.3315555387
  0
LINE
  5
272
100
AcDbEntity
  8
0
100
AcDbLine
 62
7
  6
CONTINUOUS
 10
22.623122768
 20
67.9357832271
 11
22.6337367864
 21
65.2201203131
  0
LINE
  5
273
100
AcDbEntity
  8
0
100
AcDbLine
 62
7
  6
CONTINUOUS
 10
22.7001393019
 20
48.3304439364
 11
22.7032601866
 21
47.5222341573
  0
LINE
  5
274
100
AcDbEntity
  8
0
100
AcDbLine
 62
7
  6
CONTINUOUS
 10
23.8946657443
 20
100.6249952456
 11
23.8915582996
 21
101.4295996862
  0
LINE
  5
275
100
AcDbEntity
  8
0
100
AcDbLine
 62
7
  6
CONTINUOUS
 10
23.8673976112
 20
107.5545108463
 11
23.8785661398
 21
104.7368856244
  0
LINE
  5
276
100
AcDbEntity
  8
0
100
AcDbLine
 62
7
  6
CONTINUOUS
 10
23.9369210114
 20
89.8566246905
 11
23.94808954
 21
87.0389994686
  0
LINE
  5
277
100
AcDbEntity
  8
0
100
AcDbLine
 62
7
  6
CONTINUOUS
 10
24.0064444115
 20
72.1587385347
 11
24.0176129402
 21
69.3411133128
  0
LINE
  5
278
100
AcDbEntity
  8
0
100
AcDbLine
 62
7
  6
CONTINUOUS
 10
24.0759678117
 20
54.4608523789
 11
24.0871363404
 21
51.643227157
  0
LINE
  5
279
100
AcDbEntity
  8
0
100
AcDbLine
 62
7
  6
CONTINUOUS
 10
24.1001285001
 20
48.3359412188
 11
24.0926353664
 21
50.2433943537
  0
LINE
  5
27A
100
AcDbEntity
  8
0
100
AcDbLine
 62
7
  6
CONTINUOUS
 10
23.9641891445
 20
82.9271090898
 11
23.953588566
 21
85.6391666653
  0
LINE
  5
27B
100
AcDbEntity
  8
0
100
AcDbLine
 62
7
  6
CONTINUOUS
 10
23.8915582996
 20
101.4295996862
 11
23.8840651658
 21
103.3370528211
  0
LINE
  5
27C
100
AcDbEntity
  8
0
100
AcDbLine
 62
7
  6
CONTINUOUS
 10
24.0337125447
 20
65.229222934
 11
24.0231119662
 21
67.9412805095
  0
LINE
  5
27D
100
AcDbEntity
  8
0
100
AcDbLine
 62
7
  6
CONTINUOUS
 10
24.1032359449
 20
47.5313367782
 11
24.1001285001
 21
48.3359412188
  0
LINE
  5
27E
100
AcDbEntity
  8
0
100
AcDbLine
 62
7
  6
CONTINUOUS
 10
25.0696067899
 20
50.2472305889
 11
25.0641077639
 21
51.6470633922
  0
LINE
  5
27F
100
AcDbEntity
  8
0
100
AcDbLine
 62
7
  6
CONTINUOUS
 10
25.0000833897
 20
67.9451167447
 11
24.9945843637
 21
69.344949548
  0
LINE
  5
280
100
AcDbEntity
  8
0
100
AcDbLine
 62
7
  6
CONTINUOUS
 10
24.9305599895
 20
85.6430029005
 11
24.9250609635
 21
87.0428357038
  0
LINE
  5
281
100
AcDbEntity
  8
0
100
AcDbLine
 62
7
  6
CONTINUOUS
 10
24.8610365893
 20
103.3408890563
 11
24.8555375633
 21
104.7407218596
  0
LINE
  5
282
100
AcDbEntity
  8
0
100
AcDbLine
 62
7
  6
CONTINUOUS
 10
22.4784643824
 20
104.7002114463
 11
22.4785769417
 21
104.731388342
  0
LINE
  5
283
100
AcDbEntity
  8
0
100
AcDbLine
 62
7
  6
CONTINUOUS
 10
22.5479877826
 20
87.0023252905
 11
22.5481003418
 21
87.0335021862
  0
LINE
  5
284
100
AcDbEntity
  8
0
100
AcDbLine
 62
7
  6
CONTINUOUS
 10
22.6175111828
 20
69.3044391347
 11
22.617623742
 21
69.3356160304
  0
LINE
  5
285
100
AcDbEntity
  8
0
100
AcDbLine
 62
7
  6
CONTINUOUS
 10
22.6870345829
 20
51.6065529789
 11
22.6871471422
 21
51.6377298746
  0
LINE
  5
286
100
AcDbEntity
  8
0
100
AcDbLine
 62
7
  6
CONTINUOUS
 10
23.8784535806
 20
104.7057087288
 11
23.8785661398
 21
104.7368856244
  0
LINE
  5
287
100
AcDbEntity
  8
0
100
AcDbLine
 62
7
  6
CONTINUOUS
 10
23.9479769808
 20
87.007822573
 11
23.94808954
 21
87.0389994686
  0
LINE
  5
288
100
AcDbEntity
  8
0
100
AcDbLine
 62
7
  6
CONTINUOUS
 10
24.0175003809
 20
69.3099364172
 11
24.0176129402
 21
69.3411133128
  0
LINE
  5
289
100
AcDbEntity
  8
0
100
AcDbLine
 62
7
  6
CONTINUOUS
 10
24.0870237811
 20
51.6120502613
 11
24.0871363404
 21
51.643227157
  0
LINE
  5
28A
100
AcDbEntity
  8
0
100
AcDbLine
 62
7
  6
CONTINUOUS
 10
16.8101969574
 20
44.5198248987
 11
16.9101756007
 21
44.5254577137
  0
LINE
  5
28B
100
AcDbEntity
  8
0
100
AcDbLine
 62
7
  6
CONTINUOUS
 10
16.915175428
 20
44.5750552393
 11
16.8103750407
 21
44.5691507663
  0
LINE
  5
28C
100
AcDbEntity
  8
0
100
AcDbLine
 62
7
  6
CONTINUOUS
 10
16.8101969574
 20
44.5198248987
 11
13.8102201042
 21
44.5080450078
  0
LINE
  5
28D
100
AcDbEntity
  8
0
100
AcDbLine
 62
7
  6
CONTINUOUS
 10
16.8103750407
 20
44.5691507663
 11
13.8103981874
 21
44.5573708754
  0
LINE
  5
28E
100
AcDbEntity
  8
0
100
AcDbLine
 62
7
  6
CONTINUOUS
 10
45.3353331656
 20
46.770787036
 11
45.6336667112
 21
46.767493616
  0
LINE
  5
28F
100
AcDbEntity
  8
0
100
AcDbLine
 62
7
  6
CONTINUOUS
 10
26.7814435273
 20
104.0797303144
 11
26.7815045061
 21
104.1068629507
  0
LINE
  5
290
100
AcDbEntity
  8
0
100
AcDbLine
 62
7
  6
CONTINUOUS
 10
26.8509669275
 20
86.3818441586
 11
26.8510279063
 21
86.4089767949
  0
LINE
  5
291
100
AcDbEntity
  8
0
100
AcDbLine
 62
7
  6
CONTINUOUS
 10
26.9204903276
 20
68.6839580028
 11
26.9205513065
 21
68.7110906391
  0
LINE
  5
292
100
AcDbEntity
  8
0
100
AcDbLine
 62
7
  6
CONTINUOUS
 10
26.9900137278
 20
50.986071847
 11
26.9900747066
 21
51.0132044833
  0
LINE
  5
293
100
AcDbEntity
  8
0
100
AcDbLine
 62
7
  6
CONTINUOUS
 10
90.4753905158
 20
54.7037290997
 11
90.4777898721
 21
54.7042136138
  0
LINE
  5
294
100
AcDbEntity
  8
0
100
AcDbLine
 62
7
  6
CONTINUOUS
 10
90.4753905158
 20
54.7037290997
 11
90.4778213061
 21
54.7040577117
  0
LINE
  5
295
100
AcDbEntity
  8
0
100
AcDbLine
 62
7
  6
CONTINUOUS
 10
21.7156747447
 20
50.2340608361
 11
22.6926461682
 21
50.2378970713
  0
LINE
  5
296
100
AcDbEntity
  8
0
100
AcDbLine
 62
7
  6
CONTINUOUS
 10
24.0926353664
 20
50.2433943537
 11
25.0696067899
 21
50.2472305889
  0
LINE
  5
297
100
AcDbEntity
  8
0
100
AcDbLine
 62
7
  6
CONTINUOUS
 10
89.5151516277
 20
50.5002863704
 11
90.4921230512
 21
50.5041226056
  0
LINE
  5
298
100
AcDbEntity
  8
0
100
AcDbLine
 62
7
  6
CONTINUOUS
 10
91.8921122494
 20
50.509619888
 11
92.8690836729
 21
50.5134561232
  0
LINE
  5
299
100
AcDbEntity
  8
0
100
AcDbLine
 62
7
  6
CONTINUOUS
 10
24.0737359186
 20
54.4432764763
 11
24.0759028309
 21
54.4430008478
  0
LINE
  5
29A
100
AcDbEntity
  8
0
100
AcDbLine
 62
7
  6
CONTINUOUS
 10
24.0737628455
 20
54.4434156045
 11
24.0759028309
 21
54.4430008478
  0
LINE
  5
29B
100
AcDbEntity
  8
0
100
AcDbLine
 62
7
  6
CONTINUOUS
 10
92.8634720877
 20
51.8821120309
 11
91.8865006641
 21
51.8782757957
  0
LINE
  5
29C
100
AcDbEntity
  8
0
100
AcDbLine
 62
7
  6
CONTINUOUS
 10
90.486511466
 20
51.8727785132
 11
89.5095400425
 21
51.8689422781
  0
LINE
  5
29D
100
AcDbEntity
  8
0
100
AcDbLine
 62
7
  6
CONTINUOUS
 10
25.0639952046
 20
51.6158864965
 11
24.0870237811
 21
51.6120502613
  0
LINE
  5
29E
100
AcDbEntity
  8
0
100
AcDbLine
 62
7
  6
CONTINUOUS
 10
22.6870345829
 20
51.6065529789
 11
21.7100631594
 21
51.6027167437
  0
LINE
  5
29F
100
AcDbEntity
  8
0
100
AcDbLine
 62
7
  6
CONTINUOUS
 10
92.8635846469
 20
51.9132889265
 11
91.8866132234
 21
51.9094526913
  0
LINE
  5
2A0
100
AcDbEntity
  8
0
100
AcDbLine
 62
7
  6
CONTINUOUS
 10
90.4866240252
 20
51.9039554089
 11
89.5096526017
 21
51.9001191737
  0
LINE
  5
2A1
100
AcDbEntity
  8
0
100
AcDbLine
 62
7
  6
CONTINUOUS
 10
25.0641077639
 20
51.6470633922
 11
24.0871363404
 21
51.643227157
  0
LINE
  5
2A2
100
AcDbEntity
  8
0
100
AcDbLine
 62
7
  6
CONTINUOUS
 10
22.6871471422
 20
51.6377298746
 11
21.7101757187
 21
51.6338936394
  0
LINE
  5
2A3
100
AcDbEntity
  8
0
100
AcDbLine
 62
7
  6
CONTINUOUS
 10
16.7652044699
 20
56.0677773647
 11
16.8700480131
 21
56.0626960923
  0
LINE
  5
2A4
100
AcDbEntity
  8
0
100
AcDbLine
 62
7
  6
CONTINUOUS
 10
34.8255425227
 20
42.4071398249
 11
34.547448922
 21
113.1986844481
  0
LINE
  5
2A5
100
AcDbEntity
  8
0
100
AcDbLine
 62
7
  6
CONTINUOUS
 10
34.8247762251
 20
42.1948891217
 11
34.8255425227
 21
42.4071398249
  0
LINE
  5
2A6
100
AcDbEntity
  8
0
100
AcDbLine
 62
7
  6
CONTINUOUS
 10
22.6759136328
 20
54.4375035654
 11
22.678344423
 21
54.4378321773
  0
LINE
  5
2A7
100
AcDbEntity
  8
0
100
AcDbLine
 62
7
  6
CONTINUOUS
 10
36.7998994084
 20
56.5863084892
 11
39.2387619206
 21
56.6312955775
  0
LINE
  5
2A8
100
AcDbEntity
  8
0
100
AcDbLine
 62
7
  6
CONTINUOUS
 10
13.7652276167
 20
56.0559974738
 11
16.7652044699
 21
56.0677773647
  0
LINE
  5
2A9
100
AcDbEntity
  8
0
100
AcDbLine
 62
7
  6
CONTINUOUS
 10
45.5967446794
 20
56.1663710095
 11
45.2984111339
 21
56.1696644294
  0
LINE
  5
2AA
100
AcDbEntity
  8
0
100
AcDbLine
 62
7
  6
CONTINUOUS
 10
36.5475414201
 20
113.236432174
 11
36.8256350208
 21
42.4448875507
  0
LINE
  5
2AB
100
AcDbEntity
  8
0
100
AcDbLine
 62
7
  6
CONTINUOUS
 10
36.6310010622
 20
99.5810943457
 11
36.7998994084
 21
56.5863084892
  0
LINE
  5
2AC
100
AcDbEntity
  8
0
100
AcDbLine
 62
7
  6
CONTINUOUS
 10
36.6475406485
 20
113.236824837
 11
36.7011839842
 21
99.5813700485
  0
LINE
  5
2AD
100
AcDbEntity
  8
0
100
AcDbLine
 62
7
  6
CONTINUOUS
 10
36.8700823304
 20
56.5865841919
 11
36.9256342492
 21
42.4452802138
  0
LINE
  5
2AE
100
AcDbEntity
  8
0
100
AcDbLine
 62
7
  6
CONTINUOUS
 10
37.6658841459
 20
112.7233147211
 11
37.7174325948
 21
99.6011345863
  0
LINE
  5
2AF
100
AcDbEntity
  8
0
100
AcDbLine
 62
7
  6
CONTINUOUS
 10
37.8865163574
 20
56.5591490964
 11
37.9395426796
 21
43.0607613504
  0
LINE
  5
2B0
100
AcDbEntity
  8
0
100
AcDbLine
 62
7
  6
CONTINUOUS
 10
37.7229036409
 20
112.6722987742
 11
37.7742475647
 21
99.6021825912
  0
LINE
  5
2B1
100
AcDbEntity
  8
0
100
AcDbLine
 62
7
  6
CONTINUOUS
 10
37.9432673043
 20
56.5764749829
 11
37.9962936265
 21
43.078087237
  0
LINE
  5
2B2
100
AcDbEntity
  8
0
100
AcDbLine
 62
7
  6
CONTINUOUS
 10
39.2387619206
 20
56.6312955775
 11
39.0698635744
 21
99.6260814341
  0
LINE
  5
2B3
100
AcDbEntity
  8
0
100
AcDbLine
 62
7
  6
CONTINUOUS
 10
39.3490764354
 20
112.896320257
 11
39.3492046518
 21
112.8636814731
  0
LINE
  5
2B4
100
AcDbEntity
  8
0
100
AcDbLine
 62
7
  6
CONTINUOUS
 10
40.1634047077
 20
56.6174275431
 11
40.2164310299
 21
43.1190397971
  0
LINE
  5
2B5
100
AcDbEntity
  8
0
100
AcDbLine
 62
7
  6
CONTINUOUS
 10
39.9430446332
 20
112.7132519432
 11
39.9944699585
 21
99.6224141764
  0
LINE
  5
2B6
100
AcDbEntity
  8
0
100
AcDbLine
 62
7
  6
CONTINUOUS
 10
36.9256342492
 20
42.4452802138
 11
36.9255694917
 21
42.4273435346
  0
LINE
  5
2B7
100
AcDbEntity
  8
0
100
AcDbLine
 62
7
  6
CONTINUOUS
 10
38.8223817124
 20
41.5559068542
 11
38.8223007655
 21
41.5334860053
  0
LINE
  5
2B8
100
AcDbEntity
  8
0
100
AcDbLine
 62
7
  6
CONTINUOUS
 10
22.6759136328
 20
54.4375035654
 11
22.6783129891
 21
54.4379880794
  0
LINE
  5
2B9
100
AcDbEntity
  8
0
100
AcDbLine
 62
7
  6
CONTINUOUS
 10
96.6547752299
 20
60.1358336931
 11
79.7549056234
 21
60.069473641
  0
LINE
  5
2BA
100
AcDbEntity
  8
0
100
AcDbLine
 62
7
  6
CONTINUOUS
 10
34.7552528249
 20
59.8927752775
 11
17.8553832184
 21
59.8264152255
  0
LINE
  5
2BB
100
AcDbEntity
  8
0
100
AcDbLine
 62
7
  6
CONTINUOUS
 10
36.7561116206
 20
60.1427737066
 11
36.7859279266
 21
60.1428907851
  0
LINE
  5
2BC
100
AcDbEntity
  8
0
100
AcDbLine
 62
7
  6
CONTINUOUS
 10
54.8625257742
 20
60.2138714496
 11
77.7557952814
 21
60.3037655488
  0
LINE
  5
2BD
100
AcDbEntity
  8
0
100
AcDbLine
 62
7
  6
CONTINUOUS
 10
16.7406735572
 20
62.2177110545
 11
13.740696704
 21
62.2059311636
  0
LINE
  5
2BE
100
AcDbEntity
  8
0
100
AcDbLine
 62
7
  6
CONTINUOUS
 10
16.7408516405
 20
62.2670369221
 11
13.7408747872
 21
62.2552570312
  0
LINE
  5
2BF
100
AcDbEntity
  8
0
100
AcDbLine
 62
7
  6
CONTINUOUS
 10
45.2850563564
 20
59.5692583803
 11
45.0907005277
 21
59.5714039498
  0
LINE
  5
2C0
100
AcDbEntity
  8
0
100
AcDbLine
 62
7
  6
CONTINUOUS
 10
45.084023139
 20
61.2712009252
 11
45.2783789677
 21
61.2690553557
  0
LINE
  5
2C1
100
AcDbEntity
  8
0
100
AcDbLine
 62
7
  6
CONTINUOUS
 10
91.8732128016
 20
54.7095020107
 11
91.8753797139
 21
54.7092263821
  0
LINE
  5
2C2
100
AcDbEntity
  8
0
100
AcDbLine
 62
7
  6
CONTINUOUS
 10
91.8732397285
 20
54.7096411389
 11
91.8753797139
 21
54.7092263821
  0
LINE
  5
2C3
100
AcDbEntity
  8
0
100
AcDbLine
 62
7
  6
CONTINUOUS
 10
41.2475051568
 20
113.2548873364
 11
41.2479657244
 21
113.1376451824
  0
LINE
  5
2C4
100
AcDbEntity
  8
0
100
AcDbLine
 62
7
  6
CONTINUOUS
 10
41.5234157188
 20
43.0190573479
 11
41.5255987575
 21
42.4633427132
  0
LINE
  5
2C5
100
AcDbEntity
  8
0
100
AcDbLine
 62
7
  6
CONTINUOUS
 10
41.3425684305
 20
113.1266439523
 11
41.3434577931
 21
112.9002476675
  0
LINE
  5
2C6
100
AcDbEntity
  8
0
100
AcDbLine
 62
7
  6
CONTINUOUS
 10
41.6176788485
 20
43.0944987104
 11
41.6179569095
 21
43.0237154814
  0
LINE
  5
2C7
100
AcDbEntity
  8
0
100
AcDbLine
 62
7
  6
CONTINUOUS
 10
42.3775482265
 20
56.6252644191
 11
42.2086498803
 21
99.6200502756
  0
LINE
  5
2C8
100
AcDbEntity
  8
0
100
AcDbLine
 62
7
  6
CONTINUOUS
 10
42.7190356931
 20
42.4680289349
 11
42.7165394606
 21
43.1034702142
  0
LINE
  5
2C9
100
AcDbEntity
  8
0
100
AcDbLine
 62
7
  6
CONTINUOUS
 10
42.4421489691
 20
112.9523508498
 11
42.4409420923
 21
113.2595735582
  0
LINE
  5
2CA
100
AcDbEntity
  8
0
100
AcDbLine
 62
7
  6
CONTINUOUS
 10
43.209908067
 20
112.9365562675
 11
43.484138817
 21
43.1283394568
  0
LINE
  5
2CB
100
AcDbEntity
  8
0
100
AcDbLine
 62
7
  6
CONTINUOUS
 10
43.2190389346
 20
112.9372788365
 11
43.4932725418
 21
43.1283346835
  0
LINE
  5
2CC
100
AcDbEntity
  8
0
100
AcDbLine
 62
7
  6
CONTINUOUS
 10
41.525534
 20
42.445406034
 11
41.5255987575
 21
42.4633427132
  0
LINE
  5
2CD
100
AcDbEntity
  8
0
100
AcDbLine
 62
7
  6
CONTINUOUS
 10
90.4058671156
 20
72.4016152555
 11
90.408266472
 21
72.4020997696
  0
LINE
  5
2CE
100
AcDbEntity
  8
0
100
AcDbLine
 62
7
  6
CONTINUOUS
 10
16.7406735572
 20
62.2177110545
 11
16.8406522005
 21
62.2233438696
  0
LINE
  5
2CF
100
AcDbEntity
  8
0
100
AcDbLine
 62
7
  6
CONTINUOUS
 10
16.8456520278
 20
62.2729413951
 11
16.7408516405
 21
62.2670369221
  0
LINE
  5
2D0
100
AcDbEntity
  8
0
100
AcDbLine
 62
7
  6
CONTINUOUS
 10
45.2658097654
 20
64.4686731918
 11
45.564143311
 21
64.4653797718
  0
LINE
  5
2D1
100
AcDbEntity
  8
0
100
AcDbLine
 62
7
  6
CONTINUOUS
 10
24.0042394453
 20
72.1413017603
 11
24.0063794307
 21
72.1408870036
  0
LINE
  5
2D2
100
AcDbEntity
  8
0
100
AcDbLine
 62
7
  6
CONTINUOUS
 10
44.8803479782
 20
113.1187774231
 11
45.1553594161
 21
43.1118285712
  0
LINE
  5
2D3
100
AcDbEntity
  8
0
100
AcDbLine
 62
7
  6
CONTINUOUS
 10
45.3479023679
 20
43.5711691999
 11
45.3353331656
 21
46.770787036
  0
LINE
  5
2D4
100
AcDbEntity
  8
0
100
AcDbLine
 62
7
  6
CONTINUOUS
 10
45.2984111339
 20
56.1696644294
 11
45.2850563564
 21
59.5692583803
  0
LINE
  5
2D5
100
AcDbEntity
  8
0
100
AcDbLine
 62
7
  6
CONTINUOUS
 10
45.2783789677
 20
61.2690553557
 11
45.2658097654
 21
64.4686731918
  0
LINE
  5
2D6
100
AcDbEntity
  8
0
100
AcDbLine
 62
7
  6
CONTINUOUS
 10
45.2288877337
 20
73.8675505853
 11
45.2155329562
 21
77.2671445361
  0
LINE
  5
2D7
100
AcDbEntity
  8
0
100
AcDbLine
 62
7
  6
CONTINUOUS
 10
45.2088555675
 20
78.9669415115
 11
45.1962863652
 21
82.1665593476
  0
LINE
  5
2D8
100
AcDbEntity
  8
0
100
AcDbLine
 62
7
  6
CONTINUOUS
 10
45.1593643335
 20
91.5654367411
 11
45.146009556
 21
94.9650306919
  0
LINE
  5
2D9
100
AcDbEntity
  8
0
100
AcDbLine
 62
7
  6
CONTINUOUS
 10
45.1393321673
 20
96.6648276673
 11
45.126762965
 21
99.8644455034
  0
LINE
  5
2DA
100
AcDbEntity
  8
0
100
AcDbLine
 62
7
  6
CONTINUOUS
 10
45.0898409333
 20
109.2633228969
 11
45.0764861559
 21
112.6629168477
  0
LINE
  5
2DB
100
AcDbEntity
  8
0
100
AcDbLine
 62
7
  6
CONTINUOUS
 10
45.6336667112
 20
46.767493616
 11
45.5967446794
 21
56.1663710095
  0
LINE
  5
2DC
100
AcDbEntity
  8
0
100
AcDbLine
 62
7
  6
CONTINUOUS
 10
45.564143311
 20
64.4653797718
 11
45.5272212792
 21
73.8642571653
  0
LINE
  5
2DD
100
AcDbEntity
  8
0
100
AcDbLine
 62
7
  6
CONTINUOUS
 10
45.4946199108
 20
82.1632659276
 11
45.4576978791
 21
91.5621433211
  0
LINE
  5
2DE
100
AcDbEntity
  8
0
100
AcDbLine
 62
7
  6
CONTINUOUS
 10
45.4250965106
 20
99.8611520834
 11
45.3881744789
 21
109.2600294769
  0
LINE
  5
2DF
100
AcDbEntity
  8
0
100
AcDbLine
 62
7
  6
CONTINUOUS
 10
90.4058671156
 20
72.4016152555
 11
90.4082979059
 21
72.4019438675
  0
LINE
  5
2E0
100
AcDbEntity
  8
0
100
AcDbLine
 62
7
  6
CONTINUOUS
 10
21.6461513445
 20
67.9319469919
 11
22.623122768
 21
67.9357832271
  0
LINE
  5
2E1
100
AcDbEntity
  8
0
100
AcDbLine
 62
7
  6
CONTINUOUS
 10
24.0231119662
 20
67.9412805095
 11
25.0000833897
 21
67.9451167447
  0
LINE
  5
2E2
100
AcDbEntity
  8
0
100
AcDbLine
 62
7
  6
CONTINUOUS
 10
89.4456282275
 20
68.1981725262
 11
90.422599651
 21
68.2020087614
  0
LINE
  5
2E3
100
AcDbEntity
  8
0
100
AcDbLine
 62
7
  6
CONTINUOUS
 10
91.8225888492
 20
68.2075060439
 11
92.7995602727
 21
68.211342279
  0
LINE
  5
2E4
100
AcDbEntity
  8
0
100
AcDbLine
 62
7
  6
CONTINUOUS
 10
92.7939486875
 20
69.5799981867
 11
91.816977264
 21
69.5761619515
  0
LINE
  5
2E5
100
AcDbEntity
  8
0
100
AcDbLine
 62
7
  6
CONTINUOUS
 10
90.4169880658
 20
69.5706646691
 11
89.4400166423
 21
69.5668284339
  0
LINE
  5
2E6
100
AcDbEntity
  8
0
100
AcDbLine
 62
7
  6
CONTINUOUS
 10
24.9944718045
 20
69.3137726523
 11
24.0175003809
 21
69.3099364172
  0
LINE
  5
2E7
100
AcDbEntity
  8
0
100
AcDbLine
 62
7
  6
CONTINUOUS
 10
22.6175111828
 20
69.3044391347
 11
21.6405397593
 21
69.3006028995
  0
LINE
  5
2E8
100
AcDbEntity
  8
0
100
AcDbLine
 62
7
  6
CONTINUOUS
 10
92.7940612467
 20
69.6111750823
 11
91.8170898232
 21
69.6073388471
  0
LINE
  5
2E9
100
AcDbEntity
  8
0
100
AcDbLine
 62
7
  6
CONTINUOUS
 10
90.417100625
 20
69.6018415647
 11
89.4401292015
 21
69.5980053295
  0
LINE
  5
2EA
100
AcDbEntity
  8
0
100
AcDbLine
 62
7
  6
CONTINUOUS
 10
24.9945843637
 20
69.344949548
 11
24.0176129402
 21
69.3411133128
  0
LINE
  5
2EB
100
AcDbEntity
  8
0
100
AcDbLine
 62
7
  6
CONTINUOUS
 10
22.617623742
 20
69.3356160304
 11
21.6406523185
 21
69.3317797952
  0
LINE
  5
2EC
100
AcDbEntity
  8
0
100
AcDbLine
 62
7
  6
CONTINUOUS
 10
24.0042125184
 20
72.1411626322
 11
24.0063794307
 21
72.1408870036
  0
LINE
  5
2ED
100
AcDbEntity
  8
0
100
AcDbLine
 62
7
  6
CONTINUOUS
 10
13.6957042165
 20
73.7538836296
 11
16.6956810697
 21
73.7656635205
  0
LINE
  5
2EE
100
AcDbEntity
  8
0
100
AcDbLine
 62
7
  6
CONTINUOUS
 10
45.5272212793
 20
73.8642571653
 11
45.2288877337
 21
73.8675505853
  0
LINE
  5
2EF
100
AcDbEntity
  8
0
100
AcDbLine
 62
7
  6
CONTINUOUS
 10
16.6956810697
 20
73.7656635205
 11
16.8005246129
 21
73.7605822481
  0
LINE
  5
2F0
100
AcDbEntity
  8
0
100
AcDbLine
 62
7
  6
CONTINUOUS
 10
54.6539555736
 20
113.307529917
 11
54.9320491744
 21
42.5159852937
  0
LINE
  5
2F1
100
AcDbEntity
  8
0
100
AcDbLine
 62
7
  6
CONTINUOUS
 10
22.6063902326
 20
72.1353897212
 11
22.6088210229
 21
72.1357183332
  0
LINE
  5
2F2
100
AcDbEntity
  8
0
100
AcDbLine
 62
7
  6
CONTINUOUS
 10
96.5852518298
 20
77.8337198489
 11
79.6853822232
 21
77.7673597968
  0
LINE
  5
2F3
100
AcDbEntity
  8
0
100
AcDbLine
 62
7
  6
CONTINUOUS
 10
34.6857294248
 20
77.5906614333
 11
17.7858598182
 21
77.5243013813
  0
LINE
  5
2F4
100
AcDbEntity
  8
0
100
AcDbLine
 62
7
  6
CONTINUOUS
 10
45.2155329562
 20
77.2671445361
 11
45.0211771275
 21
77.2692901056
  0
LINE
  5
2F5
100
AcDbEntity
  8
0
100
AcDbLine
 62
7
  6
CONTINUOUS
 10
91.8036894014
 20
72.4073881665
 11
91.8058563138
 21
72.407112538
  0
LINE
  5
2F6
100
AcDbEntity
  8
0
100
AcDbLine
 62
7
  6
CONTINUOUS
 10
41.3425684305
 20
113.1266439523
 11
41.3383263864
 21
113.1400828794
  0
LINE
  5
2F7
100
AcDbEntity
  8
0
100
AcDbLine
 62
7
  6
CONTINUOUS
 10
22.6063902326
 20
72.1353897212
 11
22.6087895889
 21
72.1358742353
  0
LINE
  5
2F8
100
AcDbEntity
  8
0
100
AcDbLine
 62
7
  6
CONTINUOUS
 10
36.6865882204
 20
77.8406598624
 11
36.7164045265
 21
77.8407769409
  0
LINE
  5
2F9
100
AcDbEntity
  8
0
100
AcDbLine
 62
7
  6
CONTINUOUS
 10
54.793002374
 20
77.9117576054
 11
77.6862718813
 21
78.0016517047
  0
LINE
  5
2FA
100
AcDbEntity
  8
0
100
AcDbLine
 62
7
  6
CONTINUOUS
 10
16.671150157
 20
79.9155972103
 11
13.6711733038
 21
79.9038173194
  0
LINE
  5
2FB
100
AcDbEntity
  8
0
100
AcDbLine
 62
7
  6
CONTINUOUS
 10
16.6713282403
 20
79.9649230779
 11
13.6713513871
 21
79.953143187
  0
LINE
  5
2FC
100
AcDbEntity
  8
0
100
AcDbLine
 62
7
  6
CONTINUOUS
 10
45.0144997388
 20
78.9690870811
 11
45.2088555675
 21
78.9669415115
  0
LINE
  5
2FD
100
AcDbEntity
  8
0
100
AcDbLine
 62
7
  6
CONTINUOUS
 10
91.8037163283
 20
72.4075272947
 11
91.8058563138
 21
72.407112538
  0
LINE
  5
2FE
100
AcDbEntity
  8
0
100
AcDbLine
 62
7
  6
CONTINUOUS
 10
44.8803479782
 20
113.1187774231
 11
44.8531576539
 21
113.2049172125
  0
LINE
  5
2FF
100
AcDbEntity
  8
0
100
AcDbLine
 62
7
  6
CONTINUOUS
 10
90.3363437154
 20
90.0995014113
 11
90.3387430718
 21
90.0999859254
  0
LINE
  5
300
100
AcDbEntity
  8
0
100
AcDbLine
 62
7
  6
CONTINUOUS
 10
90.3363437154
 20
90.0995014113
 11
90.3387745057
 21
90.0998300233
  0
LINE
  5
301
100
AcDbEntity
  8
0
100
AcDbLine
 62
7
  6
CONTINUOUS
 10
16.671150157
 20
79.9155972103
 11
16.7711288004
 21
79.9212300254
  0
LINE
  5
302
100
AcDbEntity
  8
0
100
AcDbLine
 62
7
  6
CONTINUOUS
 10
16.7761286276
 20
79.9708275509
 11
16.6713282403
 21
79.9649230779
  0
LINE
  5
303
100
AcDbEntity
  8
0
100
AcDbLine
 62
7
  6
CONTINUOUS
 10
45.1962863652
 20
82.1665593476
 11
45.4946199108
 21
82.1632659276
  0
LINE
  5
304
100
AcDbEntity
  8
0
100
AcDbLine
 62
7
  6
CONTINUOUS
 10
23.9347160451
 20
89.8391879161
 11
23.9368560306
 21
89.8387731594
  0
LINE
  5
305
100
AcDbEntity
  8
0
100
AcDbLine
 62
7
  6
CONTINUOUS
 10
21.5766279443
 20
85.6298331477
 11
22.5535993678
 21
85.6336693829
  0
LINE
  5
306
100
AcDbEntity
  8
0
100
AcDbLine
 62
7
  6
CONTINUOUS
 10
23.953588566
 20
85.6391666653
 11
24.9305599895
 21
85.6430029005
  0
LINE
  5
307
100
AcDbEntity
  8
0
100
AcDbLine
 62
7
  6
CONTINUOUS
 10
89.3761048273
 20
85.8960586821
 11
90.3530762509
 21
85.8998949172
  0
LINE
  5
308
100
AcDbEntity
  8
0
100
AcDbLine
 62
7
  6
CONTINUOUS
 10
91.753065449
 20
85.9053921997
 11
92.7300368725
 21
85.9092284349
  0
LINE
  5
309
100
AcDbEntity
  8
0
100
AcDbLine
 62
7
  6
CONTINUOUS
 10
92.7244252873
 20
87.2778843425
 11
91.7474538638
 21
87.2740481073
  0
LINE
  5
30A
100
AcDbEntity
  8
0
100
AcDbLine
 62
7
  6
CONTINUOUS
 10
90.3474646656
 20
87.2685508249
 11
89.3704932421
 21
87.2647145897
  0
LINE
  5
30B
100
AcDbEntity
  8
0
100
AcDbLine
 62
7
  6
CONTINUOUS
 10
24.9249484043
 20
87.0116588082
 11
23.9479769808
 21
87.007822573
  0
LINE
  5
30C
100
AcDbEntity
  8
0
100
AcDbLine
 62
7
  6
CONTINUOUS
 10
22.5479877826
 20
87.0023252905
 11
21.5710163591
 21
86.9984890554
  0
LINE
  5
30D
100
AcDbEntity
  8
0
100
AcDbLine
 62
7
  6
CONTINUOUS
 10
92.7245378465
 20
87.3090612381
 11
91.747566423
 21
87.3052250029
  0
LINE
  5
30E
100
AcDbEntity
  8
0
100
AcDbLine
 62
7
  6
CONTINUOUS
 10
90.3475772249
 20
87.2997277205
 11
89.3706058013
 21
87.2958914853
  0
LINE
  5
30F
100
AcDbEntity
  8
0
100
AcDbLine
 62
7
  6
CONTINUOUS
 10
24.9250609635
 20
87.0428357038
 11
23.94808954
 21
87.0389994686
  0
LINE
  5
310
100
AcDbEntity
  8
0
100
AcDbLine
 62
7
  6
CONTINUOUS
 10
22.5481003418
 20
87.0335021862
 11
21.5711289183
 21
87.029665951
  0
LINE
  5
311
100
AcDbEntity
  8
0
100
AcDbLine
 62
7
  6
CONTINUOUS
 10
23.9346891182
 20
89.839048788
 11
23.9368560306
 21
89.8387731594
  0
LINE
  5
312
100
AcDbEntity
  8
0
100
AcDbLine
 62
7
  6
CONTINUOUS
 10
13.6261808163
 20
91.4517697854
 11
16.6261576696
 21
91.4635496763
  0
LINE
  5
313
100
AcDbEntity
  8
0
100
AcDbLine
 62
7
  6
CONTINUOUS
 10
45.4576978791
 20
91.5621433211
 11
45.1593643335
 21
91.5654367411
  0
LINE
  5
314
100
AcDbEntity
  8
0
100
AcDbLine
 62
7
  6
CONTINUOUS
 10
16.6261576696
 20
91.4635496763
 11
16.7310012127
 21
91.4584684039
  0
LINE
  5
315
100
AcDbEntity
  8
0
100
AcDbLine
 62
7
  6
CONTINUOUS
 10
37.665883511
 20
112.7233146801
 11
37.7229007996
 21
112.6723012068
  0
LINE
  5
316
100
AcDbEntity
  8
0
100
AcDbLine
 62
7
  6
CONTINUOUS
 10
72.2217168622
 20
41.6870547075
 11
72.2219290213
 21
41.6330474511
  0
LINE
  5
317
100
AcDbEntity
  8
0
100
AcDbLine
 62
7
  6
CONTINUOUS
 10
72.2476879692
 20
41.6871566872
 11
72.2478407741
 21
41.6482586515
  0
LINE
  5
318
100
AcDbEntity
  8
0
100
AcDbLine
 62
7
  6
CONTINUOUS
 10
45.1553594161
 20
43.1118285712
 11
45.1286158298
 21
43.0842466811
  0
LINE
  5
319
100
AcDbEntity
  8
0
100
AcDbLine
 62
7
  6
CONTINUOUS
 10
22.5368668324
 20
89.833275877
 11
22.5392661888
 21
89.8337603911
  0
LINE
  5
31A
100
AcDbEntity
  8
0
100
AcDbLine
 62
7
  6
CONTINUOUS
 10
22.5368668324
 20
89.833275877
 11
22.5392976227
 21
89.833604489
  0
LINE
  5
31B
100
AcDbEntity
  8
0
100
AcDbLine
 62
7
  6
CONTINUOUS
 10
96.5157284296
 20
95.5316060047
 11
79.615858823
 21
95.4652459526
  0
LINE
  5
31C
100
AcDbEntity
  8
0
100
AcDbLine
 62
7
  6
CONTINUOUS
 10
34.6162060246
 20
95.2885475891
 11
17.716336418
 21
95.2221875371
  0
LINE
  5
31D
100
AcDbEntity
  8
0
100
AcDbLine
 62
7
  6
CONTINUOUS
 10
36.6170648202
 20
95.5385460182
 11
36.6468811263
 21
95.5386630967
  0
LINE
  5
31E
100
AcDbEntity
  8
0
100
AcDbLine
 62
7
  6
CONTINUOUS
 10
54.7234789738
 20
95.6096437612
 11
77.6167484811
 21
95.6995378605
  0
LINE
  5
31F
100
AcDbEntity
  8
0
100
AcDbLine
 62
7
  6
CONTINUOUS
 10
45.1460095561
 20
94.9650306919
 11
44.9516537274
 21
94.9671762614
  0
LINE
  5
320
100
AcDbEntity
  8
0
100
AcDbLine
 62
7
  6
CONTINUOUS
 10
44.9449763386
 20
96.6669732369
 11
45.1393321673
 21
96.6648276673
  0
LINE
  5
321
100
AcDbEntity
  8
0
100
AcDbLine
 62
7
  6
CONTINUOUS
 10
91.7341660012
 20
90.1052743223
 11
91.7363329136
 21
90.1049986938
  0
LINE
  5
322
100
AcDbEntity
  8
0
100
AcDbLine
 62
7
  6
CONTINUOUS
 10
74.8220607795
 20
41.6853077589
 11
74.8221039512
 21
41.697265545
  0
LINE
  5
323
100
AcDbEntity
  8
0
100
AcDbLine
 62
7
  6
CONTINUOUS
 10
90.2668203152
 20
107.7973875671
 11
90.2692196716
 21
107.7978720812
  0
LINE
  5
324
100
AcDbEntity
  8
0
100
AcDbLine
 62
7
  6
CONTINUOUS
 10
16.6016267569
 20
97.6134833661
 11
16.7016054002
 21
97.6191161812
  0
LINE
  5
325
100
AcDbEntity
  8
0
100
AcDbLine
 62
7
  6
CONTINUOUS
 10
16.7066052275
 20
97.6687137067
 11
16.6018048401
 21
97.6628092337
  0
LINE
  5
326
100
AcDbEntity
  8
0
100
AcDbLine
 62
7
  6
CONTINUOUS
 10
36.6310010622
 20
99.5810943457
 11
39.0698635744
 21
99.6260814341
  0
LINE
  5
327
100
AcDbEntity
  8
0
100
AcDbLine
 62
7
  6
CONTINUOUS
 10
16.6016267569
 20
97.6134833661
 11
13.6016499036
 21
97.6017034752
  0
LINE
  5
328
100
AcDbEntity
  8
0
100
AcDbLine
 62
7
  6
CONTINUOUS
 10
16.6018048401
 20
97.6628092337
 11
13.6018279869
 21
97.6510293428
  0
LINE
  5
329
100
AcDbEntity
  8
0
100
AcDbLine
 62
7
  6
CONTINUOUS
 10
45.126762965
 20
99.8644455034
 11
45.4250965106
 21
99.8611520834
  0
LINE
  5
32A
100
AcDbEntity
  8
0
100
AcDbLine
 62
7
  6
CONTINUOUS
 10
91.7341929281
 20
90.1054134505
 11
91.7363329136
 21
90.1049986938
  0
LINE
  5
32B
100
AcDbEntity
  8
0
100
AcDbLine
 62
7
  6
CONTINUOUS
 10
77.8253186816
 20
42.605879393
 11
77.5472250809
 21
113.3974240163
  0
LINE
  5
32C
100
AcDbEntity
  8
0
100
AcDbLine
 62
7
  6
CONTINUOUS
 10
79.5471017205
 20
113.3753828116
 11
79.8251953212
 21
42.5838381884
  0
LINE
  5
32D
100
AcDbEntity
  8
0
100
AcDbLine
 62
7
  6
CONTINUOUS
 10
79.8251953212
 20
42.5838381884
 11
79.8244290236
 21
42.3715874852
  0
LINE
  5
32E
100
AcDbEntity
  8
0
100
AcDbLine
 62
7
  6
CONTINUOUS
 10
90.2668203152
 20
107.7973875671
 11
90.2692511055
 21
107.7977161791
  0
LINE
  5
32F
100
AcDbEntity
  8
0
100
AcDbLine
 62
7
  6
CONTINUOUS
 10
21.5071045441
 20
103.3277193035
 11
22.4840759677
 21
103.3315555387
  0
LINE
  5
330
100
AcDbEntity
  8
0
100
AcDbLine
 62
7
  6
CONTINUOUS
 10
23.8840651658
 20
103.3370528211
 11
24.8610365893
 21
103.3408890563
  0
LINE
  5
331
100
AcDbEntity
  8
0
100
AcDbLine
 62
7
  6
CONTINUOUS
 10
89.3065814272
 20
103.5939448379
 11
90.2835528507
 21
103.597781073
  0
LINE
  5
332
100
AcDbEntity
  8
0
100
AcDbLine
 62
7
  6
CONTINUOUS
 10
91.6835420488
 20
103.6032783555
 11
92.6605134724
 21
103.6071145907
  0
LINE
  5
333
100
AcDbEntity
  8
0
100
AcDbLine
 62
7
  6
CONTINUOUS
 10
23.865165718
 20
107.5369349438
 11
23.8673326304
 21
107.5366593152
  0
LINE
  5
334
100
AcDbEntity
  8
0
100
AcDbLine
 62
7
  6
CONTINUOUS
 10
23.8651926449
 20
107.537074072
 11
23.8673326304
 21
107.5366593152
  0
LINE
  5
335
100
AcDbEntity
  8
0
100
AcDbLine
 62
7
  6
CONTINUOUS
 10
37.9395439544
 20
43.0607613554
 11
37.9962935486
 21
43.078087225
  0
LINE
  5
336
100
AcDbEntity
  8
0
100
AcDbLine
 62
7
  6
CONTINUOUS
 10
92.6549018871
 20
104.9757704983
 11
91.6779304636
 21
104.9719342631
  0
LINE
  5
337
100
AcDbEntity
  8
0
100
AcDbLine
 62
7
  6
CONTINUOUS
 10
90.2779412654
 20
104.9664369807
 11
89.3009698419
 21
104.9626007455
  0
LINE
  5
338
100
AcDbEntity
  8
0
100
AcDbLine
 62
7
  6
CONTINUOUS
 10
24.8554250041
 20
104.709544964
 11
23.8784535806
 21
104.7057087288
  0
LINE
  5
339
100
AcDbEntity
  8
0
100
AcDbLine
 62
7
  6
CONTINUOUS
 10
22.4784643824
 20
104.7002114463
 11
21.5014929589
 21
104.6963752112
  0
LINE
  5
33A
100
AcDbEntity
  8
0
100
AcDbLine
 62
7
  6
CONTINUOUS
 10
92.6550144464
 20
105.0069473939
 11
91.6780430228
 21
105.0031111588
  0
LINE
  5
33B
100
AcDbEntity
  8
0
100
AcDbLine
 62
7
  6
CONTINUOUS
 10
90.2780538247
 20
104.9976138763
 11
89.3010824012
 21
104.9937776411
  0
LINE
  5
33C
100
AcDbEntity
  8
0
100
AcDbLine
 62
7
  6
CONTINUOUS
 10
24.8555375633
 20
104.7407218596
 11
23.8785661398
 21
104.7368856244
  0
LINE
  5
33D
100
AcDbEntity
  8
0
100
AcDbLine
 62
7
  6
CONTINUOUS
 10
22.4785769417
 20
104.731388342
 11
21.5016055181
 21
104.7275521068
  0
LINE
  5
33E
100
AcDbEntity
  8
0
100
AcDbLine
 62
7
  6
CONTINUOUS
 10
16.5566342694
 20
109.1614358321
 11
16.6614778125
 21
109.1563545597
  0
LINE
  5
33F
100
AcDbEntity
  8
0
100
AcDbLine
 62
7
  6
CONTINUOUS
 10
87.3810979202
 20
104.3719493832
 11
87.3810369414
 21
104.3448167469
  0
LINE
  5
340
100
AcDbEntity
  8
0
100
AcDbLine
 62
7
  6
CONTINUOUS
 10
87.4506213203
 20
86.6740632274
 11
87.4505603415
 21
86.6469305911
  0
LINE
  5
341
100
AcDbEntity
  8
0
100
AcDbLine
 62
7
  6
CONTINUOUS
 10
87.5201447205
 20
68.9761770716
 11
87.5200837417
 21
68.9490444353
  0
LINE
  5
342
100
AcDbEntity
  8
0
100
AcDbLine
 62
7
  6
CONTINUOUS
 10
87.5896681207
 20
51.2782909158
 11
87.5896071419
 21
51.2511582794
  0
LINE
  5
343
100
AcDbEntity
  8
0
100
AcDbLine
 62
7
  6
CONTINUOUS
 10
22.4673434322
 20
107.5311620328
 11
22.4697742225
 21
107.5314906448
  0
LINE
  5
344
100
AcDbEntity
  8
0
100
AcDbLine
 62
7
  6
CONTINUOUS
 10
13.5566574161
 20
109.1496559412
 11
16.5566342694
 21
109.1614358321
  0
LINE
  5
345
100
AcDbEntity
  8
0
100
AcDbLine
 62
7
  6
CONTINUOUS
 10
45.3881744789
 20
109.2600294769
 11
45.0898409333
 21
109.2633228969
  0
LINE
  5
346
100
AcDbEntity
  8
0
100
AcDbLine
 62
7
  6
CONTINUOUS
 10
89.3010824012
 20
104.9937776411
 11
89.3065814272
 21
103.5939448379
  0
LINE
  5
347
100
AcDbEntity
  8
0
100
AcDbLine
 62
7
  6
CONTINUOUS
 10
89.3706058013
 20
87.2958914853
 11
89.3761048273
 21
85.8960586821
  0
LINE
  5
348
100
AcDbEntity
  8
0
100
AcDbLine
 62
7
  6
CONTINUOUS
 10
89.4401292015
 20
69.5980053295
 11
89.4456282275
 21
68.1981725262
  0
LINE
  5
349
100
AcDbEntity
  8
0
100
AcDbLine
 62
7
  6
CONTINUOUS
 10
89.5096526017
 20
51.9001191737
 11
89.5151516277
 21
50.5002863704
  0
LINE
  5
34A
100
AcDbEntity
  8
0
100
AcDbLine
 62
7
  6
CONTINUOUS
 10
90.2910459844
 20
101.6903279381
 11
90.2941668691
 21
100.882118159
  0
LINE
  5
34B
100
AcDbEntity
  8
0
100
AcDbLine
 62
7
  6
CONTINUOUS
 10
90.2668853832
 20
107.815215771
 11
90.2780538247
 21
104.9976138763
  0
LINE
  5
34C
100
AcDbEntity
  8
0
100
AcDbLine
 62
7
  6
CONTINUOUS
 10
90.3364087834
 20
90.1173296152
 11
90.3475772249
 21
87.2997277205
  0
LINE
  5
34D
100
AcDbEntity
  8
0
100
AcDbLine
 62
7
  6
CONTINUOUS
 10
90.4059321835
 20
72.4194434594
 11
90.417100625
 21
69.6018415647
  0
LINE
  5
34E
100
AcDbEntity
  8
0
100
AcDbLine
 62
7
  6
CONTINUOUS
 10
90.4754555837
 20
54.7215573036
 11
90.4866240252
 21
51.9039554089
  0
LINE
  5
34F
100
AcDbEntity
  8
0
100
AcDbLine
 62
7
  6
CONTINUOUS
 10
90.499616185
 20
48.5966694707
 11
90.4921230512
 21
50.5041226056
  0
LINE
  5
350
100
AcDbEntity
  8
0
100
AcDbLine
 62
7
  6
CONTINUOUS
 10
90.3636902692
 20
83.1842320032
 11
90.3530762509
 21
85.8998949172
  0
LINE
  5
351
100
AcDbEntity
  8
0
100
AcDbLine
 62
7
  6
CONTINUOUS
 10
90.2910459844
 20
101.6903279381
 11
90.2835528507
 21
103.597781073
  0
LINE
  5
352
100
AcDbEntity
  8
0
100
AcDbLine
 62
7
  6
CONTINUOUS
 10
90.422599651
 20
68.2020087614
 11
90.4332136694
 21
65.4863458474
  0
LINE
  5
353
100
AcDbEntity
  8
0
100
AcDbLine
 62
7
  6
CONTINUOUS
 10
90.499616185
 20
48.5966694707
 11
90.5027370696
 21
47.7884596916
  0
LINE
  5
354
100
AcDbEntity
  8
0
100
AcDbLine
 62
7
  6
CONTINUOUS
 10
91.6941426273
 20
100.8912207799
 11
91.6910351826
 21
101.6958252205
  0
LINE
  5
355
100
AcDbEntity
  8
0
100
AcDbLine
 62
7
  6
CONTINUOUS
 10
91.6668744942
 20
107.8207363806
 11
91.6780430228
 21
105.0031111588
  0
LINE
  5
356
100
AcDbEntity
  8
0
100
AcDbLine
 62
7
  6
CONTINUOUS
 10
91.7363978944
 20
90.1228502248
 11
91.747566423
 21
87.3052250029
  0
LINE
  5
357
100
AcDbEntity
  8
0
100
AcDbLine
 62
7
  6
CONTINUOUS
 10
91.8059212946
 20
72.424964069
 11
91.8170898232
 21
69.6073388471
  0
LINE
  5
358
100
AcDbEntity
  8
0
100
AcDbLine
 62
7
  6
CONTINUOUS
 10
91.8754446947
 20
54.7270779132
 11
91.8866132234
 21
51.9094526913
  0
LINE
  5
359
100
AcDbEntity
  8
0
100
AcDbLine
 62
7
  6
CONTINUOUS
 10
91.8996053831
 20
48.6021667531
 11
91.8921122494
 21
50.509619888
  0
LINE
  5
35A
100
AcDbEntity
  8
0
100
AcDbLine
 62
7
  6
CONTINUOUS
 10
91.7636660275
 20
83.1933346241
 11
91.753065449
 21
85.9053921997
  0
LINE
  5
35B
100
AcDbEntity
  8
0
100
AcDbLine
 62
7
  6
CONTINUOUS
 10
91.6910351826
 20
101.6958252205
 11
91.6835420488
 21
103.6032783555
  0
LINE
  5
35C
100
AcDbEntity
  8
0
100
AcDbLine
 62
7
  6
CONTINUOUS
 10
91.8331894277
 20
65.4954484683
 11
91.8225888492
 21
68.2075060439
  0
LINE
  5
35D
100
AcDbEntity
  8
0
100
AcDbLine
 62
7
  6
CONTINUOUS
 10
91.9027128279
 20
47.7975623125
 11
91.8996053831
 21
48.6021667531
  0
LINE
  5
35E
100
AcDbEntity
  8
0
100
AcDbLine
 62
7
  6
CONTINUOUS
 10
90.2779412654
 20
104.9664369807
 11
90.2780538247
 21
104.9976138763
  0
LINE
  5
35F
100
AcDbEntity
  8
0
100
AcDbLine
 62
7
  6
CONTINUOUS
 10
90.3474646656
 20
87.2685508249
 11
90.3475772249
 21
87.2997277205
  0
LINE
  5
360
100
AcDbEntity
  8
0
100
AcDbLine
 62
7
  6
CONTINUOUS
 10
90.4169880658
 20
69.5706646691
 11
90.417100625
 21
69.6018415647
  0
LINE
  5
361
100
AcDbEntity
  8
0
100
AcDbLine
 62
7
  6
CONTINUOUS
 10
90.486511466
 20
51.8727785132
 11
90.4866240252
 21
51.9039554089
  0
LINE
  5
362
100
AcDbEntity
  8
0
100
AcDbLine
 62
7
  6
CONTINUOUS
 10
91.6779304636
 20
104.9719342631
 11
91.6780430228
 21
105.0031111588
  0
LINE
  5
363
100
AcDbEntity
  8
0
100
AcDbLine
 62
7
  6
CONTINUOUS
 10
91.7474538638
 20
87.2740481073
 11
91.747566423
 21
87.3052250029
  0
LINE
  5
364
100
AcDbEntity
  8
0
100
AcDbLine
 62
7
  6
CONTINUOUS
 10
91.816977264
 20
69.5761619515
 11
91.8170898232
 21
69.6073388471
  0
LINE
  5
365
100
AcDbEntity
  8
0
100
AcDbLine
 62
7
  6
CONTINUOUS
 10
91.8865006641
 20
51.8782757957
 11
91.8866132234
 21
51.9094526913
  0
LINE
  5
366
100
AcDbEntity
  8
0
100
AcDbLine
 62
7
  6
CONTINUOUS
 10
22.4673434322
 20
107.5311620328
 11
22.4697427886
 21
107.5316465469
  0
LINE
  5
367
100
AcDbEntity
  8
0
100
AcDbLine
 62
7
  6
CONTINUOUS
 10
39.3570417006
 20
113.0168948995
 11
37.8648500991
 21
112.8384141347
  0
LINE
  5
368
100
AcDbEntity
  8
0
100
AcDbLine
 62
7
  6
CONTINUOUS
 10
39.3490764354
 20
112.896320257
 11
41.3425684305
 21
113.1266439523
  0
LINE
  5
369
100
AcDbEntity
  8
0
100
AcDbLine
 62
7
  6
CONTINUOUS
 10
44.4229709986
 20
113.1834648439
 11
42.3716132668
 21
112.9520737613
  0
LINE
  5
36A
100
AcDbEntity
  8
0
100
AcDbLine
 62
7
  6
CONTINUOUS
 10
43.2190389346
 20
112.9372788365
 11
44.8803479782
 21
113.1187774231
  0
LINE
  5
36B
100
AcDbEntity
  8
0
100
AcDbLine
 62
7
  6
CONTINUOUS
 10
43.209908067
 20
112.9365562675
 11
43.2190389346
 21
112.9372788365
  0
LINE
  5
36C
100
AcDbEntity
  8
0
100
AcDbLine
 62
7
  6
CONTINUOUS
 10
44.7096951532
 20
113.2022709132
 11
44.4229709986
 21
113.1834648439
  0
LINE
  5
36D
100
AcDbEntity
  8
0
100
AcDbLine
 62
7
  6
CONTINUOUS
 10
41.1948638857
 20
113.1374365801
 11
39.3570417006
 21
113.0168948995
  0
LINE
  5
36E
100
AcDbEntity
  8
0
100
AcDbLine
 62
7
  6
CONTINUOUS
 10
41.6696287914
 20
112.9062641951
 11
39.3643352878
 21
112.8637409114
  0
LINE
  5
36F
100
AcDbEntity
  8
0
100
AcDbLine
 62
7
  6
CONTINUOUS
 10
44.8531576539
 20
113.2049172125
 11
44.7096951532
 21
113.2022709132
  0
LINE
  5
370
100
AcDbEntity
  8
0
100
AcDbLine
 62
7
  6
CONTINUOUS
 10
41.3383263864
 20
113.1400828794
 11
41.1948638857
 21
113.1374365801
  0
LINE
  5
371
100
AcDbEntity
  8
0
100
AcDbLine
 62
7
  6
CONTINUOUS
 10
17.6468130179
 20
112.9200736929
 11
34.5466826244
 21
112.986433745
  0
LINE
  5
372
100
AcDbEntity
  8
0
100
AcDbLine
 62
7
  6
CONTINUOUS
 10
79.5463354229
 20
113.1631321084
 11
96.4462050294
 21
113.2294921605
  0
LINE
  5
373
100
AcDbEntity
  8
0
100
AcDbLine
 62
7
  6
CONTINUOUS
 10
36.647475891
 20
113.2188881579
 11
41.2474403992
 21
113.2369506572
  0
LINE
  5
374
100
AcDbEntity
  8
0
100
AcDbLine
 62
7
  6
CONTINUOUS
 10
36.5475414201
 20
113.236432174
 11
36.6475406485
 21
113.236824837
  0
LINE
  5
375
100
AcDbEntity
  8
0
100
AcDbLine
 62
7
  6
CONTINUOUS
 10
41.2475051568
 20
113.2548873364
 11
42.4409420923
 21
113.2595735582
  0
LINE
  5
376
100
AcDbEntity
  8
0
100
AcDbLine
 62
7
  6
CONTINUOUS
 10
54.6539555736
 20
113.307529917
 11
77.5472250809
 21
113.3974240163
  0
LINE
  5
377
100
AcDbEntity
  8
0
100
AcDbLine
 62
7
  6
CONTINUOUS
 10
45.0764861559
 20
112.6629168477
 11
44.8821303272
 21
112.6650624173
  0
LINE
  5
378
100
AcDbEntity
  8
0
100
AcDbLine
 62
7
  6
CONTINUOUS
 10
91.664642601
 20
107.8031604781
 11
91.6668095134
 21
107.8028848496
  0
LINE
  5
379
100
AcDbEntity
  8
0
100
AcDbLine
 62
7
  6
CONTINUOUS
 10
91.6646695279
 20
107.8032996063
 11
91.6668095134
 21
107.8028848496
  0
LINE
  5
37A
100
AcDbEntity
  8
0
100
AcDbLine
 62
7
  6
CONTINUOUS
 10
92.8690836729
 20
50.5134561232
 11
92.8635846469
 21
51.9132889265
  0
LINE
  5
37B
100
AcDbEntity
  8
0
100
AcDbLine
 62
7
  6
CONTINUOUS
 10
92.7995602727
 20
68.211342279
 11
92.7940612467
 21
69.6111750823
  0
LINE
  5
37C
100
AcDbEntity
  8
0
100
AcDbLine
 62
7
  6
CONTINUOUS
 10
92.7300368725
 20
85.9092284349
 11
92.7245378465
 21
87.3090612381
  0
LINE
  5
37D
100
AcDbEntity
  8
0
100
AcDbLine
 62
7
  6
CONTINUOUS
 10
92.6605134724
 20
103.6071145907
 11
92.6550144464
 21
105.0069473939
  0
LINE
  5
37E
100
AcDbEntity
  8
0
100
AcDbLine
 62
7
  6
CONTINUOUS
 10
94.5809204103
 20
104.3459558487
 11
94.5809813891
 21
104.373088485
  0
LINE
  5
37F
100
AcDbEntity
  8
0
100
AcDbLine
 62
7
  6
CONTINUOUS
 10
94.6504438105
 20
86.6480696929
 11
94.6505047893
 21
86.6752023292
  0
LINE
  5
380
100
AcDbEntity
  8
0
100
AcDbLine
 62
7
  6
CONTINUOUS
 10
94.7199672107
 20
68.9501835371
 11
94.7200281895
 21
68.9773161734
  0
LINE
  5
381
100
AcDbEntity
  8
0
100
AcDbLine
 62
7
  6
CONTINUOUS
 10
94.7894906108
 20
51.2522973813
 11
94.7895515897
 21
51.2794300176
  0
LINE
  5
382
100
AcDbEntity
  8
0
100
AcDbLine
 62
7
  6
CONTINUOUS
 10
72.2219290213
 20
41.6330474511
 11
72.2478407741
 21
41.6482586515
  0
LINE
  5
383
100
AcDbEntity
  8
0
100
AcDbLine
 62
7
  6
CONTINUOUS
 10
96.7242986301
 20
42.4379475373
 11
96.4462050294
 21
113.2294921605
  0
LINE
  5
384
100
AcDbEntity
  8
0
100
AcDbLine
 62
7
  6
CONTINUOUS
 10
97.4461433492
 20
113.2184715582
 11
97.7242369499
 21
42.426926935
  0
LINE
  5
385
100
AcDbEntity
  8
0
100
AcDbLine
 62
7
  6
CONTINUOUS
 10
97.7242369499
 20
42.426926935
 11
97.7217221986
 21
41.7303858949
  0
ARC
  5
386
100
AcDbEntity
  8
0
100
AcDbCircle
 62
7
  6
CONTINUOUS
 10
43.9915390919
 20
-712.1573350579
 40
768.7842936904
100
AcDbArc
 50
90.1202872294
 51
90.2853032269
  0
ARC
  5
387
100
AcDbEntity
  8
0
100
AcDbCircle
 62
7
  6
CONTINUOUS
 10
44.029765285
 20
-722.7005667742
 40
765.8291006009
100
AcDbArc
 50
90.0408212438
 51
90.2852974268
  0
ARC
  5
388
100
AcDbEntity
  8
0
100
AcDbCircle
 62
7
  6
CONTINUOUS
 10
50.581658834
 20
-404.6615477361
 40
482.6023778658
100
AcDbArc
 50
90.0548771063
 51
90.3950827406
  0
ARC
  5
389
100
AcDbEntity
  8
0
100
AcDbCircle
 62
7
  6
CONTINUOUS
 10
50.6511822342
 20
-422.3594338919
 40
482.6023778658
100
AcDbArc
 50
90.0548771063
 51
90.3950827406
  0
ARC
  5
38A
100
AcDbEntity
  8
0
100
AcDbCircle
 62
7
  6
CONTINUOUS
 10
50.5121354338
 20
-386.9636615771
 40
482.6023778627
100
AcDbArc
 50
90.0548771063
 51
90.3950827406
  0
ARC
  5
38B
100
AcDbEntity
  8
0
100
AcDbCircle
 62
7
  6
CONTINUOUS
 10
49.7262524202
 20
-286.0233702322
 40
381.6590778189
100
AcDbArc
 50
90.3815962056
 51
90.7228603861
  0
ARC
  5
38C
100
AcDbEntity
  8
0
100
AcDbCircle
 62
7
  6
CONTINUOUS
 10
49.7957758204
 20
-303.7212563871
 40
381.659077818
100
AcDbArc
 50
90.3815962056
 51
90.7228603861
  0
ARC
  5
38D
100
AcDbEntity
  8
0
100
AcDbCircle
 62
7
  6
CONTINUOUS
 10
49.8652992205
 20
-321.4191425372
 40
381.6590778123
100
AcDbArc
 50
90.3815962055
 51
90.7228603861
  0
ARC
  5
38E
100
AcDbEntity
  8
0
100
AcDbCircle
 62
7
  6
CONTINUOUS
 10
37.0881517584
 20
-35.8246660232
 40
113.666035217
100
AcDbArc
 50
90.2024170523
 51
90.7070226121
  0
ARC
  5
38F
100
AcDbEntity
  8
0
100
AcDbCircle
 62
7
  6
CONTINUOUS
 10
37.1576751586
 20
-53.5225521786
 40
113.6660352166
100
AcDbArc
 50
90.2024170523
 51
90.7070226121
  0
ARC
  5
390
100
AcDbEntity
  8
0
100
AcDbCircle
 62
7
  6
CONTINUOUS
 10
17.8856430573
 20
42.4857746481
 40
52.736684662
100
AcDbArc
 50
90.1839435414
 51
90.82301901
  0
ARC
  5
391
100
AcDbEntity
  8
0
100
AcDbCircle
 62
7
  6
CONTINUOUS
 10
17.9551664572
 20
24.7878885308
 40
52.7366846234
100
AcDbArc
 50
90.1839435412
 51
90.8230190111
  0
ARC
  5
392
100
AcDbEntity
  8
0
100
AcDbCircle
 62
7
  6
CONTINUOUS
 10
18.0246898573
 20
7.0900023766
 40
52.7366846218
100
AcDbArc
 50
90.1839435411
 51
90.8230190111
  0
ARC
  5
393
100
AcDbEntity
  8
0
100
AcDbCircle
 62
7
  6
CONTINUOUS
 10
17.682435104
 20
31.4067090496
 40
28.4175713742
100
AcDbArc
 50
90.8372599829
 51
91.076977395
  0
ARC
  5
394
100
AcDbEntity
  8
0
100
AcDbCircle
 62
7
  6
CONTINUOUS
 10
17.6129116805
 20
49.1045966285
 40
28.4175699509
100
AcDbArc
 50
90.8372599778
 51
91.0769774484
  0
ARC
  5
395
100
AcDbEntity
  8
0
100
AcDbCircle
 62
7
  6
CONTINUOUS
 10
17.4717675791
 20
42.3337137488
 40
17.4885381268
100
AcDbArc
 50
91.0597784906
 51
91.3928803386
  0
ARC
  5
396
100
AcDbEntity
  8
0
100
AcDbCircle
 62
7
  6
CONTINUOUS
 10
13.8022516133
 20
46.5079425446
 40
1.9999006004
100
AcDbArc
 50
180.2289000605
 51
270.2282909352
  0
ARC
  5
397
100
AcDbEntity
  8
0
100
AcDbCircle
 62
7
  6
CONTINUOUS
 10
13.8024296955
 20
46.5572684133
 40
1.9999006004
100
AcDbArc
 50
180.2289000893
 51
270.2282909645
  0
ARC
  5
398
100
AcDbEntity
  8
0
100
AcDbCircle
 62
7
  6
CONTINUOUS
 10
13.7729644972
 20
54.0561054748
 40
1.9998941139
100
AcDbArc
 50
90.2216561645
 51
179.7893839554
  0
ARC
  5
399
100
AcDbEntity
  8
0
100
AcDbCircle
 62
7
  6
CONTINUOUS
 10
14.7876442885
 20
50.2609562835
 40
1.6001522923
100
AcDbArc
 50
90.2256455361
 51
142.6359033639
  0
ARC
  5
39A
100
AcDbEntity
  8
0
100
AcDbCircle
 62
7
  6
CONTINUOUS
 10
14.7877325482
 20
50.3107376079
 40
1.5999371364
100
AcDbArc
 50
180.2295311045
 51
270.2276598166
  0
ARC
  5
39B
100
AcDbEntity
  8
0
100
AcDbCircle
 62
7
  6
CONTINUOUS
 10
14.7877270484
 20
50.3104882571
 40
1.5999318689
100
AcDbArc
 50
90.2222609919
 51
179.788748149
  0
ARC
  5
39C
100
AcDbEntity
  8
0
100
AcDbCircle
 62
7
  6
CONTINUOUS
 10
14.7869553532
 20
50.2284942311
 40
1.5994267947
100
AcDbArc
 50
142.6355179848
 51
176.8707646143
  0
ARC
  5
39D
100
AcDbEntity
  8
0
100
AcDbCircle
 62
7
  6
CONTINUOUS
 10
15.7768172121
 20
53.0147567593
 40
1.0000169042
100
AcDbArc
 50
2.9180024126
 51
177.0885784405
  0
ARC
  5
39E
100
AcDbEntity
  8
0
100
AcDbCircle
 62
7
  6
CONTINUOUS
 10
15.7986001051
 20
47.5649894994
 40
1.0000147608
100
AcDbArc
 50
180.2320638052
 51
357.5057356544
  0
ARC
  5
39F
100
AcDbEntity
  8
0
100
AcDbCircle
 62
7
  6
CONTINUOUS
 10
15.7769956346
 20
53.0640871566
 40
1.0000132647
100
AcDbArc
 50
0.2319616887
 51
179.7861640989
  0
ARC
  5
3A0
100
AcDbEntity
  8
0
100
AcDbCircle
 62
7
  6
CONTINUOUS
 10
15.8031189447
 20
47.5649431905
 40
0.9954802323
100
AcDbArc
 50
357.4970796985
 51
359.7877558157
  0
ARC
  5
3A1
100
AcDbEntity
  8
0
100
AcDbCircle
 62
7
  6
CONTINUOUS
 10
17.5433841816
 20
66.8027324035
 40
28.4173202985
100
AcDbArc
 50
90.8372590674
 51
91.0769868099
  0
ARC
  5
3A2
100
AcDbEntity
  8
0
100
AcDbCircle
 62
7
  6
CONTINUOUS
 10
17.4022441593
 20
60.03160075
 40
17.4885372812
100
AcDbArc
 50
91.0597785535
 51
91.3928803417
  0
ARC
  5
3A3
100
AcDbEntity
  8
0
100
AcDbCircle
 62
7
  6
CONTINUOUS
 10
17.332717326
 20
77.7296351098
 40
17.4883890376
100
AcDbArc
 50
91.0597895544
 51
91.3928808986
  0
ARC
  5
3A4
100
AcDbEntity
  8
0
100
AcDbCircle
 62
7
  6
CONTINUOUS
 10
13.5936814128
 20
99.601601012
 40
1.9999006004
100
AcDbArc
 50
180.2289000605
 51
270.2282909352
  0
ARC
  5
3A5
100
AcDbEntity
  8
0
100
AcDbCircle
 62
7
  6
CONTINUOUS
 10
13.593859495
 20
99.6509268807
 40
1.9999006004
100
AcDbArc
 50
180.2289000893
 51
270.2282909645
  0
ARC
  5
3A6
100
AcDbEntity
  8
0
100
AcDbCircle
 62
7
  6
CONTINUOUS
 10
13.663204813
 20
81.9037148562
 40
1.9999006004
100
AcDbArc
 50
180.2289000605
 51
270.2282909352
  0
ARC
  5
3A7
100
AcDbEntity
  8
0
100
AcDbCircle
 62
7
  6
CONTINUOUS
 10
13.6633828952
 20
81.9530407249
 40
1.9999006004
100
AcDbArc
 50
180.2289000893
 51
270.2282909645
  0
ARC
  5
3A8
100
AcDbEntity
  8
0
100
AcDbCircle
 62
7
  6
CONTINUOUS
 10
13.7327282131
 20
64.2058287004
 40
1.9999006004
100
AcDbArc
 50
180.2289000605
 51
270.2282909352
  0
ARC
  5
3A9
100
AcDbEntity
  8
0
100
AcDbCircle
 62
7
  6
CONTINUOUS
 10
13.7329062954
 20
64.2551545691
 40
1.9999006004
100
AcDbArc
 50
180.2289000893
 51
270.2282909645
  0
ARC
  5
3AA
100
AcDbEntity
  8
0
100
AcDbCircle
 62
7
  6
CONTINUOUS
 10
13.5643942967
 20
107.1497639422
 40
1.9998941139
100
AcDbArc
 50
90.2216561645
 51
179.7893839554
  0
ARC
  5
3AB
100
AcDbEntity
  8
0
100
AcDbCircle
 62
7
  6
CONTINUOUS
 10
13.6339176969
 20
89.4518777864
 40
1.9998941139
100
AcDbArc
 50
90.2216561645
 51
179.7893839554
  0
ARC
  5
3AC
100
AcDbEntity
  8
0
100
AcDbCircle
 62
7
  6
CONTINUOUS
 10
13.703441097
 20
71.7539916306
 40
1.9998941139
100
AcDbArc
 50
90.2216561645
 51
179.7893839554
  0
ARC
  5
3AD
100
AcDbEntity
  8
0
100
AcDbCircle
 62
7
  6
CONTINUOUS
 10
14.579074088
 20
103.3546147509
 40
1.6001522923
100
AcDbArc
 50
90.2256455361
 51
142.6359033639
  0
ARC
  5
3AE
100
AcDbEntity
  8
0
100
AcDbCircle
 62
7
  6
CONTINUOUS
 10
14.6485974882
 20
85.6567285951
 40
1.6001522923
100
AcDbArc
 50
90.2256455361
 51
142.6359033639
  0
ARC
  5
3AF
100
AcDbEntity
  8
0
100
AcDbCircle
 62
7
  6
CONTINUOUS
 10
14.7181208883
 20
67.9588424393
 40
1.6001522923
100
AcDbArc
 50
90.2256455361
 51
142.6359033639
  0
ARC
  5
3B0
100
AcDbEntity
  8
0
100
AcDbCircle
 62
7
  6
CONTINUOUS
 10
14.5791623476
 20
103.4043960753
 40
1.5999371364
100
AcDbArc
 50
180.2295311028
 51
270.2276598158
  0
ARC
  5
3B1
100
AcDbEntity
  8
0
100
AcDbCircle
 62
7
  6
CONTINUOUS
 10
14.6486857478
 20
85.7065099195
 40
1.5999371364
100
AcDbArc
 50
180.2295311026
 51
270.2276598165
  0
ARC
  5
3B2
100
AcDbEntity
  8
0
100
AcDbCircle
 62
7
  6
CONTINUOUS
 10
14.718209148
 20
68.0086237636
 40
1.5999371364
100
AcDbArc
 50
180.2295311017
 51
270.2276598153
  0
ARC
  5
3B3
100
AcDbEntity
  8
0
100
AcDbCircle
 62
7
  6
CONTINUOUS
 10
14.5791568478
 20
103.4041467245
 40
1.5999318689
100
AcDbArc
 50
90.2222609919
 51
179.788748149
  0
ARC
  5
3B4
100
AcDbEntity
  8
0
100
AcDbCircle
 62
7
  6
CONTINUOUS
 10
14.648680248
 20
85.7062605687
 40
1.5999318689
100
AcDbArc
 50
90.2222609919
 51
179.788748149
  0
ARC
  5
3B5
100
AcDbEntity
  8
0
100
AcDbCircle
 62
7
  6
CONTINUOUS
 10
14.7182036482
 20
68.0083744129
 40
1.5999318689
100
AcDbArc
 50
90.2222609919
 51
179.788748149
  0
ARC
  5
3B6
100
AcDbEntity
  8
0
100
AcDbCircle
 62
7
  6
CONTINUOUS
 10
14.5783851526
 20
103.3221526985
 40
1.5994267947
100
AcDbArc
 50
142.6355179848
 51
176.8707646143
  0
ARC
  5
3B7
100
AcDbEntity
  8
0
100
AcDbCircle
 62
7
  6
CONTINUOUS
 10
14.6479085528
 20
85.6242665427
 40
1.5994267947
100
AcDbArc
 50
142.6355179848
 51
176.8707646143
  0
ARC
  5
3B8
100
AcDbEntity
  8
0
100
AcDbCircle
 62
7
  6
CONTINUOUS
 10
14.717431953
 20
67.9263803869
 40
1.5994267947
100
AcDbArc
 50
142.6355179848
 51
176.8707646143
  0
ARC
  5
3B9
100
AcDbEntity
  8
0
100
AcDbCircle
 62
7
  6
CONTINUOUS
 10
15.5682470116
 20
106.1084152267
 40
1.0000169042
100
AcDbArc
 50
2.9180024126
 51
177.0885784405
  0
ARC
  5
3BA
100
AcDbEntity
  8
0
100
AcDbCircle
 62
7
  6
CONTINUOUS
 10
15.6377704118
 20
88.4105290709
 40
1.0000169042
100
AcDbArc
 50
2.9180024131
 51
177.0885784401
  0
ARC
  5
3BB
100
AcDbEntity
  8
0
100
AcDbCircle
 62
7
  6
CONTINUOUS
 10
15.7072938119
 20
70.7126429151
 40
1.0000169042
100
AcDbArc
 50
2.9180024131
 51
177.0885784401
  0
ARC
  5
3BC
100
AcDbEntity
  8
0
100
AcDbCircle
 62
7
  6
CONTINUOUS
 10
15.5900299045
 20
100.6586479668
 40
1.0000147608
100
AcDbArc
 50
180.232063804
 51
357.5057356557
  0
ARC
  5
3BD
100
AcDbEntity
  8
0
100
AcDbCircle
 62
7
  6
CONTINUOUS
 10
15.6595533047
 20
82.960761811
 40
1.0000147608
100
AcDbArc
 50
180.2320638052
 51
357.5057356544
  0
ARC
  5
3BE
100
AcDbEntity
  8
0
100
AcDbCircle
 62
7
  6
CONTINUOUS
 10
15.7290767049
 20
65.2628756552
 40
1.0000147609
100
AcDbArc
 50
180.2320638066
 51
357.5057356531
  0
ARC
  5
3BF
100
AcDbEntity
  8
0
100
AcDbCircle
 62
7
  6
CONTINUOUS
 10
15.5684254341
 20
106.157745624
 40
1.0000132647
100
AcDbArc
 50
0.2319616872
 51
179.7861641004
  0
ARC
  5
3C0
100
AcDbEntity
  8
0
100
AcDbCircle
 62
7
  6
CONTINUOUS
 10
15.6379488343
 20
88.4598594682
 40
1.0000132647
100
AcDbArc
 50
0.2319616892
 51
179.7861640983
  0
ARC
  5
3C1
100
AcDbEntity
  8
0
100
AcDbCircle
 62
7
  6
CONTINUOUS
 10
15.7074722344
 20
70.7619733124
 40
1.0000132647
100
AcDbArc
 50
0.2319616908
 51
179.7861640968
  0
ARC
  5
3C2
100
AcDbEntity
  8
0
100
AcDbCircle
 62
7
  6
CONTINUOUS
 10
15.5945487441
 20
100.6586016579
 40
0.9954802323
100
AcDbArc
 50
357.4970796985
 51
359.7877558157
  0
ARC
  5
3C3
100
AcDbEntity
  8
0
100
AcDbCircle
 62
7
  6
CONTINUOUS
 10
15.6640721443
 20
82.9607155021
 40
0.9954802323
100
AcDbArc
 50
357.4970796985
 51
359.7877558157
  0
ARC
  5
3C4
100
AcDbEntity
  8
0
100
AcDbCircle
 62
7
  6
CONTINUOUS
 10
15.7335955445
 20
65.2628293463
 40
0.9954802322
100
AcDbArc
 50
357.4970796985
 51
359.7877558157
  0
ARC
  5
3C5
100
AcDbEntity
  8
0
100
AcDbCircle
 62
7
  6
CONTINUOUS
 10
23.3897754985
 20
50.9086857875
 40
3.6002990945
100
AcDbArc
 50
79.048342047
 51
101.3973532401
  0
ARC
  5
3C6
100
AcDbEntity
  8
0
100
AcDbCircle
 62
7
  6
CONTINUOUS
 10
23.3901031246
 20
50.9995074338
 40
3.6000478843
100
AcDbArc
 50
180.2319638552
 51
359.7861617323
  0
ARC
  5
3C7
100
AcDbEntity
  8
0
100
AcDbCircle
 62
7
  6
CONTINUOUS
 10
23.390101824
 20
50.9986297925
 40
3.6000478753
100
AcDbArc
 50
0.2319638877
 51
179.7861616978
  0
ARC
  5
3C8
100
AcDbEntity
  8
0
100
AcDbCircle
 62
7
  6
CONTINUOUS
 10
23.390071951
 20
50.9269775215
 40
3.5997817447
100
AcDbArc
 50
0.9280622693
 51
79.0158453805
  0
ARC
  5
3C9
100
AcDbEntity
  8
0
100
AcDbCircle
 62
7
  6
CONTINUOUS
 10
23.3896068274
 20
50.926982559
 40
3.5997757752
100
AcDbArc
 50
101.43415614
 51
178.664011081
  0
ARC
  5
3CA
100
AcDbEntity
  8
0
100
AcDbCircle
 62
7
  6
CONTINUOUS
 10
23.3902759609
 20
50.940560859
 40
2.6995916811
100
AcDbArc
 50
285.244916178
 51
75.2052541306
  0
ARC
  5
3CB
100
AcDbEntity
  8
0
100
AcDbCircle
 62
7
  6
CONTINUOUS
 10
23.3895065846
 20
50.9405631136
 40
2.6995916728
100
AcDbArc
 50
105.2449155052
 51
255.2052519891
  0
ARC
  5
3CC
100
AcDbEntity
  8
0
100
AcDbCircle
 62
7
  6
CONTINUOUS
 10
23.181205298
 20
104.002344255
 40
3.6002990945
100
AcDbArc
 50
79.048342047
 51
101.3973532401
  0
ARC
  5
3CD
100
AcDbEntity
  8
0
100
AcDbCircle
 62
7
  6
CONTINUOUS
 10
23.2507286981
 20
86.3044580991
 40
3.6002990945
100
AcDbArc
 50
79.048342047
 51
101.3973532401
  0
ARC
  5
3CE
100
AcDbEntity
  8
0
100
AcDbCircle
 62
7
  6
CONTINUOUS
 10
23.3202520983
 20
68.6065719433
 40
3.6002990945
100
AcDbArc
 50
79.048342047
 51
101.3973532401
  0
ARC
  5
3CF
100
AcDbEntity
  8
0
100
AcDbCircle
 62
7
  6
CONTINUOUS
 10
23.181532924
 20
104.0931659012
 40
3.6000478843
100
AcDbArc
 50
180.2319638552
 51
359.7861617323
  0
ARC
  5
3D0
100
AcDbEntity
  8
0
100
AcDbCircle
 62
7
  6
CONTINUOUS
 10
23.2510563242
 20
86.3952797454
 40
3.6000478843
100
AcDbArc
 50
180.2319638551
 51
359.7861617324
  0
ARC
  5
3D1
100
AcDbEntity
  8
0
100
AcDbCircle
 62
7
  6
CONTINUOUS
 10
23.3205797244
 20
68.6973935896
 40
3.6000478843
100
AcDbArc
 50
180.2319638552
 51
359.7861617323
  0
ARC
  5
3D2
100
AcDbEntity
  8
0
100
AcDbCircle
 62
7
  6
CONTINUOUS
 10
23.1815316235
 20
104.0922882601
 40
3.6000478752
100
AcDbArc
 50
0.2319638849
 51
179.7861617006
  0
ARC
  5
3D3
100
AcDbEntity
  8
0
100
AcDbCircle
 62
7
  6
CONTINUOUS
 10
23.2510550236
 20
86.3944021044
 40
3.6000478751
100
AcDbArc
 50
0.2319638843
 51
179.7861617012
  0
ARC
  5
3D4
100
AcDbEntity
  8
0
100
AcDbCircle
 62
7
  6
CONTINUOUS
 10
23.3205784238
 20
68.6965159484
 40
3.6000478752
100
AcDbArc
 50
0.2319638869
 51
179.7861616986
  0
ARC
  5
3D5
100
AcDbEntity
  8
0
100
AcDbCircle
 62
7
  6
CONTINUOUS
 10
23.1815017504
 20
104.020635989
 40
3.5997817447
100
AcDbArc
 50
0.9280622693
 51
79.0158453805
  0
ARC
  5
3D6
100
AcDbEntity
  8
0
100
AcDbCircle
 62
7
  6
CONTINUOUS
 10
23.2510251506
 20
86.3227498332
 40
3.5997817447
100
AcDbArc
 50
0.9280622693
 51
79.0158453805
  0
ARC
  5
3D7
100
AcDbEntity
  8
0
100
AcDbCircle
 62
7
  6
CONTINUOUS
 10
23.3205485508
 20
68.6248636774
 40
3.5997817447
100
AcDbArc
 50
0.9280622693
 51
79.0158453805
  0
ARC
  5
3D8
100
AcDbEntity
  8
0
100
AcDbCircle
 62
7
  6
CONTINUOUS
 10
23.1810366268
 20
104.0206410265
 40
3.5997757752
100
AcDbArc
 50
101.43415614
 51
178.664011081
  0
ARC
  5
3D9
100
AcDbEntity
  8
0
100
AcDbCircle
 62
7
  6
CONTINUOUS
 10
23.250560027
 20
86.3227548707
 40
3.5997757752
100
AcDbArc
 50
101.43415614
 51
178.664011081
  0
ARC
  5
3DA
100
AcDbEntity
  8
0
100
AcDbCircle
 62
7
  6
CONTINUOUS
 10
23.3200834272
 20
68.6248687148
 40
3.5997757752
100
AcDbArc
 50
101.43415614
 51
178.664011081
  0
ARC
  5
3DB
100
AcDbEntity
  8
0
100
AcDbCircle
 62
7
  6
CONTINUOUS
 10
23.1817057603
 20
104.0342193265
 40
2.6995916811
100
AcDbArc
 50
285.2449161782
 51
75.20525413
  0
ARC
  5
3DC
100
AcDbEntity
  8
0
100
AcDbCircle
 62
7
  6
CONTINUOUS
 10
23.2512291605
 20
86.3363331706
 40
2.6995916811
100
AcDbArc
 50
285.2449161781
 51
75.2052541309
  0
ARC
  5
3DD
100
AcDbEntity
  8
0
100
AcDbCircle
 62
7
  6
CONTINUOUS
 10
23.3207525607
 20
68.6384470149
 40
2.6995916811
100
AcDbArc
 50
285.244916178
 51
75.20525413
  0
ARC
  5
3DE
100
AcDbEntity
  8
0
100
AcDbCircle
 62
7
  6
CONTINUOUS
 10
23.180936384
 20
104.034221581
 40
2.6995916728
100
AcDbArc
 50
105.2449155055
 51
255.205251989
  0
ARC
  5
3DF
100
AcDbEntity
  8
0
100
AcDbCircle
 62
7
  6
CONTINUOUS
 10
23.2504597842
 20
86.3363354252
 40
2.6995916728
100
AcDbArc
 50
105.2449155054
 51
255.2052519891
  0
ARC
  5
3E0
100
AcDbEntity
  8
0
100
AcDbCircle
 62
7
  6
CONTINUOUS
 10
23.3199831844
 20
68.6384492694
 40
2.6995916728
100
AcDbArc
 50
105.2449155052
 51
255.2052519894
  0
ARC
  5
3E1
100
AcDbEntity
  8
0
100
AcDbCircle
 62
7
  6
CONTINUOUS
 10
25.1506410399
 20
353.1285617112
 40
240.8699578706
100
AcDbArc
 50
273.5209002554
 51
274.2997958693
  0
ARC
  5
3E2
100
AcDbEntity
  8
0
100
AcDbCircle
 62
7
  6
CONTINUOUS
 10
37.0186283581
 20
-18.1267798462
 40
113.6660351958
100
AcDbArc
 50
90.2024170522
 51
90.7070226124
  0
ARC
  5
3E3
100
AcDbEntity
  8
0
100
AcDbCircle
 62
7
  6
CONTINUOUS
 10
36.380650439
 20
32.47246457
 40
63.0627722571
100
AcDbArc
 50
90.694705407
 51
91.0701613746
  0
ARC
  5
3E4
100
AcDbEntity
  8
0
100
AcDbCircle
 62
7
  6
CONTINUOUS
 10
36.4501661404
 20
14.7750929208
 40
63.0622576949
100
AcDbArc
 50
90.69470408
 51
91.0701700876
  0
ARC
  5
3E5
100
AcDbEntity
  8
0
100
AcDbCircle
 62
7
  6
CONTINUOUS
 10
36.5196894968
 20
-2.922790309
 40
63.0622547687
100
AcDbArc
 50
90.6947040725
 51
91.0701701371
  0
ARC
  5
3E6
100
AcDbEntity
  8
0
100
AcDbCircle
 62
7
  6
CONTINUOUS
 10
35.6852061317
 20
68.1187928822
 40
27.4096888865
100
AcDbArc
 50
91.0083595738
 51
91.6717523773
  0
ARC
  5
3E7
100
AcDbEntity
  8
0
100
AcDbCircle
 62
7
  6
CONTINUOUS
 10
35.7547231025
 20
50.4211455207
 40
27.4094500064
100
AcDbArc
 50
91.0083709706
 51
91.6717535053
  0
ARC
  5
3E8
100
AcDbEntity
  8
0
100
AcDbCircle
 62
7
  6
CONTINUOUS
 10
35.8242464661
 20
32.7232607225
 40
27.4094486482
100
AcDbArc
 50
91.0083710353
 51
91.6717535117
  0
ARC
  5
3E9
100
AcDbEntity
  8
0
100
AcDbCircle
 62
7
  6
CONTINUOUS
 10
41.702627653
 20
680.0743859844
 40
580.454556276
100
AcDbArc
 50
269.8312174925
 51
270.0499486847
  0
ARC
  5
3EA
100
AcDbEntity
  8
0
100
AcDbCircle
 62
7
  6
CONTINUOUS
 10
41.8019113004
 20
573.8072716771
 40
517.1823276073
100
AcDbArc
 50
269.7160416451
 51
270.0637716555
  0
ARC
  5
3EB
100
AcDbEntity
  8
0
100
AcDbCircle
 62
7
  6
CONTINUOUS
 10
41.4157779083
 20
565.4751284524
 40
465.8549537376
100
AcDbArc
 50
269.7114733729
 51
269.8249771089
  0
ARC
  5
3EC
100
AcDbEntity
  8
0
100
AcDbCircle
 62
7
  6
CONTINUOUS
 10
78.1070629765
 20
-26.5239805266
 40
122.2245018612
100
AcDbArc
 50
89.7606045069
 51
90.2298477486
  0
ARC
  5
3ED
100
AcDbEntity
  8
0
100
AcDbCircle
 62
7
  6
CONTINUOUS
 10
78.1765863766
 20
-44.2218666637
 40
122.2245018424
100
AcDbArc
 50
89.7606045065
 51
90.2298477486
  0
ARC
  5
3EE
100
AcDbEntity
  8
0
100
AcDbCircle
 62
7
  6
CONTINUOUS
 10
78.2461097768
 20
-61.919752818
 40
122.224501841
100
AcDbArc
 50
89.7606045065
 51
90.2298477486
  0
ARC
  5
3EF
100
AcDbEntity
  8
0
100
AcDbCircle
 62
7
  6
CONTINUOUS
 10
78.4368317619
 20
-9.4364092732
 40
69.7408253854
100
AcDbArc
 50
89.3976881026
 51
89.7371351829
  0
ARC
  5
3F0
100
AcDbEntity
  8
0
100
AcDbCircle
 62
7
  6
CONTINUOUS
 10
78.3673083646
 20
8.2614773945
 40
69.7408248734
100
AcDbArc
 50
89.3976880919
 51
89.7371351834
  0
ARC
  5
3F1
100
AcDbEntity
  8
0
100
AcDbCircle
 62
7
  6
CONTINUOUS
 10
78.2977871084
 20
25.9597347502
 40
69.7404536676
100
AcDbArc
 50
89.3976803418
 51
89.7371355462
  0
ARC
  5
3F2
100
AcDbEntity
  8
0
100
AcDbCircle
 62
7
  6
CONTINUOUS
 10
96.8245056322
 20
19.1541328501
 40
58.6800747505
100
AcDbArc
 50
89.6593060301
 51
90.2336103209
  0
ARC
  5
3F3
100
AcDbEntity
  8
0
100
AcDbCircle
 62
7
  6
CONTINUOUS
 10
96.8940290324
 20
1.4562466955
 40
58.6800747493
100
AcDbArc
 50
89.6593060301
 51
90.2336103209
  0
ARC
  5
3F4
100
AcDbEntity
  8
0
100
AcDbCircle
 62
7
  6
CONTINUOUS
 10
96.754982232
 20
36.8520190257
 40
58.6800747308
100
AcDbArc
 50
89.6593060294
 51
90.233610321
  0
ARC
  5
3F5
100
AcDbEntity
  8
0
100
AcDbCircle
 62
7
  6
CONTINUOUS
 10
97.0341207794
 20
29.8369935237
 40
30.2990102078
100
AcDbArc
 50
89.3802999105
 51
89.6050940736
  0
ARC
  5
3F6
100
AcDbEntity
  8
0
100
AcDbCircle
 62
7
  6
CONTINUOUS
 10
97.1524449413
 20
40.9390647665
 40
19.1963086623
100
AcDbArc
 50
89.0716727023
 51
89.3750519301
  0
ARC
  5
3F7
100
AcDbEntity
  8
0
100
AcDbCircle
 62
7
  6
CONTINUOUS
 10
96.8950725906
 20
65.2325850661
 40
30.2991909823
100
AcDbArc
 50
89.3803086539
 51
89.605093803
  0
ARC
  5
3F8
100
AcDbEntity
  8
0
100
AcDbCircle
 62
7
  6
CONTINUOUS
 10
96.9645973773
 20
47.5348794285
 40
30.2990104587
100
AcDbArc
 50
89.3802999227
 51
89.6050940733
  0
ARC
  5
3F9
100
AcDbEntity
  8
0
100
AcDbCircle
 62
7
  6
CONTINUOUS
 10
97.0133951038
 20
76.3346194527
 40
19.1965263083
100
AcDbArc
 50
89.071674162
 51
89.3750620595
  0
ARC
  5
3FA
100
AcDbEntity
  8
0
100
AcDbCircle
 62
7
  6
CONTINUOUS
 10
97.0829215369
 20
58.63695062
 40
19.1963089646
100
AcDbArc
 50
89.0716727043
 51
89.3750519443
  0
ARC
  5
3FB
100
AcDbEntity
  8
0
100
AcDbCircle
 62
7
  6
CONTINUOUS
 10
90.980682181
 20
104.2685697893
 40
3.6002990945
100
AcDbArc
 50
79.048342047
 51
101.3973532401
  0
ARC
  5
3FC
100
AcDbEntity
  8
0
100
AcDbCircle
 62
7
  6
CONTINUOUS
 10
91.0502055812
 20
86.5706836335
 40
3.6002990945
100
AcDbArc
 50
79.048342047
 51
101.3973532401
  0
ARC
  5
3FD
100
AcDbEntity
  8
0
100
AcDbCircle
 62
7
  6
CONTINUOUS
 10
91.1197289813
 20
68.8727974777
 40
3.6002990945
100
AcDbArc
 50
79.048342047
 51
101.3973532401
  0
ARC
  5
3FE
100
AcDbEntity
  8
0
100
AcDbCircle
 62
7
  6
CONTINUOUS
 10
91.1892523815
 20
51.1749113218
 40
3.6002990945
100
AcDbArc
 50
79.048342047
 51
101.3973532401
  0
ARC
  5
3FF
100
AcDbEntity
  8
0
100
AcDbCircle
 62
7
  6
CONTINUOUS
 10
90.981009807
 20
104.3593914355
 40
3.6000478843
100
AcDbArc
 50
180.2319638552
 51
359.7861617323
  0
ARC
  5
400
100
AcDbEntity
  8
0
100
AcDbCircle
 62
7
  6
CONTINUOUS
 10
91.0505332072
 20
86.6615052797
 40
3.6000478843
100
AcDbArc
 50
180.2319638552
 51
359.7861617323
  0
ARC
  5
401
100
AcDbEntity
  8
0
100
AcDbCircle
 62
7
  6
CONTINUOUS
 10
91.1200566074
 20
68.9636191239
 40
3.6000478843
100
AcDbArc
 50
180.2319638552
 51
359.7861617323
  0
ARC
  5
402
100
AcDbEntity
  8
0
100
AcDbCircle
 62
7
  6
CONTINUOUS
 10
91.1895800076
 20
51.265732968
 40
3.6000478843
100
AcDbArc
 50
180.2319638539
 51
359.7861617336
  0
ARC
  5
403
100
AcDbEntity
  8
0
100
AcDbCircle
 62
7
  6
CONTINUOUS
 10
90.9810085065
 20
104.3585137944
 40
3.6000478752
100
AcDbArc
 50
0.2319638852
 51
179.7861617002
  0
ARC
  5
404
100
AcDbEntity
  8
0
100
AcDbCircle
 62
7
  6
CONTINUOUS
 10
91.0505319067
 20
86.6606276385
 40
3.6000478752
100
AcDbArc
 50
0.2319638866
 51
179.7861616988
  0
ARC
  5
405
100
AcDbEntity
  8
0
100
AcDbCircle
 62
7
  6
CONTINUOUS
 10
91.1200553069
 20
68.9627414827
 40
3.6000478752
100
AcDbArc
 50
0.2319638866
 51
179.7861616988
  0
ARC
  5
406
100
AcDbEntity
  8
0
100
AcDbCircle
 62
7
  6
CONTINUOUS
 10
91.189578707
 20
51.264855327
 40
3.6000478752
100
AcDbArc
 50
0.2319638861
 51
179.7861616994
  0
ARC
  5
407
100
AcDbEntity
  8
0
100
AcDbCircle
 62
7
  6
CONTINUOUS
 10
90.9809786335
 20
104.2868615233
 40
3.5997817447
100
AcDbArc
 50
0.9280622693
 51
79.0158453805
  0
ARC
  5
408
100
AcDbEntity
  8
0
100
AcDbCircle
 62
7
  6
CONTINUOUS
 10
91.0505020337
 20
86.5889753675
 40
3.5997817447
100
AcDbArc
 50
0.9280622693
 51
79.0158453805
  0
ARC
  5
409
100
AcDbEntity
  8
0
100
AcDbCircle
 62
7
  6
CONTINUOUS
 10
91.1200254338
 20
68.8910892117
 40
3.5997817447
100
AcDbArc
 50
0.9280622693
 51
79.0158453805
  0
ARC
  5
40A
100
AcDbEntity
  8
0
100
AcDbCircle
 62
7
  6
CONTINUOUS
 10
91.189548834
 20
51.1932030559
 40
3.5997817447
100
AcDbArc
 50
0.9280622693
 51
79.0158453805
  0
ARC
  5
40B
100
AcDbEntity
  8
0
100
AcDbCircle
 62
7
  6
CONTINUOUS
 10
90.9805135099
 20
104.2868665608
 40
3.5997757752
100
AcDbArc
 50
101.43415614
 51
178.664011081
  0
ARC
  5
40C
100
AcDbEntity
  8
0
100
AcDbCircle
 62
7
  6
CONTINUOUS
 10
91.05003691
 20
86.588980405
 40
3.5997757752
100
AcDbArc
 50
101.43415614
 51
178.664011081
  0
ARC
  5
40D
100
AcDbEntity
  8
0
100
AcDbCircle
 62
7
  6
CONTINUOUS
 10
91.1195603102
 20
68.8910942492
 40
3.5997757752
100
AcDbArc
 50
101.43415614
 51
178.664011081
  0
ARC
  5
40E
100
AcDbEntity
  8
0
100
AcDbCircle
 62
7
  6
CONTINUOUS
 10
91.1890837104
 20
51.1932080934
 40
3.5997757752
100
AcDbArc
 50
101.43415614
 51
178.664011081
  0
ARC
  5
40F
100
AcDbEntity
  8
0
100
AcDbCircle
 62
7
  6
CONTINUOUS
 10
90.9811826433
 20
104.3004448608
 40
2.6995916811
100
AcDbArc
 50
285.2449161782
 51
75.2052541301
  0
ARC
  5
410
100
AcDbEntity
  8
0
100
AcDbCircle
 62
7
  6
CONTINUOUS
 10
91.0507060435
 20
86.602558705
 40
2.6995916812
100
AcDbArc
 50
285.2449161786
 51
75.2052541299
  0
ARC
  5
411
100
AcDbEntity
  8
0
100
AcDbCircle
 62
7
  6
CONTINUOUS
 10
91.1202294437
 20
68.9046725492
 40
2.6995916812
100
AcDbArc
 50
285.2449161783
 51
75.2052541302
  0
ARC
  5
412
100
AcDbEntity
  8
0
100
AcDbCircle
 62
7
  6
CONTINUOUS
 10
91.1897528438
 20
51.2067863934
 40
2.6995916812
100
AcDbArc
 50
285.2449161784
 51
75.20525413
  0
ARC
  5
413
100
AcDbEntity
  8
0
100
AcDbCircle
 62
7
  6
CONTINUOUS
 10
90.980413267
 20
104.3004471153
 40
2.6995916728
100
AcDbArc
 50
105.2449155054
 51
255.2052519889
  0
ARC
  5
414
100
AcDbEntity
  8
0
100
AcDbCircle
 62
7
  6
CONTINUOUS
 10
91.0499366672
 20
86.6025609595
 40
2.6995916728
100
AcDbArc
 50
105.2449155052
 51
255.2052519894
  0
ARC
  5
415
100
AcDbEntity
  8
0
100
AcDbCircle
 62
7
  6
CONTINUOUS
 10
91.1194600674
 20
68.9046748038
 40
2.6995916728
100
AcDbArc
 50
105.2449155054
 51
255.2052519896
  0
ARC
  5
416
100
AcDbEntity
  8
0
100
AcDbCircle
 62
7
  6
CONTINUOUS
 10
91.1889834676
 20
51.206788648
 40
2.6995916728
100
AcDbArc
 50
105.2449155052
 51
255.2052519897
  0
SPLINE
  5
417
100
AcDbEntity
  8
0
100
AcDbSpline
 62
7
  6
CONTINUOUS
 70
0
 71
3
 72
9
 73
5
 74
0
 42
0.0000001
 43
0.0000001
 44
0.0000000001
 40
0.0
 40
0.0
 40
0.0
 40
0.0
 40
0.4984295642
 40
1.0
 40
1.0
 40
1.0
 40
1.0
 10
42.6460037586
 20
43.1031931256
 30
0.0
 10
42.5293497371
 20
43.1044809147
 30
0.0
 10
42.2952843875
 20
43.1044344924
 30
0.0
 10
42.0612261534
 20
43.1026803531
 30
0.0
 10
41.9438498468
 20
43.1005152379
 30
0.0
  0
SPLINE
  5
418
100
AcDbEntity
  8
0
100
AcDbSpline
 62
7
  6
CONTINUOUS
 70
0
 71
3
 72
18
 73
14
 74
0
 42
0.0000001
 43
0.0000001
 44
0.0000000001
 40
0.0
 40
0.0
 40
0.0
 40
0.0
 40
0.2238181012
 40
0.423156055
 40
0.5956089139
 40
0.7389350827
 40
0.8518360178
 40
0.896579981
 40
0.9333636118
 40
0.9620773534
 40
0.982677733
 40
0.9952084441
 40
1.0
 40
1.0
 40
1.0
 40
1.0
 10
39.6385563432
 20
43.0579919543
 30
0.0
 10
39.6272283327
 20
43.0577829986
 30
0.0
 10
39.605811715
 20
43.0573584943
 30
0.0
 10
39.5756698998
 20
43.0566548658
 30
0.0
 10
39.5496026362
 20
43.0559297339
 30
0.0
 10
39.5279187412
 20
43.0551889541
 30
0.0
 10
39.5126879174
 20
43.0545325643
 30
0.0
 10
39.5028748352
 20
43.0539814519
 30
0.0
 10
39.4972774877
 20
43.0536063574
 30
0.0
 10
39.4930108313
 20
43.0532302936
 30
0.0
 10
39.4897262846
 20
43.052883179
 30
0.0
 10
39.4881466151
 20
43.0525319466
 30
0.0
 10
39.4869578979
 20
43.0522777802
 30
0.0
 10
39.486956786
 20
43.0520352286
 30
0.0
  0
SPLINE
  5
419
100
AcDbEntity
  8
0
100
AcDbSpline
 62
7
  6
CONTINUOUS
 70
0
 71
3
 72
13
 73
9
 74
0
 42
0.0000001
 43
0.0000001
 44
0.0000000001
 40
0.0
 40
0.0
 40
0.0
 40
0.0
 40
0.4287878444
 40
0.7370810724
 40
0.8460147625
 40
0.9250647055
 40
0.9750554895
 40
1.0
 40
1.0
 40
1.0
 40
1.0
 10
38.1390831804
 20
43.0296034778
 30
0.0
 10
38.1100165835
 20
43.0317962063
 30
0.0
 10
38.0601200659
 20
43.0359569689
 30
0.0
 10
38.0028550237
 20
43.0425910753
 30
0.0
 10
37.969715512
 20
43.0481454345
 30
0.0
 10
37.9537505305
 20
43.0521449819
 30
0.0
 10
37.9442740325
 20
43.0552049383
 30
0.0
 10
37.9395481115
 20
43.0590656203
 30
0.0
 10
37.9395426857
 20
43.0607613504
 30
0.0
  0
SPLINE
  5
41A
100
AcDbEntity
  8
0
100
AcDbSpline
 62
7
  6
CONTINUOUS
 70
0
 71
3
 72
10
 73
6
 74
0
 42
0.0000001
 43
0.0000001
 44
0.0000000001
 40
0.0
 40
0.0
 40
0.0
 40
0.0
 40
0.1691794897
 40
0.3932005436
 40
1.0
 40
1.0
 40
1.0
 40
1.0
 10
37.8955807532
 20
56.5464236976
 30
0.0
 10
37.8339026741
 20
56.5508087314
 30
0.0
 10
37.690391976
 20
56.5586722092
 30
0.0
 10
37.3251971016
 20
56.5734605764
 30
0.0
 10
37.0216232132
 20
56.5812991395
 30
0.0
 10
36.7998994084
 20
56.5863084892
 30
0.0
  0
SPLINE
  5
41B
100
AcDbEntity
  8
0
100
AcDbSpline
 62
7
  6
CONTINUOUS
 70
0
 71
3
 72
12
 73
8
 74
0
 42
0.0000001
 43
0.0000001
 44
0.0000000001
 40
0.0
 40
0.0
 40
0.0
 40
0.0
 40
0.3889276149
 40
0.6793012661
 40
0.7889801999
 40
0.8767383449
 40
1.0
 40
1.0
 40
1.0
 40
1.0
 10
37.8648500992
 20
112.8384141347
 30
0.0
 10
37.8355388935
 20
112.8290581597
 30
0.0
 10
37.7847439822
 20
112.8113852351
 30
0.0
 10
37.7276155865
 20
112.7859240905
 30
0.0
 10
37.6948786744
 20
112.7650347702
 30
0.0
 10
37.6756643067
 20
112.7489458145
 30
0.0
 10
37.6658404606
 20
112.7330657295
 30
0.0
 10
37.6658814791
 20
112.7233145486
 30
0.0
  0
SPLINE
  5
41C
100
AcDbEntity
  8
0
100
AcDbSpline
 62
7
  6
CONTINUOUS
 70
0
 71
3
 72
13
 73
9
 74
0
 42
0.0000001
 43
0.0000001
 44
0.0000000001
 40
0.0
 40
0.0
 40
0.0
 40
0.0
 40
0.0420309728
 40
0.1092221784
 40
0.2010658137
 40
0.3168991452
 40
0.6170142693
 40
1.0
 40
1.0
 40
1.0
 40
1.0
 10
37.9962935486
 20
43.078087225
 30
0.0
 10
38.0062159948
 20
43.079616793
 30
0.0
 10
38.0322300648
 20
43.0819378481
 30
0.0
 10
38.0801434621
 20
43.0850640805
 30
0.0
 10
38.1457346653
 20
43.088163548
 30
0.0
 10
38.2669376572
 20
43.0927658608
 30
0.0
 10
38.4577079102
 20
43.0980084497
 30
0.0
 10
38.6208399437
 20
43.1013926702
 30
0.0
 10
38.7123055317
 20
43.103079838
 30
0.0
  0
SPLINE
  5
41D
100
AcDbEntity
  8
0
100
AcDbSpline
 62
7
  6
CONTINUOUS
 70
0
 71
3
 72
17
 73
13
 74
0
 42
0.0000001
 43
0.0000001
 44
0.0000000001
 40
0.0
 40
0.0
 40
0.0
 40
0.0
 40
0.0048031187
 40
0.017267487
 40
0.0377782097
 40
0.066376242
 40
0.1475405384
 40
0.2600524731
 40
0.4031385141
 40
0.5755426359
 40
0.7752082892
 40
1.0
 40
1.0
 40
1.0
 40
1.0
 10
39.486956786
 20
43.0520352286
 30
0.0
 10
39.4869557824
 20
43.0518163144
 30
0.0
 10
39.4880112268
 20
43.0515623431
 30
0.0
 10
39.4894372052
 20
43.0512599456
 30
0.0
 10
39.4923759285
 20
43.0509444979
 30
0.0
 10
39.4982040749
 20
43.0504588646
 30
0.0
 10
39.5083885456
 20
43.0499226488
 30
0.0
 10
39.5236945898
 20
43.0493373118
 30
0.0
 10
39.5432068869
 20
43.048789246
 30
0.0
 10
39.566676862
 20
43.0482803284
 30
0.0
 10
39.5938782539
 20
43.0478190772
 30
0.0
 10
39.6132221017
 20
43.0475614819
 30
0.0
 10
39.623466927
 20
43.0474396214
 30
0.0
  0
SPLINE
  5
41E
100
AcDbEntity
  8
0
100
AcDbSpline
 62
7
  6
CONTINUOUS
 70
0
 71
3
 72
9
 73
5
 74
0
 42
0.0000001
 43
0.0000001
 44
0.0000000001
 40
0.0
 40
0.0
 40
0.0
 40
0.0
 40
0.4604413248
 40
1.0
 40
1.0
 40
1.0
 40
1.0
 10
38.7123055317
 20
43.103079838
 30
0.0
 10
38.9431337138
 20
43.1073376786
 30
0.0
 10
39.4445009175
 20
43.1139445998
 30
0.0
 10
39.9458934503
 20
43.1176934203
 30
0.0
 10
40.2164273609
 20
43.1190397789
 30
0.0
  0
SPLINE
  5
41F
100
AcDbEntity
  8
0
100
AcDbSpline
 62
7
  6
CONTINUOUS
 70
0
 71
3
 72
9
 73
5
 74
0
 42
0.0000001
 43
0.0000001
 44
0.0000000001
 40
0.0
 40
0.0
 40
0.0
 40
0.0
 40
0.5395586925
 40
1.0
 40
1.0
 40
1.0
 40
1.0
 10
40.1634083768
 20
56.6174275614
 30
0.0
 10
39.8928731378
 20
56.6160811961
 30
0.0
 10
39.3914781588
 20
56.6123323951
 30
0.0
 10
38.890108509
 20
56.6057254452
 30
0.0
 10
38.6592792095
 20
56.601467584
 30
0.0
  0
SPLINE
  5
420
100
AcDbEntity
  8
0
100
AcDbSpline
 62
7
  6
CONTINUOUS
 70
0
 71
3
 72
13
 73
9
 74
0
 42
0.0000001
 43
0.0000001
 44
0.0000000001
 40
0.0
 40
0.0
 40
0.0
 40
0.0
 40
0.3829854989
 40
0.6831005063
 40
0.7989338619
 40
0.8907776134
 40
0.9579689662
 40
1.0
 40
1.0
 40
1.0
 40
1.0
 10
38.6592792095
 20
56.601467584
 30
0.0
 10
38.567813697
 20
56.5997804175
 30
0.0
 10
38.4046817825
 20
56.5963962
 30
0.0
 10
38.2139116487
 20
56.5911536158
 30
0.0
 10
38.0927086777
 20
56.5865513069
 30
0.0
 10
38.0271174199
 20
56.5834518431
 30
0.0
 10
37.9792039556
 20
56.5803256136
 30
0.0
 10
37.9531898405
 20
56.5780045649
 30
0.0
 10
37.9432673822
 20
56.5764749949
 30
0.0
  0
SPLINE
  5
421
100
AcDbEntity
  8
0
100
AcDbSpline
 62
7
  6
CONTINUOUS
 70
0
 71
3
 72
11
 73
7
 74
0
 42
0.0000001
 43
0.0000001
 44
0.0000000001
 40
0.0
 40
0.0
 40
0.0
 40
0.0
 40
0.4164642147
 40
0.7182604704
 40
0.9080599454
 40
1.0
 40
1.0
 40
1.0
 40
1.0
 10
37.9432673822
 20
56.5764749949
 30
0.0
 10
37.9349629264
 20
56.5751948472
 30
0.0
 10
37.9207663062
 20
56.5728788237
 30
0.0
 10
37.9025943744
 20
56.5684547695
 30
0.0
 10
37.8920010718
 20
56.5651639825
 30
0.0
 10
37.886508707
 20
56.561004055
 30
0.0
 10
37.8865160061
 20
56.559149095
 30
0.0
  0
SPLINE
  5
422
100
AcDbEntity
  8
0
100
AcDbSpline
 62
7
  6
CONTINUOUS
 70
0
 71
3
 72
9
 73
5
 74
0
 42
0.0000001
 43
0.0000001
 44
0.0000000001
 40
0.0
 40
0.0
 40
0.0
 40
0.0
 40
0.5395745182
 40
1.0
 40
1.0
 40
1.0
 40
1.0
 10
39.9430994479
 20
112.7132548382
 30
0.0
 10
39.6728436059
 20
112.6966243042
 30
0.0
 10
39.1717274642
 20
112.669781621
 30
0.0
 10
38.6701621341
 20
112.6520819861
 30
0.0
 10
38.439152624
 20
112.6478208007
 30
0.0
  0
SPLINE
  5
423
100
AcDbEntity
  8
0
100
AcDbSpline
 62
7
  6
CONTINUOUS
 70
0
 71
3
 72
14
 73
10
 74
0
 42
0.0000001
 43
0.0000001
 44
0.0000000001
 40
0.0
 40
0.0
 40
0.0
 40
0.0
 40
0.3823520606
 40
0.5432287436
 40
0.6819521628
 40
0.7976131887
 40
0.8894024602
 40
0.9568628243
 40
1.0
 40
1.0
 40
1.0
 40
1.0
 10
38.439152624
 20
112.6478208007
 30
0.0
 10
38.3476449609
 20
112.6461328567
 30
0.0
 10
38.2176081909
 20
112.6446288416
 30
0.0
 10
38.0543728175
 20
112.6457594011
 30
0.0
 10
37.9549844387
 20
112.6479939736
 30
0.0
 10
37.8722138196
 20
112.6516390109
 30
0.0
 10
37.8065203225
 20
112.6565229903
 30
0.0
 10
37.7585633583
 20
112.6627495503
 30
0.0
 10
37.7324390909
 20
112.6683463196
 30
0.0
 10
37.7229007996
 20
112.6723012068
 30
0.0
  0
SPLINE
  5
424
100
AcDbEntity
  8
0
100
AcDbSpline
 62
7
  6
CONTINUOUS
 70
0
 71
3
 72
23
 73
19
 74
0
 42
0.0000001
 43
0.0000001
 44
0.0000000001
 40
0.0
 40
0.0
 40
0.0
 40
0.0
 40
0.0014102705
 40
0.0051000285
 40
0.0111524389
 40
0.0195649221
 40
0.0303241055
 40
0.0434136203
 40
0.0764900832
 40
0.1184526216
 40
0.1688756371
 40
0.2273229343
 40
0.2932212192
 40
0.3658902853
 40
0.4446456427
 40
0.6174225618
 40
0.8051497251
 40
1.0
 40
1.0
 40
1.0
 40
1.0
 10
97.4461433492
 20
113.2184715582
 30
0.0
 10
97.446145047
 20
113.2189418278
 30
0.0
 10
97.4438279407
 20
113.2194312127
 30
0.0
 10
97.4407722283
 20
113.220086297
 30
0.0
 10
97.4344123273
 20
113.220723071
 30
0.0
 10
97.4261754238
 20
113.2213957745
 30
0.0
 10
97.4153800815
 20
113.2220502963
 30
0.0
 10
97.3964474079
 20
113.2229861903
 30
0.0
 10
97.367060379
 20
113.2240441305
 30
0.0
 10
97.3252459606
 20
113.2251709987
 30
0.0
 10
97.274956493
 20
113.2262050788
 30
0.0
 10
97.2166858424
 20
113.2271345666
 30
0.0
 10
97.150993426
 20
113.2279478807
 30
0.0
 10
97.0785276839
 20
113.2286376176
 30
0.0
 10
96.9704211968
 20
113.2294028055
 30
0.0
 10
96.8239452463
 20
113.2299689995
 30
0.0
 10
96.6387549999
 20
113.2300625994
 30
0.0
 10
96.5111798397
 20
113.2297472945
 30
0.0
 10
96.4462050294
 20
113.2294921605
 30
0.0
  0
SPLINE
  5
425
100
AcDbEntity
  8
0
100
AcDbSpline
 62
7
  6
CONTINUOUS
 70
0
 71
3
 72
24
 73
20
 74
0
 42
0.0000001
 43
0.0000001
 44
0.0000000001
 40
0.0
 40
0.0
 40
0.0
 40
0.0
 40
0.0014082429
 40
0.0050919296
 40
0.0111380238
 40
0.019547386
 40
0.0303100288
 40
0.0434115669
 40
0.0588194474
 40
0.0764891503
 40
0.1184336187
 40
0.1688730106
 40
0.2273143762
 40
0.2931858055
 40
0.3658819986
 40
0.444670645
 40
0.6174426669
 40
0.8050488737
 40
1.0
 40
1.0
 40
1.0
 40
1.0
 10
79.5471017205
 20
113.3753828116
 30
0.0
 10
79.5471051113
 20
113.3763219998
 30
0.0
 10
79.5424831133
 20
113.3773070744
 30
0.0
 10
79.536376141
 20
113.3786139825
 30
0.0
 10
79.5236692921
 20
113.3798903459
 30
0.0
 10
79.5071987448
 20
113.3812346902
 30
0.0
 10
79.4855991066
 20
113.3825429707
 30
0.0
 10
79.4594801437
 20
113.3838332304
 30
0.0
 10
79.4286933469
 20
113.3850872877
 30
0.0
 10
79.378694511
 20
113.3868097102
 30
0.0
 10
79.3053188223
 20
113.3887794005
 30
0.0
 10
79.2047518852
 20
113.3908491129
 30
0.0
 10
79.0882190579
 20
113.3927086759
 30
0.0
 10
78.9568386284
 20
113.394338233
 30
0.0
 10
78.8118843236
 20
113.3957148058
 30
0.0
 10
78.5956341509
 20
113.3972448691
 30
0.0
 10
78.3027435836
 20
113.398376854
 30
0.0
 10
77.9323793379
 20
113.3985671223
 30
0.0
 10
77.6772421178
 20
113.397934549
 30
0.0
 10
77.5472250809
 20
113.3974240163
 30
0.0
  0
SPLINE
  5
426
100
AcDbEntity
  8
0
100
AcDbSpline
 62
7
  6
CONTINUOUS
 70
0
 71
3
 72
13
 73
9
 74
0
 42
0.0000001
 43
0.0000001
 44
0.0000000001
 40
0.0
 40
0.0
 40
0.0
 40
0.0
 40
0.0955737772
 40
0.2158219427
 40
0.4999695642
 40
0.7841333789
 40
0.9044008561
 40
1.0
 40
1.0
 40
1.0
 40
1.0
 10
54.6539555736
 20
113.307529917
 30
0.0
 10
54.2649223081
 20
113.3148803474
 30
0.0
 10
53.3863153021
 20
113.3258173114
 30
0.0
 10
51.3508601891
 20
113.3385867808
 30
0.0
 10
48.5475463667
 20
113.3366000044
 30
0.0
 10
45.7442247896
 20
113.3165703652
 30
0.0
 10
43.7086848846
 20
113.2878157749
 30
0.0
 10
42.8300089552
 20
113.2699786276
 30
0.0
 10
42.4409420923
 20
113.2595735582
 30
0.0
  0
SPLINE
  5
427
100
AcDbEntity
  8
0
100
AcDbSpline
 62
7
  6
CONTINUOUS
 70
0
 71
3
 72
24
 73
20
 74
0
 42
0.0000001
 43
0.0000001
 44
0.0000000001
 40
0.0
 40
0.0
 40
0.0
 40
0.0
 40
0.1949118941
 40
0.3824889566
 40
0.5552432166
 40
0.6340274556
 40
0.7067222681
 40
0.7725953831
 40
0.831041478
 40
0.8814885726
 40
0.9234436689
 40
0.9411197469
 40
0.9565346868
 40
0.9696439508
 40
0.9804149694
 40
0.9888333223
 40
0.9948889686
 40
0.9985826362
 40
1.0
 40
1.0
 40
1.0
 40
1.0
 10
36.5475414201
 20
113.236432174
 30
0.0
 10
36.4175215327
 20
113.23592163
 30
0.0
 10
36.1623758757
 20
113.2345504712
 30
0.0
 10
35.7919993374
 20
113.2314515367
 30
0.0
 10
35.4990955449
 20
113.2280193303
 30
0.0
 10
35.2828314935
 20
113.2247909595
 30
0.0
 10
35.1378628477
 20
113.2222759473
 30
0.0
 10
35.0064665747
 20
113.2196145379
 30
0.0
 10
34.8899165143
 20
113.2168397205
 30
0.0
 10
34.7893310643
 20
113.2139800974
 30
0.0
 10
34.7159402854
 20
113.2114341506
 30
0.0
 10
34.6659291841
 20
113.2093190013
 30
0.0
 10
34.6351323918
 20
113.2078232793
 30
0.0
 10
34.6090024157
 20
113.2063272967
 30
0.0
 10
34.5873938519
 20
113.2048507373
 30
0.0
 10
34.5709082956
 20
113.2033731111
 30
0.0
 10
34.5581993711
 20
113.202005265
 30
0.0
 10
34.5520668807
 20
113.2006339711
 30
0.0
 10
34.5474523355
 20
113.1996299302
 30
0.0
 10
34.547448922
 20
113.1986844481
 30
0.0
  0
SPLINE
  5
428
100
AcDbEntity
  8
0
100
AcDbSpline
 62
7
  6
CONTINUOUS
 70
0
 71
3
 72
23
 73
19
 74
0
 42
0.0000001
 43
0.0000001
 44
0.0000000001
 40
0.0
 40
0.0
 40
0.0
 40
0.0
 40
0.1948112344
 40
0.382509554
 40
0.5552687786
 40
0.6340197115
 40
0.7066873541
 40
0.7725872508
 40
0.8310392206
 40
0.8814698651
 40
0.9234429282
 40
0.9565327696
 40
0.9696299976
 40
0.9803975337
 40
0.9888189768
 40
0.9948809066
 40
0.9985806174
 40
1.0
 40
1.0
 40
1.0
 40
1.0
 10
17.6468130179
 20
112.9200736929
 30
0.0
 10
17.581836725
 20
112.919818553
 30
0.0
 10
17.4542571868
 20
112.9191319379
 30
0.0
 10
17.2690605913
 20
112.9175839405
 30
0.0
 10
17.1225779046
 20
112.9158673907
 30
0.0
 10
17.0144644797
 20
112.9142531946
 30
0.0
 10
16.9419916225
 20
112.9129943258
 30
0.0
 10
16.8762913353
 20
112.9116650713
 30
0.0
 10
16.8180121139
 20
112.9102779101
 30
0.0
 10
16.7677135147
 20
112.9088488675
 30
0.0
 10
16.7258892526
 20
112.9073934569
 30
0.0
 10
16.6964945937
 20
112.906104905
 30
0.0
 10
16.6775553607
 20
112.9050200081
 30
0.0
 10
16.6667555783
 20
112.9042813748
 30
0.0
 10
16.6585111934
 20
112.9035420281
 30
0.0
 10
16.6521503019
 20
112.902859449
 30
0.0
 10
16.6490818092
 20
112.9021721731
 30
0.0
 10
16.646768478
 20
112.9016732438
 30
0.0
 10
16.6467667688
 20
112.90119983
 30
0.0
  0
LINE
  5
429
100
AcDbEntity
  8
0
100
AcDbLine
 62
7
  6
CONTINUOUS
 10
45.1393321673
 20
96.6648276673
 11
44.9366777948
 21
96.6624435752
  0
SPLINE
  5
42A
100
AcDbEntity
  8
0
100
AcDbSpline
 62
7
  6
CONTINUOUS
 70
0
 71
3
 72
9
 73
5
 74
0
 42
0.0000001
 43
0.0000001
 44
0.0000000001
 40
0.0
 40
0.0
 40
0.0
 40
0.0
 40
0.2642907304
 40
1.0
 40
1.0
 40
1.0
 40
1.0
 10
50.0499056121
 20
95.6384949269
 30
0.0
 10
50.2832297321
 20
95.6387130507
 30
0.0
 10
51.1660611907
 20
95.6388560844
 30
0.0
 10
52.0488954454
 20
95.636366084
 30
0.0
 10
52.6983905847
 20
95.6323704714
 30
0.0
  0
SPLINE
  5
42B
100
AcDbEntity
  8
0
100
AcDbSpline
 62
7
  6
CONTINUOUS
 70
0
 71
3
 72
9
 73
5
 74
0
 42
0.0000001
 43
0.0000001
 44
0.0000000001
 40
0.0
 40
0.0
 40
0.0
 40
0.0
 40
0.2865849633
 40
1.0
 40
1.0
 40
1.0
 40
1.0
 10
52.6983905847
 20
95.6323704714
 30
0.0
 10
52.8918530061
 20
95.6311803148
 30
0.0
 10
53.5669074093
 20
95.6262678978
 30
0.0
 10
54.2419569105
 20
95.6187416835
 30
0.0
 10
54.7234789738
 20
95.6096437612
 30
0.0
  0
SPLINE
  5
42C
100
AcDbEntity
  8
0
100
AcDbSpline
 62
7
  6
CONTINUOUS
 70
0
 71
3
 72
17
 73
13
 74
0
 42
0.0000001
 43
0.0000001
 44
0.0000000001
 40
0.0
 40
0.0
 40
0.0
 40
0.0
 40
0.0054164584
 40
0.017951693
 40
0.0382174063
 40
0.0662959238
 40
0.1458901608
 40
0.2565972945
 40
0.3980973448
 40
0.5696948389
 40
0.7705952935
 40
1.0
 40
1.0
 40
1.0
 40
1.0
 10
34.6169723222
 20
95.5007982923
 30
0.0
 10
34.6169740796
 20
95.501285073
 30
0.0
 10
34.6188312108
 20
95.5021876623
 30
0.0
 10
34.6218294605
 20
95.5029347503
 30
0.0
 10
34.6273992875
 20
95.5039408327
 30
0.0
 10
34.6387001727
 20
95.5053654767
 30
0.0
 10
34.6583348852
 20
95.5071034062
 30
0.0
 10
34.6880523309
 20
95.5090517793
 30
0.0
 10
34.7261048552
 20
95.5110290423
 30
0.0
 10
34.7722509823
 20
95.5130091773
 30
0.0
 10
34.8263109403
 20
95.514980793
 30
0.0
 10
34.8649633681
 20
95.5162016898
 30
0.0
 10
34.8855711224
 20
95.5168152325
 30
0.0
  0
LINE
  5
42D
100
AcDbEntity
  8
0
100
AcDbLine
 62
7
  6
CONTINUOUS
 10
45.4250965106
 20
99.8611520834
 11
45.1158604554
 21
99.8575672224
  0
SPLINE
  5
42E
100
AcDbEntity
  8
0
100
AcDbSpline
 62
7
  6
CONTINUOUS
 70
0
 71
3
 72
9
 73
5
 74
0
 42
0.0000001
 43
0.0000001
 44
0.0000000001
 40
0.0
 40
0.0
 40
0.0
 40
0.0
 40
0.2813586866
 40
1.0
 40
1.0
 40
1.0
 40
1.0
 10
79.0309174172
 20
95.6963348803
 30
0.0
 10
79.0606698556
 20
95.6960069671
 30
0.0
 10
79.1664140672
 20
95.6947363792
 30
0.0
 10
79.272154857
 20
95.6930703972
 30
0.0
 10
79.3481343594
 20
95.6914046276
 30
0.0
  0
SPLINE
  5
42F
100
AcDbEntity
  8
0
100
AcDbSpline
 62
7
  6
CONTINUOUS
 70
0
 71
3
 72
23
 73
19
 74
0
 42
0.0000001
 43
0.0000001
 44
0.0000000001
 40
0.0
 40
0.0
 40
0.0
 40
0.0
 40
0.0014102705
 40
0.0051000285
 40
0.0111524389
 40
0.0195649221
 40
0.0303241055
 40
0.0434136203
 40
0.0764900832
 40
0.1184526216
 40
0.1688756371
 40
0.2273229343
 40
0.2932212192
 40
0.3658902853
 40
0.4446456427
 40
0.6174225618
 40
0.8051497251
 40
1.0
 40
1.0
 40
1.0
 40
1.0
 10
97.5156667494
 20
95.5205854024
 30
0.0
 10
97.5156684472
 20
95.521055672
 30
0.0
 10
97.5133513409
 20
95.5215450569
 30
0.0
 10
97.5102956285
 20
95.5222001412
 30
0.0
 10
97.5039357275
 20
95.5228369152
 30
0.0
 10
97.495698824
 20
95.5235096187
 30
0.0
 10
97.4849034816
 20
95.5241641405
 30
0.0
 10
97.4659708081
 20
95.5251000345
 30
0.0
 10
97.4365837792
 20
95.5261579747
 30
0.0
 10
97.3947693607
 20
95.5272848429
 30
0.0
 10
97.3444798932
 20
95.528318923
 30
0.0
 10
97.2862092426
 20
95.5292484108
 30
0.0
 10
97.2205168262
 20
95.5300617249
 30
0.0
 10
97.1480510841
 20
95.5307514617
 30
0.0
 10
97.039944597
 20
95.5315166497
 30
0.0
 10
96.8934686465
 20
95.5320828437
 30
0.0
 10
96.7082784001
 20
95.5321764436
 30
0.0
 10
96.5807032399
 20
95.5318611387
 30
0.0
 10
96.5157284296
 20
95.5316060047
 30
0.0
  0
SPLINE
  5
430
100
AcDbEntity
  8
0
100
AcDbSpline
 62
7
  6
CONTINUOUS
 70
0
 71
3
 72
24
 73
20
 74
0
 42
0.0000001
 43
0.0000001
 44
0.0000000001
 40
0.0
 40
0.0
 40
0.0
 40
0.0
 40
0.0014082429
 40
0.0050919296
 40
0.0111380238
 40
0.019547386
 40
0.0303100288
 40
0.0434115669
 40
0.0588194474
 40
0.0764891503
 40
0.1184336187
 40
0.1688730106
 40
0.2273143762
 40
0.2931858055
 40
0.3658819986
 40
0.444670645
 40
0.6174426669
 40
0.8050488737
 40
1.0
 40
1.0
 40
1.0
 40
1.0
 10
79.6166251206
 20
95.6774966558
 30
0.0
 10
79.6166285114
 20
95.678435844
 30
0.0
 10
79.6120065135
 20
95.6794209186
 30
0.0
 10
79.6058995411
 20
95.6807278267
 30
0.0
 10
79.5931926923
 20
95.6820041901
 30
0.0
 10
79.576722145
 20
95.6833485344
 30
0.0
 10
79.5551225068
 20
95.6846568149
 30
0.0
 10
79.5290035439
 20
95.6859470746
 30
0.0
 10
79.4982167471
 20
95.6872011319
 30
0.0
 10
79.4482179112
 20
95.6889235544
 30
0.0
 10
79.3748422224
 20
95.6908932447
 30
0.0
 10
79.2742752853
 20
95.6929629571
 30
0.0
 10
79.1577424581
 20
95.6948225201
 30
0.0
 10
79.0263620285
 20
95.6964520772
 30
0.0
 10
78.8814077238
 20
95.69782865
 30
0.0
 10
78.6651575511
 20
95.6993587133
 30
0.0
 10
78.3722669837
 20
95.7004906982
 30
0.0
 10
78.0019027381
 20
95.7006809665
 30
0.0
 10
77.746765518
 20
95.7000483932
 30
0.0
 10
77.6167484811
 20
95.6995378605
 30
0.0
  0
SPLINE
  5
431
100
AcDbEntity
  8
0
100
AcDbSpline
 62
7
  6
CONTINUOUS
 70
0
 71
3
 72
12
 73
8
 74
0
 42
0.0000001
 43
0.0000001
 44
0.0000000001
 40
0.0
 40
0.0
 40
0.0
 40
0.0
 40
0.0884063679
 40
0.1961131524
 40
0.453286323
 40
0.7346849185
 40
1.0
 40
1.0
 40
1.0
 40
1.0
 10
54.7234789738
 20
95.6096437612
 30
0.0
 10
54.4343682755
 20
95.6151062454
 30
0.0
 10
53.7929702132
 20
95.6240276708
 30
0.0
 10
52.3103962009
 20
95.6364919585
 30
0.0
 10
50.1965128363
 20
95.641038948
 30
0.0
 10
47.5671413771
 20
95.6321732636
 30
0.0
 10
45.7789876014
 20
95.6163816969
 30
0.0
 10
44.9112571112
 20
95.6053334862
 30
0.0
  0
SPLINE
  5
432
100
AcDbEntity
  8
0
100
AcDbSpline
 62
7
  6
CONTINUOUS
 70
0
 71
3
 72
24
 73
20
 74
0
 42
0.0000001
 43
0.0000001
 44
0.0000000001
 40
0.0
 40
0.0
 40
0.0
 40
0.0
 40
0.1949118941
 40
0.3824889566
 40
0.5552432166
 40
0.6340274556
 40
0.7067222681
 40
0.7725953831
 40
0.831041478
 40
0.8814885726
 40
0.9234436689
 40
0.9411197469
 40
0.9565346868
 40
0.9696439508
 40
0.9804149694
 40
0.9888333223
 40
0.9948889686
 40
0.9985826362
 40
1.0
 40
1.0
 40
1.0
 40
1.0
 10
36.6170648202
 20
95.5385460182
 30
0.0
 10
36.4870449329
 20
95.5380354742
 30
0.0
 10
36.2318992759
 20
95.5366643154
 30
0.0
 10
35.8615227376
 20
95.5335653809
 30
0.0
 10
35.5686189451
 20
95.5301331745
 30
0.0
 10
35.3523548937
 20
95.5269048037
 30
0.0
 10
35.2073862478
 20
95.5243897915
 30
0.0
 10
35.0759899749
 20
95.5217283821
 30
0.0
 10
34.9594399145
 20
95.5189535647
 30
0.0
 10
34.8588544645
 20
95.5160939416
 30
0.0
 10
34.7854636855
 20
95.5135479948
 30
0.0
 10
34.7354525842
 20
95.5114328455
 30
0.0
 10
34.704655792
 20
95.5099371235
 30
0.0
 10
34.6785258158
 20
95.5084411409
 30
0.0
 10
34.6569172521
 20
95.5069645815
 30
0.0
 10
34.6404316957
 20
95.5054869553
 30
0.0
 10
34.6277227712
 20
95.5041191092
 30
0.0
 10
34.6215902808
 20
95.5027478153
 30
0.0
 10
34.6169757357
 20
95.5017437744
 30
0.0
 10
34.6169723222
 20
95.5007982923
 30
0.0
  0
SPLINE
  5
433
100
AcDbEntity
  8
0
100
AcDbSpline
 62
7
  6
CONTINUOUS
 70
0
 71
3
 72
23
 73
19
 74
0
 42
0.0000001
 43
0.0000001
 44
0.0000000001
 40
0.0
 40
0.0
 40
0.0
 40
0.0
 40
0.1948112344
 40
0.382509554
 40
0.5552687786
 40
0.6340197115
 40
0.7066873541
 40
0.7725872508
 40
0.8310392206
 40
0.8814698651
 40
0.9234429282
 40
0.9565327696
 40
0.9696299976
 40
0.9803975337
 40
0.9888189768
 40
0.9948809066
 40
0.9985806174
 40
1.0
 40
1.0
 40
1.0
 40
1.0
 10
17.716336418
 20
95.2221875371
 30
0.0
 10
17.6513601252
 20
95.2219323972
 30
0.0
 10
17.523780587
 20
95.2212457821
 30
0.0
 10
17.3385839915
 20
95.2196977847
 30
0.0
 10
17.1921013048
 20
95.2179812349
 30
0.0
 10
17.0839878799
 20
95.2163670388
 30
0.0
 10
17.0115150226
 20
95.21510817
 30
0.0
 10
16.9458147355
 20
95.2137789155
 30
0.0
 10
16.8875355141
 20
95.2123917543
 30
0.0
 10
16.8372369149
 20
95.2109627117
 30
0.0
 10
16.7954126528
 20
95.2095073011
 30
0.0
 10
16.7660179939
 20
95.2082187492
 30
0.0
 10
16.7470787609
 20
95.2071338523
 30
0.0
 10
16.7362789785
 20
95.206395219
 30
0.0
 10
16.7280345936
 20
95.2056558723
 30
0.0
 10
16.7216737021
 20
95.2049732932
 30
0.0
 10
16.7186052094
 20
95.2042860173
 30
0.0
 10
16.7162918782
 20
95.203787088
 30
0.0
 10
16.716290169
 20
95.2033136742
 30
0.0
  0
LINE
  5
434
100
AcDbEntity
  8
0
100
AcDbLine
 62
7
  6
CONTINUOUS
 10
45.2088555675
 20
78.9669415115
 11
45.006201195
 21
78.9645574194
  0
SPLINE
  5
435
100
AcDbEntity
  8
0
100
AcDbSpline
 62
7
  6
CONTINUOUS
 70
0
 71
3
 72
9
 73
5
 74
0
 42
0.0000001
 43
0.0000001
 44
0.0000000001
 40
0.0
 40
0.0
 40
0.0
 40
0.0
 40
0.2642907304
 40
1.0
 40
1.0
 40
1.0
 40
1.0
 10
50.1194290123
 20
77.9406087711
 30
0.0
 10
50.3527531323
 20
77.9408268949
 30
0.0
 10
51.2355845909
 20
77.9409699286
 30
0.0
 10
52.1184188455
 20
77.9384799282
 30
0.0
 10
52.7679139849
 20
77.9344843156
 30
0.0
  0
SPLINE
  5
436
100
AcDbEntity
  8
0
100
AcDbSpline
 62
7
  6
CONTINUOUS
 70
0
 71
3
 72
9
 73
5
 74
0
 42
0.0000001
 43
0.0000001
 44
0.0000000001
 40
0.0
 40
0.0
 40
0.0
 40
0.0
 40
0.2865849633
 40
1.0
 40
1.0
 40
1.0
 40
1.0
 10
52.7679139849
 20
77.9344843156
 30
0.0
 10
52.9613764063
 20
77.933294159
 30
0.0
 10
53.6364308095
 20
77.928381742
 30
0.0
 10
54.3114803107
 20
77.9208555277
 30
0.0
 10
54.793002374
 20
77.9117576054
 30
0.0
  0
SPLINE
  5
437
100
AcDbEntity
  8
0
100
AcDbSpline
 62
7
  6
CONTINUOUS
 70
0
 71
3
 72
17
 73
13
 74
0
 42
0.0000001
 43
0.0000001
 44
0.0000000001
 40
0.0
 40
0.0
 40
0.0
 40
0.0
 40
0.0054164584
 40
0.017951693
 40
0.0382174063
 40
0.0662959238
 40
0.1458901608
 40
0.2565972945
 40
0.3980973448
 40
0.5696948389
 40
0.7705952935
 40
1.0
 40
1.0
 40
1.0
 40
1.0
 10
34.6864957224
 20
77.8029121365
 30
0.0
 10
34.6864974798
 20
77.8033989172
 30
0.0
 10
34.688354611
 20
77.8043015065
 30
0.0
 10
34.6913528607
 20
77.8050485945
 30
0.0
 10
34.6969226877
 20
77.8060546769
 30
0.0
 10
34.7082235729
 20
77.8074793209
 30
0.0
 10
34.7278582854
 20
77.8092172504
 30
0.0
 10
34.7575757311
 20
77.8111656235
 30
0.0
 10
34.7956282555
 20
77.8131428865
 30
0.0
 10
34.8417743825
 20
77.8151230215
 30
0.0
 10
34.8958343406
 20
77.8170946372
 30
0.0
 10
34.9344867684
 20
77.818315534
 30
0.0
 10
34.9550945227
 20
77.8189290767
 30
0.0
  0
LINE
  5
438
100
AcDbEntity
  8
0
100
AcDbLine
 62
7
  6
CONTINUOUS
 10
45.4946199108
 20
82.1632659276
 11
45.1853838556
 21
82.1596810666
  0
SPLINE
  5
439
100
AcDbEntity
  8
0
100
AcDbSpline
 62
7
  6
CONTINUOUS
 70
0
 71
3
 72
9
 73
5
 74
0
 42
0.0000001
 43
0.0000001
 44
0.0000000001
 40
0.0
 40
0.0
 40
0.0
 40
0.0
 40
0.2813591537
 40
1.0
 40
1.0
 40
1.0
 40
1.0
 10
79.1004331427
 20
77.9984488091
 30
0.0
 10
79.1301863504
 20
77.9981208922
 30
0.0
 10
79.2359331205
 20
77.9968502896
 30
0.0
 10
79.3416764687
 20
77.9951842806
 30
0.0
 10
79.4176577599
 20
77.9935184718
 30
0.0
  0
SPLINE
  5
43A
100
AcDbEntity
  8
0
100
AcDbSpline
 62
7
  6
CONTINUOUS
 70
0
 71
3
 72
23
 73
19
 74
0
 42
0.0000001
 43
0.0000001
 44
0.0000000001
 40
0.0
 40
0.0
 40
0.0
 40
0.0
 40
0.0014102705
 40
0.0051000285
 40
0.0111524389
 40
0.0195649221
 40
0.0303241055
 40
0.0434136203
 40
0.0764900832
 40
0.1184526216
 40
0.1688756371
 40
0.2273229343
 40
0.2932212192
 40
0.3658902853
 40
0.4446456427
 40
0.6174225618
 40
0.8051497251
 40
1.0
 40
1.0
 40
1.0
 40
1.0
 10
97.5851901495
 20
77.8226992466
 30
0.0
 10
97.5851918474
 20
77.8231695162
 30
0.0
 10
97.5828747411
 20
77.8236589011
 30
0.0
 10
97.5798190287
 20
77.8243139854
 30
0.0
 10
97.5734591277
 20
77.8249507594
 30
0.0
 10
97.5652222242
 20
77.8256234629
 30
0.0
 10
97.5544268818
 20
77.8262779847
 30
0.0
 10
97.5354942083
 20
77.8272138786
 30
0.0
 10
97.5061071794
 20
77.8282718189
 30
0.0
 10
97.4642927609
 20
77.8293986871
 30
0.0
 10
97.4140032934
 20
77.8304327672
 30
0.0
 10
97.3557326427
 20
77.831362255
 30
0.0
 10
97.2900402264
 20
77.8321755691
 30
0.0
 10
97.2175744843
 20
77.8328653059
 30
0.0
 10
97.1094679972
 20
77.8336304939
 30
0.0
 10
96.9629920467
 20
77.8341966879
 30
0.0
 10
96.7778018003
 20
77.8342902878
 30
0.0
 10
96.6502266401
 20
77.8339749829
 30
0.0
 10
96.5852518298
 20
77.8337198489
 30
0.0
  0
SPLINE
  5
43B
100
AcDbEntity
  8
0
100
AcDbSpline
 62
7
  6
CONTINUOUS
 70
0
 71
3
 72
24
 73
20
 74
0
 42
0.0000001
 43
0.0000001
 44
0.0000000001
 40
0.0
 40
0.0
 40
0.0
 40
0.0
 40
0.0014082429
 40
0.0050919296
 40
0.0111380238
 40
0.019547386
 40
0.0303100288
 40
0.0434115669
 40
0.0588194474
 40
0.0764891503
 40
0.1184336187
 40
0.1688730106
 40
0.2273143762
 40
0.2931858055
 40
0.3658819986
 40
0.444670645
 40
0.6174426669
 40
0.8050488737
 40
1.0
 40
1.0
 40
1.0
 40
1.0
 10
79.6861485208
 20
77.9796105
 30
0.0
 10
79.6861519116
 20
77.9805496882
 30
0.0
 10
79.6815299137
 20
77.9815347628
 30
0.0
 10
79.6754229413
 20
77.9828416708
 30
0.0
 10
79.6627160925
 20
77.9841180343
 30
0.0
 10
79.6462455452
 20
77.9854623786
 30
0.0
 10
79.624645907
 20
77.9867706591
 30
0.0
 10
79.598526944
 20
77.9880609188
 30
0.0
 10
79.5677401473
 20
77.9893149761
 30
0.0
 10
79.5177413113
 20
77.9910373986
 30
0.0
 10
79.4443656226
 20
77.9930070889
 30
0.0
 10
79.3437986855
 20
77.9950768012
 30
0.0
 10
79.2272658582
 20
77.9969363643
 30
0.0
 10
79.0958854287
 20
77.9985659214
 30
0.0
 10
78.950931124
 20
77.9999424942
 30
0.0
 10
78.7346809513
 20
78.0014725575
 30
0.0
 10
78.4417903839
 20
78.0026045424
 30
0.0
 10
78.0714261383
 20
78.0027948107
 30
0.0
 10
77.8162889182
 20
78.0021622374
 30
0.0
 10
77.6862718813
 20
78.0016517047
 30
0.0
  0
SPLINE
  5
43C
100
AcDbEntity
  8
0
100
AcDbSpline
 62
7
  6
CONTINUOUS
 70
0
 71
3
 72
12
 73
8
 74
0
 42
0.0000001
 43
0.0000001
 44
0.0000000001
 40
0.0
 40
0.0
 40
0.0
 40
0.0
 40
0.0884063679
 40
0.1961131524
 40
0.453286323
 40
0.7346849185
 40
1.0
 40
1.0
 40
1.0
 40
1.0
 10
54.793002374
 20
77.9117576054
 30
0.0
 10
54.5038916757
 20
77.9172200896
 30
0.0
 10
53.8624936134
 20
77.926141515
 30
0.0
 10
52.3799196011
 20
77.9386058027
 30
0.0
 10
50.2660362365
 20
77.9431527922
 30
0.0
 10
47.6366647773
 20
77.9342871078
 30
0.0
 10
45.8485110016
 20
77.9184955411
 30
0.0
 10
44.9807805114
 20
77.9074473303
 30
0.0
  0
SPLINE
  5
43D
100
AcDbEntity
  8
0
100
AcDbSpline
 62
7
  6
CONTINUOUS
 70
0
 71
3
 72
24
 73
20
 74
0
 42
0.0000001
 43
0.0000001
 44
0.0000000001
 40
0.0
 40
0.0
 40
0.0
 40
0.0
 40
0.1949118941
 40
0.3824889566
 40
0.5552432166
 40
0.6340274556
 40
0.7067222681
 40
0.7725953831
 40
0.831041478
 40
0.8814885726
 40
0.9234436689
 40
0.9411197469
 40
0.9565346868
 40
0.9696439508
 40
0.9804149694
 40
0.9888333223
 40
0.9948889686
 40
0.9985826362
 40
1.0
 40
1.0
 40
1.0
 40
1.0
 10
36.6865882204
 20
77.8406598624
 30
0.0
 10
36.5565683331
 20
77.8401493184
 30
0.0
 10
36.3014226761
 20
77.8387781596
 30
0.0
 10
35.9310461378
 20
77.8356792251
 30
0.0
 10
35.6381423453
 20
77.8322470187
 30
0.0
 10
35.4218782939
 20
77.8290186479
 30
0.0
 10
35.276909648
 20
77.8265036356
 30
0.0
 10
35.145513375
 20
77.8238422263
 30
0.0
 10
35.0289633146
 20
77.8210674089
 30
0.0
 10
34.9283778647
 20
77.8182077858
 30
0.0
 10
34.8549870857
 20
77.815661839
 30
0.0
 10
34.8049759844
 20
77.8135466897
 30
0.0
 10
34.7741791922
 20
77.8120509676
 30
0.0
 10
34.748049216
 20
77.8105549851
 30
0.0
 10
34.7264406523
 20
77.8090784257
 30
0.0
 10
34.7099550959
 20
77.8076007995
 30
0.0
 10
34.6972461714
 20
77.8062329534
 30
0.0
 10
34.691113681
 20
77.8048616595
 30
0.0
 10
34.6864991359
 20
77.8038576186
 30
0.0
 10
34.6864957224
 20
77.8029121365
 30
0.0
  0
SPLINE
  5
43E
100
AcDbEntity
  8
0
100
AcDbSpline
 62
7
  6
CONTINUOUS
 70
0
 71
3
 72
23
 73
19
 74
0
 42
0.0000001
 43
0.0000001
 44
0.0000000001
 40
0.0
 40
0.0
 40
0.0
 40
0.0
 40
0.1948112344
 40
0.382509554
 40
0.5552687786
 40
0.6340197115
 40
0.7066873541
 40
0.7725872508
 40
0.8310392206
 40
0.8814698651
 40
0.9234429282
 40
0.9565327696
 40
0.9696299976
 40
0.9803975337
 40
0.9888189768
 40
0.9948809066
 40
0.9985806174
 40
1.0
 40
1.0
 40
1.0
 40
1.0
 10
17.7858598182
 20
77.5243013813
 30
0.0
 10
17.7208835254
 20
77.5240462414
 30
0.0
 10
17.5933039872
 20
77.5233596263
 30
0.0
 10
17.4081073917
 20
77.5218116289
 30
0.0
 10
17.261624705
 20
77.5200950791
 30
0.0
 10
17.1535112801
 20
77.518480883
 30
0.0
 10
17.0810384228
 20
77.5172220142
 30
0.0
 10
17.0153381357
 20
77.5158927597
 30
0.0
 10
16.9570589143
 20
77.5145055985
 30
0.0
 10
16.9067603151
 20
77.5130765559
 30
0.0
 10
16.864936053
 20
77.5116211453
 30
0.0
 10
16.8355413941
 20
77.5103325934
 30
0.0
 10
16.816602161
 20
77.5092476965
 30
0.0
 10
16.8058023787
 20
77.5085090632
 30
0.0
 10
16.7975579938
 20
77.5077697165
 30
0.0
 10
16.7911971023
 20
77.5070871374
 30
0.0
 10
16.7881286096
 20
77.5063998615
 30
0.0
 10
16.7858152784
 20
77.5059009322
 30
0.0
 10
16.7858135692
 20
77.5054275184
 30
0.0
  0
LINE
  5
43F
100
AcDbEntity
  8
0
100
AcDbLine
 62
7
  6
CONTINUOUS
 10
45.2783789677
 20
61.2690553557
 11
45.0757245952
 21
61.2666712636
  0
SPLINE
  5
440
100
AcDbEntity
  8
0
100
AcDbSpline
 62
7
  6
CONTINUOUS
 70
0
 71
3
 72
9
 73
5
 74
0
 42
0.0000001
 43
0.0000001
 44
0.0000000001
 40
0.0
 40
0.0
 40
0.0
 40
0.0
 40
0.2642907304
 40
1.0
 40
1.0
 40
1.0
 40
1.0
 10
50.1889524125
 20
60.2427226153
 30
0.0
 10
50.4222765325
 20
60.2429407391
 30
0.0
 10
51.3051079911
 20
60.2430837728
 30
0.0
 10
52.1879422457
 20
60.2405937724
 30
0.0
 10
52.8374373851
 20
60.2365981598
 30
0.0
  0
SPLINE
  5
441
100
AcDbEntity
  8
0
100
AcDbSpline
 62
7
  6
CONTINUOUS
 70
0
 71
3
 72
9
 73
5
 74
0
 42
0.0000001
 43
0.0000001
 44
0.0000000001
 40
0.0
 40
0.0
 40
0.0
 40
0.0
 40
0.2865849633
 40
1.0
 40
1.0
 40
1.0
 40
1.0
 10
52.8374373851
 20
60.2365981598
 30
0.0
 10
53.0308998065
 20
60.2354080032
 30
0.0
 10
53.7059542096
 20
60.2304955862
 30
0.0
 10
54.3810037109
 20
60.2229693719
 30
0.0
 10
54.8625257742
 20
60.2138714496
 30
0.0
  0
SPLINE
  5
442
100
AcDbEntity
  8
0
100
AcDbSpline
 62
7
  6
CONTINUOUS
 70
0
 71
3
 72
17
 73
13
 74
0
 42
0.0000001
 43
0.0000001
 44
0.0000000001
 40
0.0
 40
0.0
 40
0.0
 40
0.0
 40
0.0054164584
 40
0.017951693
 40
0.0382174063
 40
0.0662959238
 40
0.1458901608
 40
0.2565972945
 40
0.3980973448
 40
0.5696948389
 40
0.7705952935
 40
1.0
 40
1.0
 40
1.0
 40
1.0
 10
34.7560191225
 20
60.1050259807
 30
0.0
 10
34.75602088
 20
60.1055127614
 30
0.0
 10
34.7578780112
 20
60.1064153506
 30
0.0
 10
34.7608762609
 20
60.1071624387
 30
0.0
 10
34.7664460879
 20
60.108168521
 30
0.0
 10
34.7777469731
 20
60.1095931651
 30
0.0
 10
34.7973816856
 20
60.1113310946
 30
0.0
 10
34.8270991313
 20
60.1132794677
 30
0.0
 10
34.8651516556
 20
60.1152567307
 30
0.0
 10
34.9112977827
 20
60.1172368657
 30
0.0
 10
34.9653577408
 20
60.1192084814
 30
0.0
 10
35.0040101686
 20
60.1204293782
 30
0.0
 10
35.0246179229
 20
60.1210429209
 30
0.0
  0
LINE
  5
443
100
AcDbEntity
  8
0
100
AcDbLine
 62
7
  6
CONTINUOUS
 10
45.564143311
 20
64.4653797718
 11
45.2549072558
 21
64.4617949107
  0
SPLINE
  5
444
100
AcDbEntity
  8
0
100
AcDbSpline
 62
7
  6
CONTINUOUS
 70
0
 71
3
 72
9
 73
5
 74
0
 42
0.0000001
 43
0.0000001
 44
0.0000000001
 40
0.0
 40
0.0
 40
0.0
 40
0.0
 40
0.2813591543
 40
1.0
 40
1.0
 40
1.0
 40
1.0
 10
79.1699565323
 20
60.3005626534
 30
0.0
 10
79.1997097411
 20
60.3002347365
 30
0.0
 10
79.3054565147
 20
60.2989641339
 30
0.0
 10
79.4111998665
 20
60.2972981248
 30
0.0
 10
79.4871811601
 20
60.295632316
 30
0.0
  0
SPLINE
  5
445
100
AcDbEntity
  8
0
100
AcDbSpline
 62
7
  6
CONTINUOUS
 70
0
 71
3
 72
23
 73
19
 74
0
 42
0.0000001
 43
0.0000001
 44
0.0000000001
 40
0.0
 40
0.0
 40
0.0
 40
0.0
 40
0.0014102705
 40
0.0051000285
 40
0.0111524389
 40
0.0195649221
 40
0.0303241055
 40
0.0434136203
 40
0.0764900832
 40
0.1184526216
 40
0.1688756371
 40
0.2273229343
 40
0.2932212192
 40
0.3658902853
 40
0.4446456427
 40
0.6174225618
 40
0.8051497251
 40
1.0
 40
1.0
 40
1.0
 40
1.0
 10
97.6547135497
 20
60.1248130908
 30
0.0
 10
97.6547152476
 20
60.1252833604
 30
0.0
 10
97.6523981413
 20
60.1257727453
 30
0.0
 10
97.6493424288
 20
60.1264278296
 30
0.0
 10
97.6429825279
 20
60.1270646035
 30
0.0
 10
97.6347456244
 20
60.1277373071
 30
0.0
 10
97.623950282
 20
60.1283918288
 30
0.0
 10
97.6050176085
 20
60.1293277228
 30
0.0
 10
97.5756305796
 20
60.1303856631
 30
0.0
 10
97.5338161611
 20
60.1315125313
 30
0.0
 10
97.4835266936
 20
60.1325466113
 30
0.0
 10
97.4252560429
 20
60.1334760992
 30
0.0
 10
97.3595636266
 20
60.1342894133
 30
0.0
 10
97.2870978844
 20
60.1349791501
 30
0.0
 10
97.1789913974
 20
60.1357443381
 30
0.0
 10
97.0325154468
 20
60.1363105321
 30
0.0
 10
96.8473252005
 20
60.136404132
 30
0.0
 10
96.7197500403
 20
60.1360888271
 30
0.0
 10
96.6547752299
 20
60.1358336931
 30
0.0
  0
SPLINE
  5
446
100
AcDbEntity
  8
0
100
AcDbSpline
 62
7
  6
CONTINUOUS
 70
0
 71
3
 72
24
 73
20
 74
0
 42
0.0000001
 43
0.0000001
 44
0.0000000001
 40
0.0
 40
0.0
 40
0.0
 40
0.0
 40
0.0014082429
 40
0.0050919296
 40
0.0111380238
 40
0.019547386
 40
0.0303100288
 40
0.0434115669
 40
0.0588194474
 40
0.0764891503
 40
0.1184336187
 40
0.1688730106
 40
0.2273143762
 40
0.2931858055
 40
0.3658819986
 40
0.444670645
 40
0.6174426669
 40
0.8050488737
 40
1.0
 40
1.0
 40
1.0
 40
1.0
 10
79.755671921
 20
60.2817243442
 30
0.0
 10
79.7556753118
 20
60.2826635323
 30
0.0
 10
79.7510533139
 20
60.283648607
 30
0.0
 10
79.7449463415
 20
60.284955515
 30
0.0
 10
79.7322394927
 20
60.2862318785
 30
0.0
 10
79.7157689454
 20
60.2875762228
 30
0.0
 10
79.6941693071
 20
60.2888845033
 30
0.0
 10
79.6680503442
 20
60.290174763
 30
0.0
 10
79.6372635474
 20
60.2914288203
 30
0.0
 10
79.5872647115
 20
60.2931512427
 30
0.0
 10
79.5138890228
 20
60.2951209331
 30
0.0
 10
79.4133220857
 20
60.2971906454
 30
0.0
 10
79.2967892584
 20
60.2990502085
 30
0.0
 10
79.1654088289
 20
60.3006797656
 30
0.0
 10
79.0204545242
 20
60.3020563384
 30
0.0
 10
78.8042043515
 20
60.3035864017
 30
0.0
 10
78.5113137841
 20
60.3047183866
 30
0.0
 10
78.1409495385
 20
60.3049086549
 30
0.0
 10
77.8858123184
 20
60.3042760816
 30
0.0
 10
77.7557952814
 20
60.3037655488
 30
0.0
  0
SPLINE
  5
447
100
AcDbEntity
  8
0
100
AcDbSpline
 62
7
  6
CONTINUOUS
 70
0
 71
3
 72
12
 73
8
 74
0
 42
0.0000001
 43
0.0000001
 44
0.0000000001
 40
0.0
 40
0.0
 40
0.0
 40
0.0
 40
0.0884063679
 40
0.1961131524
 40
0.453286323
 40
0.7346849185
 40
1.0
 40
1.0
 40
1.0
 40
1.0
 10
54.8625257742
 20
60.2138714496
 30
0.0
 10
54.5734150759
 20
60.2193339338
 30
0.0
 10
53.9320170135
 20
60.2282553592
 30
0.0
 10
52.4494430013
 20
60.2407196469
 30
0.0
 10
50.3355596367
 20
60.2452666363
 30
0.0
 10
47.7061881774
 20
60.236400952
 30
0.0
 10
45.9180344018
 20
60.2206093852
 30
0.0
 10
45.0503039116
 20
60.2095611745
 30
0.0
  0
SPLINE
  5
448
100
AcDbEntity
  8
0
100
AcDbSpline
 62
7
  6
CONTINUOUS
 70
0
 71
3
 72
24
 73
20
 74
0
 42
0.0000001
 43
0.0000001
 44
0.0000000001
 40
0.0
 40
0.0
 40
0.0
 40
0.0
 40
0.1949118941
 40
0.3824889566
 40
0.5552432166
 40
0.6340274556
 40
0.7067222681
 40
0.7725953831
 40
0.831041478
 40
0.8814885726
 40
0.9234436689
 40
0.9411197469
 40
0.9565346868
 40
0.9696439508
 40
0.9804149694
 40
0.9888333223
 40
0.9948889686
 40
0.9985826362
 40
1.0
 40
1.0
 40
1.0
 40
1.0
 10
36.7561116206
 20
60.1427737066
 30
0.0
 10
36.6260917333
 20
60.1422631626
 30
0.0
 10
36.3709460763
 20
60.1408920037
 30
0.0
 10
36.0005695379
 20
60.1377930693
 30
0.0
 10
35.7076657455
 20
60.1343608629
 30
0.0
 10
35.4914016941
 20
60.1311324921
 30
0.0
 10
35.3464330482
 20
60.1286174798
 30
0.0
 10
35.2150367752
 20
60.1259560705
 30
0.0
 10
35.0984867148
 20
60.1231812531
 30
0.0
 10
34.9979012649
 20
60.12032163
 30
0.0
 10
34.9245104859
 20
60.1177756832
 30
0.0
 10
34.8744993846
 20
60.1156605339
 30
0.0
 10
34.8437025924
 20
60.1141648118
 30
0.0
 10
34.8175726162
 20
60.1126688293
 30
0.0
 10
34.7959640524
 20
60.1111922699
 30
0.0
 10
34.7794784961
 20
60.1097146437
 30
0.0
 10
34.7667695716
 20
60.1083467975
 30
0.0
 10
34.7606370812
 20
60.1069755036
 30
0.0
 10
34.7560225361
 20
60.1059714628
 30
0.0
 10
34.7560191226
 20
60.1050259807
 30
0.0
  0
SPLINE
  5
449
100
AcDbEntity
  8
0
100
AcDbSpline
 62
7
  6
CONTINUOUS
 70
0
 71
3
 72
23
 73
19
 74
0
 42
0.0000001
 43
0.0000001
 44
0.0000000001
 40
0.0
 40
0.0
 40
0.0
 40
0.0
 40
0.1948112344
 40
0.382509554
 40
0.5552687786
 40
0.6340197115
 40
0.7066873541
 40
0.7725872508
 40
0.8310392206
 40
0.8814698651
 40
0.9234429282
 40
0.9565327696
 40
0.9696299976
 40
0.9803975337
 40
0.9888189768
 40
0.9948809066
 40
0.9985806174
 40
1.0
 40
1.0
 40
1.0
 40
1.0
 10
17.8553832184
 20
59.8264152255
 30
0.0
 10
17.7904069255
 20
59.8261600856
 30
0.0
 10
17.6628273874
 20
59.8254734705
 30
0.0
 10
17.4776307919
 20
59.8239254731
 30
0.0
 10
17.3311481052
 20
59.8222089233
 30
0.0
 10
17.2230346803
 20
59.8205947272
 30
0.0
 10
17.150561823
 20
59.8193358583
 30
0.0
 10
17.0848615359
 20
59.8180066039
 30
0.0
 10
17.0265823145
 20
59.8166194427
 30
0.0
 10
16.9762837152
 20
59.8151904001
 30
0.0
 10
16.9344594531
 20
59.8137349895
 30
0.0
 10
16.9050647943
 20
59.8124464376
 30
0.0
 10
16.8861255612
 20
59.8113615407
 30
0.0
 10
16.8753257789
 20
59.8106229074
 30
0.0
 10
16.867081394
 20
59.8098835607
 30
0.0
 10
16.8607205025
 20
59.8092009816
 30
0.0
 10
16.8576520098
 20
59.8085137057
 30
0.0
 10
16.8553386786
 20
59.8080147764
 30
0.0
 10
16.8553369694
 20
59.8075413625
 30
0.0
  0
LINE
  5
44A
100
AcDbEntity
  8
0
100
AcDbLine
 62
7
  6
CONTINUOUS
 10
45.3479023679
 20
43.5711691999
 11
45.1452479954
 21
43.5687851077
  0
SPLINE
  5
44B
100
AcDbEntity
  8
0
100
AcDbSpline
 62
7
  6
CONTINUOUS
 70
0
 71
3
 72
13
 73
9
 74
0
 42
0.0000001
 43
0.0000001
 44
0.0000000001
 40
0.0
 40
0.0
 40
0.0
 40
0.0
 40
0.0955991439
 40
0.2158666211
 40
0.5000304358
 40
0.7841780573
 40
0.9044262228
 40
1.0
 40
1.0
 40
1.0
 40
1.0
 10
42.7190356931
 20
42.4680289349
 30
0.0
 10
43.108102556
 20
42.4784340044
 30
0.0
 10
43.9867784854
 20
42.4962711517
 30
0.0
 10
46.0223183903
 20
42.525025742
 30
0.0
 10
48.8256399675
 20
42.5450553811
 30
0.0
 10
51.6289537898
 20
42.5470421576
 30
0.0
 10
53.6644089028
 20
42.5342726882
 30
0.0
 10
54.5430159088
 20
42.5233357242
 30
0.0
 10
54.9320491744
 20
42.5159852937
 30
0.0
  0
SPLINE
  5
44C
100
AcDbEntity
  8
0
100
AcDbSpline
 62
7
  6
CONTINUOUS
 70
0
 71
3
 72
24
 73
20
 74
0
 42
0.0000001
 43
0.0000001
 44
0.0000000001
 40
0.0
 40
0.0
 40
0.0
 40
0.0
 40
0.0014173618
 40
0.0051110238
 40
0.0111666625
 40
0.0195850075
 40
0.0303560195
 40
0.0434652774
 40
0.0588802055
 40
0.0765562685
 40
0.1185113379
 40
0.1689584166
 40
0.2274044854
 40
0.2932775884
 40
0.3659723955
 40
0.4447566225
 40
0.6175108947
 40
0.8050880504
 40
1.0
 40
1.0
 40
1.0
 40
1.0
 10
34.8255425227
 20
42.4071398249
 30
0.0
 10
34.8255459362
 20
42.4080853057
 30
0.0
 10
34.830160472
 20
42.4090893491
 30
0.0
 10
34.8362929558
 20
42.4104606405
 30
0.0
 10
34.8490018644
 20
42.4118284874
 30
0.0
 10
34.8654874067
 20
42.4133061122
 30
0.0
 10
34.8870959565
 20
42.4147826708
 30
0.0
 10
34.9132259165
 20
42.4162786519
 30
0.0
 10
34.9440226867
 20
42.4177743736
 30
0.0
 10
34.9940337522
 20
42.4198895225
 30
0.0
 10
35.0674244926
 20
42.422435469
 30
0.0
 10
35.1680098967
 20
42.4252950913
 30
0.0
 10
35.2845599211
 20
42.4280699097
 30
0.0
 10
35.4159561651
 20
42.4307313186
 30
0.0
 10
35.5609247914
 20
42.433246331
 30
0.0
 10
35.7771888394
 20
42.4364747035
 30
0.0
 10
36.0700926942
 20
42.4399069112
 30
0.0
 10
36.4404693401
 20
42.4430058465
 30
0.0
 10
36.6956150964
 20
42.4443770066
 30
0.0
 10
36.8256350208
 20
42.4448875507
 30
0.0
  0
SPLINE
  5
44D
100
AcDbEntity
  8
0
100
AcDbSpline
 62
7
  6
CONTINUOUS
 70
0
 71
3
 72
23
 73
19
 74
0
 42
0.0000001
 43
0.0000001
 44
0.0000000001
 40
0.0
 40
0.0
 40
0.0
 40
0.0
 40
0.0014193875
 40
0.0051191127
 40
0.0111810627
 40
0.0196025286
 40
0.0303700867
 40
0.0434673327
 40
0.0765572168
 40
0.1185303546
 40
0.1689610583
 40
0.227413049
 40
0.2933129947
 40
0.365980686
 40
0.4447316318
 40
0.6174907983
 40
0.8051888776
 40
1.0
 40
1.0
 40
1.0
 40
1.0
 10
16.9248603696
 20
42.1096552067
 30
0.0
 10
16.9248620788
 20
42.1101286222
 30
0.0
 10
16.9271754218
 20
42.1106275483
 30
0.0
 10
16.9302439232
 20
42.1113148273
 30
0.0
 10
16.9366048363
 20
42.1119974054
 30
0.0
 10
16.944849242
 20
42.1127367536
 30
0.0
 10
16.9556490456
 20
42.1134753875
 30
0.0
 10
16.974588306
 20
42.1145602864
 30
0.0
 10
17.00398301
 20
42.1158488403
 30
0.0
 10
17.0458073309
 20
42.1173042507
 30
0.0
 10
17.0961059817
 20
42.1187332936
 30
0.0
 10
17.1543852462
 20
42.1201204557
 30
0.0
 10
17.2200855728
 20
42.121449709
 30
0.0
 10
17.2925584669
 20
42.122708577
 30
0.0
 10
17.4006718928
 20
42.124322773
 30
0.0
 10
17.5471544842
 20
42.1260393195
 30
0.0
 10
17.7323509426
 20
42.1275873168
 30
0.0
 10
17.8599303631
 20
42.12827393
 30
0.0
 10
17.9249066186
 20
42.1285290697
 30
0.0
  0
SPLINE
  5
44E
100
AcDbEntity
  8
0
100
AcDbSpline
 62
7
  6
CONTINUOUS
 70
0
 71
3
 72
23
 73
19
 74
0
 42
0.0000001
 43
0.0000001
 44
0.0000000001
 40
0.0
 40
0.0
 40
0.0
 40
0.0
 40
0.1948503869
 40
0.3825777906
 40
0.5553547678
 40
0.6341101122
 40
0.7067791297
 40
0.7726773655
 40
0.8311246417
 40
0.881547598
 40
0.9235100617
 40
0.956586482
 40
0.9696759788
 40
0.9804351402
 40
0.9888476006
 40
0.9948999907
 40
0.9985897343
 40
1.0
 40
1.0
 40
1.0
 40
1.0
 10
96.7242986301
 20
42.4379475373
 30
0.0
 10
96.7892734779
 20
42.4382026714
 30
0.0
 10
96.9168487557
 20
42.4385179753
 30
0.0
 10
97.1020391391
 20
42.4384243763
 30
0.0
 10
97.248515185
 20
42.4378581798
 30
0.0
 10
97.356621671
 20
42.4370929918
 30
0.0
 10
97.4290873763
 20
42.4364032538
 30
0.0
 10
97.4947797532
 20
42.4355899382
 30
0.0
 10
97.5530503608
 20
42.4346604509
 30
0.0
 10
97.6033397768
 20
42.4336263707
 30
0.0
 10
97.6451541364
 20
42.4324995019
 30
0.0
 10
97.6745411202
 20
42.4314415633
 30
0.0
 10
97.6934737663
 20
42.4305056711
 30
0.0
 10
97.7042690875
 20
42.4298511498
 30
0.0
 10
97.7125059702
 20
42.4291784476
 30
0.0
 10
97.7188658495
 20
42.4285416725
 30
0.0
 10
97.7219215533
 20
42.4278865911
 30
0.0
 10
97.7242386477
 20
42.427397203
 30
0.0
 10
97.7242369499
 20
42.426926935
 30
0.0
  0
LINE
  5
44F
100
AcDbEntity
  8
0
100
AcDbLine
 62
7
  6
CONTINUOUS
 10
45.6336667112
 20
46.767493616
 11
45.324430656
 21
46.7639087549
  0
SPLINE
  5
450
100
AcDbEntity
  8
0
100
AcDbSpline
 62
7
  6
CONTINUOUS
 70
0
 71
3
 72
24
 73
20
 74
0
 42
0.0000001
 43
0.0000001
 44
0.0000000001
 40
0.0
 40
0.0
 40
0.0
 40
0.0
 40
0.1949510708
 40
0.3825571844
 40
0.5553291941
 40
0.6341178525
 40
0.706814051
 40
0.7726854923
 40
0.8311268841
 40
0.8815662918
 40
0.9235107871
 40
0.941180505
 40
0.9565883974
 40
0.9696899415
 40
0.9804525909
 40
0.988861961
 40
0.9949080628
 40
0.9985917551
 40
1.0
 40
1.0
 40
1.0
 40
1.0
 10
77.8253186816
 20
42.605879393
 30
0.0
 10
77.9553356815
 20
42.6063899257
 30
0.0
 10
78.2104728023
 20
42.6070224994
 30
0.0
 10
78.5808369404
 20
42.6068322312
 30
0.0
 10
78.8737274454
 20
42.6057002471
 30
0.0
 10
79.0899776215
 20
42.6041701855
 30
0.0
 10
79.2349319459
 20
42.6027936129
 30
0.0
 10
79.3663124043
 20
42.6011640556
 30
0.0
 10
79.4828452676
 20
42.599304494
 30
0.0
 10
79.5834122506
 20
42.597234781
 30
0.0
 10
79.6567879779
 20
42.5952650908
 30
0.0
 10
79.7067868496
 20
42.5935426682
 30
0.0
 10
79.7375736684
 20
42.5922886107
 30
0.0
 10
79.7636926475
 20
42.5909983497
 30
0.0
 10
79.7852922996
 20
42.5896900684
 30
0.0
 10
79.8017628609
 20
42.588345723
 30
0.0
 10
79.8144697257
 20
42.5870693603
 30
0.0
 10
79.8205767046
 20
42.5857624499
 30
0.0
 10
79.825198712
 20
42.5847773779
 30
0.0
 10
79.8251953212
 20
42.5838381884
 30
0.0
  0
ELLIPSE
  5
451
100
AcDbEntity
  8
0
100
AcDbEllipse
 62
7
  6
CONTINUOUS
 10
42.0178272259
 20
112.9460106316
 30
0.0
 11
0.4998740435
 21
0.0325067672
 31
0.0
 40
0.0476295343
 41
-2.344498043
 42
-0.7875897121
  0
ELLIPSE
  5
452
100
AcDbEntity
  8
0
100
AcDbEllipse
 62
7
  6
CONTINUOUS
 10
39.7125337224
 20
112.9034873479
 30
0.0
 11
0.4998740437
 21
0.0325067672
 31
0.0
 40
0.0476295343
 41
2.3817789334
 42
3.9386872642
  0
ENDSEC
  0
SECTION
  2
OBJECTS
  0
DICTIONARY
  5
C
100
AcDbDictionary
280
0
281
1
  3
ACAD_GROUP
350
D
  3
ACAD_MLINESTYLE
350
17
  3
ACAD_LAYOUT
350
1A
  3
ACAD_PLOTSETTINGS
350
19
  3
ACAD_PLOTSTYLENAME
350
E
  0
DICTIONARY
  5
D
102
{ACAD_REACTORS
330
C
102
}
100
AcDbDictionary
280
0
281
1
  0
ACDBDICTIONARYWDFLT
  5
E
102
{ACAD_REACTORS
330
C
102
}
100
AcDbDictionary
281
1
  3
Normal
350
F
100
AcDbDictionaryWithDefault
340
F
  0
DICTIONARY
  5
17
102
{ACAD_REACTORS
330
C
102
}
100
AcDbDictionary
280
0
281
1
  3
Standard
350
18
  0
DICTIONARY
  5
19
102
{ACAD_REACTORS
330
C
102
}
100
AcDbDictionary
281
1
  0
DICTIONARY
  5
1A
102
{ACAD_REACTORS
330
C
102
}
100
AcDbDictionary
281
1
  3
Model
350
453
  3
Layout1
350
454
  0
ACDBPLACEHOLDER
  5
F
102
{ACAD_REACTORS
330
E
102
}
  0
MLINESTYLE
  5
18
102
{ACAD_REACTORS
330
17
102
}
100
AcDbMlineStyle
  2
STANDARD
 70
0
  3

 62
256
 51
90.0
 52
90.0
 71
2
 49
0.5
 62
256
  6
BYLAYER
 49
-0.5
 62
256
  6
BYLAYER
  0
LAYOUT
  5
453
102
{ACAD_REACTORS
330
1A
102
}
100
AcDbPlotSettings
  1

  2
none_device
  4

  6

 40
0.0
 41
0.0
 42
0.0
 43
0.0
 44
210.0
 45
297.0
 46
0.0
 47
0.0
 48
0.0
 49
0.0
140
0.0
141
0.0
142
1.0
143
1.0
 70
1024
 72
1
 73
0
 74
0
  7

 75
0
147
1.0
148
0.0
149
0.0
100
AcDbLayout
  1
Model
 70
0
 71
0
 10
0.0
 20
0.0
 11
210.0
 21
297.0
 12
0.0
 22
0.0
 32
0.0
 14
0.0
 24
0.0
 34
0.0
 15
0.0
 25
0.0
 35
0.0
146
0.0
 13
0.0
 23
0.0
 33
0.0
 16
1.0
 26
0.0
 36
0.0
 17
0.0
 27
1.0
 37
0.0
 76
0
330
210
345
0
346
0
  0
LAYOUT
  5
454
102
{ACAD_REACTORS
330
1A
102
}
100
AcDbPlotSettings
  1

  2
none_device
  4

  6

 40
0.0
 41
0.0
 42
0.0
 43
0.0
 44
210.0
 45
297.0
 46
0.0
 47
0.0
 48
0.0
 49
0.0
140
0.0
141
0.0
142
1.0
143
1.0
 70
0
 72
1
 73
0
 74
0
  7

 75
0
147
1.0
148
0.0
149
0.0
100
AcDbLayout
  1
Layout1
 70
0
 71
1
 10
0.0
 20
0.0
 11
210.0
 21
297.0
 12
0.0
 22
0.0
 32
0.0
 14
0.0
 24
0.0
 34
0.0
 15
0.0
 25
0.0
 35
0.0
146
0.0
 13
0.0
 23
0.0
 33
0.0
 16
1.0
 26
0.0
 36
0.0
 17
0.0
 27
1.0
 37
0.0
 76
0
330
211
345
0
346
0
  0
ENDSEC
  0
EOF
