999
DXF file: C:\Users\sesa63760\Dev\_Creo\CAD\MCADPD0004098_3D-CAD\drw0001_1.dxf
999
Pro/ENGINEER 2019471 by Parametric Technology Corporation
  0
SECTION
  2
HEADER
  9
$ACADVER
  1
AC1024
  9
$DWGCODEPAGE
  3
ANSI_1252
  9
$EXTMAX
 10
67.7675538535
 20
95.8426833072
 30
0.0
  9
$EXTMIN
 10
0.0
 20
0.0
 30
0.0
  9
$LIMMIN
 10
0.0
 20
0.0
  9
$LIMMAX
 10
67.7675538535
 20
95.8426833072
  9
$VIEWCTR
 10
33.8837769268
 20
47.9213416536
  9
$VIEWSIZE
 40
95.8426833072
  9
$CLAYER
  8
0
  9
$LTSCALE
 40
6.24752306
  9
$CELTYPE
  6
BYLAYER
  9
$DIMSCALE
 40
1.0
  9
$DIMASZ
 40
0.8067565935
  9
$DIMEXO
 40
1.0
  9
$DIMDLI
 40
4.3164704778
  9
$DIMEXE
 40
1.0
  9
$DIMCEN
 40
1.0223219553
  9
$DIMLFAC
 40
1.0
  9
$DIMBLK
  1
_FILLED
  9
$DIMALT
 70
0
  9
$DIMALTF
 40
0.0393700787
  9
$DIMTXT
 40
1.1294592309
  9
$DIMTOL
 70
1
  9
$DIMLIM
 70
0
  9
$DIMTFAC
 40
1.0
  9
$DIMTP
 40
0.01
  9
$DIMTM
 40
0.01
  9
$DIMGAP
 40
0.625
  9
$DIMDSEP
 70
46
  9
$AUNITS
 70
0
  9
$PDMODE
 70
3
  9
$PDSIZE
 40
0.3125
  9
$HANDSEED
  5
2A3
  9
$TILEMODE
 70
1
  9
$MEASUREMENT
 70
1
  9
$INSUNITS
 70
4
  0
ENDSEC
  0
SECTION
  2
CLASSES
  0
CLASS
  1
ACDBDICTIONARYWDFLT
  2
AcDbDictionaryWithDefault
  3
AutoCAD 2000
 90
0
 91
1
280
0
281
0
  0
CLASS
  1
ACDBPLACEHOLDER
  2
AcDbPlaceHolder
  3
AutoCAD 2000
 90
0
 91
1
280
0
281
0
  0
CLASS
  1
LAYOUT
  2
AcDbLayout
  3
AutoCAD 2000
 90
0
 91
0
280
0
281
0
  0
ENDSEC
  0
SECTION
  2
TABLES
  0
TABLE
  2
VPORT
  5
8
100
AcDbSymbolTable
 70
2
  0
VPORT
  5
1F4
100
AcDbSymbolTableRecord
100
AcDbViewportTableRecord
  2
*ACTIVE
 70
0
 10
0.0
 20
0.0
 11
1.0
 21
1.0
 12
33.8837769268
 22
47.9213416536
 13
0.0
 23
0.0
 14
1.0
 24
1.0
 15
0.0
 25
0.0
 16
0.0
 26
0.0
 36
1.0
 17
0.0
 27
0.0
 37
0.0
 40
95.8426833072
 41
0.7070707071
 42
50.0
 43
0.0
 44
0.0
 50
0.0
 51
0.0
 71
0
 72
100
 73
1
 74
1
 75
0
 76
0
 77
0
 78
0
  0
ENDTAB
  0
TABLE
  2
LTYPE
  5
5
100
AcDbSymbolTable
 70
6
  0
LTYPE
  5
14
100
AcDbSymbolTableRecord
100
AcDbLinetypeTableRecord
  2
BYBLOCK
 70
0
  3

 72
65
 73
0
 40
0.0
  0
LTYPE
  5
15
100
AcDbSymbolTableRecord
100
AcDbLinetypeTableRecord
  2
BYLAYER
 70
0
  3

 72
65
 73
0
 40
0.0
  0
LTYPE
  5
16
100
AcDbSymbolTableRecord
100
AcDbLinetypeTableRecord
  2
CONTINUOUS
 70
64
  3
Solid line
 72
65
 73
0
 40
0.0
  0
LTYPE
  5
1F5
100
AcDbSymbolTableRecord
100
AcDbLinetypeTableRecord
  2
CENTER
 70
64
  3
____ _ ____ _ ____ _ ____ _ ____ _ ____ _ ____
 72
65
 73
4
 40
0.6
 49
0.375
 74
0
 49
-0.075
 74
0
 49
0.075
 74
0
 49
-0.075
 74
0
  0
LTYPE
  5
1F6
100
AcDbSymbolTableRecord
100
AcDbLinetypeTableRecord
  2
HIDDEN
 70
64
  3
- - - - - - - - - - - - - - - - - - - -
 72
65
 73
2
 40
0.2
 49
0.1
 74
0
 49
-0.1
 74
0
  0
LTYPE
  5
1F7
100
AcDbSymbolTableRecord
100
AcDbLinetypeTableRecord
  2
PHANTOM
 70
64
  3
_____ _ _ _____ _ _ _____ _ _ _____
 72
65
 73
6
 40
0.8
 49
0.45
 74
0
 49
-0.05
 74
0
 49
0.1
 74
0
 49
-0.05
 74
0
 49
0.1
 74
0
 49
-0.05
 74
0
  0
LTYPE
  5
1F8
100
AcDbSymbolTableRecord
100
AcDbLinetypeTableRecord
  2
DOT
 70
64
  3
. . . . . . . . . . . . . . . . . . . .
 72
65
 73
2
 40
0.2
 49
0.1
 74
0
 49
-0.1
 74
0
  0
LTYPE
  5
1F9
100
AcDbSymbolTableRecord
100
AcDbLinetypeTableRecord
  2
DASHED
 70
64
  3
- - - - - - - - - - - - - - - - - - - -
 72
65
 73
2
 40
0.2
 49
0.1
 74
0
 49
-0.1
 74
0
  0
ENDTAB
  0
TABLE
  2
LAYER
  5
2
100
AcDbSymbolTable
 70
36
  0
LAYER
  5
10
100
AcDbSymbolTableRecord
100
AcDbLayerTableRecord
  2
0
 70
0
 62
7
  6
CONTINUOUS
370
-3
390
F
  0
LAYER
  5
1FA
100
AcDbSymbolTableRecord
100
AcDbLayerTableRecord
  2
DEFAULT_1
 70
0
 62
7
  6
CENTER
370
-3
390
F
  0
LAYER
  5
1FB
100
AcDbSymbolTableRecord
100
AcDbLayerTableRecord
  2
DEFAULT_2
 70
0
 62
7
  6
HIDDEN
370
-3
390
F
  0
LAYER
  5
1FC
100
AcDbSymbolTableRecord
100
AcDbLayerTableRecord
  2
DEFAULT_3
 70
0
 62
7
  6
PHANTOM
370
-3
390
F
  0
LAYER
  5
1FD
100
AcDbSymbolTableRecord
100
AcDbLayerTableRecord
  2
00_COMPONENTS
 70
0
 62
7
  6
CONTINUOUS
370
-3
390
F
  0
LAYER
  5
1FE
100
AcDbSymbolTableRecord
100
AcDbLayerTableRecord
  2
01_1_DEFAULT_DATUMS
 70
0
 62
7
  6
CONTINUOUS
370
-3
390
F
  0
LAYER
  5
1FF
100
AcDbSymbolTableRecord
100
AcDbLayerTableRecord
  2
01_PLANES
 70
0
 62
7
  6
CONTINUOUS
370
-3
390
F
  0
LAYER
  5
200
100
AcDbSymbolTableRecord
100
AcDbLayerTableRecord
  2
02_COORD_SYS
 70
0
 62
7
  6
CONTINUOUS
370
-3
390
F
  0
LAYER
  5
201
100
AcDbSymbolTableRecord
100
AcDbLayerTableRecord
  2
03_AXES
 70
0
 62
7
  6
CONTINUOUS
370
-3
390
F
  0
LAYER
  5
202
100
AcDbSymbolTableRecord
100
AcDbLayerTableRecord
  2
04_POINTS
 70
0
 62
7
  6
CONTINUOUS
370
-3
390
F
  0
LAYER
  5
203
100
AcDbSymbolTableRecord
100
AcDbLayerTableRecord
  2
05_CURVES
 70
0
 62
7
  6
CONTINUOUS
370
-3
390
F
  0
LAYER
  5
204
100
AcDbSymbolTableRecord
100
AcDbLayerTableRecord
  2
06_SURFS
 70
0
 62
7
  6
CONTINUOUS
370
-3
390
F
  0
LAYER
  5
205
100
AcDbSymbolTableRecord
100
AcDbLayerTableRecord
  2
07_COSMETICS
 70
0
 62
7
  6
CONTINUOUS
370
-3
390
F
  0
LAYER
  5
206
100
AcDbSymbolTableRecord
100
AcDbLayerTableRecord
  2
10_NOTES
 70
0
 62
7
  6
CONTINUOUS
370
-3
390
F
  0
LAYER
  5
207
100
AcDbSymbolTableRecord
100
AcDbLayerTableRecord
  2
11_NOTES_PUB
 70
0
 62
7
  6
CONTINUOUS
370
-3
390
F
  0
LAYER
  5
208
100
AcDbSymbolTableRecord
100
AcDbLayerTableRecord
  2
13_REF_GTOL
 70
0
 62
7
  6
CONTINUOUS
370
-3
390
F
  0
LAYER
  5
209
100
AcDbSymbolTableRecord
100
AcDbLayerTableRecord
  2
16_MISC
 70
0
 62
7
  6
CONTINUOUS
370
-3
390
F
  0
LAYER
  5
20A
100
AcDbSymbolTableRecord
100
AcDbLayerTableRecord
  2
17_NO_PRINT
 70
0
 62
7
  6
CONTINUOUS
370
-3
390
F
  0
LAYER
  5
20B
100
AcDbSymbolTableRecord
100
AcDbLayerTableRecord
  2
18_DATUM_CAMS_JOINTS
 70
0
 62
7
  6
CONTINUOUS
370
-3
390
F
  0
LAYER
  5
20C
100
AcDbSymbolTableRecord
100
AcDbLayerTableRecord
  2
19_DATUM_FUNCTIONAL
 70
0
 62
7
  6
CONTINUOUS
370
-3
390
F
  0
LAYER
  5
20D
100
AcDbSymbolTableRecord
100
AcDbLayerTableRecord
  2
20_DATUM_KINEMATIC_SCHEME
 70
0
 62
7
  6
CONTINUOUS
370
-3
390
F
  0
ENDTAB
  0
TABLE
  2
STYLE
  5
3
100
AcDbSymbolTable
 70
1
  0
STYLE
  5
11
100
AcDbSymbolTableRecord
100
AcDbTextStyleTableRecord
  2
STANDARD
 70
0
 40
0.0
 41
1.0
 50
0.0
 71
0
 42
0.2
  3
ARIAL.TTF
  4

  0
STYLE
  5
20E
100
AcDbSymbolTableRecord
100
AcDbTextStyleTableRecord
  2
TEXTSTYLE_1
 70
0
 40
0.0
 41
0.8
 50
0.0
 71
0
 42
0.2
  3
gdt
  4

  0
ENDTAB
  0
TABLE
  2
VIEW
  5
6
100
AcDbSymbolTable
 70
0
  0
ENDTAB
  0
TABLE
  2
UCS
  5
7
100
AcDbSymbolTable
 70
0
  0
ENDTAB
  0
TABLE
  2
APPID
  5
9
100
AcDbSymbolTable
 70
1
  0
APPID
  5
20F
100
AcDbSymbolTableRecord
100
AcDbRegAppTableRecord
  2
ACAD
 70
0
  0
ENDTAB
  0
TABLE
  2
BLOCK_RECORD
  5
1
100
AcDbSymbolTable
 70
0
  0
BLOCK_RECORD
  5
210
100
AcDbSymbolTableRecord
100
AcDbBlockTableRecord
  2
*Model_Space
  0
BLOCK_RECORD
  5
211
100
AcDbSymbolTableRecord
100
AcDbBlockTableRecord
  2
*Paper_Space
  0
BLOCK_RECORD
  5
212
100
AcDbSymbolTableRecord
100
AcDbBlockTableRecord
  2
_FILLED
  0
ENDTAB
  0
TABLE
  2
DIMSTYLE
  5
A
100
AcDbSymbolTable
 70
1
100
AcDbDimStyleTable
 71
0
  0
DIMSTYLE
105
213
100
AcDbSymbolTableRecord
100
AcDbDimStyleTableRecord
  2
STANDARD
 70
0
  3

  4

 40
1.0
 41
0.8067565935
 42
1.0
 43
0.38
 44
1.0
 45
0.0
 46
0.0
 47
0.01
 48
0.01
140
1.1294592309
141
0.09
142
0.0
143
25.4
144
1.0
145
0.0
146
1.0
147
0.625
 71
1
 72
0
 73
0
 74
0
 75
0
 76
0
 77
1
 78
8
 79
2
170
0
171
1
172
0
173
0
174
0
175
0
176
0
177
0
178
0
270
2
179
2
271
2
272
2
273
2
274
2
275
0
280
0
281
0
282
0
283
1
284
8
285
0
286
0
287
3
288
0
340
11
278
46
341
212
342
212
343
212
344
212
  0
ENDTAB
  0
ENDSEC
  0
SECTION
  2
BLOCKS
  0
BLOCK
  5
20
100
AcDbEntity
  8
0
100
AcDbBlockBegin
  2
*Model_Space
 70
0
 10
0.0
 20
0.0
 30
0.0
  3
*Model_Space
  1

  0
ENDBLK
  5
21
100
AcDbEntity
  8
0
100
AcDbBlockEnd
  0
BLOCK
  5
1C
100
AcDbEntity
  8
0
100
AcDbBlockBegin
  2
*Paper_Space
 70
0
 10
0.0
 20
0.0
 30
0.0
  3
*Paper_Space
  1

  0
ENDBLK
  5
1D
100
AcDbEntity
  8
0
100
AcDbBlockEnd
  0
BLOCK
  5
214
100
AcDbEntity
  8
0
100
AcDbBlockBegin
  2
_FILLED
 70
64
 10
0.0
 20
0.0
  3
_FILLED
  1

  0
SOLID
  5
215
100
AcDbEntity
  8
0
  6
BYBLOCK
 62
0
100
AcDbTrace
 10
0.0
 20
0.0
 11
-1.0
 21
0.25
 12
-1.0
 22
-0.25
 13
-1.0
 23
-0.25
  0
ENDBLK
  5
216
100
AcDbEntity
  8
0
  6
BYBLOCK
 62
0
100
AcDbBlockEnd
  0
ENDSEC
  0
SECTION
  2
ENTITIES
  0
LINE
  5
217
100
AcDbEntity
  8
0
100
AcDbLine
 62
7
  6
BYLAYER
 10
14.6463128105
 20
88.6793344938
 11
12.424474304
 21
87.3965630911
  0
LINE
  5
218
100
AcDbEntity
  8
0
100
AcDbLine
 62
7
  6
BYLAYER
 10
8.2116826117
 20
80.8818443797
 11
11.8883030781
 21
86.8640050162
  0
LINE
  5
219
100
AcDbEntity
  8
0
100
AcDbLine
 62
7
  6
BYLAYER
 10
57.6573093113
 20
7.5902008755
 11
50.6382661205
 21
7.3972540808
  0
LINE
  5
21A
100
AcDbEntity
  8
0
100
AcDbLine
 62
7
  6
BYLAYER
 10
10.7572746782
 20
74.0232529561
 11
10.4037227596
 21
73.8191308791
  0
LINE
  5
21B
100
AcDbEntity
  8
0
100
AcDbLine
 62
7
  6
BYLAYER
 10
11.9006168952
 20
74.657068049
 11
12.5871943093
 21
75.0534613377
  0
LINE
  5
21C
100
AcDbEntity
  8
0
100
AcDbLine
 62
7
  6
BYLAYER
 10
13.1506112991
 20
72.4920013087
 11
13.8186535553
 21
72.8776933829
  0
LINE
  5
21D
100
AcDbEntity
  8
0
100
AcDbLine
 62
7
  6
BYLAYER
 10
8.2116826117
 20
80.8818443798
 11
8.2116826117
 21
31.891699352
  0
LINE
  5
21E
100
AcDbEntity
  8
0
100
AcDbLine
 62
7
  6
BYLAYER
 10
50.6382661205
 20
7.3972540808
 11
8.2116826117
 21
31.891699352
  0
LINE
  5
21F
100
AcDbEntity
  8
0
100
AcDbLine
 62
7
  6
BYLAYER
 10
10.4037227596
 20
36.4233201746
 11
10.4037227596
 21
73.8191308791
  0
LINE
  5
220
100
AcDbEntity
  8
0
100
AcDbLine
 62
7
  6
BYLAYER
 10
10.7572746782
 20
36.6274422515
 11
10.7572746782
 21
74.0232529561
  0
LINE
  5
221
100
AcDbEntity
  8
0
100
AcDbLine
 62
7
  6
BYLAYER
 10
45.617787072
 20
12.826920931
 11
13.2321616602
 21
31.524347488
  0
LINE
  5
222
100
AcDbEntity
  8
0
100
AcDbLine
 62
7
  6
BYLAYER
 10
45.9713389906
 20
13.0310430079
 11
13.5857135788
 21
31.7284695649
  0
LINE
  5
223
100
AcDbEntity
  8
0
100
AcDbLine
 62
7
  6
BYLAYER
 10
10.4037227596
 20
36.4233201746
 11
10.7572746782
 21
36.6274422515
  0
LINE
  5
224
100
AcDbEntity
  8
0
100
AcDbLine
 62
7
  6
BYLAYER
 10
45.8418837022
 20
55.0615118321
 11
46.5284611163
 21
55.4579051208
  0
LINE
  5
225
100
AcDbEntity
  8
0
100
AcDbLine
 62
7
  6
BYLAYER
 10
11.9006168952
 20
35.4649520268
 11
12.5871943093
 21
35.8613453155
  0
LINE
  5
226
100
AcDbEntity
  8
0
100
AcDbLine
 62
7
  6
BYLAYER
 10
60.6084449451
 20
62.14368545
 11
50.6382661205
 21
56.3873991085
  0
LINE
  5
227
100
AcDbEntity
  8
0
100
AcDbLine
 62
7
  6
BYLAYER
 10
47.0918781061
 20
52.8964450917
 11
47.7599203623
 21
53.2821371659
  0
LINE
  5
228
100
AcDbEntity
  8
0
100
AcDbLine
 62
7
  6
BYLAYER
 10
13.1506112991
 20
33.2998852865
 11
13.8186535553
 21
33.6855773606
  0
LINE
  5
229
100
AcDbEntity
  8
0
100
AcDbLine
 62
7
  6
BYLAYER
 10
13.5857135788
 20
31.7284695649
 11
13.2321616602
 21
31.524347488
  0
LINE
  5
22A
100
AcDbEntity
  8
0
100
AcDbLine
 62
7
  6
BYLAYER
 10
13.2321616602
 20
75.4521775296
 11
45.617787072
 21
56.7547509725
  0
LINE
  5
22B
100
AcDbEntity
  8
0
100
AcDbLine
 62
7
  6
BYLAYER
 10
48.4462259725
 20
51.8557782859
 11
48.4462259725
 21
14.4599675814
  0
LINE
  5
22C
100
AcDbEntity
  8
0
100
AcDbLine
 62
7
  6
BYLAYER
 10
50.6382661205
 20
56.3873991085
 11
50.6382661205
 21
7.3972540808
  0
LINE
  5
22D
100
AcDbEntity
  8
0
100
AcDbLine
 62
7
  6
BYLAYER
 10
50.6382661205
 20
56.3873991085
 11
8.2116826117
 21
80.8818443797
  0
LINE
  5
22E
100
AcDbEntity
  8
0
100
AcDbLine
 62
7
  6
BYLAYER
 10
57.6573093113
 20
60.4398547411
 11
11.8883030781
 21
86.8640050162
  0
LINE
  5
22F
100
AcDbEntity
  8
0
100
AcDbLine
 62
7
  6
BYLAYER
 10
57.6573093113
 20
7.5902008755
 11
57.6573093113
 21
60.4398547411
  0
LINE
  5
230
100
AcDbEntity
  8
0
100
AcDbLine
 62
7
  6
BYLAYER
 10
58.3866064385
 20
60.8609140472
 11
58.3866064385
 21
7.7882569338
  0
LINE
  5
231
100
AcDbEntity
  8
0
100
AcDbLine
 62
7
  6
BYLAYER
 10
60.6084449451
 20
9.0710283365
 11
60.6084449451
 21
62.14368545
  0
LINE
  5
232
100
AcDbEntity
  8
0
100
AcDbLine
 62
7
  6
BYLAYER
 10
43.6006122977
 20
23.3920398303
 11
44.251001536
 21
23.7675399907
  0
LINE
  5
233
100
AcDbEntity
  8
0
100
AcDbLine
 62
7
  6
BYLAYER
 10
12.424474304
 20
87.3965630911
 11
58.3866064385
 21
60.8609140472
  0
LINE
  5
234
100
AcDbEntity
  8
0
100
AcDbLine
 62
7
  6
BYLAYER
 10
60.6084449451
 20
62.14368545
 11
14.6463128105
 21
88.6793344938
  0
LINE
  5
235
100
AcDbEntity
  8
0
100
AcDbLine
 62
7
  6
BYLAYER
 10
46.4755994267
 20
18.4123863275
 11
47.125988665
 21
18.7878864879
  0
LINE
  5
236
100
AcDbEntity
  8
0
100
AcDbLine
 62
7
  6
BYLAYER
 10
45.8418837022
 20
15.8693958098
 11
46.5284611163
 21
16.2657890985
  0
LINE
  5
237
100
AcDbEntity
  8
0
100
AcDbLine
 62
7
  6
BYLAYER
 10
47.0918781061
 20
13.7043290695
 11
47.7599203623
 21
14.0900211437
  0
LINE
  5
238
100
AcDbEntity
  8
0
100
AcDbLine
 62
7
  6
BYLAYER
 10
45.617787072
 20
12.826920931
 11
45.9713389906
 21
13.0310430079
  0
LINE
  5
239
100
AcDbEntity
  8
0
100
AcDbLine
 62
7
  6
BYLAYER
 10
60.6084449451
 20
9.0710283365
 11
58.3866064385
 21
7.7882569338
  0
ARC
  5
23A
100
AcDbEntity
  8
0
100
AcDbCircle
 62
7
  6
BYLAYER
 10
46.3396652528
 20
20.9313281166
 40
2.7528738129
100
AcDbArc
 50
238.3999811154
 51
239.9970868927
  0
ARC
  5
23B
100
AcDbEntity
  8
0
100
AcDbCircle
 62
7
  6
BYLAYER
 10
46.168378435
 20
20.7818019013
 40
2.4667998801
100
AcDbArc
 50
239.9962522067
 51
241.4042811105
  0
ARC
  5
23C
100
AcDbEntity
  8
0
100
AcDbCircle
 62
7
  6
BYLAYER
 10
12.2992272453
 20
74.6418530274
 40
1.4078591457
100
AcDbArc
 50
131.0243719702
 51
135.3164412424
  0
ARC
  5
23D
100
AcDbEntity
  8
0
100
AcDbCircle
 62
7
  6
BYLAYER
 10
12.2736906696
 20
74.6705241273
 40
1.3694671703
100
AcDbArc
 50
128.7437485537
 51
131.0056940794
  0
ARC
  5
23E
100
AcDbEntity
  8
0
100
AcDbCircle
 62
7
  6
BYLAYER
 10
12.9197004746
 20
74.3627204723
 40
1.1714749747
100
AcDbArc
 50
172.1700833099
 51
176.1349619861
  0
ARC
  5
23F
100
AcDbEntity
  8
0
100
AcDbCircle
 62
7
  6
BYLAYER
 10
12.9197004746
 20
35.1706044501
 40
1.1714749747
100
AcDbArc
 50
172.1700833099
 51
176.1349619862
  0
ARC
  5
240
100
AcDbEntity
  8
0
100
AcDbCircle
 62
7
  6
BYLAYER
 10
46.8609672817
 20
15.5750482331
 40
1.1714749747
100
AcDbArc
 50
172.1700833099
 51
176.1349619862
  0
ARC
  5
241
100
AcDbEntity
  8
0
100
AcDbCircle
 62
7
  6
BYLAYER
 10
46.8609672816
 20
54.7671642554
 40
1.1714749746
100
AcDbArc
 50
172.1700833098
 51
176.1349619862
  0
ARC
  5
242
100
AcDbEntity
  8
0
100
AcDbCircle
 62
7
  6
BYLAYER
 10
47.2438068444
 20
53.611800552
 40
0.8401912759
100
AcDbArc
 50
256.6337560643
 51
260.617364698
  0
ARC
  5
243
100
AcDbEntity
  8
0
100
AcDbCircle
 62
7
  6
BYLAYER
 10
47.2438068444
 20
14.4196845298
 40
0.8401912759
100
AcDbArc
 50
256.6337560644
 51
260.6173646979
  0
ARC
  5
244
100
AcDbEntity
  8
0
100
AcDbCircle
 62
7
  6
BYLAYER
 10
13.3025400373
 20
34.0152407468
 40
0.8401912759
100
AcDbArc
 50
256.6337560644
 51
260.6173646979
  0
ARC
  5
245
100
AcDbEntity
  8
0
100
AcDbCircle
 62
7
  6
BYLAYER
 10
13.3025400373
 20
73.207356769
 40
0.8401912759
100
AcDbArc
 50
256.6337560644
 51
260.6173646979
  0
ARC
  5
246
100
AcDbEntity
  8
0
100
AcDbCircle
 62
7
  6
BYLAYER
 10
12.9359346156
 20
73.1252476553
 40
0.6928024531
100
AcDbArc
 50
256.6979347571
 51
260.2064756336
  0
ARC
  5
247
100
AcDbEntity
  8
0
100
AcDbCircle
 62
7
  6
BYLAYER
 10
12.9359346156
 20
33.9331316331
 40
0.692802453
100
AcDbArc
 50
256.6979347571
 51
260.2064756336
  0
ARC
  5
248
100
AcDbEntity
  8
0
100
AcDbCircle
 62
7
  6
BYLAYER
 10
46.8772014226
 20
14.3375754161
 40
0.692802453
100
AcDbArc
 50
256.6979347571
 51
260.2064756336
  0
ARC
  5
249
100
AcDbEntity
  8
0
100
AcDbCircle
 62
7
  6
BYLAYER
 10
46.8772014226
 20
53.5296914383
 40
0.692802453
100
AcDbArc
 50
256.6979347571
 51
260.2064756336
  0
ARC
  5
24A
100
AcDbEntity
  8
0
100
AcDbCircle
 62
7
  6
BYLAYER
 10
45.2304694592
 20
22.0987919185
 40
0.561645177
100
AcDbArc
 50
135.5936172211
 51
141.8795063578
  0
SPLINE
  5
24B
100
AcDbEntity
  8
0
100
AcDbSpline
 62
7
  6
BYLAYER
 70
0
 71
3
 72
12
 73
8
 74
0
 42
0.0000001
 43
0.0000001
 44
0.0000000001
 40
0.0
 40
0.0
 40
0.0
 40
0.0
 40
0.1108751639
 40
0.2283749496
 40
0.4783048147
 40
0.7396126783
 40
1.0
 40
1.0
 40
1.0
 40
1.0
 10
48.4462259725
 20
51.8557782859
 30
0.0
 10
48.4462259725
 20
52.006494667
 30
0.0
 10
48.4276305778
 20
52.3171251717
 30
0.0
 10
48.3230125559
 20
52.9596746356
 30
0.0
 10
48.0681091721
 20
53.7803803355
 30
0.0
 10
47.6019898093
 20
54.7240715435
 30
0.0
 10
47.1931972522
 20
55.3078309281
 30
0.0
 10
46.9670799189
 20
55.5801431014
 30
0.0
  0
SPLINE
  5
24C
100
AcDbEntity
  8
0
100
AcDbSpline
 62
7
  6
BYLAYER
 70
0
 71
3
 72
10
 73
6
 74
0
 42
0.0000001
 43
0.0000001
 44
0.0000000001
 40
0.0
 40
0.0
 40
0.0
 40
0.0
 40
0.5216867227
 40
0.7673814506
 40
1.0
 40
1.0
 40
1.0
 40
1.0
 10
46.9670799189
 20
55.5801431014
 30
0.0
 10
46.7674778661
 20
55.8205230315
 30
0.0
 10
46.4471967094
 20
56.1539167274
 30
0.0
 10
45.9787380699
 20
56.5280115918
 30
0.0
 10
45.7384419299
 20
56.6850924337
 30
0.0
 10
45.617787072
 20
56.7547509725
 30
0.0
  0
SPLINE
  5
24D
100
AcDbEntity
  8
0
100
AcDbSpline
 62
7
  6
BYLAYER
 70
0
 71
3
 72
14
 73
10
 74
0
 42
0.0000001
 43
0.0000001
 44
0.0000000001
 40
0.0
 40
0.0
 40
0.0
 40
0.0
 40
0.2892465103
 40
0.4225697622
 40
0.5485168638
 40
0.6678914139
 40
0.7818640907
 40
0.891953856
 40
1.0
 40
1.0
 40
1.0
 40
1.0
 10
13.2321616602
 20
75.4521775296
 30
0.0
 10
13.0566009481
 20
75.5535352609
 30
0.0
 10
12.787009727
 20
75.6818051586
 30
0.0
 10
12.4173315111
 20
75.7896426778
 30
0.0
 10
12.1549141483
 20
75.8336477585
 30
0.0
 10
11.9024557886
 20
75.8424084032
 30
0.0
 10
11.6623071731
 20
75.8155816137
 30
0.0
 10
11.4369900873
 20
75.7533537876
 30
0.0
 10
11.2977645984
 20
75.6881111746
 30
0.0
 10
11.2321853155
 20
75.6502491817
 30
0.0
  0
SPLINE
  5
24E
100
AcDbEntity
  8
0
100
AcDbSpline
 62
7
  6
BYLAYER
 70
0
 71
3
 72
9
 73
5
 74
0
 42
0.0000001
 43
0.0000001
 44
0.0000000001
 40
0.0
 40
0.0
 40
0.0
 40
0.0
 40
0.4947414575
 40
1.0
 40
1.0
 40
1.0
 40
1.0
 10
58.3866064385
 20
7.7882569338
 30
0.0
 10
58.2778268263
 20
7.7254533703
 30
0.0
 10
58.0397371123
 20
7.6279454015
 30
0.0
 10
57.7855386971
 20
7.5937257788
 30
0.0
 10
57.6573093113
 20
7.5902008755
 30
0.0
  0
SPLINE
  5
24F
100
AcDbEntity
  8
0
100
AcDbSpline
 62
7
  6
BYLAYER
 70
0
 71
3
 72
9
 73
5
 74
0
 42
0.0000001
 43
0.0000001
 44
0.0000000001
 40
0.0
 40
0.0
 40
0.0
 40
0.0
 40
0.4947403336
 40
1.0
 40
1.0
 40
1.0
 40
1.0
 10
12.424474304
 20
87.3965630911
 30
0.0
 10
12.3156952107
 20
87.3337598271
 30
0.0
 10
12.1122060212
 20
87.1763231428
 30
0.0
 10
11.9554707263
 20
86.9732922449
 30
0.0
 10
11.8883030781
 20
86.8640050163
 30
0.0
  0
SPLINE
  5
250
100
AcDbEntity
  8
0
100
AcDbSpline
 62
7
  6
BYLAYER
 70
0
 71
3
 72
19
 73
15
 74
0
 42
0.0000001
 43
0.0000001
 44
0.0000000001
 40
0.0
 40
0.0
 40
0.0
 40
0.0
 40
0.0428381439
 40
0.0874450446
 40
0.1352555779
 40
0.1871950837
 40
0.2436748485
 40
0.3046661196
 40
0.4382720738
 40
0.5825478161
 40
0.7296384368
 40
0.871171676
 40
0.9376253203
 40
1.0
 40
1.0
 40
1.0
 40
1.0
 10
19.3659607619
 20
62.3786471096
 30
0.0
 10
19.4072635617
 20
62.4024710327
 30
0.0
 10
19.4855306282
 20
62.4624004105
 30
0.0
 10
19.5797445607
 20
62.5815022883
 30
0.0
 10
19.650111751
 20
62.7271899672
 30
0.0
 10
19.6957188871
 20
62.895855918
 30
0.0
 10
19.7159987505
 20
63.0839887533
 30
0.0
 10
19.7088492998
 20
63.3640196116
 30
0.0
 10
19.632850909
 20
63.7365375749
 30
0.0
 10
19.4547728098
 20
64.1771383596
 30
0.0
 10
19.2013135964
 20
64.5894576172
 30
0.0
 10
18.9387876417
 20
64.88821312
 30
0.0
 10
18.7081301608
 20
65.0821881718
 30
0.0
 10
18.5886048918
 20
65.1621447416
 30
0.0
 10
18.5284794466
 20
65.1968573983
 30
0.0
  0
SPLINE
  5
251
100
AcDbEntity
  8
0
100
AcDbSpline
 62
7
  6
BYLAYER
 70
0
 71
3
 72
9
 73
5
 74
0
 42
0.0000001
 43
0.0000001
 44
0.0000000001
 40
0.0
 40
0.0
 40
0.0
 40
0.0
 40
0.4937654461
 40
1.0
 40
1.0
 40
1.0
 40
1.0
 10
46.2263502472
 20
19.8562183121
 30
0.0
 10
46.2549261549
 20
19.8727004499
 30
0.0
 10
46.3095884334
 20
19.9119724894
 30
0.0
 10
46.3555516678
 20
19.9610561216
 30
0.0
 10
46.3764273885
 20
19.987666358
 30
0.0
  0
SPLINE
  5
252
100
AcDbEntity
  8
0
100
AcDbSpline
 62
7
  6
BYLAYER
 70
0
 71
3
 72
17
 73
13
 74
0
 42
0.0000001
 43
0.0000001
 44
0.0000000001
 40
0.0
 40
0.0
 40
0.0
 40
0.0
 40
0.0445951733
 40
0.0924251242
 40
0.1440386603
 40
0.199659619
 40
0.3221558707
 40
0.4569320148
 40
0.5985347908
 40
0.7404491373
 40
0.8761526686
 40
1.0
 40
1.0
 40
1.0
 40
1.0
 10
46.3764273885
 20
19.987666358
 30
0.0
 10
46.4020260386
 20
20.0202969024
 30
0.0
 10
46.4478816424
 20
20.0937922351
 30
0.0
 10
46.4968015719
 20
20.2191450514
 30
0.0
 10
46.5276750134
 20
20.360552107
 30
0.0
 10
46.544458884
 20
20.5740738131
 30
0.0
 10
46.5150090069
 20
20.8659506361
 30
0.0
 10
46.4110547252
 20
21.2237111951
 30
0.0
 10
46.2443430077
 20
21.5768997318
 30
0.0
 10
46.0260249539
 20
21.9017865237
 30
0.0
 10
45.7708881194
 20
22.1764608239
 30
0.0
 10
45.5761115381
 20
22.3224058444
 30
0.0
 10
45.4763641399
 20
22.3799937288
 30
0.0
  0
SPLINE
  5
253
100
AcDbEntity
  8
0
100
AcDbSpline
 62
7
  6
BYLAYER
 70
0
 71
3
 72
19
 73
15
 74
0
 42
0.0000001
 43
0.0000001
 44
0.0000000001
 40
0.0
 40
0.0
 40
0.0
 40
0.0
 40
0.129205411
 40
0.2693604025
 40
0.4139272458
 40
0.5552890883
 40
0.6226213867
 40
0.6867354269
 40
0.7471669032
 40
0.8037480773
 40
0.8566302827
 40
0.9063621039
 40
0.9537724232
 40
1.0
 40
1.0
 40
1.0
 40
1.0
 10
44.8971974012
 20
18.5866318193
 30
0.0
 10
44.6892552458
 20
18.7145079078
 30
0.0
 10
44.2888215603
 20
19.0361570335
 30
0.0
 10
43.7799348826
 20
19.634795287
 30
0.0
 10
43.3663699024
 20
20.3296862753
 30
0.0
 10
43.1235318199
 20
20.9554787661
 30
0.0
 10
43.0066506813
 20
21.4582368453
 30
0.0
 10
42.9611882485
 20
21.8186393205
 30
0.0
 10
42.9579426598
 20
22.1617070188
 30
0.0
 10
42.9977457954
 20
22.4813379192
 30
0.0
 10
43.0813811123
 20
22.7717533376
 30
0.0
 10
43.2094668611
 20
23.0267437916
 30
0.0
 10
43.3811669821
 20
23.2391725005
 30
0.0
 10
43.5237822466
 20
23.3473927583
 30
0.0
 10
43.5993330287
 20
23.3912154435
 30
0.0
  0
SPLINE
  5
254
100
AcDbEntity
  8
0
100
AcDbSpline
 62
7
  6
BYLAYER
 70
0
 71
3
 72
13
 73
9
 74
0
 42
0.0000001
 43
0.0000001
 44
0.0000000001
 40
0.0
 40
0.0
 40
0.0
 40
0.0
 40
0.1124710868
 40
0.2263135758
 40
0.3428851181
 40
0.4632728232
 40
0.7193796354
 40
1.0
 40
1.0
 40
1.0
 40
1.0
 10
46.4768786957
 20
18.4132107143
 30
0.0
 10
46.4253131661
 20
18.3833005015
 30
0.0
 10
46.3162101321
 20
18.3318282087
 30
0.0
 10
46.1404357127
 20
18.2827359321
 30
0.0
 10
45.9550240046
 20
18.2611794211
 30
0.0
 10
45.6930029609
 20
18.269190189
 30
0.0
 10
45.3505893385
 20
18.3503378475
 30
0.0
 10
45.0919164166
 20
18.4729730558
 30
0.0
 10
44.9631071347
 20
18.547339447
 30
0.0
  0
SPLINE
  5
255
100
AcDbEntity
  8
0
100
AcDbSpline
 62
7
  6
BYLAYER
 70
0
 71
3
 72
10
 73
6
 74
0
 42
0.0000001
 43
0.0000001
 44
0.0000000001
 40
0.0
 40
0.0
 40
0.0
 40
0.0
 40
0.2369450516
 40
0.4796121052
 40
1.0
 40
1.0
 40
1.0
 40
1.0
 10
13.1505982704
 20
72.4920240439
 30
0.0
 10
13.1271892495
 20
72.4785213144
 30
0.0
 10
13.0769849693
 20
72.4557760018
 30
0.0
 10
12.9655646558
 20
72.4290614467
 30
0.0
 10
12.8765788997
 20
72.4324577318
 30
0.0
 10
12.8180902165
 20
72.4425413227
 30
0.0
  0
SPLINE
  5
256
100
AcDbEntity
  8
0
100
AcDbSpline
 62
7
  6
BYLAYER
 70
0
 71
3
 72
9
 73
5
 74
0
 42
0.0000001
 43
0.0000001
 44
0.0000000001
 40
0.0
 40
0.0
 40
0.0
 40
0.0
 40
0.2356685206
 40
1.0
 40
1.0
 40
1.0
 40
1.0
 10
12.776531291
 20
72.4510326903
 30
0.0
 10
12.7557538605
 20
72.4559317357
 30
0.0
 10
12.6685137771
 20
72.4806109413
 30
0.0
 10
12.585573024
 20
72.519290138
 30
0.0
 10
12.5256140971
 20
72.5539066575
 30
0.0
  0
SPLINE
  5
257
100
AcDbEntity
  8
0
100
AcDbSpline
 62
7
  6
BYLAYER
 70
0
 71
3
 72
18
 73
14
 74
0
 42
0.0000001
 43
0.0000001
 44
0.0000000001
 40
0.0
 40
0.0
 40
0.0
 40
0.0
 40
0.0428466579
 40
0.0874624241
 40
0.1352824597
 40
0.1872322883
 40
0.2437232784
 40
0.3047266714
 40
0.4383591795
 40
0.5826635963
 40
0.729783451
 40
0.8713448197
 40
1.0
 40
1.0
 40
1.0
 40
1.0
 10
13.5584388995
 20
72.4388155584
 30
0.0
 10
13.5954264813
 20
72.4601504148
 30
0.0
 10
13.6655163912
 20
72.5138185149
 30
0.0
 10
13.7498870789
 20
72.6204769104
 30
0.0
 10
13.8129024658
 20
72.7509434987
 30
0.0
 10
13.8537447085
 20
72.9019875907
 30
0.0
 10
13.8719056483
 20
73.0704649383
 30
0.0
 10
13.8655039128
 20
73.3212377977
 30
0.0
 10
13.7974390181
 20
73.6548451114
 30
0.0
 10
13.6379959741
 20
74.0493718227
 30
0.0
 10
13.410904404
 20
74.4187688221
 30
0.0
 10
13.1350355592
 20
74.732613826
 30
0.0
 10
12.9194925492
 20
74.8984802223
 30
0.0
 10
12.808455632
 20
74.9625859661
 30
0.0
  0
SPLINE
  5
258
100
AcDbEntity
  8
0
100
AcDbSpline
 62
7
  6
BYLAYER
 70
0
 71
3
 72
10
 73
6
 74
0
 42
0.0000001
 43
0.0000001
 44
0.0000000001
 40
0.0
 40
0.0
 40
0.0
 40
0.0
 40
0.2369450516
 40
0.4796121052
 40
1.0
 40
1.0
 40
1.0
 40
1.0
 10
13.1505982704
 20
33.2999080216
 30
0.0
 10
13.1271892495
 20
33.2864052922
 30
0.0
 10
13.0769849693
 20
33.2636599796
 30
0.0
 10
12.9655646558
 20
33.2369454245
 30
0.0
 10
12.8765788997
 20
33.2403417095
 30
0.0
 10
12.8180902165
 20
33.2504253005
 30
0.0
  0
SPLINE
  5
259
100
AcDbEntity
  8
0
100
AcDbSpline
 62
7
  6
BYLAYER
 70
0
 71
3
 72
9
 73
5
 74
0
 42
0.0000001
 43
0.0000001
 44
0.0000000001
 40
0.0
 40
0.0
 40
0.0
 40
0.0
 40
0.2356685206
 40
1.0
 40
1.0
 40
1.0
 40
1.0
 10
12.776531291
 20
33.2589166681
 30
0.0
 10
12.7557538605
 20
33.2638157135
 30
0.0
 10
12.6685137771
 20
33.2884949191
 30
0.0
 10
12.585573024
 20
33.3271741158
 30
0.0
 10
12.5256140971
 20
33.3617906352
 30
0.0
  0
SPLINE
  5
25A
100
AcDbEntity
  8
0
100
AcDbSpline
 62
7
  6
BYLAYER
 70
0
 71
3
 72
18
 73
14
 74
0
 42
0.0000001
 43
0.0000001
 44
0.0000000001
 40
0.0
 40
0.0
 40
0.0
 40
0.0
 40
0.0428466579
 40
0.0874624241
 40
0.1352824597
 40
0.1872322883
 40
0.2437232784
 40
0.3047266714
 40
0.4383591795
 40
0.5826635963
 40
0.729783451
 40
0.8713448197
 40
1.0
 40
1.0
 40
1.0
 40
1.0
 10
13.5584388995
 20
33.2466995361
 30
0.0
 10
13.5954264813
 20
33.2680343926
 30
0.0
 10
13.6655163912
 20
33.3217024927
 30
0.0
 10
13.7498870789
 20
33.4283608882
 30
0.0
 10
13.8129024658
 20
33.5588274765
 30
0.0
 10
13.8537447085
 20
33.7098715685
 30
0.0
 10
13.8719056483
 20
33.878348916
 30
0.0
 10
13.8655039128
 20
34.1291217755
 30
0.0
 10
13.7974390181
 20
34.4627290892
 30
0.0
 10
13.6379959741
 20
34.8572558004
 30
0.0
 10
13.410904404
 20
35.2266527999
 30
0.0
 10
13.1350355592
 20
35.5404978038
 30
0.0
 10
12.9194925492
 20
35.7063642001
 30
0.0
 10
12.808455632
 20
35.7704699439
 30
0.0
  0
SPLINE
  5
25B
100
AcDbEntity
  8
0
100
AcDbSpline
 62
7
  6
BYLAYER
 70
0
 71
3
 72
10
 73
6
 74
0
 42
0.0000001
 43
0.0000001
 44
0.0000000001
 40
0.0
 40
0.0
 40
0.0
 40
0.0
 40
0.2369450516
 40
0.4796121052
 40
1.0
 40
1.0
 40
1.0
 40
1.0
 10
47.0918650774
 20
13.7043518047
 30
0.0
 10
47.0684560566
 20
13.6908490752
 30
0.0
 10
47.0182517764
 20
13.6681037626
 30
0.0
 10
46.9068314628
 20
13.6413892075
 30
0.0
 10
46.8178457067
 20
13.6447854926
 30
0.0
 10
46.7593570236
 20
13.6548690835
 30
0.0
  0
SPLINE
  5
25C
100
AcDbEntity
  8
0
100
AcDbSpline
 62
7
  6
BYLAYER
 70
0
 71
3
 72
9
 73
5
 74
0
 42
0.0000001
 43
0.0000001
 44
0.0000000001
 40
0.0
 40
0.0
 40
0.0
 40
0.0
 40
0.2356685206
 40
1.0
 40
1.0
 40
1.0
 40
1.0
 10
46.717798098
 20
13.6633604511
 30
0.0
 10
46.6970206676
 20
13.6682594965
 30
0.0
 10
46.6097805842
 20
13.6929387021
 30
0.0
 10
46.5268398311
 20
13.7316178988
 30
0.0
 10
46.4668809042
 20
13.7662344183
 30
0.0
  0
SPLINE
  5
25D
100
AcDbEntity
  8
0
100
AcDbSpline
 62
7
  6
BYLAYER
 70
0
 71
3
 72
18
 73
14
 74
0
 42
0.0000001
 43
0.0000001
 44
0.0000000001
 40
0.0
 40
0.0
 40
0.0
 40
0.0
 40
0.0428466579
 40
0.0874624241
 40
0.1352824597
 40
0.1872322883
 40
0.2437232784
 40
0.3047266714
 40
0.4383591795
 40
0.5826635963
 40
0.729783451
 40
0.8713448197
 40
1.0
 40
1.0
 40
1.0
 40
1.0
 10
47.4997057065
 20
13.6511433192
 30
0.0
 10
47.5366932884
 20
13.6724781756
 30
0.0
 10
47.6067831983
 20
13.7261462757
 30
0.0
 10
47.691153886
 20
13.8328046712
 30
0.0
 10
47.7541692729
 20
13.9632712595
 30
0.0
 10
47.7950115155
 20
14.1143153515
 30
0.0
 10
47.8131724554
 20
14.2827926991
 30
0.0
 10
47.8067707199
 20
14.5335655585
 30
0.0
 10
47.7387058252
 20
14.8671728722
 30
0.0
 10
47.5792627811
 20
15.2616995835
 30
0.0
 10
47.352171211
 20
15.6310965829
 30
0.0
 10
47.0763023663
 20
15.9449415868
 30
0.0
 10
46.8607593563
 20
16.1108079831
 30
0.0
 10
46.7497224391
 20
16.1749137269
 30
0.0
  0
SPLINE
  5
25E
100
AcDbEntity
  8
0
100
AcDbSpline
 62
7
  6
BYLAYER
 70
0
 71
3
 72
10
 73
6
 74
0
 42
0.0000001
 43
0.0000001
 44
0.0000000001
 40
0.0
 40
0.0
 40
0.0
 40
0.0
 40
0.2369450516
 40
0.4796121052
 40
1.0
 40
1.0
 40
1.0
 40
1.0
 10
47.0918650774
 20
52.8964678269
 30
0.0
 10
47.0684560566
 20
52.8829650974
 30
0.0
 10
47.0182517764
 20
52.8602197848
 30
0.0
 10
46.9068314628
 20
52.8335052297
 30
0.0
 10
46.8178457067
 20
52.8369015148
 30
0.0
 10
46.7593570236
 20
52.8469851058
 30
0.0
  0
SPLINE
  5
25F
100
AcDbEntity
  8
0
100
AcDbSpline
 62
7
  6
BYLAYER
 70
0
 71
3
 72
9
 73
5
 74
0
 42
0.0000001
 43
0.0000001
 44
0.0000000001
 40
0.0
 40
0.0
 40
0.0
 40
0.0
 40
0.2356685206
 40
1.0
 40
1.0
 40
1.0
 40
1.0
 10
46.717798098
 20
52.8554764733
 30
0.0
 10
46.6970206676
 20
52.8603755188
 30
0.0
 10
46.6097805842
 20
52.8850547243
 30
0.0
 10
46.5268398311
 20
52.923733921
 30
0.0
 10
46.4668809042
 20
52.9583504405
 30
0.0
  0
SPLINE
  5
260
100
AcDbEntity
  8
0
100
AcDbSpline
 62
7
  6
BYLAYER
 70
0
 71
3
 72
18
 73
14
 74
0
 42
0.0000001
 43
0.0000001
 44
0.0000000001
 40
0.0
 40
0.0
 40
0.0
 40
0.0
 40
0.0428466579
 40
0.0874624241
 40
0.1352824597
 40
0.1872322883
 40
0.2437232784
 40
0.3047266714
 40
0.4383591795
 40
0.5826635963
 40
0.729783451
 40
0.8713448197
 40
1.0
 40
1.0
 40
1.0
 40
1.0
 10
47.4997057065
 20
52.8432593414
 30
0.0
 10
47.5366932884
 20
52.8645941978
 30
0.0
 10
47.6067831983
 20
52.9182622979
 30
0.0
 10
47.691153886
 20
53.0249206935
 30
0.0
 10
47.7541692729
 20
53.1553872818
 30
0.0
 10
47.7950115155
 20
53.3064313738
 30
0.0
 10
47.8131724554
 20
53.4749087213
 30
0.0
 10
47.8067707199
 20
53.7256815807
 30
0.0
 10
47.7387058252
 20
54.0592888944
 30
0.0
 10
47.5792627811
 20
54.4538156057
 30
0.0
 10
47.352171211
 20
54.8232126052
 30
0.0
 10
47.0763023663
 20
55.137057609
 30
0.0
 10
46.8607593563
 20
55.3029240053
 30
0.0
 10
46.7497224391
 20
55.3670297491
 30
0.0
  0
SPLINE
  5
261
100
AcDbEntity
  8
0
100
AcDbSpline
 62
7
  6
BYLAYER
 70
0
 71
3
 72
14
 73
10
 74
0
 42
0.0000001
 43
0.0000001
 44
0.0000000001
 40
0.0
 40
0.0
 40
0.0
 40
0.0
 40
0.1080456362
 40
0.2181349707
 40
0.332107362
 40
0.4514818058
 40
0.577428993
 40
0.7107525123
 40
1.0
 40
1.0
 40
1.0
 40
1.0
 10
47.6177634167
 20
12.6288492788
 30
0.0
 10
47.6833441482
 20
12.6667121081
 30
0.0
 10
47.809461806
 20
12.7546651996
 30
0.0
 10
47.9760150556
 20
12.9186854753
 30
0.0
 10
48.1193248868
 20
13.1132521508
 30
0.0
 10
48.2379689615
 20
13.3362742954
 30
0.0
 10
48.3310688603
 20
13.5855444744
 30
0.0
 10
48.4225174863
 20
13.9596256632
 30
0.0
 10
48.4462259725
 20
14.2572425634
 30
0.0
 10
48.4462259725
 20
14.4599675814
 30
0.0
  0
SPLINE
  5
262
100
AcDbEntity
  8
0
100
AcDbSpline
 62
7
  6
BYLAYER
 70
0
 71
3
 72
14
 73
10
 74
0
 42
0.0000001
 43
0.0000001
 44
0.0000000001
 40
0.0
 40
0.0
 40
0.0
 40
0.0
 40
0.107924358
 40
0.2191809669
 40
0.3348383589
 40
0.4557159522
 40
0.7150799462
 40
0.8544315377
 40
1.0
 40
1.0
 40
1.0
 40
1.0
 10
35.7713601387
 20
35.1960979089
 30
0.0
 10
35.600081532
 20
35.1403695958
 30
0.0
 10
35.2437986303
 20
35.0517046104
 30
0.0
 10
34.6869609504
 20
34.9898054459
 30
0.0
 10
34.1051559164
 20
34.9975358055
 30
0.0
 10
33.2827760028
 20
35.1024981432
 30
0.0
 10
32.4447377902
 20
35.3485546391
 30
0.0
 10
31.6114578232
 20
35.7113068822
 30
0.0
 10
31.1909974901
 20
35.9346911019
 30
0.0
 10
30.980602808
 20
36.0561597803
 30
0.0
  0
SPLINE
  5
263
100
AcDbEntity
  8
0
100
AcDbSpline
 62
7
  6
BYLAYER
 70
0
 71
3
 72
25
 73
21
 74
0
 42
0.0000001
 43
0.0000001
 44
0.0000000001
 40
0.0
 40
0.0
 40
0.0
 40
0.0
 40
0.0213325027
 40
0.042893503
 40
0.0648992956
 40
0.0875443132
 40
0.1353200458
 40
0.1872215458
 40
0.2436594931
 40
0.3046071764
 40
0.3696943233
 40
0.4382908975
 40
0.509576849
 40
0.5826009737
 40
0.656332551
 40
0.729707984
 40
0.8016848066
 40
0.8712741972
 40
0.9376206045
 40
1.0
 40
1.0
 40
1.0
 40
1.0
 10
35.2784832535
 20
34.8174096507
 30
0.0
 10
35.4136295534
 20
34.8954358556
 30
0.0
 10
35.6756386239
 20
35.0699109524
 30
0.0
 10
36.0351686465
 20
35.3817538962
 30
0.0
 10
36.360335198
 20
35.7423491542
 30
0.0
 10
36.7523861602
 20
36.2948179632
 30
0.0
 10
37.1448676787
 20
37.1066259133
 30
0.0
 10
37.4440204325
 20
38.2142167082
 30
0.0
 10
37.5773274053
 20
39.449753433
 30
0.0
 10
37.5432524705
 20
40.7875135453
 30
0.0
 10
37.3433181918
 20
42.1999959869
 30
0.0
 10
36.9819731756
 20
43.657661428
 30
0.0
 10
36.4669617508
 20
45.1297673853
 30
0.0
 10
35.8092434556
 20
46.5850540034
 30
0.0
 10
35.0228361897
 20
47.9924931799
 30
0.0
 10
34.1245410836
 20
49.3220992631
 30
0.0
 10
33.1334891261
 20
50.545439943
 30
0.0
 10
32.0707054583
 20
51.636703898
 30
0.0
 10
30.9588395031
 20
52.5723324208
 30
0.0
 10
30.1737156113
 20
53.0970403932
 30
0.0
 10
29.7785262847
 20
53.3251978956
 30
0.0
  0
SPLINE
  5
264
100
AcDbEntity
  8
0
100
AcDbSpline
 62
7
  6
BYLAYER
 70
0
 71
3
 72
23
 73
19
 74
0
 42
0.0000001
 43
0.0000001
 44
0.0000000001
 40
0.0
 40
0.0
 40
0.0
 40
0.0
 40
0.0603645779
 40
0.1242916643
 40
0.1912036898
 40
0.260447634
 40
0.3312476555
 40
0.4027793517
 40
0.4741887385
 40
0.5446256485
 40
0.6132764063
 40
0.6793952638
 40
0.7423415123
 40
0.8016187314
 40
0.8569211612
 40
0.9081897639
 40
0.9556764127
 40
1.0
 40
1.0
 40
1.0
 40
1.0
 10
30.980602808
 20
36.0561597803
 30
0.0
 10
30.6217672243
 20
36.2633289144
 30
0.0
 10
29.9079647449
 20
36.7342691922
 30
0.0
 10
28.8901021952
 20
37.5657574608
 30
0.0
 10
27.9094938901
 20
38.5299035248
 30
0.0
 10
26.9835151325
 20
39.6092848728
 30
0.0
 10
26.1284986724
 20
40.7850412057
 30
0.0
 10
25.3595980444
 20
42.0362546065
 30
0.0
 10
24.6904220953
 20
43.340730776
 30
0.0
 10
24.1328568815
 20
44.6753308861
 30
0.0
 10
23.6968042172
 20
46.0164139577
 30
0.0
 10
23.3900060032
 20
47.3403005232
 30
0.0
 10
23.2178988418
 20
48.6237275275
 30
0.0
 10
23.1836870586
 20
49.8443447371
 30
0.0
 10
23.2883711503
 20
50.9810344002
 30
0.0
 10
23.5311938311
 20
52.0143977537
 30
0.0
 10
23.9091400194
 20
52.9259350679
 30
0.0
 10
24.2587525693
 20
53.4564356429
 30
0.0
 10
24.4530959288
 20
53.6905128529
 30
0.0
  0
SPLINE
  5
265
100
AcDbEntity
  8
0
100
AcDbSpline
 62
7
  6
BYLAYER
 70
0
 71
3
 72
9
 73
5
 74
0
 42
0.0000001
 43
0.0000001
 44
0.0000000001
 40
0.0
 40
0.0
 40
0.0
 40
0.0
 40
0.2533466548
 40
1.0
 40
1.0
 40
1.0
 40
1.0
 10
24.4530959288
 20
53.6905128529
 30
0.0
 10
24.4924650367
 20
53.7379310459
 30
0.0
 10
24.6519854514
 20
53.921623996
 30
0.0
 10
24.8282378769
 20
54.0908774762
 30
0.0
 10
24.9680247007
 20
54.2068590489
 30
0.0
  0
SPLINE
  5
266
100
AcDbEntity
  8
0
100
AcDbSpline
 62
7
  6
BYLAYER
 70
0
 71
3
 72
15
 73
11
 74
0
 42
0.0000001
 43
0.0000001
 44
0.0000000001
 40
0.0
 40
0.0
 40
0.0
 40
0.0
 40
0.1485535164
 40
0.2895066069
 40
0.4227296667
 40
0.5486376145
 40
0.6679990206
 40
0.781937708
 40
0.8919863753
 40
1.0
 40
1.0
 40
1.0
 40
1.0
 10
29.7785262847
 20
53.3251978956
 30
0.0
 10
29.5304890951
 20
53.4683989941
 30
0.0
 10
29.0352007761
 20
53.727617021
 30
0.0
 10
28.2797690265
 20
54.0369013226
 30
0.0
 10
27.5377067622
 20
54.2532058327
 30
0.0
 10
26.8161874215
 20
54.3742064859
 30
0.0
 10
26.1218571002
 20
54.3983832029
 30
0.0
 10
25.4613857717
 20
54.3246911264
 30
0.0
 10
24.8418046773
 20
54.1534122688
 30
0.0
 10
24.4589170591
 20
53.9740560506
 30
0.0
 10
24.2785693159
 20
53.8699329636
 30
0.0
  0
SPLINE
  5
267
100
AcDbEntity
  8
0
100
AcDbSpline
 62
7
  6
BYLAYER
 70
0
 71
3
 72
11
 73
7
 74
0
 42
0.0000001
 43
0.0000001
 44
0.0000000001
 40
0.0
 40
0.0
 40
0.0
 40
0.0
 40
0.2896403952
 40
0.5491094116
 40
0.7822346475
 40
1.0
 40
1.0
 40
1.0
 40
1.0
 10
46.7497224391
 20
55.3670297491
 30
0.0
 10
46.6839183997
 20
55.4050208695
 30
0.0
 10
46.5529687716
 20
55.4672868254
 30
0.0
 10
46.3517325446
 20
55.5159182729
 30
0.0
 10
46.1628694663
 20
55.5111686851
 30
0.0
 10
46.0492250261
 20
55.4698369073
 30
0.0
 10
45.9997391716
 20
55.4412929055
 30
0.0
  0
SPLINE
  5
268
100
AcDbEntity
  8
0
100
AcDbSpline
 62
7
  6
BYLAYER
 70
0
 71
3
 72
11
 73
7
 74
0
 42
0.0000001
 43
0.0000001
 44
0.0000000001
 40
0.0
 40
0.0
 40
0.0
 40
0.0
 40
0.2896403952
 40
0.5491094116
 40
0.7822346475
 40
1.0
 40
1.0
 40
1.0
 40
1.0
 10
46.7497224391
 20
16.1749137269
 30
0.0
 10
46.6839183997
 20
16.2129048473
 30
0.0
 10
46.5529687716
 20
16.2751708032
 30
0.0
 10
46.3517325446
 20
16.3238022507
 30
0.0
 10
46.1628694663
 20
16.3190526629
 30
0.0
 10
46.0492250261
 20
16.2777208851
 30
0.0
 10
45.9997391716
 20
16.2491768833
 30
0.0
  0
SPLINE
  5
269
100
AcDbEntity
  8
0
100
AcDbSpline
 62
7
  6
BYLAYER
 70
0
 71
3
 72
11
 73
7
 74
0
 42
0.0000001
 43
0.0000001
 44
0.0000000001
 40
0.0
 40
0.0
 40
0.0
 40
0.0
 40
0.2896403952
 40
0.5491094116
 40
0.7822346475
 40
1.0
 40
1.0
 40
1.0
 40
1.0
 10
12.808455632
 20
35.7704699439
 30
0.0
 10
12.7426515927
 20
35.8084610642
 30
0.0
 10
12.6117019646
 20
35.8707270202
 30
0.0
 10
12.4104657375
 20
35.9193584677
 30
0.0
 10
12.2216026592
 20
35.9146088799
 30
0.0
 10
12.107958219
 20
35.8732771021
 30
0.0
 10
12.0584723645
 20
35.8447331003
 30
0.0
  0
SPLINE
  5
26A
100
AcDbEntity
  8
0
100
AcDbSpline
 62
7
  6
BYLAYER
 70
0
 71
3
 72
11
 73
7
 74
0
 42
0.0000001
 43
0.0000001
 44
0.0000000001
 40
0.0
 40
0.0
 40
0.0
 40
0.0
 40
0.2896403952
 40
0.5491094116
 40
0.7822346475
 40
1.0
 40
1.0
 40
1.0
 40
1.0
 10
12.808455632
 20
74.9625859661
 30
0.0
 10
12.7426515927
 20
75.0005770865
 30
0.0
 10
12.6117019646
 20
75.0628430424
 30
0.0
 10
12.4104657375
 20
75.1114744899
 30
0.0
 10
12.2216026592
 20
75.1067249021
 30
0.0
 10
12.107958219
 20
75.0653931243
 30
0.0
 10
12.0584723645
 20
75.0368491225
 30
0.0
  0
SPLINE
  5
26B
100
AcDbEntity
  8
0
100
AcDbSpline
 62
7
  6
BYLAYER
 70
0
 71
3
 72
11
 73
7
 74
0
 42
0.0000001
 43
0.0000001
 44
0.0000000001
 40
0.0
 40
0.0
 40
0.0
 40
0.0
 40
0.2896403952
 40
0.5491094116
 40
0.7822346475
 40
1.0
 40
1.0
 40
1.0
 40
1.0
 10
18.5284794466
 20
65.1968573983
 30
0.0
 10
18.4549982693
 20
65.239280816
 30
0.0
 10
18.3087711846
 20
65.3088111335
 30
0.0
 10
18.0840573977
 20
65.3631162499
 30
0.0
 10
17.8731602937
 20
65.3578125435
 30
0.0
 10
17.7462573354
 20
65.3116587249
 30
0.0
 10
17.6909981312
 20
65.2797845896
 30
0.0
  0
SPLINE
  5
26C
100
AcDbEntity
  8
0
100
AcDbSpline
 62
7
  6
BYLAYER
 70
0
 71
3
 72
17
 73
13
 74
0
 42
0.0000001
 43
0.0000001
 44
0.0000000001
 40
0.0
 40
0.0
 40
0.0
 40
0.0
 40
0.1286880245
 40
0.270278509
 40
0.4174305517
 40
0.5617723386
 40
0.6954448884
 40
0.8127093339
 40
0.8646747764
 40
0.9125085238
 40
0.9571389706
 40
1.0
 40
1.0
 40
1.0
 40
1.0
 10
46.4668809042
 20
52.9583504405
 30
0.0
 10
46.3743510283
 20
53.0117713806
 30
0.0
 10
46.1947383461
 20
53.1499846879
 30
0.0
 10
45.9648522309
 20
53.4115256834
 30
0.0
 10
45.7756240838
 20
53.7192840411
 30
0.0
 10
45.6427025911
 20
54.0482586465
 30
0.0
 10
45.5767233759
 20
54.3717022615
 30
0.0
 10
45.5826412857
 20
54.6265675387
 30
0.0
 10
45.6298216454
 20
54.8013687945
 30
0.0
 10
45.6823544939
 20
54.9100927338
 30
0.0
 10
45.7526545291
 20
54.9989869281
 30
0.0
 10
45.8110716531
 20
55.0437086571
 30
0.0
 10
45.8418967309
 20
55.0614890969
 30
0.0
  0
SPLINE
  5
26D
100
AcDbEntity
  8
0
100
AcDbSpline
 62
7
  6
BYLAYER
 70
0
 71
3
 72
17
 73
13
 74
0
 42
0.0000001
 43
0.0000001
 44
0.0000000001
 40
0.0
 40
0.0
 40
0.0
 40
0.0
 40
0.1286880245
 40
0.270278509
 40
0.4174305517
 40
0.5617723386
 40
0.6954448884
 40
0.8127093339
 40
0.8646747764
 40
0.9125085238
 40
0.9571389706
 40
1.0
 40
1.0
 40
1.0
 40
1.0
 10
46.4668809042
 20
13.7662344183
 30
0.0
 10
46.3743510283
 20
13.8196553584
 30
0.0
 10
46.1947383461
 20
13.9578686657
 30
0.0
 10
45.9648522309
 20
14.2194096612
 30
0.0
 10
45.7756240838
 20
14.5271680188
 30
0.0
 10
45.6427025911
 20
14.8561426243
 30
0.0
 10
45.5767233759
 20
15.1795862392
 30
0.0
 10
45.5826412857
 20
15.4344515165
 30
0.0
 10
45.6298216454
 20
15.6092527723
 30
0.0
 10
45.6823544939
 20
15.7179767116
 30
0.0
 10
45.7526545291
 20
15.8068709058
 30
0.0
 10
45.8110716531
 20
15.8515926349
 30
0.0
 10
45.8418967309
 20
15.8693730747
 30
0.0
  0
SPLINE
  5
26E
100
AcDbEntity
  8
0
100
AcDbSpline
 62
7
  6
BYLAYER
 70
0
 71
3
 72
17
 73
13
 74
0
 42
0.0000001
 43
0.0000001
 44
0.0000000001
 40
0.0
 40
0.0
 40
0.0
 40
0.0
 40
0.1286880245
 40
0.270278509
 40
0.4174305517
 40
0.5617723386
 40
0.6954448884
 40
0.8127093339
 40
0.8646747764
 40
0.9125085238
 40
0.9571389706
 40
1.0
 40
1.0
 40
1.0
 40
1.0
 10
12.5256140971
 20
33.3617906352
 30
0.0
 10
12.4330842213
 20
33.4152115754
 30
0.0
 10
12.253471539
 20
33.5534248827
 30
0.0
 10
12.0235854239
 20
33.8149658782
 30
0.0
 10
11.8343572767
 20
34.1227242358
 30
0.0
 10
11.701435784
 20
34.4516988413
 30
0.0
 10
11.6354565688
 20
34.7751424562
 30
0.0
 10
11.6413744787
 20
35.0300077335
 30
0.0
 10
11.6885548384
 20
35.2048089893
 30
0.0
 10
11.7410876868
 20
35.3135329286
 30
0.0
 10
11.811387722
 20
35.4024271228
 30
0.0
 10
11.8698048461
 20
35.4471488519
 30
0.0
 10
11.9006299238
 20
35.4649292916
 30
0.0
  0
SPLINE
  5
26F
100
AcDbEntity
  8
0
100
AcDbSpline
 62
7
  6
BYLAYER
 70
0
 71
3
 72
17
 73
13
 74
0
 42
0.0000001
 43
0.0000001
 44
0.0000000001
 40
0.0
 40
0.0
 40
0.0
 40
0.0
 40
0.1286880245
 40
0.270278509
 40
0.4174305517
 40
0.5617723386
 40
0.6954448884
 40
0.8127093339
 40
0.8646747764
 40
0.9125085238
 40
0.9571389706
 40
1.0
 40
1.0
 40
1.0
 40
1.0
 10
12.5256140971
 20
72.5539066575
 30
0.0
 10
12.4330842213
 20
72.6073275976
 30
0.0
 10
12.253471539
 20
72.7455409049
 30
0.0
 10
12.0235854239
 20
73.0070819004
 30
0.0
 10
11.8343572767
 20
73.314840258
 30
0.0
 10
11.701435784
 20
73.6438148635
 30
0.0
 10
11.6354565688
 20
73.9672584784
 30
0.0
 10
11.6413744787
 20
74.2221237557
 30
0.0
 10
11.6885548384
 20
74.3969250115
 30
0.0
 10
11.7410876868
 20
74.5056489508
 30
0.0
 10
11.811387722
 20
74.594543145
 30
0.0
 10
11.8698048461
 20
74.6392648741
 30
0.0
 10
11.9006299238
 20
74.6570453139
 30
0.0
  0
SPLINE
  5
270
100
AcDbEntity
  8
0
100
AcDbSpline
 62
7
  6
BYLAYER
 70
0
 71
3
 72
10
 73
6
 74
0
 42
0.0000001
 43
0.0000001
 44
0.0000000001
 40
0.0
 40
0.0
 40
0.0
 40
0.0
 40
0.2790474884
 40
0.53866423
 40
1.0
 40
1.0
 40
1.0
 40
1.0
 10
45.4763641399
 20
22.3799937288
 30
0.0
 10
45.4304746901
 20
22.4064874156
 30
0.0
 10
45.338769831
 20
22.4526812832
 30
0.0
 10
45.1593674398
 20
22.5152638356
 30
0.0
 10
45.0193293411
 20
22.5305118579
 30
0.0
 10
44.932277335
 20
22.5207023431
 30
0.0
  0
SPLINE
  5
271
100
AcDbEntity
  8
0
100
AcDbSpline
 62
7
  6
BYLAYER
 70
0
 71
3
 72
9
 73
5
 74
0
 42
0.0000001
 43
0.0000001
 44
0.0000000001
 40
0.0
 40
0.0
 40
0.0
 40
0.0
 40
0.5071738305
 40
1.0
 40
1.0
 40
1.0
 40
1.0
 10
44.932277335
 20
22.5207023431
 30
0.0
 10
44.8957363446
 20
22.5165846967
 30
0.0
 10
44.8242351592
 20
22.5016310256
 30
0.0
 10
44.7573304268
 20
22.4721147523
 30
0.0
 10
44.7263780325
 20
22.4542618941
 30
0.0
  0
SPLINE
  5
272
100
AcDbEntity
  8
0
100
AcDbSpline
 62
7
  6
BYLAYER
 70
0
 71
3
 72
15
 73
11
 74
0
 42
0.0000001
 43
0.0000001
 44
0.0000000001
 40
0.0
 40
0.0
 40
0.0
 40
0.0
 40
0.1485535164
 40
0.2895066069
 40
0.4227296667
 40
0.5486376145
 40
0.6679990206
 40
0.781937708
 40
0.8919863753
 40
1.0
 40
1.0
 40
1.0
 40
1.0
 10
29.7785262847
 20
35.3621447188
 30
0.0
 10
30.0265634743
 20
35.2189436202
 30
0.0
 10
30.5218517933
 20
34.9597255934
 30
0.0
 10
31.2772835429
 20
34.6504412918
 30
0.0
 10
32.0193458072
 20
34.4341367817
 30
0.0
 10
32.7408651479
 20
34.3131361285
 30
0.0
 10
33.4351954692
 20
34.2889594114
 30
0.0
 10
34.0956667977
 20
34.362651488
 30
0.0
 10
34.7152478921
 20
34.5339303456
 30
0.0
 10
35.0981355103
 20
34.7132865638
 30
0.0
 10
35.2784832535
 20
34.8174096507
 30
0.0
  0
SPLINE
  5
273
100
AcDbEntity
  8
0
100
AcDbSpline
 62
7
  6
BYLAYER
 70
0
 71
3
 72
9
 73
5
 74
0
 42
0.0000001
 43
0.0000001
 44
0.0000000001
 40
0.0
 40
0.0
 40
0.0
 40
0.0
 40
0.2595905131
 40
1.0
 40
1.0
 40
1.0
 40
1.0
 10
46.8632650107
 20
52.8590492672
 30
0.0
 10
46.8788247367
 20
52.8520058197
 30
0.0
 10
46.9393278567
 20
52.8261595542
 30
0.0
 10
47.0021774227
 20
52.8056172358
 30
0.0
 10
47.0495758379
 20
52.7943681718
 30
0.0
  0
SPLINE
  5
274
100
AcDbEntity
  8
0
100
AcDbSpline
 62
7
  6
BYLAYER
 70
0
 71
3
 72
10
 73
6
 74
0
 42
0.0000001
 43
0.0000001
 44
0.0000000001
 40
0.0
 40
0.0
 40
0.0
 40
0.0
 40
0.5199050027
 40
0.7627416722
 40
1.0
 40
1.0
 40
1.0
 40
1.0
 10
47.1068330206
 20
52.7828496779
 30
0.0
 10
47.1759889006
 20
52.7714801003
 30
0.0
 10
47.2811011789
 20
52.7682107319
 30
0.0
 10
47.4126501214
 20
52.800297647
 30
0.0
 10
47.4720012333
 20
52.8272790872
 30
0.0
 10
47.4997057065
 20
52.8432593414
 30
0.0
  0
SPLINE
  5
275
100
AcDbEntity
  8
0
100
AcDbSpline
 62
7
  6
BYLAYER
 70
0
 71
3
 72
11
 73
7
 74
0
 42
0.0000001
 43
0.0000001
 44
0.0000000001
 40
0.0
 40
0.0
 40
0.0
 40
0.0
 40
0.2177669599
 40
0.450898211
 40
0.7103709681
 40
1.0
 40
1.0
 40
1.0
 40
1.0
 10
11.9006299238
 20
74.6570453139
 30
0.0
 10
11.9418682741
 20
74.6808323099
 30
0.0
 10
12.0365716966
 20
74.7152812068
 30
0.0
 10
12.1939608773
 20
74.7192345045
 30
0.0
 10
12.3616564481
 20
74.6787080862
 30
0.0
 10
12.4707796272
 20
74.6268206801
 30
0.0
 10
12.5256140971
 20
74.5951627003
 30
0.0
  0
SPLINE
  5
276
100
AcDbEntity
  8
0
100
AcDbSpline
 62
7
  6
BYLAYER
 70
0
 71
3
 72
9
 73
5
 74
0
 42
0.0000001
 43
0.0000001
 44
0.0000000001
 40
0.0
 40
0.0
 40
0.0
 40
0.0
 40
0.2595905131
 40
1.0
 40
1.0
 40
1.0
 40
1.0
 10
46.8632650107
 20
13.666933245
 30
0.0
 10
46.8788247367
 20
13.6598897975
 30
0.0
 10
46.9393278567
 20
13.634043532
 30
0.0
 10
47.0021774227
 20
13.6135012135
 30
0.0
 10
47.0495758379
 20
13.6022521496
 30
0.0
  0
SPLINE
  5
277
100
AcDbEntity
  8
0
100
AcDbSpline
 62
7
  6
BYLAYER
 70
0
 71
3
 72
10
 73
6
 74
0
 42
0.0000001
 43
0.0000001
 44
0.0000000001
 40
0.0
 40
0.0
 40
0.0
 40
0.0
 40
0.5199050027
 40
0.7627416722
 40
1.0
 40
1.0
 40
1.0
 40
1.0
 10
47.1068330206
 20
13.5907336557
 30
0.0
 10
47.1759889006
 20
13.5793640781
 30
0.0
 10
47.2811011789
 20
13.5760947097
 30
0.0
 10
47.4126501214
 20
13.6081816248
 30
0.0
 10
47.4720012333
 20
13.635163065
 30
0.0
 10
47.4997057065
 20
13.6511433192
 30
0.0
  0
SPLINE
  5
278
100
AcDbEntity
  8
0
100
AcDbSpline
 62
7
  6
BYLAYER
 70
0
 71
3
 72
9
 73
5
 74
0
 42
0.0000001
 43
0.0000001
 44
0.0000000001
 40
0.0
 40
0.0
 40
0.0
 40
0.0
 40
0.2595905131
 40
1.0
 40
1.0
 40
1.0
 40
1.0
 10
12.9219982037
 20
33.2624894619
 30
0.0
 10
12.9375579296
 20
33.2554460145
 30
0.0
 10
12.9980610497
 20
33.2295997489
 30
0.0
 10
13.0609106157
 20
33.2090574305
 30
0.0
 10
13.1083090308
 20
33.1978083666
 30
0.0
  0
SPLINE
  5
279
100
AcDbEntity
  8
0
100
AcDbSpline
 62
7
  6
BYLAYER
 70
0
 71
3
 72
10
 73
6
 74
0
 42
0.0000001
 43
0.0000001
 44
0.0000000001
 40
0.0
 40
0.0
 40
0.0
 40
0.0
 40
0.5199050027
 40
0.7627416722
 40
1.0
 40
1.0
 40
1.0
 40
1.0
 10
13.1655662135
 20
33.1862898727
 30
0.0
 10
13.2347220935
 20
33.174920295
 30
0.0
 10
13.3398343718
 20
33.1716509267
 30
0.0
 10
13.4713833144
 20
33.2037378418
 30
0.0
 10
13.5307344262
 20
33.2307192819
 30
0.0
 10
13.5584388995
 20
33.2466995361
 30
0.0
  0
SPLINE
  5
27A
100
AcDbEntity
  8
0
100
AcDbSpline
 62
7
  6
BYLAYER
 70
0
 71
3
 72
9
 73
5
 74
0
 42
0.0000001
 43
0.0000001
 44
0.0000000001
 40
0.0
 40
0.0
 40
0.0
 40
0.0
 40
0.2595905131
 40
1.0
 40
1.0
 40
1.0
 40
1.0
 10
12.9219982037
 20
72.4546054842
 30
0.0
 10
12.9375579296
 20
72.4475620367
 30
0.0
 10
12.9980610497
 20
72.4217157712
 30
0.0
 10
13.0609106157
 20
72.4011734527
 30
0.0
 10
13.1083090308
 20
72.3899243888
 30
0.0
  0
SPLINE
  5
27B
100
AcDbEntity
  8
0
100
AcDbSpline
 62
7
  6
BYLAYER
 70
0
 71
3
 72
10
 73
6
 74
0
 42
0.0000001
 43
0.0000001
 44
0.0000000001
 40
0.0
 40
0.0
 40
0.0
 40
0.0
 40
0.5199050027
 40
0.7627416722
 40
1.0
 40
1.0
 40
1.0
 40
1.0
 10
13.1655662135
 20
72.3784058949
 30
0.0
 10
13.2347220935
 20
72.3670363173
 30
0.0
 10
13.3398343718
 20
72.3637669489
 30
0.0
 10
13.4713833144
 20
72.395853864
 30
0.0
 10
13.5307344262
 20
72.4228353041
 30
0.0
 10
13.5584388995
 20
72.4388155584
 30
0.0
  0
SPLINE
  5
27C
100
AcDbEntity
  8
0
100
AcDbSpline
 62
7
  6
BYLAYER
 70
0
 71
3
 72
13
 73
9
 74
0
 42
0.0000001
 43
0.0000001
 44
0.0000000001
 40
0.0
 40
0.0
 40
0.0
 40
0.0
 40
0.2893469189
 40
0.5483225563
 40
0.6677483457
 40
0.7817628465
 40
0.8919046385
 40
1.0
 40
1.0
 40
1.0
 40
1.0
 10
45.6884951005
 20
23.6251576885
 30
0.0
 10
45.5623241173
 20
23.6980008917
 30
0.0
 10
45.3115201509
 20
23.8174189801
 30
0.0
 10
44.9813125143
 20
23.8969952933
 30
0.0
 10
44.7327664887
 20
23.9056597939
 30
0.0
 10
44.5601624748
 20
23.8863387958
 30
0.0
 10
44.3982262087
 20
23.8416111758
 30
0.0
 10
44.2981404535
 20
23.7947470356
 30
0.0
 10
44.2510097961
 20
23.7675256804
 30
0.0
  0
SPLINE
  5
27D
100
AcDbEntity
  8
0
100
AcDbSpline
 62
7
  6
BYLAYER
 70
0
 71
3
 72
11
 73
7
 74
0
 42
0.0000001
 43
0.0000001
 44
0.0000000001
 40
0.0
 40
0.0
 40
0.0
 40
0.0
 40
0.2896403952
 40
0.5491094116
 40
0.7822346475
 40
1.0
 40
1.0
 40
1.0
 40
1.0
 10
18.5284794466
 20
62.4615743009
 30
0.0
 10
18.6019606238
 20
62.4191508832
 30
0.0
 10
18.7481877085
 20
62.3496205657
 30
0.0
 10
18.9729014954
 20
62.2953154493
 30
0.0
 10
19.1837985995
 20
62.3006191558
 30
0.0
 10
19.3107015577
 20
62.3467729743
 30
0.0
 10
19.3659607619
 20
62.3786471096
 30
0.0
  0
SPLINE
  5
27E
100
AcDbEntity
  8
0
100
AcDbSpline
 62
7
  6
BYLAYER
 70
0
 71
3
 72
10
 73
6
 74
0
 42
0.0000001
 43
0.0000001
 44
0.0000000001
 40
0.0
 40
0.0
 40
0.0
 40
0.0
 40
0.2369594054
 40
0.479685542
 40
1.0
 40
1.0
 40
1.0
 40
1.0
 10
12.0584723645
 20
75.0368491225
 30
0.0
 10
12.0304415113
 20
75.0206806086
 30
0.0
 10
11.9767708314
 20
74.9822523974
 30
0.0
 10
11.8823931613
 20
74.8826888982
 30
0.0
 10
11.8325037135
 20
74.788474176
 30
0.0
 10
11.8078870044
 20
74.7218193247
 30
0.0
  0
SPLINE
  5
27F
100
AcDbEntity
  8
0
100
AcDbSpline
 62
7
  6
BYLAYER
 70
0
 71
3
 72
9
 73
5
 74
0
 42
0.0000001
 43
0.0000001
 44
0.0000000001
 40
0.0
 40
0.0
 40
0.0
 40
0.0
 40
0.2399523374
 40
1.0
 40
1.0
 40
1.0
 40
1.0
 10
11.8078870044
 20
74.7218193247
 30
0.0
 10
11.8021897041
 20
74.7063927012
 30
0.0
 10
11.7804116081
 20
74.6413813398
 30
0.0
 10
11.7662624119
 20
74.573915275
 30
0.0
 10
11.7591473459
 20
74.5223138676
 30
0.0
  0
SPLINE
  5
280
100
AcDbEntity
  8
0
100
AcDbSpline
 62
7
  6
BYLAYER
 70
0
 71
3
 72
17
 73
13
 74
0
 42
0.0000001
 43
0.0000001
 44
0.0000000001
 40
0.0
 40
0.0
 40
0.0
 40
0.0
 40
0.1286880245
 40
0.270278509
 40
0.4174305517
 40
0.5617723386
 40
0.6954448884
 40
0.8127093339
 40
0.8646747764
 40
0.9125085238
 40
0.9571389706
 40
1.0
 40
1.0
 40
1.0
 40
1.0
 10
46.4668809042
 20
54.9996064833
 30
0.0
 10
46.55941078
 20
54.9461855431
 30
0.0
 10
46.7390234622
 20
54.8079722358
 30
0.0
 10
46.9689095774
 20
54.5464312403
 30
0.0
 10
47.1581377245
 20
54.2386728827
 30
0.0
 10
47.2910592173
 20
53.9096982772
 30
0.0
 10
47.3570384325
 20
53.5862546623
 30
0.0
 10
47.3511205226
 20
53.3313893851
 30
0.0
 10
47.3039401629
 20
53.1565881292
 30
0.0
 10
47.2514073145
 20
53.0478641899
 30
0.0
 10
47.1811072793
 20
52.9589699957
 30
0.0
 10
47.1226901552
 20
52.9142482666
 30
0.0
 10
47.0918650774
 20
52.8964678269
 30
0.0
  0
SPLINE
  5
281
100
AcDbEntity
  8
0
100
AcDbSpline
 62
7
  6
BYLAYER
 70
0
 71
3
 72
17
 73
13
 74
0
 42
0.0000001
 43
0.0000001
 44
0.0000000001
 40
0.0
 40
0.0
 40
0.0
 40
0.0
 40
0.1286880245
 40
0.270278509
 40
0.4174305517
 40
0.5617723386
 40
0.6954448884
 40
0.8127093339
 40
0.8646747764
 40
0.9125085238
 40
0.9571389706
 40
1.0
 40
1.0
 40
1.0
 40
1.0
 10
46.4668809042
 20
15.8074904611
 30
0.0
 10
46.55941078
 20
15.7540695209
 30
0.0
 10
46.7390234622
 20
15.6158562136
 30
0.0
 10
46.9689095774
 20
15.3543152181
 30
0.0
 10
47.1581377245
 20
15.0465568605
 30
0.0
 10
47.2910592173
 20
14.717582255
 30
0.0
 10
47.3570384325
 20
14.3941386401
 30
0.0
 10
47.3511205226
 20
14.1392733628
 30
0.0
 10
47.3039401629
 20
13.964472107
 30
0.0
 10
47.2514073145
 20
13.8557481677
 30
0.0
 10
47.1811072793
 20
13.7668539735
 30
0.0
 10
47.1226901552
 20
13.7221322444
 30
0.0
 10
47.0918650774
 20
13.7043518047
 30
0.0
  0
SPLINE
  5
282
100
AcDbEntity
  8
0
100
AcDbSpline
 62
7
  6
BYLAYER
 70
0
 71
3
 72
11
 73
7
 74
0
 42
0.0000001
 43
0.0000001
 44
0.0000000001
 40
0.0
 40
0.0
 40
0.0
 40
0.0
 40
0.2177669599
 40
0.450898211
 40
0.7103709681
 40
1.0
 40
1.0
 40
1.0
 40
1.0
 10
11.9006299238
 20
35.4649292916
 30
0.0
 10
11.9418682741
 20
35.4887162877
 30
0.0
 10
12.0365716966
 20
35.5231651845
 30
0.0
 10
12.1939608773
 20
35.5271184823
 30
0.0
 10
12.3616564481
 20
35.4865920639
 30
0.0
 10
12.4707796272
 20
35.4347046578
 30
0.0
 10
12.5256140971
 20
35.4030466781
 30
0.0
  0
SPLINE
  5
283
100
AcDbEntity
  8
0
100
AcDbSpline
 62
7
  6
BYLAYER
 70
0
 71
3
 72
17
 73
13
 74
0
 42
0.0000001
 43
0.0000001
 44
0.0000000001
 40
0.0
 40
0.0
 40
0.0
 40
0.0
 40
0.1286880245
 40
0.270278509
 40
0.4174305517
 40
0.5617723386
 40
0.6954448884
 40
0.8127093339
 40
0.8646747764
 40
0.9125085238
 40
0.9571389706
 40
1.0
 40
1.0
 40
1.0
 40
1.0
 10
12.5256140971
 20
35.4030466781
 30
0.0
 10
12.6181439729
 20
35.3496257379
 30
0.0
 10
12.7977566552
 20
35.2114124306
 30
0.0
 10
13.0276427703
 20
34.9498714351
 30
0.0
 10
13.2168709175
 20
34.6421130775
 30
0.0
 10
13.3497924102
 20
34.313138472
 30
0.0
 10
13.4157716254
 20
33.9896948571
 30
0.0
 10
13.4098537156
 20
33.7348295798
 30
0.0
 10
13.3626733559
 20
33.560028324
 30
0.0
 10
13.3101405074
 20
33.4513043847
 30
0.0
 10
13.2398404722
 20
33.3624101905
 30
0.0
 10
13.1814233481
 20
33.3176884614
 30
0.0
 10
13.1505982704
 20
33.2999080216
 30
0.0
  0
SPLINE
  5
284
100
AcDbEntity
  8
0
100
AcDbSpline
 62
7
  6
BYLAYER
 70
0
 71
3
 72
17
 73
13
 74
0
 42
0.0000001
 43
0.0000001
 44
0.0000000001
 40
0.0
 40
0.0
 40
0.0
 40
0.0
 40
0.1286880245
 40
0.270278509
 40
0.4174305517
 40
0.5617723386
 40
0.6954448884
 40
0.8127093339
 40
0.8646747764
 40
0.9125085238
 40
0.9571389706
 40
1.0
 40
1.0
 40
1.0
 40
1.0
 10
12.5256140971
 20
74.5951627003
 30
0.0
 10
12.6181439729
 20
74.5417417601
 30
0.0
 10
12.7977566552
 20
74.4035284528
 30
0.0
 10
13.0276427703
 20
74.1419874573
 30
0.0
 10
13.2168709175
 20
73.8342290997
 30
0.0
 10
13.3497924102
 20
73.5052544942
 30
0.0
 10
13.4157716254
 20
73.1818108793
 30
0.0
 10
13.4098537156
 20
72.926945602
 30
0.0
 10
13.3626733559
 20
72.7521443462
 30
0.0
 10
13.3101405074
 20
72.6434204069
 30
0.0
 10
13.2398404722
 20
72.5545262127
 30
0.0
 10
13.1814233481
 20
72.5098044836
 30
0.0
 10
13.1505982704
 20
72.4920240439
 30
0.0
  0
SPLINE
  5
285
100
AcDbEntity
  8
0
100
AcDbSpline
 62
7
  6
BYLAYER
 70
0
 71
3
 72
14
 73
10
 74
0
 42
0.0000001
 43
0.0000001
 44
0.0000000001
 40
0.0
 40
0.0
 40
0.0
 40
0.0
 40
0.2900094687
 40
0.4225288595
 40
0.5472757071
 40
0.6654811149
 40
0.7788680744
 40
0.8895622632
 40
1.0
 40
1.0
 40
1.0
 40
1.0
 10
44.9877032486
 20
18.6159053774
 30
0.0
 10
45.1152352346
 20
18.546397637
 30
0.0
 10
45.3112044013
 20
18.4608918012
 30
0.0
 10
45.5788599781
 20
18.3990018491
 30
0.0
 10
45.7667862214
 20
18.3817361579
 30
0.0
 10
45.9456739023
 20
18.3927501197
 30
0.0
 10
46.1134515367
 20
18.43203786
 30
0.0
 10
46.2678616144
 20
18.499370525
 30
0.0
 10
46.3599943887
 20
18.56215633
 30
0.0
 10
46.4027091582
 20
18.5972936342
 30
0.0
  0
SPLINE
  5
286
100
AcDbEntity
  8
0
100
AcDbSpline
 62
7
  6
BYLAYER
 70
0
 71
3
 72
17
 73
13
 74
0
 42
0.0000001
 43
0.0000001
 44
0.0000000001
 40
0.0
 40
0.0
 40
0.0
 40
0.0
 40
0.0432614385
 40
0.0885307545
 40
0.1366243874
 40
0.1880908508
 40
0.301786323
 40
0.4294170153
 40
0.5679561813
 40
0.7128241168
 40
0.8586702404
 40
1.0
 40
1.0
 40
1.0
 40
1.0
 10
46.4027091582
 20
18.5972936342
 30
0.0
 10
46.4515663762
 20
18.6374837359
 30
0.0
 10
46.5432149816
 20
18.730349953
 30
0.0
 10
46.6545222406
 20
18.8974963198
 30
0.0
 10
46.7408079657
 20
19.0919222395
 30
0.0
 10
46.8236748118
 20
19.3935539944
 30
0.0
 10
46.8537280489
 20
19.8248775062
 30
0.0
 10
46.7828672291
 20
20.3784791103
 30
0.0
 10
46.6110571162
 20
20.9569207957
 30
0.0
 10
46.3476108987
 20
21.5289052649
 30
0.0
 10
46.0070288697
 20
22.0632211707
 30
0.0
 10
45.7332032803
 20
22.3839989743
 30
0.0
 10
45.586964813
 20
22.5300416969
 30
0.0
  0
SPLINE
  5
287
100
AcDbEntity
  8
0
100
AcDbSpline
 62
7
  6
BYLAYER
 70
0
 71
3
 72
9
 73
5
 74
0
 42
0.0000001
 43
0.0000001
 44
0.0000000001
 40
0.0
 40
0.0
 40
0.0
 40
0.0
 40
0.5176761162
 40
1.0
 40
1.0
 40
1.0
 40
1.0
 10
45.586964813
 20
22.5300416969
 30
0.0
 10
45.4857029227
 20
22.6311680452
 30
0.0
 10
45.2790513366
 20
22.8158554743
 30
0.0
 10
45.0503127288
 20
22.972945648
 30
0.0
 10
44.9348387586
 20
23.0396130675
 30
0.0
  0
SPLINE
  5
288
100
AcDbEntity
  8
0
100
AcDbSpline
 62
7
  6
BYLAYER
 70
0
 71
3
 72
20
 73
16
 74
0
 42
0.0000001
 43
0.0000001
 44
0.0000000001
 40
0.0
 40
0.0
 40
0.0
 40
0.0
 40
0.0623821499
 40
0.1287883655
 40
0.2702576021
 40
0.417303445
 40
0.5615495083
 40
0.63018743
 40
0.6953203038
 40
0.7563128699
 40
0.812795578
 40
0.8647425165
 40
0.9125571009
 40
0.957166955
 40
1.0
 40
1.0
 40
1.0
 40
1.0
 10
45.0381058622
 20
23.2496575281
 30
0.0
 10
45.1413126255
 20
23.1900724235
 30
0.0
 10
45.3464333305
 20
23.0529415008
 30
0.0
 10
45.7421040803
 20
22.7200831887
 30
0.0
 10
46.1925858268
 20
22.2075770915
 30
0.0
 10
46.6274540869
 20
21.5004339407
 30
0.0
 10
46.8868709389
 20
20.8593345525
 30
0.0
 10
47.0150106134
 20
20.3431531992
 30
0.0
 10
47.0674229636
 20
19.9740446092
 30
0.0
 10
47.0764617605
 20
19.6244375582
 30
0.0
 10
47.0418147702
 20
19.301525355
 30
0.0
 10
46.9638363749
 20
19.0119236337
 30
0.0
 10
46.8432066882
 20
18.7617893849
 30
0.0
 10
46.6818260723
 20
18.5571139631
 30
0.0
 10
46.547606579
 20
18.4541288051
 30
0.0
 10
46.4768099623
 20
18.4130994725
 30
0.0
  0
SPLINE
  5
289
100
AcDbEntity
  8
0
100
AcDbSpline
 62
7
  6
BYLAYER
 70
0
 71
3
 72
15
 73
11
 74
0
 42
0.0000001
 43
0.0000001
 44
0.0000000001
 40
0.0
 40
0.0
 40
0.0
 40
0.0
 40
0.1141474765
 40
0.2373368178
 40
0.3669776594
 40
0.5000010819
 40
0.633024354
 40
0.7626647561
 40
0.8858534048
 40
1.0
 40
1.0
 40
1.0
 40
1.0
 10
10.4037227596
 20
36.4233201746
 30
0.0
 10
10.4037227596
 20
36.1997521053
 30
0.0
 10
10.4447019271
 20
35.7344762036
 30
0.0
 10
10.6079174923
 20
35.032567217
 30
0.0
 10
10.869503168
 20
34.3216053551
 30
0.0
 10
11.2194865948
 20
33.6283059529
 30
0.0
 10
11.6449123885
 20
32.9785644471
 30
0.0
 10
12.1298320458
 20
32.396548138
 30
0.0
 10
12.6560955425
 20
31.9042508344
 30
0.0
 10
13.0385464326
 20
31.6361287629
 30
0.0
 10
13.2321616602
 20
31.524347488
 30
0.0
  0
SPLINE
  5
28A
100
AcDbEntity
  8
0
100
AcDbSpline
 62
7
  6
BYLAYER
 70
0
 71
3
 72
11
 73
7
 74
0
 42
0.0000001
 43
0.0000001
 44
0.0000000001
 40
0.0
 40
0.0
 40
0.0
 40
0.0
 40
0.2875581583
 40
0.5472795061
 40
0.7820152084
 40
1.0
 40
1.0
 40
1.0
 40
1.0
 10
44.9348387586
 20
23.0396130675
 30
0.0
 10
44.8252594624
 20
23.1028772724
 30
0.0
 10
44.607174546
 20
23.2081216059
 30
0.0
 10
44.2723247707
 20
23.2975808242
 30
0.0
 10
43.9556082668
 20
23.3061469461
 30
0.0
 10
43.7595617669
 20
23.2541677785
 30
0.0
 10
43.672002303
 20
23.2150088037
 30
0.0
  0
SPLINE
  5
28B
100
AcDbEntity
  8
0
100
AcDbSpline
 62
7
  6
BYLAYER
 70
0
 71
3
 72
20
 73
16
 74
0
 42
0.0000001
 43
0.0000001
 44
0.0000000001
 40
0.0
 40
0.0
 40
0.0
 40
0.0
 40
0.0429530524
 40
0.0870626838
 40
0.1340116117
 40
0.1849732524
 40
0.2405453518
 40
0.3008307531
 40
0.3655205386
 40
0.4340062242
 40
0.578735607
 40
0.7270214311
 40
0.8699764053
 40
0.9370578609
 40
1.0
 40
1.0
 40
1.0
 40
1.0
 10
43.672002303
 20
23.2150088037
 30
0.0
 10
43.6006758801
 20
23.1831096865
 30
0.0
 10
43.4639609775
 20
23.0989479768
 30
0.0
 10
43.2948489012
 20
22.9199934128
 30
0.0
 10
43.1652307711
 20
22.6940921195
 30
0.0
 10
43.0772387514
 20
22.4274695122
 30
0.0
 10
43.0316897315
 20
22.1262313818
 30
0.0
 10
43.0291887675
 20
21.7968738045
 30
0.0
 10
43.0694654787
 20
21.4464817674
 30
0.0
 10
43.1809607751
 20
20.952607049
 30
0.0
 10
43.4197943065
 20
20.3355114502
 30
0.0
 10
43.8297924744
 20
19.6526445417
 30
0.0
 10
44.259443159
 20
19.1567466259
 30
0.0
 10
44.6386861297
 20
18.8350016389
 30
0.0
 10
44.8356816566
 20
18.7028183065
 30
0.0
 10
44.9348387586
 20
18.645571222
 30
0.0
  0
SPLINE
  5
28C
100
AcDbEntity
  8
0
100
AcDbSpline
 62
7
  6
BYLAYER
 70
0
 71
3
 72
10
 73
6
 74
0
 42
0.0000001
 43
0.0000001
 44
0.0000000001
 40
0.0
 40
0.0
 40
0.0
 40
0.0
 40
0.2369594054
 40
0.479685542
 40
1.0
 40
1.0
 40
1.0
 40
1.0
 10
12.0584723645
 20
35.8447331003
 30
0.0
 10
12.0304415113
 20
35.8285645864
 30
0.0
 10
11.9767708314
 20
35.7901363752
 30
0.0
 10
11.8823931613
 20
35.690572876
 30
0.0
 10
11.8325037135
 20
35.5963581538
 30
0.0
 10
11.8078870044
 20
35.5297033025
 30
0.0
  0
SPLINE
  5
28D
100
AcDbEntity
  8
0
100
AcDbSpline
 62
7
  6
BYLAYER
 70
0
 71
3
 72
9
 73
5
 74
0
 42
0.0000001
 43
0.0000001
 44
0.0000000001
 40
0.0
 40
0.0
 40
0.0
 40
0.0
 40
0.2399523374
 40
1.0
 40
1.0
 40
1.0
 40
1.0
 10
11.8078870044
 20
35.5297033025
 30
0.0
 10
11.8021897041
 20
35.514276679
 30
0.0
 10
11.7804116081
 20
35.4492653176
 30
0.0
 10
11.7662624119
 20
35.3817992528
 30
0.0
 10
11.7591473459
 20
35.3301978453
 30
0.0
  0
SPLINE
  5
28E
100
AcDbEntity
  8
0
100
AcDbSpline
 62
7
  6
BYLAYER
 70
0
 71
3
 72
11
 73
7
 74
0
 42
0.0000001
 43
0.0000001
 44
0.0000000001
 40
0.0
 40
0.0
 40
0.0
 40
0.0
 40
0.2896344527
 40
0.5490965648
 40
0.7822249527
 40
1.0
 40
1.0
 40
1.0
 40
1.0
 10
45.4763641399
 20
19.9304864774
 30
0.0
 10
45.5421670864
 20
19.892495988
 30
0.0
 10
45.6731132526
 20
19.8302291838
 30
0.0
 10
45.8743473151
 20
19.7815975258
 30
0.0
 10
46.0632129072
 20
19.7863414672
 30
0.0
 10
46.1768614192
 20
19.8276739281
 30
0.0
 10
46.2263502472
 20
19.8562183121
 30
0.0
  0
SPLINE
  5
28F
100
AcDbEntity
  8
0
100
AcDbSpline
 62
7
  6
BYLAYER
 70
0
 71
3
 72
17
 73
13
 74
0
 42
0.0000001
 43
0.0000001
 44
0.0000000001
 40
0.0
 40
0.0
 40
0.0
 40
0.0
 40
0.1238589568
 40
0.259574024
 40
0.4014916266
 40
0.5430934592
 40
0.6778695023
 40
0.8003601847
 40
0.8559756443
 40
0.9075842707
 40
0.9554090519
 40
1.0
 40
1.0
 40
1.0
 40
1.0
 10
45.6884951005
 20
20.0529596136
 30
0.0
 10
45.5887285947
 20
20.1105585295
 30
0.0
 10
45.3939191598
 20
20.2565367858
 30
0.0
 10
45.1387537243
 20
20.5312685565
 30
0.0
 10
44.9204279708
 20
20.8562120446
 30
0.0
 10
44.753726383
 20
21.2094505951
 30
0.0
 10
44.6498059473
 20
21.5672527537
 30
0.0
 10
44.6203966886
 20
21.8591539441
 30
0.0
 10
44.6372343184
 20
22.072677922
 30
0.0
 10
44.6681469782
 20
22.2140762718
 30
0.0
 10
44.7171116879
 20
22.3394123006
 30
0.0
 10
44.7630014208
 20
22.4128863704
 30
0.0
 10
44.7886151841
 20
22.4455052072
 30
0.0
  0
SPLINE
  5
290
100
AcDbEntity
  8
0
100
AcDbSpline
 62
7
  6
BYLAYER
 70
0
 71
3
 72
11
 73
7
 74
0
 42
0.0000001
 43
0.0000001
 44
0.0000000001
 40
0.0
 40
0.0
 40
0.0
 40
0.0
 40
0.2177669599
 40
0.450898211
 40
0.7103709681
 40
1.0
 40
1.0
 40
1.0
 40
1.0
 10
45.8418967309
 20
15.8693730747
 30
0.0
 10
45.8831350812
 20
15.8931600707
 30
0.0
 10
45.9778385036
 20
15.9276089676
 30
0.0
 10
46.1352276843
 20
15.9315622653
 30
0.0
 10
46.3029232552
 20
15.891035847
 30
0.0
 10
46.4120464342
 20
15.8391484409
 30
0.0
 10
46.4668809042
 20
15.8074904611
 30
0.0
  0
SPLINE
  5
291
100
AcDbEntity
  8
0
100
AcDbSpline
 62
7
  6
BYLAYER
 70
0
 71
3
 72
14
 73
10
 74
0
 42
0.0000001
 43
0.0000001
 44
0.0000000001
 40
0.0
 40
0.0
 40
0.0
 40
0.0
 40
0.2892465103
 40
0.4225697622
 40
0.5485168638
 40
0.6678914139
 40
0.7818640907
 40
0.891953856
 40
1.0
 40
1.0
 40
1.0
 40
1.0
 10
45.617787072
 20
12.826920931
 30
0.0
 10
45.7933477841
 20
12.7255631996
 30
0.0
 10
46.0629390052
 20
12.5972933019
 30
0.0
 10
46.432617221
 20
12.4894557827
 30
0.0
 10
46.6950345839
 20
12.445450702
 30
0.0
 10
46.9474929436
 20
12.4366900573
 30
0.0
 10
47.1876415591
 20
12.4635168468
 30
0.0
 10
47.4129586449
 20
12.5257446729
 30
0.0
 10
47.5521841338
 20
12.5909872859
 30
0.0
 10
47.6177634167
 20
12.6288492788
 30
0.0
  0
SPLINE
  5
292
100
AcDbEntity
  8
0
100
AcDbSpline
 62
7
  6
BYLAYER
 70
0
 71
3
 72
10
 73
6
 74
0
 42
0.0000001
 43
0.0000001
 44
0.0000000001
 40
0.0
 40
0.0
 40
0.0
 40
0.0
 40
0.2369594054
 40
0.479685542
 40
1.0
 40
1.0
 40
1.0
 40
1.0
 10
45.9997391716
 20
16.2491768833
 30
0.0
 10
45.9717083184
 20
16.2330083694
 30
0.0
 10
45.9180376384
 20
16.1945801582
 30
0.0
 10
45.8236599683
 20
16.095016659
 30
0.0
 10
45.7737705205
 20
16.0008019368
 30
0.0
 10
45.7491538114
 20
15.9341470855
 30
0.0
  0
SPLINE
  5
293
100
AcDbEntity
  8
0
100
AcDbSpline
 62
7
  6
BYLAYER
 70
0
 71
3
 72
9
 73
5
 74
0
 42
0.0000001
 43
0.0000001
 44
0.0000000001
 40
0.0
 40
0.0
 40
0.0
 40
0.0
 40
0.2399523374
 40
1.0
 40
1.0
 40
1.0
 40
1.0
 10
45.7491538114
 20
15.9341470855
 30
0.0
 10
45.7434565111
 20
15.918720462
 30
0.0
 10
45.7216784151
 20
15.8537091006
 30
0.0
 10
45.7075292189
 20
15.7862430358
 30
0.0
 10
45.700414153
 20
15.7346416284
 30
0.0
  0
SPLINE
  5
294
100
AcDbEntity
  8
0
100
AcDbSpline
 62
7
  6
BYLAYER
 70
0
 71
3
 72
19
 73
15
 74
0
 42
0.0000001
 43
0.0000001
 44
0.0000000001
 40
0.0
 40
0.0
 40
0.0
 40
0.0
 40
0.0428381439
 40
0.0874450446
 40
0.1352555779
 40
0.1871950837
 40
0.2436748485
 40
0.3046661196
 40
0.4382720738
 40
0.5825478161
 40
0.7296384368
 40
0.871171676
 40
0.9376253203
 40
1.0
 40
1.0
 40
1.0
 40
1.0
 10
17.6909981312
 20
65.2797845896
 30
0.0
 10
17.6496953315
 20
65.2559606665
 30
0.0
 10
17.571428265
 20
65.1960312887
 30
0.0
 10
17.4772143325
 20
65.0769294109
 30
0.0
 10
17.4068471422
 20
64.931241732
 30
0.0
 10
17.361240006
 20
64.7625757813
 30
0.0
 10
17.3409601427
 20
64.5744429459
 30
0.0
 10
17.3481095933
 20
64.2944120877
 30
0.0
 10
17.4241079842
 20
63.9218941243
 30
0.0
 10
17.6021860833
 20
63.4812933396
 30
0.0
 10
17.8556452968
 20
63.068974082
 30
0.0
 10
18.1181712514
 20
62.7702185792
 30
0.0
 10
18.3488287324
 20
62.5762435274
 30
0.0
 10
18.4683540013
 20
62.4962869576
 30
0.0
 10
18.5284794466
 20
62.4615743009
 30
0.0
  0
SPLINE
  5
295
100
AcDbEntity
  8
0
100
AcDbSpline
 62
7
  6
BYLAYER
 70
0
 71
3
 72
11
 73
7
 74
0
 42
0.0000001
 43
0.0000001
 44
0.0000000001
 40
0.0
 40
0.0
 40
0.0
 40
0.0
 40
0.2177669599
 40
0.450898211
 40
0.7103709681
 40
1.0
 40
1.0
 40
1.0
 40
1.0
 10
45.8418967309
 20
55.0614890969
 30
0.0
 10
45.8831350812
 20
55.085276093
 30
0.0
 10
45.9778385036
 20
55.1197249898
 30
0.0
 10
46.1352276843
 20
55.1236782875
 30
0.0
 10
46.3029232552
 20
55.0831518692
 30
0.0
 10
46.4120464342
 20
55.0312644631
 30
0.0
 10
46.4668809042
 20
54.9996064833
 30
0.0
  0
SPLINE
  5
296
100
AcDbEntity
  8
0
100
AcDbSpline
 62
7
  6
BYLAYER
 70
0
 71
3
 72
18
 73
14
 74
0
 42
0.0000001
 43
0.0000001
 44
0.0000000001
 40
0.0
 40
0.0
 40
0.0
 40
0.0
 40
0.0428492927
 40
0.0874676577
 40
0.1352887341
 40
0.1872395677
 40
0.2437318919
 40
0.3047378107
 40
0.4383734982
 40
0.582681307
 40
0.7298001397
 40
0.8713511381
 40
1.0
 40
1.0
 40
1.0
 40
1.0
 10
44.7263780325
 20
22.4542618941
 30
0.0
 10
44.6893875872
 20
22.4329263823
 30
0.0
 10
44.619291974
 20
22.3792556649
 30
0.0
 10
44.5349213521
 20
22.2725886464
 30
0.0
 10
44.4719004113
 20
22.1421189359
 30
0.0
 10
44.4310645277
 20
21.9910685793
 30
0.0
 10
44.4129036087
 20
21.8225859034
 30
0.0
 10
44.4193132984
 20
21.5718048803
 30
0.0
 10
44.487385049
 20
21.2381886263
 30
0.0
 10
44.6468393312
 20
20.843658051
 30
0.0
 10
44.8739369556
 20
20.4742722216
 30
0.0
 10
45.1497994846
 20
20.1604430951
 30
0.0
 10
45.3653322025
 20
19.9945893461
 30
0.0
 10
45.4763641399
 20
19.9304864774
 30
0.0
  0
SPLINE
  5
297
100
AcDbEntity
  8
0
100
AcDbSpline
 62
7
  6
BYLAYER
 70
0
 71
3
 72
10
 73
6
 74
0
 42
0.0000001
 43
0.0000001
 44
0.0000000001
 40
0.0
 40
0.0
 40
0.0
 40
0.0
 40
0.2369594054
 40
0.479685542
 40
1.0
 40
1.0
 40
1.0
 40
1.0
 10
45.9997391716
 20
55.4412929055
 30
0.0
 10
45.9717083184
 20
55.4251243917
 30
0.0
 10
45.9180376384
 20
55.3866961804
 30
0.0
 10
45.8236599683
 20
55.2871326812
 30
0.0
 10
45.7737705205
 20
55.1929179591
 30
0.0
 10
45.7491538114
 20
55.1262631078
 30
0.0
  0
SPLINE
  5
298
100
AcDbEntity
  8
0
100
AcDbSpline
 62
7
  6
BYLAYER
 70
0
 71
3
 72
9
 73
5
 74
0
 42
0.0000001
 43
0.0000001
 44
0.0000000001
 40
0.0
 40
0.0
 40
0.0
 40
0.0
 40
0.2399523374
 40
1.0
 40
1.0
 40
1.0
 40
1.0
 10
45.7491538114
 20
55.1262631078
 30
0.0
 10
45.7434565111
 20
55.1108364842
 30
0.0
 10
45.7216784151
 20
55.0458251228
 30
0.0
 10
45.7075292189
 20
54.9783590581
 30
0.0
 10
45.700414153
 20
54.9267576506
 30
0.0
  0
SPLINE
  5
299
100
AcDbEntity
  8
0
100
AcDbSpline
 62
7
  6
BYLAYER
 70
0
 71
3
 72
10
 73
6
 74
0
 42
0.0000001
 43
0.0000001
 44
0.0000000001
 40
0.0
 40
0.0
 40
0.0
 40
0.0
 40
0.4613626896
 40
0.7209782911
 40
1.0
 40
1.0
 40
1.0
 40
1.0
 10
46.2323501868
 20
19.9122301655
 30
0.0
 10
46.1453245385
 20
19.9024592017
 30
0.0
 10
46.0053470879
 20
19.9177305741
 30
0.0
 10
45.8260236806
 20
19.9803055175
 30
0.0
 10
45.734361658
 20
20.0264791433
 30
0.0
 10
45.6884951005
 20
20.0529596136
 30
0.0
  0
SPLINE
  5
29A
100
AcDbEntity
  8
0
100
AcDbSpline
 62
7
  6
BYLAYER
 70
0
 71
3
 72
25
 73
21
 74
0
 42
0.0000001
 43
0.0000001
 44
0.0000000001
 40
0.0
 40
0.0
 40
0.0
 40
0.0
 40
0.0213325027
 40
0.042893503
 40
0.0648992956
 40
0.0875443132
 40
0.1353200458
 40
0.1872215458
 40
0.2436594931
 40
0.3046071764
 40
0.3696943233
 40
0.4382908975
 40
0.509576849
 40
0.5826009737
 40
0.656332551
 40
0.729707984
 40
0.8016848066
 40
0.8712741972
 40
0.9376206045
 40
1.0
 40
1.0
 40
1.0
 40
1.0
 10
24.2785693159
 20
53.8699329636
 30
0.0
 10
24.143423016
 20
53.7919067588
 30
0.0
 10
23.8814139455
 20
53.617431662
 30
0.0
 10
23.5218839229
 20
53.3055887182
 30
0.0
 10
23.1967173714
 20
52.9449934602
 30
0.0
 10
22.8046664092
 20
52.3925246512
 30
0.0
 10
22.4121848907
 20
51.580716701
 30
0.0
 10
22.1130321369
 20
50.4731259062
 30
0.0
 10
21.9797251641
 20
49.2375891814
 30
0.0
 10
22.0138000989
 20
47.8998290691
 30
0.0
 10
22.2137343776
 20
46.4873466275
 30
0.0
 10
22.5750793938
 20
45.0296811864
 30
0.0
 10
23.0900908186
 20
43.5575752291
 30
0.0
 10
23.7478091138
 20
42.102288611
 30
0.0
 10
24.5342163797
 20
40.6948494345
 30
0.0
 10
25.4325114858
 20
39.3652433513
 30
0.0
 10
26.4235634433
 20
38.1419026714
 30
0.0
 10
27.4863471111
 20
37.0506387164
 30
0.0
 10
28.5982130663
 20
36.1150101935
 30
0.0
 10
29.3833369582
 20
35.5903022212
 30
0.0
 10
29.7785262847
 20
35.3621447188
 30
0.0
  0
SPLINE
  5
29B
100
AcDbEntity
  8
0
100
AcDbSpline
 62
7
  6
BYLAYER
 70
0
 71
3
 72
14
 73
10
 74
0
 42
0.0000001
 43
0.0000001
 44
0.0000000001
 40
0.0
 40
0.0
 40
0.0
 40
0.0
 40
0.1080456362
 40
0.2181349707
 40
0.332107362
 40
0.4514818058
 40
0.577428993
 40
0.7107525123
 40
1.0
 40
1.0
 40
1.0
 40
1.0
 10
11.2321853155
 20
75.6502491817
 30
0.0
 10
11.166604584
 20
75.6123863524
 30
0.0
 10
11.0404869262
 20
75.5244332609
 30
0.0
 10
10.8739336766
 20
75.3604129852
 30
0.0
 10
10.7306238454
 20
75.1658463097
 30
0.0
 10
10.6119797707
 20
74.9428241651
 30
0.0
 10
10.5188798719
 20
74.6935539861
 30
0.0
 10
10.4274312459
 20
74.3194727973
 30
0.0
 10
10.4037227596
 20
74.0218558971
 30
0.0
 10
10.4037227596
 20
73.8191308791
 30
0.0
  0
SPLINE
  5
29C
100
AcDbEntity
  8
0
100
AcDbSpline
 62
7
  6
BYLAYER
 70
0
 71
3
 72
11
 73
7
 74
0
 42
0.0000001
 43
0.0000001
 44
0.0000000001
 40
0.0
 40
0.0
 40
0.0
 40
0.0
 40
0.218339781
 40
0.4538463438
 40
0.7135965231
 40
1.0
 40
1.0
 40
1.0
 40
1.0
 10
47.7865060692
 20
12.7443693036
 30
0.0
 10
47.6579291251
 20
12.6943507916
 30
0.0
 10
47.3733442095
 20
12.6315793393
 30
0.0
 10
46.918813252
 20
12.6550896897
 30
0.0
 10
46.4400345283
 20
12.7889432334
 30
0.0
 10
46.1280654024
 20
12.9405590189
 30
0.0
 10
45.9713389906
 20
13.0310430079
 30
0.0
  0
SPLINE
  5
29D
100
AcDbEntity
  8
0
100
AcDbSpline
 62
7
  6
BYLAYER
 70
0
 71
3
 72
20
 73
16
 74
0
 42
0.0000001
 43
0.0000001
 44
0.0000000001
 40
0.0
 40
0.0
 40
0.0
 40
0.0
 40
0.0428307077
 40
0.087430968
 40
0.1352320332
 40
0.187164172
 40
0.2436330547
 40
0.3046140247
 40
0.3697393281
 40
0.4383740943
 40
0.5826250153
 40
0.7296909802
 40
0.8711891658
 40
0.9376086784
 40
1.0
 40
1.0
 40
1.0
 40
1.0
 10
47.1259804049
 20
18.7879007982
 30
0.0
 10
47.1968505933
 20
18.8288334454
 30
0.0
 10
47.3312322077
 20
18.9316404226
 30
0.0
 10
47.4928752955
 20
19.1361317476
 30
0.0
 10
47.6137516366
 20
19.3861450679
 30
0.0
 10
47.6919541449
 20
19.6756808848
 30
0.0
 10
47.7267943467
 20
19.9985758104
 30
0.0
 10
47.717923299
 20
20.348209709
 30
0.0
 10
47.6656453242
 20
20.7173862425
 30
0.0
 10
47.5376354915
 20
21.2337212915
 30
0.0
 10
47.2782895796
 20
21.8750786914
 30
0.0
 10
46.8433757364
 20
22.5825526083
 30
0.0
 10
46.3927660298
 20
23.095328996
 30
0.0
 10
45.9969435313
 20
23.428354189
 30
0.0
 10
45.7917419264
 20
23.5655494543
 30
0.0
 10
45.6884951005
 20
23.6251576885
 30
0.0
  0
SPLINE
  5
29E
100
AcDbEntity
  8
0
100
AcDbSpline
 62
7
  6
BYLAYER
 70
0
 71
3
 72
13
 73
9
 74
0
 42
0.0000001
 43
0.0000001
 44
0.0000000001
 40
0.0
 40
0.0
 40
0.0
 40
0.0
 40
0.1080988612
 40
0.2182418027
 40
0.3322567768
 40
0.4516828793
 40
0.710655697
 40
1.0
 40
1.0
 40
1.0
 40
1.0
 10
43.6006178284
 20
23.3920302521
 30
0.0
 10
43.647749925
 20
23.4192529025
 30
0.0
 10
43.7478374157
 20
23.4661198105
 30
0.0
 10
43.9097776538
 20
23.510845133
 30
0.0
 10
44.0823833554
 20
23.5301628709
 30
0.0
 10
44.3309287415
 20
23.5214953447
 30
0.0
 10
44.6611345447
 20
23.4419195113
 30
0.0
 10
44.9119357138
 20
23.3225002493
 30
0.0
 10
45.0381058622
 20
23.2496575281
 30
0.0
  0
SPLINE
  5
29F
100
AcDbEntity
  8
0
100
AcDbSpline
 62
7
  6
BYLAYER
 70
0
 71
3
 72
15
 73
11
 74
0
 42
0.0000001
 43
0.0000001
 44
0.0000000001
 40
0.0
 40
0.0
 40
0.0
 40
0.0
 40
0.1141465952
 40
0.2373352439
 40
0.366975646
 40
0.4999989181
 40
0.6330223406
 40
0.7626631822
 40
0.8858525235
 40
1.0
 40
1.0
 40
1.0
 40
1.0
 10
13.5857135788
 20
31.7284695649
 30
0.0
 10
13.3920983512
 20
31.8402508399
 30
0.0
 10
13.0096474611
 20
32.1083729113
 30
0.0
 10
12.4833839644
 20
32.600670215
 30
0.0
 10
11.9984643071
 20
33.182686524
 30
0.0
 10
11.5730385134
 20
33.8324280299
 30
0.0
 10
11.2230550866
 20
34.525727432
 30
0.0
 10
10.9614694109
 20
35.236689294
 30
0.0
 10
10.7982538457
 20
35.9385982806
 30
0.0
 10
10.7572746782
 20
36.4038741822
 30
0.0
 10
10.7572746782
 20
36.6274422515
 30
0.0
  0
SPLINE
  5
2A0
100
AcDbEntity
  8
0
100
AcDbSpline
 62
7
  6
BYLAYER
 70
0
 71
3
 72
11
 73
7
 74
0
 42
0.0000001
 43
0.0000001
 44
0.0000000001
 40
0.0
 40
0.0
 40
0.0
 40
0.0
 40
0.2833161688
 40
0.5429555783
 40
0.7802219161
 40
1.0
 40
1.0
 40
1.0
 40
1.0
 10
10.7572746782
 20
74.0232529561
 30
0.0
 10
10.7572746782
 20
74.1873295279
 30
0.0
 10
10.7777192987
 20
74.5023973293
 30
0.0
 10
10.8786310536
 20
74.9451615793
 30
0.0
 10
11.0474345183
 20
75.3274807914
 30
0.0
 10
11.2087241793
 20
75.5413616538
 30
0.0
 10
11.2982375816
 20
75.6318464958
 30
0.0
  0
ENDSEC
  0
SECTION
  2
OBJECTS
  0
DICTIONARY
  5
C
100
AcDbDictionary
280
0
281
1
  3
ACAD_GROUP
350
D
  3
ACAD_MLINESTYLE
350
17
  3
ACAD_LAYOUT
350
1A
  3
ACAD_PLOTSETTINGS
350
19
  3
ACAD_PLOTSTYLENAME
350
E
  0
DICTIONARY
  5
D
102
{ACAD_REACTORS
330
C
102
}
100
AcDbDictionary
280
0
281
1
  0
ACDBDICTIONARYWDFLT
  5
E
102
{ACAD_REACTORS
330
C
102
}
100
AcDbDictionary
281
1
  3
Normal
350
F
100
AcDbDictionaryWithDefault
340
F
  0
DICTIONARY
  5
17
102
{ACAD_REACTORS
330
C
102
}
100
AcDbDictionary
280
0
281
1
  3
Standard
350
18
  0
DICTIONARY
  5
19
102
{ACAD_REACTORS
330
C
102
}
100
AcDbDictionary
281
1
  0
DICTIONARY
  5
1A
102
{ACAD_REACTORS
330
C
102
}
100
AcDbDictionary
281
1
  3
Model
350
2A1
  3
Layout1
350
2A2
  0
ACDBPLACEHOLDER
  5
F
102
{ACAD_REACTORS
330
E
102
}
  0
MLINESTYLE
  5
18
102
{ACAD_REACTORS
330
17
102
}
100
AcDbMlineStyle
  2
STANDARD
 70
0
  3

 62
256
 51
90.0
 52
90.0
 71
2
 49
0.5
 62
256
  6
BYLAYER
 49
-0.5
 62
256
  6
BYLAYER
  0
LAYOUT
  5
2A1
102
{ACAD_REACTORS
330
1A
102
}
100
AcDbPlotSettings
  1

  2
none_device
  4

  6

 40
0.0
 41
0.0
 42
0.0
 43
0.0
 44
210.0
 45
297.0
 46
0.0
 47
0.0
 48
0.0
 49
0.0
140
0.0
141
0.0
142
1.0
143
1.0
 70
1024
 72
1
 73
0
 74
0
  7

 75
0
147
1.0
148
0.0
149
0.0
100
AcDbLayout
  1
Model
 70
0
 71
0
 10
0.0
 20
0.0
 11
210.0
 21
297.0
 12
0.0
 22
0.0
 32
0.0
 14
0.0
 24
0.0
 34
0.0
 15
0.0
 25
0.0
 35
0.0
146
0.0
 13
0.0
 23
0.0
 33
0.0
 16
1.0
 26
0.0
 36
0.0
 17
0.0
 27
1.0
 37
0.0
 76
0
330
210
345
0
346
0
  0
LAYOUT
  5
2A2
102
{ACAD_REACTORS
330
1A
102
}
100
AcDbPlotSettings
  1

  2
none_device
  4

  6

 40
0.0
 41
0.0
 42
0.0
 43
0.0
 44
210.0
 45
297.0
 46
0.0
 47
0.0
 48
0.0
 49
0.0
140
0.0
141
0.0
142
1.0
143
1.0
 70
0
 72
1
 73
0
 74
0
  7

 75
0
147
1.0
148
0.0
149
0.0
100
AcDbLayout
  1
Layout1
 70
0
 71
1
 10
0.0
 20
0.0
 11
210.0
 21
297.0
 12
0.0
 22
0.0
 32
0.0
 14
0.0
 24
0.0
 34
0.0
 15
0.0
 25
0.0
 35
0.0
146
0.0
 13
0.0
 23
0.0
 33
0.0
 16
1.0
 26
0.0
 36
0.0
 17
0.0
 27
1.0
 37
0.0
 76
0
330
211
345
0
346
0
  0
ENDSEC
  0
EOF
