999
DXF file: C:\Users\sesa63760\Dev\_Creo\CAD\MCADID0004889_3D-CAD\drw0001_2.dxf
999
Pro/ENGINEER 2019471 by Parametric Technology Corporation
  0
SECTION
  2
HEADER
  9
$ACADVER
  1
AC1024
  9
$DWGCODEPAGE
  3
ANSI_1252
  9
$EXTMAX
 10
325.9657577958
 20
461.008714597
 30
0.0
  9
$EXTMIN
 10
0.0
 20
0.0
 30
0.0
  9
$LIMMIN
 10
0.0
 20
0.0
  9
$LIMMAX
 10
325.9657577958
 20
461.008714597
  9
$VIEWCTR
 10
162.9828788979
 20
230.5043572985
  9
$VIEWSIZE
 40
461.008714597
  9
$CLAYER
  8
0
  9
$LTSCALE
 40
30.050938433
  9
$CELTYPE
  6
BYLAYER
  9
$DIMSCALE
 40
1.0
  9
$DIMASZ
 40
3.8805447357
  9
$DIMEXO
 40
1.0
  9
$DIMDLI
 40
20.7624665537
  9
$DIMEXE
 40
1.0
  9
$DIMCEN
 40
4.917426289
  9
$DIMLFAC
 40
1.0
  9
$DIMBLK
  1
_FILLED
  9
$DIMALT
 70
0
  9
$DIMALTF
 40
0.0393700787
  9
$DIMTXT
 40
5.4327626299
  9
$DIMTOL
 70
1
  9
$DIMLIM
 70
0
  9
$DIMTFAC
 40
1.0
  9
$DIMTP
 40
0.01
  9
$DIMTM
 40
0.01
  9
$DIMGAP
 40
0.625
  9
$DIMDSEP
 70
46
  9
$AUNITS
 70
0
  9
$PDMODE
 70
3
  9
$PDSIZE
 40
0.3125
  9
$HANDSEED
  5
34D
  9
$TILEMODE
 70
1
  9
$MEASUREMENT
 70
1
  9
$INSUNITS
 70
4
  0
ENDSEC
  0
SECTION
  2
CLASSES
  0
CLASS
  1
ACDBDICTIONARYWDFLT
  2
AcDbDictionaryWithDefault
  3
AutoCAD 2000
 90
0
 91
1
280
0
281
0
  0
CLASS
  1
ACDBPLACEHOLDER
  2
AcDbPlaceHolder
  3
AutoCAD 2000
 90
0
 91
1
280
0
281
0
  0
CLASS
  1
LAYOUT
  2
AcDbLayout
  3
AutoCAD 2000
 90
0
 91
0
280
0
281
0
  0
ENDSEC
  0
SECTION
  2
TABLES
  0
TABLE
  2
VPORT
  5
8
100
AcDbSymbolTable
 70
2
  0
VPORT
  5
1F4
100
AcDbSymbolTableRecord
100
AcDbViewportTableRecord
  2
*ACTIVE
 70
0
 10
0.0
 20
0.0
 11
1.0
 21
1.0
 12
162.9828788979
 22
230.5043572985
 13
0.0
 23
0.0
 14
1.0
 24
1.0
 15
0.0
 25
0.0
 16
0.0
 26
0.0
 36
1.0
 17
0.0
 27
0.0
 37
0.0
 40
461.008714597
 41
0.7070707071
 42
50.0
 43
0.0
 44
0.0
 50
0.0
 51
0.0
 71
0
 72
100
 73
1
 74
1
 75
0
 76
0
 77
0
 78
0
  0
ENDTAB
  0
TABLE
  2
LTYPE
  5
5
100
AcDbSymbolTable
 70
6
  0
LTYPE
  5
14
100
AcDbSymbolTableRecord
100
AcDbLinetypeTableRecord
  2
BYBLOCK
 70
0
  3

 72
65
 73
0
 40
0.0
  0
LTYPE
  5
15
100
AcDbSymbolTableRecord
100
AcDbLinetypeTableRecord
  2
BYLAYER
 70
0
  3

 72
65
 73
0
 40
0.0
  0
LTYPE
  5
16
100
AcDbSymbolTableRecord
100
AcDbLinetypeTableRecord
  2
CONTINUOUS
 70
64
  3
Solid line
 72
65
 73
0
 40
0.0
  0
LTYPE
  5
1F5
100
AcDbSymbolTableRecord
100
AcDbLinetypeTableRecord
  2
CENTER
 70
64
  3
____ _ ____ _ ____ _ ____ _ ____ _ ____ _ ____
 72
65
 73
4
 40
0.6
 49
0.375
 74
0
 49
-0.075
 74
0
 49
0.075
 74
0
 49
-0.075
 74
0
  0
LTYPE
  5
1F6
100
AcDbSymbolTableRecord
100
AcDbLinetypeTableRecord
  2
HIDDEN
 70
64
  3
- - - - - - - - - - - - - - - - - - - -
 72
65
 73
2
 40
0.2
 49
0.1
 74
0
 49
-0.1
 74
0
  0
LTYPE
  5
1F7
100
AcDbSymbolTableRecord
100
AcDbLinetypeTableRecord
  2
PHANTOM
 70
64
  3
_____ _ _ _____ _ _ _____ _ _ _____
 72
65
 73
6
 40
0.8
 49
0.45
 74
0
 49
-0.05
 74
0
 49
0.1
 74
0
 49
-0.05
 74
0
 49
0.1
 74
0
 49
-0.05
 74
0
  0
LTYPE
  5
1F8
100
AcDbSymbolTableRecord
100
AcDbLinetypeTableRecord
  2
DOT
 70
64
  3
. . . . . . . . . . . . . . . . . . . .
 72
65
 73
2
 40
0.2
 49
0.1
 74
0
 49
-0.1
 74
0
  0
LTYPE
  5
1F9
100
AcDbSymbolTableRecord
100
AcDbLinetypeTableRecord
  2
DASHED
 70
64
  3
- - - - - - - - - - - - - - - - - - - -
 72
65
 73
2
 40
0.2
 49
0.1
 74
0
 49
-0.1
 74
0
  0
ENDTAB
  0
TABLE
  2
LAYER
  5
2
100
AcDbSymbolTable
 70
36
  0
LAYER
  5
10
100
AcDbSymbolTableRecord
100
AcDbLayerTableRecord
  2
0
 70
0
 62
7
  6
CONTINUOUS
370
-3
390
F
  0
LAYER
  5
1FA
100
AcDbSymbolTableRecord
100
AcDbLayerTableRecord
  2
DEFAULT_1
 70
0
 62
7
  6
CENTER
370
-3
390
F
  0
LAYER
  5
1FB
100
AcDbSymbolTableRecord
100
AcDbLayerTableRecord
  2
DEFAULT_2
 70
0
 62
7
  6
HIDDEN
370
-3
390
F
  0
LAYER
  5
1FC
100
AcDbSymbolTableRecord
100
AcDbLayerTableRecord
  2
DEFAULT_3
 70
0
 62
7
  6
PHANTOM
370
-3
390
F
  0
LAYER
  5
1FD
100
AcDbSymbolTableRecord
100
AcDbLayerTableRecord
  2
00_COMPONENTS
 70
0
 62
7
  6
CONTINUOUS
370
-3
390
F
  0
LAYER
  5
1FE
100
AcDbSymbolTableRecord
100
AcDbLayerTableRecord
  2
01_1_DEFAULT_DATUMS
 70
0
 62
7
  6
CONTINUOUS
370
-3
390
F
  0
LAYER
  5
1FF
100
AcDbSymbolTableRecord
100
AcDbLayerTableRecord
  2
01_PLANES
 70
0
 62
7
  6
CONTINUOUS
370
-3
390
F
  0
LAYER
  5
200
100
AcDbSymbolTableRecord
100
AcDbLayerTableRecord
  2
02_COORD_SYS
 70
0
 62
7
  6
CONTINUOUS
370
-3
390
F
  0
LAYER
  5
201
100
AcDbSymbolTableRecord
100
AcDbLayerTableRecord
  2
03_AXES
 70
0
 62
7
  6
CONTINUOUS
370
-3
390
F
  0
LAYER
  5
202
100
AcDbSymbolTableRecord
100
AcDbLayerTableRecord
  2
04_POINTS
 70
0
 62
7
  6
CONTINUOUS
370
-3
390
F
  0
LAYER
  5
203
100
AcDbSymbolTableRecord
100
AcDbLayerTableRecord
  2
05_CURVES
 70
0
 62
7
  6
CONTINUOUS
370
-3
390
F
  0
LAYER
  5
204
100
AcDbSymbolTableRecord
100
AcDbLayerTableRecord
  2
06_SURFS
 70
0
 62
7
  6
CONTINUOUS
370
-3
390
F
  0
LAYER
  5
205
100
AcDbSymbolTableRecord
100
AcDbLayerTableRecord
  2
07_COSMETICS
 70
0
 62
7
  6
CONTINUOUS
370
-3
390
F
  0
LAYER
  5
206
100
AcDbSymbolTableRecord
100
AcDbLayerTableRecord
  2
10_NOTES
 70
0
 62
7
  6
CONTINUOUS
370
-3
390
F
  0
LAYER
  5
207
100
AcDbSymbolTableRecord
100
AcDbLayerTableRecord
  2
11_NOTES_PUB
 70
0
 62
7
  6
CONTINUOUS
370
-3
390
F
  0
LAYER
  5
208
100
AcDbSymbolTableRecord
100
AcDbLayerTableRecord
  2
13_REF_GTOL
 70
0
 62
7
  6
CONTINUOUS
370
-3
390
F
  0
LAYER
  5
209
100
AcDbSymbolTableRecord
100
AcDbLayerTableRecord
  2
16_MISC
 70
0
 62
7
  6
CONTINUOUS
370
-3
390
F
  0
LAYER
  5
20A
100
AcDbSymbolTableRecord
100
AcDbLayerTableRecord
  2
17_NO_PRINT
 70
0
 62
7
  6
CONTINUOUS
370
-3
390
F
  0
LAYER
  5
20B
100
AcDbSymbolTableRecord
100
AcDbLayerTableRecord
  2
18_DATUM_CAMS_JOINTS
 70
0
 62
7
  6
CONTINUOUS
370
-3
390
F
  0
LAYER
  5
20C
100
AcDbSymbolTableRecord
100
AcDbLayerTableRecord
  2
19_DATUM_FUNCTIONAL
 70
0
 62
7
  6
CONTINUOUS
370
-3
390
F
  0
LAYER
  5
20D
100
AcDbSymbolTableRecord
100
AcDbLayerTableRecord
  2
20_DATUM_KINEMATIC_SCHEME
 70
0
 62
7
  6
CONTINUOUS
370
-3
390
F
  0
ENDTAB
  0
TABLE
  2
STYLE
  5
3
100
AcDbSymbolTable
 70
1
  0
STYLE
  5
11
100
AcDbSymbolTableRecord
100
AcDbTextStyleTableRecord
  2
STANDARD
 70
0
 40
0.0
 41
1.0
 50
0.0
 71
0
 42
0.2
  3
ARIAL.TTF
  4

  0
STYLE
  5
20E
100
AcDbSymbolTableRecord
100
AcDbTextStyleTableRecord
  2
TEXTSTYLE_1
 70
0
 40
0.0
 41
0.8
 50
0.0
 71
0
 42
0.2
  3
gdt
  4

  0
ENDTAB
  0
TABLE
  2
VIEW
  5
6
100
AcDbSymbolTable
 70
0
  0
ENDTAB
  0
TABLE
  2
UCS
  5
7
100
AcDbSymbolTable
 70
0
  0
ENDTAB
  0
TABLE
  2
APPID
  5
9
100
AcDbSymbolTable
 70
1
  0
APPID
  5
20F
100
AcDbSymbolTableRecord
100
AcDbRegAppTableRecord
  2
ACAD
 70
0
  0
ENDTAB
  0
TABLE
  2
BLOCK_RECORD
  5
1
100
AcDbSymbolTable
 70
0
  0
BLOCK_RECORD
  5
210
100
AcDbSymbolTableRecord
100
AcDbBlockTableRecord
  2
*Model_Space
  0
BLOCK_RECORD
  5
211
100
AcDbSymbolTableRecord
100
AcDbBlockTableRecord
  2
*Paper_Space
  0
BLOCK_RECORD
  5
212
100
AcDbSymbolTableRecord
100
AcDbBlockTableRecord
  2
_FILLED
  0
ENDTAB
  0
TABLE
  2
DIMSTYLE
  5
A
100
AcDbSymbolTable
 70
1
100
AcDbDimStyleTable
 71
0
  0
DIMSTYLE
105
213
100
AcDbSymbolTableRecord
100
AcDbDimStyleTableRecord
  2
STANDARD
 70
0
  3

  4

 40
1.0
 41
3.8805447357
 42
1.0
 43
0.38
 44
1.0
 45
0.0
 46
0.0
 47
0.01
 48
0.01
140
5.4327626299
141
0.09
142
0.0
143
25.4
144
1.0
145
0.0
146
1.0
147
0.625
 71
1
 72
0
 73
0
 74
0
 75
0
 76
0
 77
1
 78
8
 79
2
170
0
171
1
172
0
173
0
174
0
175
0
176
0
177
0
178
0
270
2
179
2
271
2
272
2
273
2
274
2
275
0
280
0
281
0
282
0
283
1
284
8
285
0
286
0
287
3
288
0
340
11
278
46
341
212
342
212
343
212
344
212
  0
ENDTAB
  0
ENDSEC
  0
SECTION
  2
BLOCKS
  0
BLOCK
  5
20
100
AcDbEntity
  8
0
100
AcDbBlockBegin
  2
*Model_Space
 70
0
 10
0.0
 20
0.0
 30
0.0
  3
*Model_Space
  1

  0
ENDBLK
  5
21
100
AcDbEntity
  8
0
100
AcDbBlockEnd
  0
BLOCK
  5
1C
100
AcDbEntity
  8
0
100
AcDbBlockBegin
  2
*Paper_Space
 70
0
 10
0.0
 20
0.0
 30
0.0
  3
*Paper_Space
  1

  0
ENDBLK
  5
1D
100
AcDbEntity
  8
0
100
AcDbBlockEnd
  0
BLOCK
  5
214
100
AcDbEntity
  8
0
100
AcDbBlockBegin
  2
_FILLED
 70
64
 10
0.0
 20
0.0
  3
_FILLED
  1

  0
SOLID
  5
215
100
AcDbEntity
  8
0
  6
BYBLOCK
 62
0
100
AcDbTrace
 10
0.0
 20
0.0
 11
-1.0
 21
0.25
 12
-1.0
 22
-0.25
 13
-1.0
 23
-0.25
  0
ENDBLK
  5
216
100
AcDbEntity
  8
0
  6
BYBLOCK
 62
0
100
AcDbBlockEnd
  0
ENDSEC
  0
SECTION
  2
ENTITIES
  0
LINE
  5
217
100
AcDbEntity
  8
0
100
AcDbLine
 62
7
  6
BYLAYER
 10
35.7399595079
 20
126.1579520697
 11
35.7399595079
 21
333.1579520697
  0
LINE
  5
218
100
AcDbEntity
  8
0
100
AcDbLine
 62
7
  6
BYLAYER
 10
275.7399595084
 20
140.4079520697
 11
265.2907407281
 21
137.5876395621
  0
LINE
  5
219
100
AcDbEntity
  8
0
100
AcDbLine
 62
7
  6
BYLAYER
 10
266.7399595087
 20
134.6579520697
 11
279.0094907427
 21
137.7712333162
  0
LINE
  5
21A
100
AcDbEntity
  8
0
100
AcDbLine
 62
7
  6
BYLAYER
 10
35.7399595079
 20
126.1579520697
 11
289.7399595079
 21
126.1579520697
  0
LINE
  5
21B
100
AcDbEntity
  8
0
100
AcDbLine
 62
7
  6
BYLAYER
 10
289.7399595079
 20
131.0364730733
 11
289.8399595079
 21
131.0364730733
  0
LINE
  5
21C
100
AcDbEntity
  8
0
100
AcDbLine
 62
7
  6
BYLAYER
 10
280.0446470079
 20
131.15795207
 11
264.8727720069
 21
131.15795207
  0
LINE
  5
21D
100
AcDbEntity
  8
0
100
AcDbLine
 62
7
  6
BYLAYER
 10
266.7399595079
 20
134.6579520697
 11
280.0329282579
 21
134.6579520697
  0
LINE
  5
21E
100
AcDbEntity
  8
0
100
AcDbLine
 62
7
  6
BYLAYER
 10
289.8399595079
 20
135.3026800838
 11
289.7399595079
 21
135.3026800838
  0
LINE
  5
21F
100
AcDbEntity
  8
0
100
AcDbLine
 62
7
  6
BYLAYER
 10
289.8399595079
 20
135.5732870537
 11
289.7399595079
 21
135.5732870537
  0
LINE
  5
220
100
AcDbEntity
  8
0
100
AcDbLine
 62
7
  6
BYLAYER
 10
289.7399595079
 20
135.8601028746
 11
289.8399595079
 21
135.8601028734
  0
LINE
  5
221
100
AcDbEntity
  8
0
100
AcDbLine
 62
7
  6
BYLAYER
 10
289.8399595079
 20
139.4686349606
 11
289.7399595079
 21
139.4686349606
  0
LINE
  5
222
100
AcDbEntity
  8
0
100
AcDbLine
 62
7
  6
BYLAYER
 10
289.8399595079
 20
139.5297536872
 11
289.7399595079
 21
139.5297536872
  0
LINE
  5
223
100
AcDbEntity
  8
0
100
AcDbLine
 62
7
  6
BYLAYER
 10
289.8399595079
 20
140.0488968828
 11
289.7399595079
 21
140.0488968828
  0
LINE
  5
224
100
AcDbEntity
  8
0
100
AcDbLine
 62
7
  6
BYLAYER
 10
289.8399595079
 20
141.3060395516
 11
289.7399595079
 21
141.3060395516
  0
LINE
  5
225
100
AcDbEntity
  8
0
100
AcDbLine
 62
7
  6
BYLAYER
 10
289.8399595079
 20
143.1579520697
 11
294.7399595079
 21
143.1579520697
  0
LINE
  5
226
100
AcDbEntity
  8
0
100
AcDbLine
 62
7
  6
BYLAYER
 10
289.8399595079
 20
144.0540033739
 11
289.7399595079
 21
144.0540033739
  0
LINE
  5
227
100
AcDbEntity
  8
0
100
AcDbLine
 62
7
  6
BYLAYER
 10
289.8399595079
 20
144.6476235807
 11
289.7399595079
 21
144.6476235807
  0
LINE
  5
228
100
AcDbEntity
  8
0
100
AcDbLine
 62
7
  6
BYLAYER
 10
291.7399595079
 20
144.8579520697
 11
289.8399595079
 21
144.8579520697
  0
LINE
  5
229
100
AcDbEntity
  8
0
100
AcDbLine
 62
7
  6
BYLAYER
 10
289.8399595079
 20
145.9045832594
 11
289.7399595079
 21
145.9045832594
  0
LINE
  5
22A
100
AcDbEntity
  8
0
100
AcDbLine
 62
7
  6
BYLAYER
 10
280.0329282579
 20
146.1579520701
 11
266.7399595079
 21
146.1579520697
  0
LINE
  5
22B
100
AcDbEntity
  8
0
100
AcDbLine
 62
7
  6
BYLAYER
 10
289.8399595079
 20
147.2078394593
 11
289.7399595079
 21
147.2078394593
  0
LINE
  5
22C
100
AcDbEntity
  8
0
100
AcDbLine
 62
7
  6
BYLAYER
 10
291.7399595079
 20
148.1579520697
 11
294.7399595079
 21
148.1579520697
  0
LINE
  5
22D
100
AcDbEntity
  8
0
100
AcDbLine
 62
7
  6
BYLAYER
 10
289.8399595079
 20
148.6657223765
 11
289.7399595079
 21
148.6657223765
  0
LINE
  5
22E
100
AcDbEntity
  8
0
100
AcDbLine
 62
7
  6
BYLAYER
 10
289.7399595079
 20
149.1595450523
 11
289.8399595079
 21
149.1595450523
  0
LINE
  5
22F
100
AcDbEntity
  8
0
100
AcDbLine
 62
7
  6
BYLAYER
 10
280.0446470134
 20
149.6579520697
 11
264.8727720013
 21
149.6579520697
  0
LINE
  5
230
100
AcDbEntity
  8
0
100
AcDbLine
 62
7
  6
BYLAYER
 10
289.8399595079
 20
151.2742476677
 11
289.7399595079
 21
151.2742476677
  0
LINE
  5
231
100
AcDbEntity
  8
0
100
AcDbLine
 62
7
  6
BYLAYER
 10
289.8399595079
 20
153.3380111353
 11
289.7399595079
 21
153.3380111353
  0
LINE
  5
232
100
AcDbEntity
  8
0
100
AcDbLine
 62
7
  6
BYLAYER
 10
289.7399595079
 20
153.7355380057
 11
289.8399595079
 21
153.7355380057
  0
LINE
  5
233
100
AcDbEntity
  8
0
100
AcDbLine
 62
7
  6
BYLAYER
 10
289.8399595079
 20
154.2396038475
 11
289.7399595079
 21
154.2396038475
  0
LINE
  5
234
100
AcDbEntity
  8
0
100
AcDbLine
 62
7
  6
BYLAYER
 10
289.8399595079
 20
155.1390006771
 11
289.7399595079
 21
155.1390006771
  0
LINE
  5
235
100
AcDbEntity
  8
0
100
AcDbLine
 62
7
  6
BYLAYER
 10
289.8399595079
 20
155.1709637817
 11
289.7399595079
 21
155.1709637817
  0
LINE
  5
236
100
AcDbEntity
  8
0
100
AcDbLine
 62
7
  6
BYLAYER
 10
289.7399595079
 20
155.3384931135
 11
289.8399595079
 21
155.3384931135
  0
LINE
  5
237
100
AcDbEntity
  8
0
100
AcDbLine
 62
7
  6
BYLAYER
 10
289.7399595079
 20
155.5927346934
 11
289.8399595079
 21
155.5927346934
  0
LINE
  5
238
100
AcDbEntity
  8
0
100
AcDbLine
 62
7
  6
BYLAYER
 10
289.8399595079
 20
158.5755566185
 11
289.7399595079
 21
158.5755566185
  0
LINE
  5
239
100
AcDbEntity
  8
0
100
AcDbLine
 62
7
  6
BYLAYER
 10
289.8399595079
 20
159.8317843372
 11
289.7399595079
 21
159.8317843372
  0
LINE
  5
23A
100
AcDbEntity
  8
0
100
AcDbLine
 62
7
  6
BYLAYER
 10
289.8399595079
 20
159.8683823771
 11
289.7399595079
 21
159.8683823771
  0
LINE
  5
23B
100
AcDbEntity
  8
0
100
AcDbLine
 62
7
  6
BYLAYER
 10
289.8399595079
 20
159.9838491927
 11
289.7399595079
 21
159.9838491927
  0
LINE
  5
23C
100
AcDbEntity
  8
0
100
AcDbLine
 62
7
  6
BYLAYER
 10
289.7399595079
 20
160.3592593518
 11
289.8399595079
 21
160.3592593518
  0
LINE
  5
23D
100
AcDbEntity
  8
0
100
AcDbLine
 62
7
  6
BYLAYER
 10
274.9823684369
 20
162.4064775071
 11
275.4550246869
 21
162.4064775071
  0
LINE
  5
23E
100
AcDbEntity
  8
0
100
AcDbLine
 62
7
  6
BYLAYER
 10
289.8399595079
 20
162.4578797242
 11
291.7399595079
 21
162.4578797242
  0
LINE
  5
23F
100
AcDbEntity
  8
0
100
AcDbLine
 62
7
  6
BYLAYER
 10
289.8399595079
 20
162.4719669319
 11
289.7399595079
 21
162.4719669319
  0
LINE
  5
240
100
AcDbEntity
  8
0
100
AcDbLine
 62
7
  6
BYLAYER
 10
291.7399595079
 20
164.1578797235
 11
289.8399595079
 21
164.1578797235
  0
LINE
  5
241
100
AcDbEntity
  8
0
100
AcDbLine
 62
7
  6
BYLAYER
 10
289.8399595079
 20
164.5362793713
 11
289.7399595079
 21
164.5362793713
  0
LINE
  5
242
100
AcDbEntity
  8
0
100
AcDbLine
 62
7
  6
BYLAYER
 10
289.8399595079
 20
165.1589950191
 11
289.7399595079
 21
165.1589950192
  0
LINE
  5
243
100
AcDbEntity
  8
0
100
AcDbLine
 62
7
  6
BYLAYER
 10
289.8399595079
 20
166.416686659
 11
289.7399595079
 21
166.416686659
  0
LINE
  5
244
100
AcDbEntity
  8
0
100
AcDbLine
 62
7
  6
BYLAYER
 10
289.8399595079
 20
168.5419348326
 11
289.7399595079
 21
168.5419348326
  0
LINE
  5
245
100
AcDbEntity
  8
0
100
AcDbLine
 62
7
  6
BYLAYER
 10
279.0094907613
 20
143.0446708191
 11
266.7399595079
 21
146.1579520697
  0
LINE
  5
246
100
AcDbEntity
  8
0
100
AcDbLine
 62
7
  6
BYLAYER
 10
265.2907407526
 20
143.1931083215
 11
275.7399595084
 21
140.4079520697
  0
LINE
  5
247
100
AcDbEntity
  8
0
100
AcDbLine
 62
7
  6
BYLAYER
 10
269.2991925619
 20
179.2882414292
 11
269.8030988119
 21
179.2882414292
  0
LINE
  5
248
100
AcDbEntity
  8
0
100
AcDbLine
 62
7
  6
BYLAYER
 10
280.4280988119
 20
182.6554289292
 11
269.9945050619
 21
182.6554289292
  0
LINE
  5
249
100
AcDbEntity
  8
0
100
AcDbLine
 62
7
  6
BYLAYER
 10
289.7399595079
 20
183.132952069
 11
289.8399595079
 21
183.132952069
  0
LINE
  5
24A
100
AcDbEntity
  8
0
100
AcDbLine
 62
7
  6
BYLAYER
 10
289.8399595079
 20
183.3626395697
 11
289.7399595079
 21
183.3626395697
  0
LINE
  5
24B
100
AcDbEntity
  8
0
100
AcDbLine
 62
7
  6
BYLAYER
 10
289.7399595079
 20
183.8755301955
 11
289.8399595079
 21
183.8755301955
  0
LINE
  5
24C
100
AcDbEntity
  8
0
100
AcDbLine
 62
7
  6
BYLAYER
 10
289.8399595079
 20
184.478655194
 11
289.7399595079
 21
184.478655194
  0
LINE
  5
24D
100
AcDbEntity
  8
0
100
AcDbLine
 62
7
  6
BYLAYER
 10
289.8399595079
 20
184.7829520694
 11
289.7399595079
 21
184.7829520694
  0
LINE
  5
24E
100
AcDbEntity
  8
0
100
AcDbLine
 62
7
  6
BYLAYER
 10
289.7399595079
 20
185.1329520692
 11
289.8399595079
 21
185.1329520692
  0
LINE
  5
24F
100
AcDbEntity
  8
0
100
AcDbLine
 62
7
  6
BYLAYER
 10
289.8399595079
 20
185.3747489446
 11
289.7399595079
 21
185.3747489446
  0
LINE
  5
250
100
AcDbEntity
  8
0
100
AcDbLine
 62
7
  6
BYLAYER
 10
289.7399595079
 20
185.8645926949
 11
289.8399595079
 21
185.8645926949
  0
LINE
  5
251
100
AcDbEntity
  8
0
100
AcDbLine
 62
7
  6
BYLAYER
 10
289.8399595079
 20
186.1989676946
 11
289.7399595079
 21
186.1989676946
  0
LINE
  5
252
100
AcDbEntity
  8
0
100
AcDbLine
 62
7
  6
BYLAYER
 10
289.8399595079
 20
186.5829520703
 11
289.7399595079
 21
186.5829520703
  0
LINE
  5
253
100
AcDbEntity
  8
0
100
AcDbLine
 62
7
  6
BYLAYER
 10
279.2299860749
 20
202.6532662367
 11
263.6127985739
 21
202.6532662366
  0
LINE
  5
254
100
AcDbEntity
  8
0
100
AcDbLine
 62
7
  6
BYLAYER
 10
279.2299860795
 20
206.1532662366
 11
263.6127985697
 21
206.1532662366
  0
LINE
  5
255
100
AcDbEntity
  8
0
100
AcDbLine
 62
7
  6
BYLAYER
 10
279.1704220059
 20
209.9027910994
 11
268.9672970059
 21
209.9027910994
  0
LINE
  5
256
100
AcDbEntity
  8
0
100
AcDbLine
 62
7
  6
BYLAYER
 10
279.1704220073
 20
213.4027910994
 11
268.8618282534
 21
213.4027910994
  0
LINE
  5
257
100
AcDbEntity
  8
0
100
AcDbLine
 62
7
  6
BYLAYER
 10
294.7399595079
 20
223.1579520697
 11
289.7899595079
 21
223.1579520697
  0
LINE
  5
258
100
AcDbEntity
  8
0
100
AcDbLine
 62
7
  6
BYLAYER
 10
289.7899595079
 20
228.1579520697
 11
294.7399595079
 21
228.1579520697
  0
LINE
  5
259
100
AcDbEntity
  8
0
100
AcDbLine
 62
7
  6
BYLAYER
 10
289.8899595079
 20
228.2517020692
 11
289.7899595079
 21
228.2517020692
  0
LINE
  5
25A
100
AcDbEntity
  8
0
100
AcDbLine
 62
7
  6
BYLAYER
 10
289.8899595079
 20
229.4074637883
 11
289.7899595079
 21
229.4074637883
  0
LINE
  5
25B
100
AcDbEntity
  8
0
100
AcDbLine
 62
7
  6
BYLAYER
 10
289.8899595079
 20
230.4030692566
 11
289.7899595079
 21
230.4030692566
  0
LINE
  5
25C
100
AcDbEntity
  8
0
100
AcDbLine
 62
7
  6
BYLAYER
 10
289.8899595079
 20
230.4094169129
 11
289.7899595079
 21
230.4094169129
  0
LINE
  5
25D
100
AcDbEntity
  8
0
100
AcDbLine
 62
7
  6
BYLAYER
 10
289.8899595079
 20
230.8454520699
 11
289.7899595079
 21
230.8454520699
  0
LINE
  5
25E
100
AcDbEntity
  8
0
100
AcDbLine
 62
7
  6
BYLAYER
 10
289.7899595079
 20
231.1325614452
 11
289.8899595079
 21
231.1325614452
  0
LINE
  5
25F
100
AcDbEntity
  8
0
100
AcDbLine
 62
7
  6
BYLAYER
 10
294.7399595079
 20
231.1579520697
 11
289.8899595079
 21
231.1579520697
  0
LINE
  5
260
100
AcDbEntity
  8
0
100
AcDbLine
 62
7
  6
BYLAYER
 10
289.8899595079
 20
232.2785575389
 11
289.7899595079
 21
232.2785575389
  0
LINE
  5
261
100
AcDbEntity
  8
0
100
AcDbLine
 62
7
  6
BYLAYER
 10
289.8899595079
 20
232.5090262889
 11
289.7899595079
 21
232.5090262889
  0
LINE
  5
262
100
AcDbEntity
  8
0
100
AcDbLine
 62
7
  6
BYLAYER
 10
289.8899595079
 20
232.7829520706
 11
289.7899595079
 21
232.7829520706
  0
LINE
  5
263
100
AcDbEntity
  8
0
100
AcDbLine
 62
7
  6
BYLAYER
 10
289.8899595079
 20
232.8610770706
 11
289.7899595079
 21
232.8610770706
  0
LINE
  5
264
100
AcDbEntity
  8
0
100
AcDbLine
 62
7
  6
BYLAYER
 10
289.8899595079
 20
233.6428153518
 11
289.7899595079
 21
233.6428153518
  0
LINE
  5
265
100
AcDbEntity
  8
0
100
AcDbLine
 62
7
  6
BYLAYER
 10
289.8899595079
 20
234.4113700393
 11
289.7899595079
 21
234.4113700393
  0
LINE
  5
266
100
AcDbEntity
  8
0
100
AcDbLine
 62
7
  6
BYLAYER
 10
289.8899595079
 20
234.4919364456
 11
289.7899595079
 21
234.4919364456
  0
LINE
  5
267
100
AcDbEntity
  8
0
100
AcDbLine
 62
7
  6
BYLAYER
 10
289.8899595079
 20
234.76342082
 11
289.7899595079
 21
234.76342082
  0
LINE
  5
268
100
AcDbEntity
  8
0
100
AcDbLine
 62
7
  6
BYLAYER
 10
289.8899595079
 20
234.78295207
 11
289.7899595079
 21
234.78295207
  0
LINE
  5
269
100
AcDbEntity
  8
0
100
AcDbLine
 62
7
  6
BYLAYER
 10
289.8899595079
 20
235.4855887887
 11
289.7899595079
 21
235.4855887887
  0
LINE
  5
26A
100
AcDbEntity
  8
0
100
AcDbLine
 62
7
  6
BYLAYER
 10
289.8899595079
 20
236.1579520697
 11
294.7399595079
 21
236.1579520697
  0
LINE
  5
26B
100
AcDbEntity
  8
0
100
AcDbLine
 62
7
  6
BYLAYER
 10
289.8899595079
 20
236.2267997262
 11
289.7899595079
 21
236.2267997262
  0
LINE
  5
26C
100
AcDbEntity
  8
0
100
AcDbLine
 62
7
  6
BYLAYER
 10
289.8899595079
 20
236.31420207
 11
289.7899595079
 21
236.31420207
  0
LINE
  5
26D
100
AcDbEntity
  8
0
100
AcDbLine
 62
7
  6
BYLAYER
 10
289.8899595079
 20
236.524163007
 11
289.7899595079
 21
236.524163007
  0
LINE
  5
26E
100
AcDbEntity
  8
0
100
AcDbLine
 62
7
  6
BYLAYER
 10
289.8899595079
 20
236.7336356634
 11
289.7899595079
 21
236.7336356634
  0
LINE
  5
26F
100
AcDbEntity
  8
0
100
AcDbLine
 62
7
  6
BYLAYER
 10
289.8899595079
 20
236.7829520699
 11
289.7899595079
 21
236.7829520699
  0
LINE
  5
270
100
AcDbEntity
  8
0
100
AcDbLine
 62
7
  6
BYLAYER
 10
289.8899595079
 20
236.8195731632
 11
289.7899595079
 21
236.8195731632
  0
LINE
  5
271
100
AcDbEntity
  8
0
100
AcDbLine
 62
7
  6
BYLAYER
 10
289.8899595079
 20
237.000725507
 11
289.7899595079
 21
237.000725507
  0
LINE
  5
272
100
AcDbEntity
  8
0
100
AcDbLine
 62
7
  6
BYLAYER
 10
289.8899595079
 20
237.1516044132
 11
289.7899595079
 21
237.1516044132
  0
LINE
  5
273
100
AcDbEntity
  8
0
100
AcDbLine
 62
7
  6
BYLAYER
 10
289.8899595079
 20
237.2204520698
 11
289.7899595079
 21
237.2204520698
  0
LINE
  5
274
100
AcDbEntity
  8
0
100
AcDbLine
 62
7
  6
BYLAYER
 10
289.8899595079
 20
237.3854911321
 11
289.7899595079
 21
237.3854911321
  0
LINE
  5
275
100
AcDbEntity
  8
0
100
AcDbLine
 62
7
  6
BYLAYER
 10
289.8899595079
 20
237.5812919132
 11
289.7899595079
 21
237.5812919132
  0
LINE
  5
276
100
AcDbEntity
  8
0
100
AcDbLine
 62
7
  6
BYLAYER
 10
289.8899595079
 20
237.584709882
 11
289.7899595079
 21
237.584709882
  0
LINE
  5
277
100
AcDbEntity
  8
0
100
AcDbLine
 62
7
  6
BYLAYER
 10
289.8899595079
 20
237.7263114445
 11
289.7899595079
 21
237.7263114445
  0
LINE
  5
278
100
AcDbEntity
  8
0
100
AcDbLine
 62
7
  6
BYLAYER
 10
289.7899595079
 20
247.3079520697
 11
294.2899595079
 21
247.3079520697
  0
LINE
  5
279
100
AcDbEntity
  8
0
100
AcDbLine
 62
7
  6
BYLAYER
 10
294.2899595079
 20
249.3079520697
 11
289.7899595079
 21
249.3079520697
  0
LINE
  5
27A
100
AcDbEntity
  8
0
100
AcDbLine
 62
7
  6
BYLAYER
 10
289.7899595079
 20
253.0079520697
 11
294.2899595079
 21
253.0079520697
  0
LINE
  5
27B
100
AcDbEntity
  8
0
100
AcDbLine
 62
7
  6
BYLAYER
 10
294.2899595079
 20
255.0079520697
 11
289.7899595079
 21
255.0079520697
  0
LINE
  5
27C
100
AcDbEntity
  8
0
100
AcDbLine
 62
7
  6
BYLAYER
 10
289.8399595079
 20
274.9730752803
 11
289.7399595079
 21
274.9730752803
  0
LINE
  5
27D
100
AcDbEntity
  8
0
100
AcDbLine
 62
7
  6
BYLAYER
 10
289.8399595079
 20
275.0029520697
 11
291.8099595079
 21
275.0029520697
  0
LINE
  5
27E
100
AcDbEntity
  8
0
100
AcDbLine
 62
7
  6
BYLAYER
 10
289.8399595079
 20
275.7729520697
 11
289.7399595079
 21
275.7729520697
  0
LINE
  5
27F
100
AcDbEntity
  8
0
100
AcDbLine
 62
7
  6
BYLAYER
 10
289.8399595079
 20
276.1229520691
 11
289.7399595079
 21
276.1229520691
  0
LINE
  5
280
100
AcDbEntity
  8
0
100
AcDbLine
 62
7
  6
BYLAYER
 10
289.8399595079
 20
276.4229520697
 11
289.7399595079
 21
276.4229520697
  0
LINE
  5
281
100
AcDbEntity
  8
0
100
AcDbLine
 62
7
  6
BYLAYER
 10
289.7399595079
 20
276.7729520697
 11
289.8399595079
 21
276.7729520697
  0
LINE
  5
282
100
AcDbEntity
  8
0
100
AcDbLine
 62
7
  6
BYLAYER
 10
291.8099595079
 20
277.5429520697
 11
289.8399595079
 21
277.5429520697
  0
LINE
  5
283
100
AcDbEntity
  8
0
100
AcDbLine
 62
7
  6
BYLAYER
 10
289.8399595079
 20
277.5728288592
 11
289.7399595079
 21
277.5728288592
  0
LINE
  5
284
100
AcDbEntity
  8
0
100
AcDbLine
 62
7
  6
BYLAYER
 10
289.8399595079
 20
278.1224051939
 11
289.7399595079
 21
278.1224051939
  0
LINE
  5
285
100
AcDbEntity
  8
0
100
AcDbLine
 62
7
  6
BYLAYER
 10
289.8399595079
 20
278.1554520691
 11
289.7399595079
 21
278.1554520691
  0
LINE
  5
286
100
AcDbEntity
  8
0
100
AcDbLine
 62
7
  6
BYLAYER
 10
289.7399595079
 20
278.7004520702
 11
289.8399595079
 21
278.7004520702
  0
LINE
  5
287
100
AcDbEntity
  8
0
100
AcDbLine
 62
7
  6
BYLAYER
 10
289.7399595079
 20
278.9180692578
 11
289.8399595079
 21
278.9180692578
  0
LINE
  5
288
100
AcDbEntity
  8
0
100
AcDbLine
 62
7
  6
BYLAYER
 10
289.8399595079
 20
279.3589286315
 11
289.7399595079
 21
279.3589286315
  0
LINE
  5
289
100
AcDbEntity
  8
0
100
AcDbLine
 62
7
  6
BYLAYER
 10
289.8399595079
 20
279.6598661313
 11
289.7399595079
 21
279.6598661313
  0
LINE
  5
28A
100
AcDbEntity
  8
0
100
AcDbLine
 62
7
  6
BYLAYER
 10
289.8399595079
 20
280.0054520699
 11
289.7399595079
 21
280.0054520699
  0
LINE
  5
28B
100
AcDbEntity
  8
0
100
AcDbLine
 62
7
  6
BYLAYER
 10
289.8399595079
 20
280.0954520694
 11
289.7399595079
 21
280.0954520694
  0
LINE
  5
28C
100
AcDbEntity
  8
0
100
AcDbLine
 62
7
  6
BYLAYER
 10
289.8399595079
 20
280.1263895697
 11
289.7399595079
 21
280.1263895697
  0
LINE
  5
28D
100
AcDbEntity
  8
0
100
AcDbLine
 62
7
  6
BYLAYER
 10
289.8399595079
 20
280.1629520702
 11
289.7399595079
 21
280.1629520702
  0
LINE
  5
28E
100
AcDbEntity
  8
0
100
AcDbLine
 62
7
  6
BYLAYER
 10
289.8399595079
 20
280.327131757
 11
289.7399595079
 21
280.327131757
  0
LINE
  5
28F
100
AcDbEntity
  8
0
100
AcDbLine
 62
7
  6
BYLAYER
 10
289.8399595079
 20
280.5134598826
 11
289.7399595079
 21
280.5134598826
  0
LINE
  5
290
100
AcDbEntity
  8
0
100
AcDbLine
 62
7
  6
BYLAYER
 10
289.8399595079
 20
280.7402176945
 11
289.7399595079
 21
280.7402176945
  0
LINE
  5
291
100
AcDbEntity
  8
0
100
AcDbLine
 62
7
  6
BYLAYER
 10
289.7399595079
 20
280.9940458195
 11
289.8399595079
 21
280.9940458195
  0
LINE
  5
292
100
AcDbEntity
  8
0
100
AcDbLine
 62
7
  6
BYLAYER
 10
289.8399595079
 20
281.2559598825
 11
289.7399595079
 21
281.2559598825
  0
LINE
  5
293
100
AcDbEntity
  8
0
100
AcDbLine
 62
7
  6
BYLAYER
 10
289.8399595079
 20
281.5122489453
 11
289.7399595079
 21
281.5122489453
  0
LINE
  5
294
100
AcDbEntity
  8
0
100
AcDbLine
 62
7
  6
BYLAYER
 10
289.8399595079
 20
281.7681864444
 11
289.7399595079
 21
281.7681864444
  0
LINE
  5
295
100
AcDbEntity
  8
0
100
AcDbLine
 62
7
  6
BYLAYER
 10
289.7399595079
 20
281.9949442569
 11
289.8399595079
 21
281.9949442569
  0
LINE
  5
296
100
AcDbEntity
  8
0
100
AcDbLine
 62
7
  6
BYLAYER
 10
289.8399595079
 20
282.1812723829
 11
289.7399595079
 21
282.1812723829
  0
LINE
  5
297
100
AcDbEntity
  8
0
100
AcDbLine
 62
7
  6
BYLAYER
 10
289.8399595079
 20
282.3454520694
 11
289.7399595079
 21
282.3454520694
  0
LINE
  5
298
100
AcDbEntity
  8
0
100
AcDbLine
 62
7
  6
BYLAYER
 10
289.8399595079
 20
282.5004911329
 11
289.7399595079
 21
282.5004911329
  0
LINE
  5
299
100
AcDbEntity
  8
0
100
AcDbLine
 62
7
  6
BYLAYER
 10
289.7399595079
 20
282.5929520698
 11
289.8399595079
 21
282.5929520698
  0
LINE
  5
29A
100
AcDbEntity
  8
0
100
AcDbLine
 62
7
  6
BYLAYER
 10
289.7399595079
 20
282.8045926941
 11
289.8399595079
 21
282.8045926941
  0
LINE
  5
29B
100
AcDbEntity
  8
0
100
AcDbLine
 62
7
  6
BYLAYER
 10
289.8399595079
 20
283.3656864455
 11
289.7399595079
 21
283.3656864455
  0
LINE
  5
29C
100
AcDbEntity
  8
0
100
AcDbLine
 62
7
  6
BYLAYER
 10
289.8399595079
 20
283.7130301939
 11
289.7399595079
 21
283.7130301939
  0
LINE
  5
29D
100
AcDbEntity
  8
0
100
AcDbLine
 62
7
  6
BYLAYER
 10
289.8399595079
 20
283.9879520694
 11
289.7399595079
 21
283.9879520694
  0
LINE
  5
29E
100
AcDbEntity
  8
0
100
AcDbLine
 62
7
  6
BYLAYER
 10
289.8399595079
 20
284.0188895697
 11
289.7399595079
 21
284.0188895697
  0
LINE
  5
29F
100
AcDbEntity
  8
0
100
AcDbLine
 62
7
  6
BYLAYER
 10
289.8399595079
 20
284.2448661313
 11
289.7399595079
 21
284.2448661313
  0
LINE
  5
2A0
100
AcDbEntity
  8
0
100
AcDbLine
 62
7
  6
BYLAYER
 10
289.8399595079
 20
284.5904520699
 11
289.7399595079
 21
284.5904520699
  0
LINE
  5
2A1
100
AcDbEntity
  8
0
100
AcDbLine
 62
7
  6
BYLAYER
 10
289.8399595079
 20
286.0424051939
 11
289.7399595079
 21
286.0424051939
  0
LINE
  5
2A2
100
AcDbEntity
  8
0
100
AcDbLine
 62
7
  6
BYLAYER
 10
289.8399595079
 20
286.0754520691
 11
289.7399595079
 21
286.0754520691
  0
LINE
  5
2A3
100
AcDbEntity
  8
0
100
AcDbLine
 62
7
  6
BYLAYER
 10
289.8399595079
 20
286.73076457
 11
289.7399595079
 21
286.73076457
  0
LINE
  5
2A4
100
AcDbEntity
  8
0
100
AcDbLine
 62
7
  6
BYLAYER
 10
289.8399595079
 20
287.3516239452
 11
289.7399595079
 21
287.3516239452
  0
LINE
  5
2A5
100
AcDbEntity
  8
0
100
AcDbLine
 62
7
  6
BYLAYER
 10
289.8399595079
 20
287.4254520706
 11
289.7399595079
 21
287.4254520706
  0
LINE
  5
2A6
100
AcDbEntity
  8
0
100
AcDbLine
 62
7
  6
BYLAYER
 10
289.8399595079
 20
287.4465458204
 11
289.7399595079
 21
287.4465458204
  0
LINE
  5
2A7
100
AcDbEntity
  8
0
100
AcDbLine
 62
7
  6
BYLAYER
 10
289.8399595079
 20
287.60545207
 11
289.7399595079
 21
287.60545207
  0
LINE
  5
2A8
100
AcDbEntity
  8
0
100
AcDbLine
 62
7
  6
BYLAYER
 10
289.8399595079
 20
287.6560770702
 11
289.7399595079
 21
287.6560770702
  0
LINE
  5
2A9
100
AcDbEntity
  8
0
100
AcDbLine
 62
7
  6
BYLAYER
 10
289.7399595079
 20
288.0965848826
 11
289.8399595079
 21
288.0965848826
  0
LINE
  5
2AA
100
AcDbEntity
  8
0
100
AcDbLine
 62
7
  6
BYLAYER
 10
289.8399595079
 20
288.3971708194
 11
289.7399595079
 21
288.3971708194
  0
LINE
  5
2AB
100
AcDbEntity
  8
0
100
AcDbLine
 62
7
  6
BYLAYER
 10
289.8399595079
 20
288.7002176941
 11
289.7399595079
 21
288.7002176941
  0
LINE
  5
2AC
100
AcDbEntity
  8
0
100
AcDbLine
 62
7
  6
BYLAYER
 10
289.7399595079
 20
289.1502176952
 11
289.8399595079
 21
289.1502176952
  0
LINE
  5
2AD
100
AcDbEntity
  8
0
100
AcDbLine
 62
7
  6
BYLAYER
 10
289.8399595079
 20
289.2029520702
 11
289.7399595079
 21
289.2029520702
  0
LINE
  5
2AE
100
AcDbEntity
  8
0
100
AcDbLine
 62
7
  6
BYLAYER
 10
289.8399595079
 20
289.3154520704
 11
289.7399595079
 21
289.3154520704
  0
LINE
  5
2AF
100
AcDbEntity
  8
0
100
AcDbLine
 62
7
  6
BYLAYER
 10
289.7399595079
 20
289.4933426953
 11
289.8399595079
 21
289.4933426953
  0
LINE
  5
2B0
100
AcDbEntity
  8
0
100
AcDbLine
 62
7
  6
BYLAYER
 10
289.8399595079
 20
290.5997098828
 11
289.7399595079
 21
290.5997098828
  0
LINE
  5
2B1
100
AcDbEntity
  8
0
100
AcDbLine
 62
7
  6
BYLAYER
 10
289.8399595079
 20
290.7800614438
 11
289.7399595079
 21
290.7800614438
  0
LINE
  5
2B2
100
AcDbEntity
  8
0
100
AcDbLine
 62
7
  6
BYLAYER
 10
289.8399595079
 20
290.89045207
 11
289.7399595079
 21
290.89045207
  0
LINE
  5
2B3
100
AcDbEntity
  8
0
100
AcDbLine
 62
7
  6
BYLAYER
 10
289.8399595079
 20
290.9410770702
 11
289.7399595079
 21
290.9410770702
  0
LINE
  5
2B4
100
AcDbEntity
  8
0
100
AcDbLine
 62
7
  6
BYLAYER
 10
289.7399595079
 20
291.3815848826
 11
289.8399595079
 21
291.3815848826
  0
LINE
  5
2B5
100
AcDbEntity
  8
0
100
AcDbLine
 62
7
  6
BYLAYER
 10
289.8399595079
 20
291.6821708194
 11
289.7399595079
 21
291.6821708194
  0
LINE
  5
2B6
100
AcDbEntity
  8
0
100
AcDbLine
 62
7
  6
BYLAYER
 10
289.8399595079
 20
291.9852176941
 11
289.7399595079
 21
291.9852176941
  0
LINE
  5
2B7
100
AcDbEntity
  8
0
100
AcDbLine
 62
7
  6
BYLAYER
 10
289.7399595079
 20
292.4352176952
 11
289.8399595079
 21
292.4352176952
  0
LINE
  5
2B8
100
AcDbEntity
  8
0
100
AcDbLine
 62
7
  6
BYLAYER
 10
289.8399595079
 20
292.4879520702
 11
289.7399595079
 21
292.4879520702
  0
LINE
  5
2B9
100
AcDbEntity
  8
0
100
AcDbLine
 62
7
  6
BYLAYER
 10
289.8399595079
 20
294.3504520699
 11
289.7399595079
 21
294.3504520699
  0
LINE
  5
2BA
100
AcDbEntity
  8
0
100
AcDbLine
 62
7
  6
BYLAYER
 10
289.8399595079
 20
295.1826005064
 11
289.7399595079
 21
295.1826005064
  0
LINE
  5
2BB
100
AcDbEntity
  8
0
100
AcDbLine
 62
7
  6
BYLAYER
 10
289.8399595079
 20
295.8994364448
 11
289.7399595079
 21
295.8994364448
  0
LINE
  5
2BC
100
AcDbEntity
  8
0
100
AcDbLine
 62
7
  6
BYLAYER
 10
289.8399595079
 20
295.9040067575
 11
289.7399595079
 21
295.9040067575
  0
LINE
  5
2BD
100
AcDbEntity
  8
0
100
AcDbLine
 62
7
  6
BYLAYER
 10
289.8399595079
 20
296.2179520695
 11
289.7399595079
 21
296.2179520695
  0
LINE
  5
2BE
100
AcDbEntity
  8
0
100
AcDbLine
 62
7
  6
BYLAYER
 10
289.7399595079
 20
296.4345145694
 11
289.8399595079
 21
296.4345145694
  0
LINE
  5
2BF
100
AcDbEntity
  8
0
100
AcDbLine
 62
7
  6
BYLAYER
 10
289.8399595079
 20
296.5424442574
 11
289.7399595079
 21
296.5424442574
  0
LINE
  5
2C0
100
AcDbEntity
  8
0
100
AcDbLine
 62
7
  6
BYLAYER
 10
289.8399595079
 20
296.7966239453
 11
289.7399595079
 21
296.7966239453
  0
LINE
  5
2C1
100
AcDbEntity
  8
0
100
AcDbLine
 62
7
  6
BYLAYER
 10
289.8399595079
 20
297.0504520695
 11
289.7399595079
 21
297.0504520695
  0
LINE
  5
2C2
100
AcDbEntity
  8
0
100
AcDbLine
 62
7
  6
BYLAYER
 10
289.7399595079
 20
297.3011161319
 11
289.8399595079
 21
297.3011161318
  0
LINE
  5
2C3
100
AcDbEntity
  8
0
100
AcDbLine
 62
7
  6
BYLAYER
 10
289.7399595079
 20
297.55670207
 11
289.8399595079
 21
297.55670207
  0
LINE
  5
2C4
100
AcDbEntity
  8
0
100
AcDbLine
 62
7
  6
BYLAYER
 10
289.8399595079
 20
297.6649833191
 11
289.7399595079
 21
297.6649833191
  0
LINE
  5
2C5
100
AcDbEntity
  8
0
100
AcDbLine
 62
7
  6
BYLAYER
 10
289.8399595079
 20
297.8829520699
 11
289.7399595079
 21
297.8829520699
  0
LINE
  5
2C6
100
AcDbEntity
  8
0
100
AcDbLine
 62
7
  6
BYLAYER
 10
289.8399595079
 20
298.1754520694
 11
289.7399595079
 21
298.1754520694
  0
LINE
  5
2C7
100
AcDbEntity
  8
0
100
AcDbLine
 62
7
  6
BYLAYER
 10
289.8399595079
 20
299.0244755065
 11
289.7399595079
 21
299.0244755065
  0
LINE
  5
2C8
100
AcDbEntity
  8
0
100
AcDbLine
 62
7
  6
BYLAYER
 10
289.8399595079
 20
299.8854520703
 11
289.7399595079
 21
299.8854520703
  0
LINE
  5
2C9
100
AcDbEntity
  8
0
100
AcDbLine
 62
7
  6
BYLAYER
 10
289.8399595079
 20
300.1224051939
 11
289.7399595079
 21
300.1224051939
  0
LINE
  5
2CA
100
AcDbEntity
  8
0
100
AcDbLine
 62
7
  6
BYLAYER
 10
289.8399595079
 20
300.1554520691
 11
289.7399595079
 21
300.1554520691
  0
LINE
  5
2CB
100
AcDbEntity
  8
0
100
AcDbLine
 62
7
  6
BYLAYER
 10
289.8399595079
 20
300.81076457
 11
289.7399595079
 21
300.81076457
  0
LINE
  5
2CC
100
AcDbEntity
  8
0
100
AcDbLine
 62
7
  6
BYLAYER
 10
289.8399595079
 20
301.4316239452
 11
289.7399595079
 21
301.4316239452
  0
LINE
  5
2CD
100
AcDbEntity
  8
0
100
AcDbLine
 62
7
  6
BYLAYER
 10
289.8399595079
 20
301.5054520706
 11
289.7399595079
 21
301.5054520706
  0
LINE
  5
2CE
100
AcDbEntity
  8
0
100
AcDbLine
 62
7
  6
BYLAYER
 10
294.7399595079
 20
311.1579520697
 11
289.7399595079
 21
311.1579520697
  0
LINE
  5
2CF
100
AcDbEntity
  8
0
100
AcDbLine
 62
7
  6
BYLAYER
 10
289.7399595079
 20
316.1579520697
 11
294.7399595079
 21
316.1579520697
  0
LINE
  5
2D0
100
AcDbEntity
  8
0
100
AcDbLine
 62
7
  6
BYLAYER
 10
262.7399595078
 20
147.2360770718
 11
262.7399595075
 21
146.0329520688
  0
LINE
  5
2D1
100
AcDbEntity
  8
0
100
AcDbLine
 62
7
  6
BYLAYER
 10
262.7399595045
 20
134.7634207239
 11
262.7399595042
 21
133.5642021136
  0
LINE
  5
2D2
100
AcDbEntity
  8
0
100
AcDbLine
 62
7
  6
BYLAYER
 10
273.1045681959
 20
195.9316585637
 11
273.1045681959
 21
189.4043148137
  0
LINE
  5
2D3
100
AcDbEntity
  8
0
100
AcDbLine
 62
7
  6
BYLAYER
 10
275.1045681959
 20
189.4043148137
 11
275.1045681959
 21
196.4472835637
  0
LINE
  5
2D4
100
AcDbEntity
  8
0
100
AcDbLine
 62
7
  6
BYLAYER
 10
35.7399595079
 20
333.1579520697
 11
289.7399595079
 21
333.1579520697
  0
LINE
  5
2D5
100
AcDbEntity
  8
0
100
AcDbLine
 62
7
  6
BYLAYER
 10
289.7399595079
 20
126.1579520697
 11
289.7399595079
 21
333.1579520697
  0
LINE
  5
2D6
100
AcDbEntity
  8
0
100
AcDbLine
 62
7
  6
BYLAYER
 10
289.7899595079
 20
269.3079520701
 11
289.7899595079
 21
195.0079520693
  0
LINE
  5
2D7
100
AcDbEntity
  8
0
100
AcDbLine
 62
7
  6
BYLAYER
 10
289.8399595079
 20
301.5054520706
 11
289.8399595079
 21
300.1554520691
  0
LINE
  5
2D8
100
AcDbEntity
  8
0
100
AcDbLine
 62
7
  6
BYLAYER
 10
289.8399595079
 20
300.1482772972
 11
289.8399595079
 21
300.1224051939
  0
LINE
  5
2D9
100
AcDbEntity
  8
0
100
AcDbLine
 62
7
  6
BYLAYER
 10
289.8399595079
 20
299.8854520703
 11
289.8399595079
 21
298.1754520694
  0
LINE
  5
2DA
100
AcDbEntity
  8
0
100
AcDbLine
 62
7
  6
BYLAYER
 10
289.8399595079
 20
295.9040067575
 11
289.8399595079
 21
294.3504520699
  0
LINE
  5
2DB
100
AcDbEntity
  8
0
100
AcDbLine
 62
7
  6
BYLAYER
 10
289.8399595079
 20
287.4465458204
 11
289.8399595079
 21
286.0754520691
  0
LINE
  5
2DC
100
AcDbEntity
  8
0
100
AcDbLine
 62
7
  6
BYLAYER
 10
289.8399595079
 20
286.0682772972
 11
289.8399595079
 21
286.0424051939
  0
LINE
  5
2DD
100
AcDbEntity
  8
0
100
AcDbLine
 62
7
  6
BYLAYER
 10
289.8399595079
 20
278.1482772972
 11
289.8399595079
 21
278.1224051939
  0
LINE
  5
2DE
100
AcDbEntity
  8
0
100
AcDbLine
 62
7
  6
BYLAYER
 10
289.8399595079
 20
277.5728750129
 11
289.8399595079
 21
274.9730337944
  0
LINE
  5
2DF
100
AcDbEntity
  8
0
100
AcDbLine
 62
7
  6
BYLAYER
 10
289.8399595079
 20
186.5829520703
 11
289.8399595079
 21
185.1329520692
  0
LINE
  5
2E0
100
AcDbEntity
  8
0
100
AcDbLine
 62
7
  6
BYLAYER
 10
289.8399595079
 20
184.7829520694
 11
289.8399595079
 21
183.132952069
  0
LINE
  5
2E1
100
AcDbEntity
  8
0
100
AcDbLine
 62
7
  6
BYLAYER
 10
289.8399595079
 20
164.5362793714
 11
289.8399595079
 21
160.359688645
  0
LINE
  5
2E2
100
AcDbEntity
  8
0
100
AcDbLine
 62
7
  6
BYLAYER
 10
289.8399595079
 20
159.9838491927
 11
289.8399595079
 21
159.8683823771
  0
LINE
  5
2E3
100
AcDbEntity
  8
0
100
AcDbLine
 62
7
  6
BYLAYER
 10
289.8399595079
 20
139.5297536871
 11
289.8399595079
 21
135.8590305394
  0
LINE
  5
2E4
100
AcDbEntity
  8
0
100
AcDbLine
 62
7
  6
BYLAYER
 10
289.8399595079
 20
135.5735107195
 11
289.8399595079
 21
131.0363685702
  0
LINE
  5
2E5
100
AcDbEntity
  8
0
100
AcDbLine
 62
7
  6
BYLAYER
 10
289.8399595079
 20
140.0488968829
 11
289.8399595079
 21
155.1639357457
  0
LINE
  5
2E6
100
AcDbEntity
  8
0
100
AcDbLine
 62
7
  6
BYLAYER
 10
289.8399595079
 20
155.3388048674
 11
289.8399595079
 21
159.8317843372
  0
LINE
  5
2E7
100
AcDbEntity
  8
0
100
AcDbLine
 62
7
  6
BYLAYER
 10
289.8399595079
 20
165.1589950191
 11
289.8399595079
 21
168.5419348326
  0
LINE
  5
2E8
100
AcDbEntity
  8
0
100
AcDbLine
 62
7
  6
BYLAYER
 10
289.8399595079
 20
278.1554520691
 11
289.8399595079
 21
284.5904520699
  0
LINE
  5
2E9
100
AcDbEntity
  8
0
100
AcDbLine
 62
7
  6
BYLAYER
 10
289.8399595079
 20
287.60545207
 11
289.8399595079
 21
292.4879520702
  0
LINE
  5
2EA
100
AcDbEntity
  8
0
100
AcDbLine
 62
7
  6
BYLAYER
 10
289.8399595079
 20
296.2179520694
 11
289.8399595079
 21
297.88295207
  0
LINE
  5
2EB
100
AcDbEntity
  8
0
100
AcDbLine
 62
7
  6
BYLAYER
 10
289.8899595079
 20
237.7263114445
 11
289.8899595079
 21
237.584709882
  0
LINE
  5
2EC
100
AcDbEntity
  8
0
100
AcDbLine
 62
7
  6
BYLAYER
 10
289.8899595079
 20
237.5812919132
 11
289.8899595079
 21
236.524163007
  0
LINE
  5
2ED
100
AcDbEntity
  8
0
100
AcDbLine
 62
7
  6
BYLAYER
 10
289.8899595079
 20
236.31420207
 11
289.8899595079
 21
234.76342082
  0
LINE
  5
2EE
100
AcDbEntity
  8
0
100
AcDbLine
 62
7
  6
BYLAYER
 10
289.8899595079
 20
234.4919364456
 11
289.8899595079
 21
234.4628739625
  0
LINE
  5
2EF
100
AcDbEntity
  8
0
100
AcDbLine
 62
7
  6
BYLAYER
 10
289.8899595079
 20
234.4113700393
 11
289.8899595079
 21
232.7829520706
  0
LINE
  5
2F0
100
AcDbEntity
  8
0
100
AcDbLine
 62
7
  6
BYLAYER
 10
289.8899595079
 20
230.4094169129
 11
289.8899595079
 21
228.2517020692
  0
LINE
  5
2F1
100
AcDbEntity
  8
0
100
AcDbLine
 62
7
  6
BYLAYER
 10
289.8899595079
 20
230.8454520699
 11
289.8899595079
 21
232.5090262889
  0
LINE
  5
2F2
100
AcDbEntity
  8
0
100
AcDbLine
 62
7
  6
BYLAYER
 10
291.7399595079
 20
143.1579520697
 11
291.7399595079
 21
164.1578797235
  0
LINE
  5
2F3
100
AcDbEntity
  8
0
100
AcDbLine
 62
7
  6
BYLAYER
 10
291.8099595079
 20
277.5429520697
 11
291.8099595079
 21
275.0029520697
  0
LINE
  5
2F4
100
AcDbEntity
  8
0
100
AcDbLine
 62
7
  6
BYLAYER
 10
294.2899595079
 20
255.0079520697
 11
294.2899595079
 21
247.3079520697
  0
LINE
  5
2F5
100
AcDbEntity
  8
0
100
AcDbLine
 62
7
  6
BYLAYER
 10
294.7399595079
 20
316.1579520697
 11
294.7399595079
 21
311.1579520697
  0
LINE
  5
2F6
100
AcDbEntity
  8
0
100
AcDbLine
 62
7
  6
BYLAYER
 10
294.7399595079
 20
236.1579520697
 11
294.7399595079
 21
231.1579520697
  0
LINE
  5
2F7
100
AcDbEntity
  8
0
100
AcDbLine
 62
7
  6
BYLAYER
 10
294.7399595079
 20
228.1579520697
 11
294.7399595079
 21
223.1579520697
  0
LINE
  5
2F8
100
AcDbEntity
  8
0
100
AcDbLine
 62
7
  6
BYLAYER
 10
294.7399595079
 20
148.1579520697
 11
294.7399595079
 21
143.1579520697
  0
ARC
  5
2F9
100
AcDbEntity
  8
0
100
AcDbCircle
 62
7
  6
BYLAYER
 10
272.7311299539
 20
-154.4224993903
 40
320.3579192544
100
AcDbArc
 50
89.2275588207
 51
89.955764604
  0
SPLINE
  5
2FA
100
AcDbEntity
  8
0
100
AcDbSpline
 62
7
  6
BYLAYER
 70
0
 71
3
 72
14
 73
10
 74
0
 42
0.0000001
 43
0.0000001
 44
0.0000000001
 40
0.0
 40
0.0
 40
0.0
 40
0.0
 40
0.144111076
 40
0.2832475041
 40
0.427572612
 40
0.5033207116
 40
0.6532350372
 40
0.7212612673
 40
1.0
 40
1.0
 40
1.0
 40
1.0
 10
282.2399595069
 20
140.40795207
 30
0.0
 10
282.2332663669
 20
140.6317066405
 30
0.0
 10
282.2124107422
 20
141.0609200837
 30
0.0
 10
281.94125159
 20
141.7031003513
 30
0.0
 10
281.5635968908
 20
142.0751869873
 30
0.0
 10
281.1056149954
 20
142.426048543
 30
0.0
 10
280.6765907409
 20
142.5840446584
 30
0.0
 10
279.9346585054
 20
142.7988218857
 30
0.0
 10
279.4287517951
 20
142.9380639777
 30
0.0
 10
279.0094907613
 20
143.0446708192
 30
0.0
  0
SPLINE
  5
2FB
100
AcDbEntity
  8
0
100
AcDbSpline
 62
7
  6
BYLAYER
 70
0
 71
3
 72
13
 73
9
 74
0
 42
0.0000001
 43
0.0000001
 44
0.0000000001
 40
0.0
 40
0.0
 40
0.0
 40
0.0
 40
0.1831434728
 40
0.3069012107
 40
0.5121028091
 40
0.7995627321
 40
0.8994142438
 40
1.0
 40
1.0
 40
1.0
 40
1.0
 10
280.0329282572
 20
146.1579520702
 30
0.0
 10
280.2250871074
 20
146.1639014035
 30
0.0
 10
280.5586598282
 20
146.175738456
 30
0.0
 10
281.0837824989
 20
146.2868780654
 30
0.0
 10
281.6785056361
 20
146.5497146386
 30
0.0
 10
282.0930332843
 20
147.0691201306
 30
0.0
 10
282.2236738931
 20
147.572988154
 30
0.0
 10
282.2342440603
 20
147.7829099897
 30
0.0
 10
282.2399595069
 20
147.88842082
 30
0.0
  0
SPLINE
  5
2FC
100
AcDbEntity
  8
0
100
AcDbSpline
 62
7
  6
BYLAYER
 70
0
 71
3
 72
12
 73
8
 74
0
 42
0.0000001
 43
0.0000001
 44
0.0000000001
 40
0.0
 40
0.0
 40
0.0
 40
0.0
 40
0.1082160031
 40
0.2009164395
 40
0.480146647
 40
0.6730150006
 40
1.0
 40
1.0
 40
1.0
 40
1.0
 10
282.2399595069
 20
147.88842082
 30
0.0
 10
282.2339854403
 20
148.0046020835
 30
0.0
 10
282.223329656
 20
148.2201351209
 30
0.0
 10
282.0994905857
 20
148.7273424756
 30
0.0
 10
281.7099112336
 20
149.2511125294
 30
0.0
 10
280.9163017691
 20
149.6120087501
 30
0.0
 10
280.395833693
 20
149.6469893375
 30
0.0
 10
280.0446470134
 20
149.65795207
 30
0.0
  0
SPLINE
  5
2FD
100
AcDbEntity
  8
0
100
AcDbSpline
 62
7
  6
BYLAYER
 70
0
 71
3
 72
16
 73
12
 74
0
 42
0.0000001
 43
0.0000001
 44
0.0000000001
 40
0.0
 40
0.0
 40
0.0
 40
0.0
 40
0.1017559074
 40
0.2287142865
 40
0.3030165005
 40
0.373039216
 40
0.4471412615
 40
0.5159931369
 40
0.690216426
 40
0.8005366693
 40
1.0
 40
1.0
 40
1.0
 40
1.0
 10
264.8727720013
 20
149.65795207
 30
0.0
 10
264.7457993916
 20
149.6540917905
 30
0.0
 10
264.4681437139
 20
149.64903748
 30
0.0
 10
264.115024819
 20
149.5897192652
 30
0.0
 10
263.781966386
 20
149.4886239981
 30
0.0
 10
263.5260299203
 20
149.3535688737
 30
0.0
 10
263.3236245299
 20
149.1960686593
 30
0.0
 10
263.0756478216
 20
148.8798371185
 30
0.0
 10
262.8996241875
 20
148.4624649902
 30
0.0
 10
262.761482824
 20
147.8741770369
 30
0.0
 10
262.7467453415
 20
147.4851407831
 30
0.0
 10
262.7399595077
 20
147.2360770718
 30
0.0
  0
SPLINE
  5
2FE
100
AcDbEntity
  8
0
100
AcDbSpline
 62
7
  6
BYLAYER
 70
0
 71
3
 72
14
 73
10
 74
0
 42
0.0000001
 43
0.0000001
 44
0.0000000001
 40
0.0
 40
0.0
 40
0.0
 40
0.0
 40
0.008660805
 40
0.2473857732
 40
0.3220307699
 40
0.4478178083
 40
0.5708555119
 40
0.7025755119
 40
1.0
 40
1.0
 40
1.0
 40
1.0
 10
262.7399595074
 20
146.0329520688
 30
0.0
 10
262.7401208149
 20
146.0201362238
 30
0.0
 10
262.7446862726
 20
145.6541710876
 30
0.0
 10
262.756296529
 20
145.170047782
 30
0.0
 10
262.8923638716
 20
144.5175353484
 30
0.0
 10
263.1056267204
 20
144.0799443474
 30
0.0
 10
263.5652953342
 20
143.7298917643
 30
0.0
 10
264.4124433808
 20
143.4372765387
 30
0.0
 10
264.8650454281
 20
143.3050820268
 30
0.0
 10
265.2907407526
 20
143.1931083214
 30
0.0
  0
SPLINE
  5
2FF
100
AcDbEntity
  8
0
100
AcDbSpline
 62
7
  6
BYLAYER
 70
0
 71
3
 72
14
 73
10
 74
0
 42
0.0000001
 43
0.0000001
 44
0.0000000001
 40
0.0
 40
0.0
 40
0.0
 40
0.0
 40
0.165884666
 40
0.3908332066
 40
0.4565074039
 40
0.5797079127
 40
0.7156011134
 40
0.8001053032
 40
1.0
 40
1.0
 40
1.0
 40
1.0
 10
265.290740728
 20
137.5876395626
 30
0.0
 10
265.0579559525
 20
137.5264354961
 30
0.0
 10
264.5049659276
 20
137.3711182955
 30
0.0
 10
263.8519826027
 20
137.1708079755
 30
0.0
 10
263.3202817551
 20
136.8865970241
 30
0.0
 10
262.9933551182
 20
136.5381007143
 30
0.0
 10
262.8422215901
 20
136.0740448413
 30
0.0
 10
262.7482845921
 20
135.4677013723
 30
0.0
 10
262.7435430474
 20
135.0534246132
 30
0.0
 10
262.7399595064
 20
134.7634207239
 30
0.0
  0
SPLINE
  5
300
100
AcDbEntity
  8
0
100
AcDbSpline
 62
7
  6
BYLAYER
 70
0
 71
3
 72
15
 73
11
 74
0
 42
0.0000001
 43
0.0000001
 44
0.0000000001
 40
0.0
 40
0.0
 40
0.0
 40
0.0
 40
0.0862484896
 40
0.3167073078
 40
0.4154719038
 40
0.5641145881
 40
0.634071409
 40
0.7077436687
 40
0.8002526759
 40
1.0
 40
1.0
 40
1.0
 40
1.0
 10
262.7399595063
 20
133.5642021137
 30
0.0
 10
262.7428551625
 20
133.4576601384
 30
0.0
 10
262.7517779651
 20
133.0674780859
 30
0.0
 10
262.8324461724
 20
132.5483814906
 30
0.0
 10
263.0431941957
 20
132.0027328511
 30
0.0
 10
263.2681689648
 20
131.6466162367
 30
0.0
 10
263.5584309342
 20
131.4388386671
 30
0.0
 10
263.8236257339
 20
131.3116265132
 30
0.0
 10
264.2563422406
 20
131.1782612781
 30
0.0
 10
264.6261390841
 20
131.1649603505
 30
0.0
 10
264.8727720102
 20
131.1579520701
 30
0.0
  0
SPLINE
  5
301
100
AcDbEntity
  8
0
100
AcDbSpline
 62
7
  6
BYLAYER
 70
0
 71
3
 72
13
 73
9
 74
0
 42
0.0000001
 43
0.0000001
 44
0.0000000001
 40
0.0
 40
0.0
 40
0.0
 40
0.0
 40
0.189928458
 40
0.412802894
 40
0.6069899657
 40
0.8004466004
 40
0.89982421
 40
1.0
 40
1.0
 40
1.0
 40
1.0
 10
280.0446470059
 20
131.1579520702
 30
0.0
 10
280.2448689332
 20
131.1644623603
 30
0.0
 10
280.6906698614
 20
131.1810474683
 30
0.0
 10
281.3111330073
 20
131.3488541809
 30
0.0
 10
281.8483168602
 20
131.7310168657
 30
0.0
 10
282.1182555902
 20
132.1752753516
 30
0.0
 10
282.2244061864
 20
132.5846696184
 30
0.0
 10
282.2343753586
 20
132.794510601
 30
0.0
 10
282.2399595069
 20
132.90013957
 30
0.0
  0
SPLINE
  5
302
100
AcDbEntity
  8
0
100
AcDbSpline
 62
7
  6
BYLAYER
 70
0
 71
3
 72
13
 73
9
 74
0
 42
0.0000001
 43
0.0000001
 44
0.0000000001
 40
0.0
 40
0.0
 40
0.0
 40
0.0
 40
0.1060006908
 40
0.1971370402
 40
0.2889174226
 40
0.4785592197
 40
0.6710889006
 40
1.0
 40
1.0
 40
1.0
 40
1.0
 10
282.2399595069
 20
132.90013957
 30
0.0
 10
282.2340117236
 20
133.0147809382
 30
0.0
 10
282.2235573117
 20
133.2274368764
 30
0.0
 10
282.1472382077
 20
133.5362870397
 30
0.0
 10
281.9708220699
 20
133.9005452259
 30
0.0
 10
281.618935014
 20
134.2884341805
 30
0.0
 10
280.9066976684
 20
134.6134868365
 30
0.0
 10
280.3888260413
 20
134.647233346
 30
0.0
 10
280.0329282634
 20
134.6579520701
 30
0.0
  0
SPLINE
  5
303
100
AcDbEntity
  8
0
100
AcDbSpline
 62
7
  6
BYLAYER
 70
0
 71
3
 72
15
 73
11
 74
0
 42
0.0000001
 43
0.0000001
 44
0.0000000001
 40
0.0
 40
0.0
 40
0.0
 40
0.0
 40
0.1786934552
 40
0.4155716824
 40
0.5080077353
 40
0.5841993684
 40
0.6549549483
 40
0.7989567439
 40
0.8991965881
 40
1.0
 40
1.0
 40
1.0
 40
1.0
 10
279.0094907428
 20
137.7712333161
 30
0.0
 10
279.2710523941
 20
137.8433564046
 30
0.0
 10
279.9024965529
 20
138.0089866417
 30
0.0
 10
280.6494938458
 20
138.2155894624
 30
0.0
 10
281.1940154925
 20
138.4898224461
 30
0.0
 10
281.4909936232
 20
138.6972747062
 30
0.0
 10
281.8170463516
 20
139.0226353454
 30
0.0
 10
282.0826734038
 20
139.4348862476
 30
0.0
 10
282.2191407961
 20
139.9501239276
 30
0.0
 10
282.2348146836
 20
140.2548988657
 30
0.0
 10
282.2399595069
 20
140.40795207
 30
0.0
  0
SPLINE
  5
304
100
AcDbEntity
  8
0
100
AcDbSpline
 62
7
  6
BYLAYER
 70
0
 71
3
 72
13
 73
9
 74
0
 42
0.0000001
 43
0.0000001
 44
0.0000000001
 40
0.0
 40
0.0
 40
0.0
 40
0.0
 40
0.1049238049
 40
0.1957449506
 40
0.2873503135
 40
0.480320205
 40
0.6735042279
 40
1.0
 40
1.0
 40
1.0
 40
1.0
 10
281.421392325
 20
204.3837349866
 30
0.0
 10
281.4151885599
 20
204.4966144504
 30
0.0
 10
281.404094719
 20
204.7066354114
 30
0.0
 10
281.3288931267
 20
205.0123858008
 30
0.0
 10
281.1502908239
 20
205.3765330269
 30
0.0
 10
280.8052783894
 20
205.7703772329
 30
0.0
 10
280.1000400884
 20
206.1081331952
 30
0.0
 10
279.5815475961
 20
206.1430329678
 30
0.0
 10
279.2299860795
 20
206.1532662369
 30
0.0
  0
SPLINE
  5
305
100
AcDbEntity
  8
0
100
AcDbSpline
 62
7
  6
BYLAYER
 70
0
 71
3
 72
13
 73
9
 74
0
 42
0.0000001
 43
0.0000001
 44
0.0000000001
 40
0.0
 40
0.0
 40
0.0
 40
0.0
 40
0.065138616
 40
0.313481508
 40
0.5143206524
 40
0.8008375654
 40
0.9001509236
 40
1.0
 40
1.0
 40
1.0
 40
1.0
 10
263.6127985697
 20
206.1532662369
 30
0.0
 10
263.5434810094
 20
206.1510303239
 30
0.0
 10
263.2094350231
 20
206.140888054
 30
0.0
 10
262.6707247162
 20
206.0783742974
 30
0.0
 10
261.9549587381
 20
205.7389312192
 30
0.0
 10
261.5579577896
 20
205.211744895
 30
0.0
 10
261.4369938875
 20
204.7015910233
 30
0.0
 10
261.4268606056
 20
204.4899831266
 30
0.0
 10
261.4213923247
 20
204.3837349866
 30
0.0
  0
SPLINE
  5
306
100
AcDbEntity
  8
0
100
AcDbSpline
 62
7
  6
BYLAYER
 70
0
 71
3
 72
12
 73
8
 74
0
 42
0.0000001
 43
0.0000001
 44
0.0000000001
 40
0.0
 40
0.0
 40
0.0
 40
0.0
 40
0.1055546179
 40
0.1984876299
 40
0.4801211577
 40
0.8004566625
 40
1.0
 40
1.0
 40
1.0
 40
1.0
 10
261.4213923247
 20
204.3837349866
 30
0.0
 10
261.4271914649
 20
204.2732992095
 30
0.0
 10
261.4377007722
 20
204.0659150068
 30
0.0
 10
261.5562604012
 20
203.5707216732
 30
0.0
 10
262.0382818231
 20
202.9548387074
 30
0.0
 10
262.8505999543
 20
202.683850142
 30
0.0
 10
263.4040319309
 20
202.6606094835
 30
0.0
 10
263.6127985794
 20
202.6532662368
 30
0.0
  0
SPLINE
  5
307
100
AcDbEntity
  8
0
100
AcDbSpline
 62
7
  6
BYLAYER
 70
0
 71
3
 72
13
 73
9
 74
0
 42
0.0000001
 43
0.0000001
 44
0.0000000001
 40
0.0
 40
0.0
 40
0.0
 40
0.0
 40
0.0451503797
 40
0.3067483188
 40
0.5120379536
 40
0.8023069302
 40
0.9007899788
 40
1.0
 40
1.0
 40
1.0
 40
1.0
 10
279.2299860719
 20
202.6532662369
 30
0.0
 10
279.2777102546
 20
202.6547832361
 30
0.0
 10
279.6030093102
 20
202.6644367798
 30
0.0
 10
280.1199903184
 20
202.7228224009
 30
0.0
 10
280.8595309954
 20
203.0550031993
 30
0.0
 10
281.2707179406
 20
203.5621127693
 30
0.0
 10
281.4069458274
 20
204.0703138107
 30
0.0
 10
281.4161675549
 20
204.2788524537
 30
0.0
 10
281.421392325
 20
204.3837349866
 30
0.0
  0
SPLINE
  5
308
100
AcDbEntity
  8
0
100
AcDbSpline
 62
7
  6
BYLAYER
 70
0
 71
3
 72
12
 73
8
 74
0
 42
0.0000001
 43
0.0000001
 44
0.0000000001
 40
0.0
 40
0.0
 40
0.0
 40
0.0
 40
0.0915325216
 40
0.1875721262
 40
0.4786577119
 40
0.6785135225
 40
1.0
 40
1.0
 40
1.0
 40
1.0
 10
266.8383907549
 20
211.6332598494
 30
0.0
 10
266.8436617633
 20
211.5375489357
 30
0.0
 10
266.8537498438
 20
211.3413711364
 30
0.0
 10
266.9619683013
 20
210.84898768
 30
0.0
 10
267.3364574711
 20
210.3291013569
 30
0.0
 10
268.1123490202
 20
209.9476139146
 30
0.0
 10
268.6310286418
 20
209.9141321961
 30
0.0
 10
268.9672970074
 20
209.9027910995
 30
0.0
  0
SPLINE
  5
309
100
AcDbEntity
  8
0
100
AcDbSpline
 62
7
  6
BYLAYER
 70
0
 71
3
 72
13
 73
9
 74
0
 42
0.0000001
 43
0.0000001
 44
0.0000000001
 40
0.0
 40
0.0
 40
0.0
 40
0.0
 40
0.170398015
 40
0.4007123137
 40
0.6038437651
 40
0.7996255955
 40
0.8994208859
 40
1.0
 40
1.0
 40
1.0
 40
1.0
 10
279.1704220041
 20
209.9027910996
 30
0.0
 10
279.346867728
 20
209.9086532096
 30
0.0
 10
279.7740214707
 20
209.9258360719
 30
0.0
 10
280.3892091169
 20
210.0903914766
 30
0.0
 10
280.9365498329
 20
210.4786177078
 30
0.0
 10
281.2153304731
 20
210.9172739221
 30
0.0
 10
281.3244182913
 20
211.3220304303
 30
0.0
 10
281.3332790083
 20
211.5290552723
 30
0.0
 10
281.3383907549
 20
211.6332598494
 30
0.0
  0
SPLINE
  5
30A
100
AcDbEntity
  8
0
100
AcDbSpline
 62
7
  6
BYLAYER
 70
0
 71
3
 72
13
 73
9
 74
0
 42
0.0000001
 43
0.0000001
 44
0.0000000001
 40
0.0
 40
0.0
 40
0.0
 40
0.0
 40
0.0951116909
 40
0.1909807758
 40
0.3855530533
 40
0.5850211423
 40
0.8016129676
 40
1.0
 40
1.0
 40
1.0
 40
1.0
 10
281.3383907549
 20
211.6332598494
 30
0.0
 10
281.3329465983
 20
211.7330099179
 30
0.0
 10
281.3227452662
 20
211.9334589886
 30
0.0
 10
281.2309401608
 20
212.3300869072
 30
0.0
 10
280.9644823772
 20
212.7829709094
 30
0.0
 10
280.4504928367
 20
213.1844430051
 30
0.0
 10
279.8240518087
 20
213.3776190527
 30
0.0
 10
279.3785747219
 20
213.3963656346
 30
0.0
 10
279.1704220073
 20
213.4027910995
 30
0.0
  0
SPLINE
  5
30B
100
AcDbEntity
  8
0
100
AcDbSpline
 62
7
  6
BYLAYER
 70
0
 71
3
 72
13
 73
9
 74
0
 42
0.0000001
 43
0.0000001
 44
0.0000000001
 40
0.0
 40
0.0
 40
0.0
 40
0.0
 40
0.1618544758
 40
0.3858698468
 40
0.5962936093
 40
0.7987098592
 40
0.8993549296
 40
1.0
 40
1.0
 40
1.0
 40
1.0
 10
268.8618282534
 20
213.4027910996
 30
0.0
 10
268.6996555622
 20
213.3970573557
 30
0.0
 10
268.2997178084
 20
213.379752519
 30
0.0
 10
267.7200099307
 20
213.1986372227
 30
0.0
 10
267.2077349683
 20
212.7869765333
 30
0.0
 10
266.9434018479
 20
212.3330062247
 30
0.0
 10
266.8552162276
 20
211.9355698824
 30
0.0
 10
266.8441746983
 20
211.7340080425
 30
0.0
 10
266.8383907549
 20
211.6332598494
 30
0.0
  0
SPLINE
  5
30C
100
AcDbEntity
  8
0
100
AcDbSpline
 62
7
  6
BYLAYER
 70
0
 71
3
 72
13
 73
9
 74
0
 42
0.0000001
 43
0.0000001
 44
0.0000000001
 40
0.0
 40
0.0
 40
0.0
 40
0.0
 40
0.1455492778
 40
0.35756333
 40
0.56441004
 40
0.79945372
 40
0.89972686
 40
1.0
 40
1.0
 40
1.0
 40
1.0
 10
263.3305782559
 20
213.4027910992
 30
0.0
 10
263.1970346243
 20
213.3985434252
 30
0.0
 10
262.8707478107
 20
213.386719691
 30
0.0
 10
262.3588348128
 20
213.2081776313
 30
0.0
 10
261.9185213299
 20
212.7842798624
 30
0.0
 10
261.6840033787
 20
212.3407475748
 30
0.0
 10
261.5999271527
 20
211.9480886941
 30
0.0
 10
261.5924905932
 20
211.7642070284
 30
0.0
 10
261.5883907555
 20
211.6723223492
 30
0.0
  0
SPLINE
  5
30D
100
AcDbEntity
  8
0
100
AcDbSpline
 62
7
  6
BYLAYER
 70
0
 71
3
 72
12
 73
8
 74
0
 42
0.0000001
 43
0.0000001
 44
0.0000000001
 40
0.0
 40
0.0
 40
0.0
 40
0.0
 40
0.1260203975
 40
0.2348474305
 40
0.4621959106
 40
0.7969242688
 40
1.0
 40
1.0
 40
1.0
 40
1.0
 10
261.5883907555
 20
211.6723223492
 30
0.0
 10
261.5945710477
 20
211.5569784574
 30
0.0
 10
261.6061232893
 20
211.3412627925
 30
0.0
 10
261.7166146097
 20
210.9310580915
 30
0.0
 10
262.0533794078
 20
210.3848529675
 30
0.0
 10
262.6563358273
 20
209.9553369262
 30
0.0
 10
263.1447008359
 20
209.9133397726
 30
0.0
 10
263.3305782559
 20
209.9027910992
 30
0.0
  0
SPLINE
  5
30E
100
AcDbEntity
  8
0
100
AcDbSpline
 62
7
  6
BYLAYER
 70
0
 71
3
 72
13
 73
9
 74
0
 42
0.0000001
 43
0.0000001
 44
0.0000000001
 40
0.0
 40
0.0
 40
0.0
 40
0.0
 40
0.1431091579
 40
0.358744225
 40
0.571980075
 40
0.8001099842
 40
0.9000549921
 40
1.0
 40
1.0
 40
1.0
 40
1.0
 10
263.3305782559
 20
209.9027910992
 30
0.0
 10
263.4644530709
 20
209.9080623791
 30
0.0
 10
263.8010351117
 20
209.9217132097
 30
0.0
 10
264.3150670992
 20
210.1037581102
 30
0.0
 10
264.7713354077
 20
210.5379544471
 30
0.0
 10
264.9987065801
 20
210.9973014392
 30
0.0
 10
265.0783028246
 20
211.3916637095
 30
0.0
 10
265.0847328093
 20
211.5788180647
 30
0.0
 10
265.0883907559
 20
211.6723223492
 30
0.0
  0
SPLINE
  5
30F
100
AcDbEntity
  8
0
100
AcDbSpline
 62
7
  6
BYLAYER
 70
0
 71
3
 72
12
 73
8
 74
0
 42
0.0000001
 43
0.0000001
 44
0.0000000001
 40
0.0
 40
0.0
 40
0.0
 40
0.0
 40
0.1408980665
 40
0.3623852148
 40
0.5840477865
 40
0.7980868995
 40
1.0
 40
1.0
 40
1.0
 40
1.0
 10
265.0883907559
 20
211.6723223492
 30
0.0
 10
265.0835153259
 20
211.8009427644
 30
0.0
 10
265.0646262666
 20
212.1481816286
 30
0.0
 10
264.8456832884
 20
212.6437965334
 30
0.0
 10
264.4458473282
 20
213.1117267159
 30
0.0
 10
263.8942776286
 20
213.3705294515
 30
0.0
 10
263.5148660043
 20
213.3957113906
 30
0.0
 10
263.3305782559
 20
213.4027910992
 30
0.0
  0
SPLINE
  5
310
100
AcDbEntity
  8
0
100
AcDbSpline
 62
7
  6
BYLAYER
 70
0
 71
3
 72
18
 73
14
 74
0
 42
0.0000001
 43
0.0000001
 44
0.0000000001
 40
0.0
 40
0.0
 40
0.0
 40
0.0
 40
0.0986919472
 40
0.1973838925
 40
0.4133168407
 40
0.5306102917
 40
0.6469276702
 40
0.73161234
 40
0.7944603715
 40
0.8489242199
 40
0.9027393088
 40
0.951072403
 40
1.0
 40
1.0
 40
1.0
 40
1.0
 10
272.4741391901
 20
223.7929409702
 30
0.0
 10
272.4367555668
 20
223.6397840962
 30
0.0
 10
272.3627937836
 20
223.3371530618
 30
0.0
 10
272.19861311
 20
222.6732225626
 30
0.0
 10
272.0566132394
 20
222.1617192641
 30
0.0
 10
271.8571490226
 20
221.4175651013
 30
0.0
 10
271.6754579231
 20
220.9582129545
 30
0.0
 10
271.4817079935
 20
220.5863794885
 30
0.0
 10
271.2984754178
 20
220.318718371
 30
0.0
 10
271.1021877012
 20
220.1252786838
 30
0.0
 10
270.8884848
 20
219.9936533283
 30
0.0
 10
270.6530293606
 20
219.9122259406
 30
0.0
 10
270.4977628846
 20
219.9060837611
 30
0.0
 10
270.4194516879
 20
219.9023159615
 30
0.0
  0
SPLINE
  5
311
100
AcDbEntity
  8
0
100
AcDbSpline
 62
7
  6
BYLAYER
 70
0
 71
3
 72
14
 73
10
 74
0
 42
0.0000001
 43
0.0000001
 44
0.0000000001
 40
0.0
 40
0.0
 40
0.0
 40
0.0
 40
0.1380123317
 40
0.2135132262
 40
0.4010647971
 40
0.6463076766
 40
0.7347307575
 40
0.8231538383
 40
1.0
 40
1.0
 40
1.0
 40
1.0
 10
270.4194516879
 20
219.9023159615
 30
0.0
 10
270.2811790896
 20
219.9121724087
 30
0.0
 10
270.0676079851
 20
219.9386579432
 30
0.0
 10
269.7152604645
 20
220.1464390473
 30
0.0
 10
269.3765725551
 20
220.530079221
 30
0.0
 10
269.1693734732
 20
220.988616645
 30
0.0
 10
269.0693942373
 20
221.3991948847
 30
0.0
 10
269.0168099967
 20
221.7036346929
 30
0.0
 10
269.0092135338
 20
221.9479345271
 30
0.0
 10
269.0053891879
 20
222.1249722115
 30
0.0
  0
SPLINE
  5
312
100
AcDbEntity
  8
0
100
AcDbSpline
 62
7
  6
BYLAYER
 70
0
 71
3
 72
12
 73
8
 74
0
 42
0.0000001
 43
0.0000001
 44
0.0000000001
 40
0.0
 40
0.0
 40
0.0
 40
0.0
 40
0.2810490849
 40
0.5354757975
 40
0.6560045595
 40
0.8001109713
 40
1.0
 40
1.0
 40
1.0
 40
1.0
 10
269.0053891879
 20
222.1249722115
 30
0.0
 10
269.0109840679
 20
222.3904095891
 30
0.0
 10
269.03807154
 20
222.8735015635
 30
0.0
 10
269.2126866498
 20
223.4531477135
 30
0.0
 10
269.4810009595
 20
223.8675062173
 30
0.0
 10
269.753341716
 20
224.2170224721
 30
0.0
 10
269.9898891446
 20
224.4213855397
 30
0.0
 10
270.1342954379
 20
224.5429409618
 30
0.0
  0
SPLINE
  5
313
100
AcDbEntity
  8
0
100
AcDbSpline
 62
7
  6
BYLAYER
 70
0
 71
3
 72
13
 73
9
 74
0
 42
0.0000001
 43
0.0000001
 44
0.0000000001
 40
0.0
 40
0.0
 40
0.0
 40
0.0
 40
0.2259971016
 40
0.4242078323
 40
0.5633945161
 40
0.6791757765
 40
0.7950016455
 40
1.0
 40
1.0
 40
1.0
 40
1.0
 10
270.1342954379
 20
224.5429409618
 30
0.0
 10
270.2741901246
 20
224.6515837216
 30
0.0
 10
270.5348762563
 20
224.8566539621
 30
0.0
 10
270.8585408659
 20
225.1630633799
 30
0.0
 10
271.1014764027
 20
225.4093015825
 30
0.0
 10
271.2702568536
 20
225.6535803868
 30
0.0
 10
271.4013787843
 20
225.9725629142
 30
0.0
 10
271.4257542829
 20
226.2063474227
 30
0.0
 10
271.4311704379
 20
226.3671597115
 30
0.0
  0
SPLINE
  5
314
100
AcDbEntity
  8
0
100
AcDbSpline
 62
7
  6
BYLAYER
 70
0
 71
3
 72
13
 73
9
 74
0
 42
0.0000001
 43
0.0000001
 44
0.0000000001
 40
0.0
 40
0.0
 40
0.0
 40
0.0
 40
0.2259777803
 40
0.3487225862
 40
0.5743044263
 40
0.7992902304
 40
0.8996451153
 40
1.0
 40
1.0
 40
1.0
 40
1.0
 10
271.4311704379
 20
226.3671597115
 30
0.0
 10
271.4261186646
 20
226.5463548101
 30
0.0
 10
271.4100395622
 20
226.8159783812
 30
0.0
 10
271.2645515615
 20
227.2610776878
 30
0.0
 10
270.9979384635
 20
227.6312386304
 30
0.0
 10
270.6026730544
 20
227.8725933757
 30
0.0
 10
270.2712000362
 20
227.9394005107
 30
0.0
 10
270.1121593346
 20
227.9484955543
 30
0.0
 10
270.0327329379
 20
227.9530972115
 30
0.0
  0
SPLINE
  5
315
100
AcDbEntity
  8
0
100
AcDbSpline
 62
7
  6
BYLAYER
 70
0
 71
3
 72
17
 73
13
 74
0
 42
0.0000001
 43
0.0000001
 44
0.0000000001
 40
0.0
 40
0.0
 40
0.0
 40
0.0
 40
0.0482144996
 40
0.0868430393
 40
0.1892322029
 40
0.2474091809
 40
0.3110810387
 40
0.3821541567
 40
0.5258057392
 40
0.7082572783
 40
0.8031556275
 40
1.0
 40
1.0
 40
1.0
 40
1.0
 10
270.0327329379
 20
227.9530972115
 30
0.0
 10
269.9143284529
 20
227.947422834
 30
0.0
 10
269.6933612883
 20
227.9324984817
 30
0.0
 10
269.2505625532
 20
227.7910988131
 30
0.0
 10
268.8231934704
 20
227.5418866007
 30
0.0
 10
268.3953621962
 20
227.1732416123
 30
0.0
 10
268.0859510052
 20
226.8134279405
 30
0.0
 10
267.694220788
 20
226.2716556882
 30
0.0
 10
267.2739282078
 20
225.4035079123
 30
0.0
 10
266.9903407221
 20
224.3970777978
 30
0.0
 10
266.7891162329
 20
223.2574969687
 30
0.0
 10
266.7649180529
 20
222.5066935697
 30
0.0
 10
266.7553891879
 20
222.0234097118
 30
0.0
  0
SPLINE
  5
316
100
AcDbEntity
  8
0
100
AcDbSpline
 62
7
  6
BYLAYER
 70
0
 71
3
 72
16
 73
12
 74
0
 42
0.0000001
 43
0.0000001
 44
0.0000000001
 40
0.0
 40
0.0
 40
0.0
 40
0.0
 40
0.0900052546
 40
0.2609142203
 40
0.4139611428
 40
0.552781293
 40
0.6783301011
 40
0.7990468022
 40
0.8989663017
 40
0.9496511177
 40
1.0
 40
1.0
 40
1.0
 40
1.0
 10
266.7553891879
 20
222.0234097118
 30
0.0
 10
266.7602573163
 20
221.7933621033
 30
0.0
 10
266.7726537226
 20
221.1310497898
 30
0.0
 10
266.9226739389
 20
220.0435563536
 30
0.0
 10
267.2950157196
 20
218.9350629652
 30
0.0
 10
267.8326840095
 20
217.9711458147
 30
0.0
 10
268.5085599706
 20
217.2417740911
 30
0.0
 10
269.254464341
 20
216.7483997389
 30
0.0
 10
269.9211884159
 20
216.5040157964
 30
0.0
 10
270.4216553927
 20
216.4162570165
 30
0.0
 10
270.6813281996
 20
216.4073205789
 30
0.0
 10
270.8100766879
 20
216.4023159615
 30
0.0
  0
SPLINE
  5
317
100
AcDbEntity
  8
0
100
AcDbSpline
 62
7
  6
BYLAYER
 70
0
 71
3
 72
15
 73
11
 74
0
 42
0.0000001
 43
0.0000001
 44
0.0000000001
 40
0.0
 40
0.0
 40
0.0
 40
0.0
 40
0.0566900154
 40
0.1092714657
 40
0.2116277717
 40
0.3167296727
 40
0.4481901039
 40
0.5981293432
 40
0.7965057024
 40
1.0
 40
1.0
 40
1.0
 40
1.0
 10
270.8100766879
 20
216.4023159615
 30
0.0
 10
270.9570352729
 20
216.407522824
 30
0.0
 10
271.2408063646
 20
216.4162284014
 30
0.0
 10
271.7799628309
 20
216.5174974579
 30
0.0
 10
272.416863673
 20
216.7803747654
 30
0.0
 10
273.0930263605
 20
217.3472417824
 30
0.0
 10
273.7073111155
 20
218.1466715041
 30
0.0
 10
274.246949244
 20
219.2796189892
 30
0.0
 10
274.6860740983
 20
220.6481062498
 30
0.0
 10
274.9320190963
 20
221.6127226615
 30
0.0
 10
275.0561704379
 20
222.1249722121
 30
0.0
  0
SPLINE
  5
318
100
AcDbEntity
  8
0
100
AcDbSpline
 62
7
  6
BYLAYER
 70
0
 71
3
 72
13
 73
9
 74
0
 42
0.0000001
 43
0.0000001
 44
0.0000000001
 40
0.0
 40
0.0
 40
0.0
 40
0.0
 40
0.16646413
 40
0.4919885834
 40
0.6639233081
 40
0.8016667601
 40
0.9005713978
 40
1.0
 40
1.0
 40
1.0
 40
1.0
 10
275.0561704379
 20
222.1249722121
 30
0.0
 10
275.1114137446
 20
222.3445995297
 30
0.0
 10
275.2745160405
 20
222.9982729239
 30
0.0
 10
275.545723074
 20
223.8313913228
 30
0.0
 10
275.9316154977
 20
224.6150313343
 30
0.0
 10
276.3625174604
 20
224.9826458367
 30
0.0
 10
276.8071393108
 20
225.1338402474
 30
0.0
 10
277.0770006146
 20
225.1458966666
 30
0.0
 10
277.2124204379
 20
225.1523159615
 30
0.0
  0
SPLINE
  5
319
100
AcDbEntity
  8
0
100
AcDbSpline
 62
7
  6
BYLAYER
 70
0
 71
3
 72
14
 73
10
 74
0
 42
0.0000001
 43
0.0000001
 44
0.0000000001
 40
0.0
 40
0.0
 40
0.0
 40
0.0
 40
0.0770853142
 40
0.1546010296
 40
0.2323286657
 40
0.3274097069
 40
0.5474517576
 40
0.8013112779
 40
1.0
 40
1.0
 40
1.0
 40
1.0
 10
277.2124204379
 20
225.1523159615
 30
0.0
 10
277.2935507113
 20
225.1455273047
 30
0.0
 10
277.4564759114
 20
225.1334822784
 30
0.0
 10
277.6893525319
 20
225.0451633052
 30
0.0
 10
277.9127380846
 20
224.8976282226
 30
0.0
 10
278.2126753773
 20
224.6138024041
 30
0.0
 10
278.5334759863
 20
224.0840067011
 30
0.0
 10
278.727347052
 20
223.4163978545
 30
0.0
 10
278.7474832779
 20
222.9276390557
 30
0.0
 10
278.7553891879
 20
222.718722212
 30
0.0
  0
SPLINE
  5
31A
100
AcDbEntity
  8
0
100
AcDbSpline
 62
7
  6
BYLAYER
 70
0
 71
3
 72
12
 73
8
 74
0
 42
0.0000001
 43
0.0000001
 44
0.0000000001
 40
0.0
 40
0.0
 40
0.0
 40
0.0
 40
0.1476914083
 40
0.2953828166
 40
0.4906883919
 40
0.8006044321
 40
1.0
 40
1.0
 40
1.0
 40
1.0
 10
278.7553891879
 20
222.718722212
 30
0.0
 10
278.7519547738
 20
222.5136428571
 30
0.0
 10
278.7450794644
 20
222.1298235087
 30
0.0
 10
278.6419833327
 20
221.4834572571
 30
0.0
 10
278.3689822128
 20
220.6161124814
 30
0.0
 10
277.7004674917
 20
219.8550801225
 30
0.0
 10
277.1275549613
 20
219.4776095559
 30
0.0
 10
276.8921079379
 20
219.3320034617
 30
0.0
  0
SPLINE
  5
31B
100
AcDbEntity
  8
0
100
AcDbSpline
 62
7
  6
BYLAYER
 70
0
 71
3
 72
11
 73
7
 74
0
 42
0.0000001
 43
0.0000001
 44
0.0000000001
 40
0.0
 40
0.0
 40
0.0
 40
0.0
 40
0.3935016916
 40
0.5344965203
 40
0.8001852403
 40
1.0
 40
1.0
 40
1.0
 40
1.0
 10
276.8921079379
 20
219.3320034617
 30
0.0
 10
276.6767811079
 20
219.1941787226
 30
0.0
 10
276.383064576
 20
219.0050994471
 30
0.0
 10
276.0308383509
 20
218.6167687434
 30
0.0
 10
275.879058724
 20
218.2426568244
 30
0.0
 10
275.8679539713
 20
217.9384241532
 30
0.0
 10
275.8647641879
 20
217.8085659615
 30
0.0
  0
SPLINE
  5
31C
100
AcDbEntity
  8
0
100
AcDbSpline
 62
7
  6
BYLAYER
 70
0
 71
3
 72
13
 73
9
 74
0
 42
0.0000001
 43
0.0000001
 44
0.0000000001
 40
0.0
 40
0.0
 40
0.0
 40
0.0
 40
0.0673407823
 40
0.3135620049
 40
0.5618202556
 40
0.7985510529
 40
0.8992755264
 40
1.0
 40
1.0
 40
1.0
 40
1.0
 10
275.8647641879
 20
217.8085659615
 30
0.0
 10
275.8673307979
 20
217.7554768297
 30
0.0
 10
275.8774492271
 20
217.5086481955
 30
0.0
 10
275.9790705004
 20
217.0645855392
 30
0.0
 10
276.3412970463
 20
216.5943221792
 30
0.0
 10
276.749077559
 20
216.3372746396
 30
0.0
 10
277.0871951069
 20
216.2582074545
 30
0.0
 10
277.2462803663
 20
216.2502930079
 30
0.0
 10
277.3257016879
 20
216.2460659615
 30
0.0
  0
SPLINE
  5
31D
100
AcDbEntity
  8
0
100
AcDbSpline
 62
7
  6
BYLAYER
 70
0
 71
3
 72
15
 73
11
 74
0
 42
0.0000001
 43
0.0000001
 44
0.0000000001
 40
0.0
 40
0.0
 40
0.0
 40
0.0
 40
0.0716809716
 40
0.1707451484
 40
0.2898559641
 40
0.4107238671
 40
0.6370574759
 40
0.8005076257
 40
0.8998796266
 40
1.0
 40
1.0
 40
1.0
 40
1.0
 10
277.3257016879
 20
216.2460659615
 30
0.0
 10
277.5156044729
 20
216.2572375394
 30
0.0
 10
277.9836062782
 20
216.293585554
 30
0.0
 10
278.7015350589
 20
216.5869148425
 30
0.0
 10
279.4432403642
 20
217.0944617716
 30
0.0
 10
280.2461858151
 20
218.0477220395
 30
0.0
 10
280.8444938855
 20
219.2831531926
 30
0.0
 10
281.1326962091
 20
220.5425332667
 30
0.0
 10
281.2386943926
 20
221.512489659
 30
0.0
 10
281.2493895496
 20
222.0392377566
 30
0.0
 10
281.2553891879
 20
222.3046597115
 30
0.0
  0
SPLINE
  5
31E
100
AcDbEntity
  8
0
100
AcDbSpline
 62
7
  6
BYLAYER
 70
0
 71
3
 72
18
 73
14
 74
0
 42
0.0000001
 43
0.0000001
 44
0.0000000001
 40
0.0
 40
0.0
 40
0.0
 40
0.0
 40
0.1027337802
 40
0.1541006703
 40
0.2054675604
 40
0.2592313589
 40
0.3129951575
 40
0.4205227546
 40
0.5390427375
 40
0.6981678442
 40
0.8048853267
 40
0.9030248447
 40
1.0
 40
1.0
 40
1.0
 40
1.0
 10
281.2553891879
 20
222.3046597115
 30
0.0
 10
281.2495515421
 20
222.6180998646
 30
0.0
 10
281.2405929757
 20
223.0697371137
 30
0.0
 10
281.1905721693
 20
223.6554528457
 30
0.0
 10
281.1283385396
 20
224.1273517297
 30
0.0
 10
281.0443346914
 20
224.6041080881
 30
0.0
 10
280.9024649178
 20
225.2094777648
 30
0.0
 10
280.6324221989
 20
226.0001175934
 30
0.0
 10
280.0630834128
 20
227.0428711303
 30
0.0
 10
279.2477687324
 20
227.8612463299
 30
0.0
 10
278.2513836858
 20
228.3752272147
 30
0.0
 10
277.3552654187
 20
228.6126532891
 30
0.0
 10
276.7387597913
 20
228.6418950131
 30
0.0
 10
276.4428891879
 20
228.6523159615
 30
0.0
  0
SPLINE
  5
31F
100
AcDbEntity
  8
0
100
AcDbSpline
 62
7
  6
BYLAYER
 70
0
 71
3
 72
14
 73
10
 74
0
 42
0.0000001
 43
0.0000001
 44
0.0000000001
 40
0.0
 40
0.0
 40
0.0
 40
0.0
 40
0.1236709588
 40
0.1814950873
 40
0.2979684659
 40
0.4334115683
 40
0.5959182446
 40
0.7978483539
 40
1.0
 40
1.0
 40
1.0
 40
1.0
 10
276.4428891879
 20
228.6523159615
 30
0.0
 10
276.1588955346
 20
228.640267611
 30
0.0
 10
275.7720441312
 20
228.604470377
 30
0.0
 10
275.1167326495
 20
228.3753718768
 30
0.0
 10
274.5064919269
 20
227.9831367041
 30
0.0
 10
273.8624011841
 20
227.2809240132
 30
0.0
 10
273.2800590177
 20
226.2951880142
 30
0.0
 10
272.8164292016
 20
225.1018197435
 30
0.0
 10
272.5859180793
 20
224.2435171304
 30
0.0
 10
272.4741391899
 20
223.7929409702
 30
0.0
  0
SPLINE
  5
320
100
AcDbEntity
  8
0
100
AcDbSpline
 62
7
  6
BYLAYER
 70
0
 71
3
 72
12
 73
8
 74
0
 42
0.0000001
 43
0.0000001
 44
0.0000000001
 40
0.0
 40
0.0
 40
0.0
 40
0.0
 40
0.1940644976
 40
0.3760166712
 40
0.581047657
 40
0.786899911
 40
1.0
 40
1.0
 40
1.0
 40
1.0
 10
275.4550246869
 20
162.4064775071
 30
0.0
 10
275.6216189169
 20
162.4050255175
 30
0.0
 10
275.9429054414
 20
162.4005620562
 30
0.0
 10
276.5197379045
 20
162.3588805146
 30
0.0
 10
276.9779843728
 20
162.2861365093
 30
0.0
 10
277.5004538962
 20
162.1512366865
 30
0.0
 10
277.7818199153
 20
162.0152544555
 30
0.0
 10
277.9393996869
 20
161.9221025071
 30
0.0
  0
SPLINE
  5
321
100
AcDbEntity
  8
0
100
AcDbSpline
 62
7
  6
BYLAYER
 70
0
 71
3
 72
12
 73
8
 74
0
 42
0.0000001
 43
0.0000001
 44
0.0000000001
 40
0.0
 40
0.0
 40
0.0
 40
0.0
 40
0.1864958811
 40
0.2897932552
 40
0.5358412593
 40
0.8004155444
 40
1.0
 40
1.0
 40
1.0
 40
1.0
 10
277.9393996869
 20
161.9221025071
 30
0.0
 10
278.1331535969
 20
161.7866350901
 30
0.0
 10
278.4069504087
 20
161.5770202391
 30
0.0
 10
278.8366013651
 20
161.0375629081
 30
0.0
 10
279.1999873037
 20
160.3521070094
 30
0.0
 10
279.4445460216
 20
159.472503878
 30
0.0
 10
279.4752333403
 20
158.8897590555
 30
0.0
 10
279.4823684369
 20
158.6369462571
 30
0.0
  0
SPLINE
  5
322
100
AcDbEntity
  8
0
100
AcDbSpline
 62
7
  6
BYLAYER
 70
0
 71
3
 72
14
 73
10
 74
0
 42
0.0000001
 43
0.0000001
 44
0.0000000001
 40
0.0
 40
0.0
 40
0.0
 40
0.0
 40
0.1620211178
 40
0.2765341256
 40
0.4968721615
 40
0.7056956287
 40
0.8005670524
 40
0.8997786227
 40
1.0
 40
1.0
 40
1.0
 40
1.0
 10
279.4823684369
 20
158.6369462571
 30
0.0
 10
279.4771242169
 20
158.4642306033
 30
0.0
 10
279.4654876451
 20
158.1544350576
 30
0.0
 10
279.3366301119
 20
157.6422059526
 30
0.0
 10
279.082868957
 20
157.1202973061
 30
0.0
 10
278.6732039908
 20
156.7253744487
 30
0.0
 10
278.2966814461
 20
156.5176602791
 30
0.0
 10
277.9884903955
 20
156.4238034608
 30
0.0
 10
277.7766770136
 20
156.4127368565
 30
0.0
 10
277.6698684369
 20
156.4064775071
 30
0.0
  0
SPLINE
  5
323
100
AcDbEntity
  8
0
100
AcDbSpline
 62
7
  6
BYLAYER
 70
0
 71
3
 72
19
 73
15
 74
0
 42
0.0000001
 43
0.0000001
 44
0.0000000001
 40
0.0
 40
0.0
 40
0.0
 40
0.0
 40
0.0623507755
 40
0.1001354615
 40
0.1731570581
 40
0.212231865
 40
0.2696407769
 40
0.3252223231
 40
0.4411800412
 40
0.6034351063
 40
0.7271174477
 40
0.8507997891
 40
0.8999290648
 40
1.0
 40
1.0
 40
1.0
 40
1.0
 10
277.6698684369
 20
156.4064775071
 30
0.0
 10
277.5209610236
 20
156.412329217
 30
0.0
 10
277.2755804002
 20
156.429749933
 30
0.0
 10
276.8868619724
 20
156.5887022205
 30
0.0
 10
276.6201151442
 20
156.8043628754
 30
0.0
 10
276.3778799262
 20
157.1345519575
 30
0.0
 10
276.1945023722
 20
157.4453749039
 30
0.0
 10
275.982461753
 20
157.9566538835
 30
0.0
 10
275.8323788429
 20
158.7467175015
 30
0.0
 10
275.6526008758
 20
159.5640247231
 30
0.0
 10
275.4672169085
 20
160.5437396995
 30
0.0
 10
275.3088818399
 20
161.2166023644
 30
0.0
 10
275.1562155058
 20
161.8550101271
 30
0.0
 10
275.0561182769
 20
162.179601073
 30
0.0
 10
274.9823684369
 20
162.4064775071
 30
0.0
  0
SPLINE
  5
324
100
AcDbEntity
  8
0
100
AcDbSpline
 62
7
  6
BYLAYER
 70
0
 71
3
 72
13
 73
9
 74
0
 42
0.0000001
 43
0.0000001
 44
0.0000000001
 40
0.0
 40
0.0
 40
0.0
 40
0.0
 40
0.1721677196
 40
0.4258101441
 40
0.6933251243
 40
0.8006557148
 40
0.8997871091
 40
1.0
 40
1.0
 40
1.0
 40
1.0
 10
281.9823684369
 20
164.8830400071
 30
0.0
 10
281.9762927486
 20
165.0231062978
 30
0.0
 10
281.9499181284
 20
165.3772818067
 30
0.0
 10
281.6966470825
 20
165.8959866772
 30
0.0
 10
281.3505624622
 20
166.2736228034
 30
0.0
 10
281.022975586
 20
166.4793793352
 30
0.0
 10
280.7801841395
 20
166.5632026373
 30
0.0
 10
280.6185432503
 20
166.5729581928
 30
0.0
 10
280.5370559369
 20
166.5783525071
 30
0.0
  0
SPLINE
  5
325
100
AcDbEntity
  8
0
100
AcDbSpline
 62
7
  6
BYLAYER
 70
0
 71
3
 72
15
 73
11
 74
0
 42
0.0000001
 43
0.0000001
 44
0.0000000001
 40
0.0
 40
0.0
 40
0.0
 40
0.0
 40
0.0449907487
 40
0.1417350085
 40
0.2952435347
 40
0.448752061
 40
0.5462877266
 40
0.6438233921
 40
0.7996655786
 40
1.0
 40
1.0
 40
1.0
 40
1.0
 10
280.5370559369
 20
166.5783525071
 30
0.0
 10
280.4839004386
 20
166.5743168273
 30
0.0
 10
280.3185218228
 20
166.5629242684
 30
0.0
 10
279.9512549501
 20
166.4813889243
 30
0.0
 10
279.5148289553
 20
166.3584359144
 30
0.0
 10
279.0632002444
 20
166.2176000294
 30
0.0
 10
278.6707543559
 20
166.107486637
 30
0.0
 10
278.2819903972
 20
166.0247801768
 30
0.0
 10
277.6907495743
 20
165.9248512467
 30
0.0
 10
277.2872441891
 20
165.9107329796
 30
0.0
 10
277.0499547949
 20
165.9064985342
 30
0.0
  0
SPLINE
  5
326
100
AcDbEntity
  8
0
100
AcDbSpline
 62
7
  6
BYLAYER
 70
0
 71
3
 72
20
 73
16
 74
0
 42
0.0000001
 43
0.0000001
 44
0.0000000001
 40
0.0
 40
0.0
 40
0.0
 40
0.0
 40
0.0913902135
 40
0.1634353954
 40
0.2242390184
 40
0.2850426414
 40
0.3821964272
 40
0.468514628
 40
0.5116972262
 40
0.562530565
 40
0.6110407853
 40
0.6642596586
 40
0.7986979279
 40
0.898530229
 40
1.0
 40
1.0
 40
1.0
 40
1.0
 10
272.978467042
 20
165.9338212879
 30
0.0
 10
272.6797142876
 20
165.9319269871
 30
0.0
 10
272.1816615501
 20
165.918254332
 30
0.0
 10
271.4613487495
 20
165.8468467143
 30
0.0
 10
270.8226967503
 20
165.7343352687
 30
0.0
 10
270.1020749964
 20
165.5240787075
 30
0.0
 10
269.4603932097
 20
165.2428306634
 30
0.0
 10
268.8515695694
 20
164.7635494397
 30
0.0
 10
268.4805800222
 20
164.302514288
 30
0.0
 10
268.2362571241
 20
163.9211417117
 30
0.0
 10
268.0228992197
 20
163.4653083128
 30
0.0
 10
267.7700171498
 20
162.7334947826
 30
0.0
 10
267.5906074026
 20
161.8319817743
 30
0.0
 10
267.4973657656
 20
160.7370843415
 30
0.0
 10
267.4841718803
 20
160.1170791171
 30
0.0
 10
267.4823684369
 20
159.7853837571
 30
0.0
  0
SPLINE
  5
327
100
AcDbEntity
  8
0
100
AcDbSpline
 62
7
  6
BYLAYER
 70
0
 71
3
 72
17
 73
13
 74
0
 42
0.0000001
 43
0.0000001
 44
0.0000000001
 40
0.0
 40
0.0
 40
0.0
 40
0.0
 40
0.1309379778
 40
0.1964069667
 40
0.2618759556
 40
0.4196124188
 40
0.5657898348
 40
0.6846358402
 40
0.7965542502
 40
0.9017657958
 40
0.9506192221
 40
1.0
 40
1.0
 40
1.0
 40
1.0
 10
267.4823684369
 20
159.7853837571
 30
0.0
 10
267.4885239678
 20
159.425301193
 30
0.0
 10
267.4987657697
 20
158.9146165167
 30
0.0
 10
267.5638665075
 20
158.2598368515
 30
0.0
 10
267.680911685
 20
157.4768937359
 30
0.0
 10
267.9329106976
 20
156.5012510078
 30
0.0
 10
268.4238433169
 20
155.4473924066
 30
0.0
 10
269.0314307643
 20
154.5908794602
 30
0.0
 10
269.7631536629
 20
153.9974186833
 30
0.0
 10
270.4147274057
 20
153.6830635215
 30
0.0
 10
270.9724189981
 20
153.5523257251
 30
0.0
 10
271.2411601186
 20
153.5389968395
 30
0.0
 10
271.3768996869
 20
153.5314775071
 30
0.0
  0
SPLINE
  5
328
100
AcDbEntity
  8
0
100
AcDbSpline
 62
7
  6
BYLAYER
 70
0
 71
3
 72
12
 73
8
 74
0
 42
0.0000001
 43
0.0000001
 44
0.0000000001
 40
0.0
 40
0.0
 40
0.0
 40
0.0
 40
0.1812381581
 40
0.4170276623
 40
0.6071351459
 40
0.7972426296
 40
1.0
 40
1.0
 40
1.0
 40
1.0
 10
271.3768996869
 20
153.5314775071
 30
0.0
 10
271.5130856569
 20
153.5380625475
 30
0.0
 10
271.8261169458
 20
153.5659832087
 30
0.0
 10
272.2479188329
 20
153.7969828619
 30
0.0
 10
272.5371768201
 20
154.1580499501
 30
0.0
 10
272.7297473218
 20
154.5602806444
 30
0.0
 10
272.7534567969
 20
154.8479309488
 30
0.0
 10
272.7597121869
 20
155.0002275071
 30
0.0
  0
SPLINE
  5
329
100
AcDbEntity
  8
0
100
AcDbSpline
 62
7
  6
BYLAYER
 70
0
 71
3
 72
18
 73
14
 74
0
 42
0.0000001
 43
0.0000001
 44
0.0000000001
 40
0.0
 40
0.0
 40
0.0
 40
0.0
 40
0.0938677825
 40
0.1237367822
 40
0.1544021592
 40
0.1964908687
 40
0.2474969531
 40
0.392371128
 40
0.4674606173
 40
0.5425501065
 40
0.6715030962
 40
0.8008632083
 40
1.0
 40
1.0
 40
1.0
 40
1.0
 10
272.7597121869
 20
155.0002275071
 30
0.0
 10
272.7557190136
 20
155.1886835548
 30
0.0
 10
272.7421914022
 20
155.4233436324
 30
0.0
 10
272.6450177119
 20
155.7222180517
 30
0.0
 10
272.5106423718
 20
155.8892756116
 30
0.0
 10
272.3118420237
 20
156.0211706075
 30
0.0
 10
271.9089567901
 20
156.3074930152
 30
0.0
 10
271.5385048595
 20
156.5212579233
 30
0.0
 10
271.0488805071
 20
156.8830222116
 30
0.0
 10
270.6604101811
 20
157.268709586
 30
0.0
 10
270.2577381071
 20
157.8371685257
 30
0.0
 10
270.0123106272
 20
158.7281731895
 30
0.0
 10
269.9897251419
 20
159.3663595301
 30
0.0
 10
269.9823684369
 20
159.7658525071
 30
0.0
  0
SPLINE
  5
32A
100
AcDbEntity
  8
0
100
AcDbSpline
 62
7
  6
BYLAYER
 70
0
 71
3
 72
14
 73
10
 74
0
 42
0.0000001
 43
0.0000001
 44
0.0000000001
 40
0.0
 40
0.0
 40
0.0
 40
0.0
 40
0.2021393449
 40
0.3565332089
 40
0.4234080608
 40
0.4839441308
 40
0.5382445431
 40
0.6899060912
 40
1.0
 40
1.0
 40
1.0
 40
1.0
 10
269.9823684369
 20
159.7658525071
 30
0.0
 10
269.9880919436
 20
160.0720213651
 30
0.0
 10
270.0082812138
 20
160.5597792126
 30
0.0
 10
270.169118915
 20
161.2074511733
 30
0.0
 10
270.3804892711
 20
161.5751660395
 30
0.0
 10
270.5580927729
 20
161.7803098359
 30
0.0
 10
270.8889895764
 20
162.0177364565
 30
0.0
 10
271.6373224237
 20
162.3180943055
 30
0.0
 10
272.2633813269
 20
162.3766790986
 30
0.0
 10
272.7323684369
 20
162.4064775071
 30
0.0
  0
SPLINE
  5
32B
100
AcDbEntity
  8
0
100
AcDbSpline
 62
7
  6
BYLAYER
 70
0
 71
3
 72
18
 73
14
 74
0
 42
0.0000001
 43
0.0000001
 44
0.0000000001
 40
0.0
 40
0.0
 40
0.0
 40
0.0
 40
0.198635423
 40
0.3961401753
 40
0.4954578173
 40
0.5947754594
 40
0.6940929353
 40
0.7407402245
 40
0.7873875138
 40
0.9006825929
 40
0.9503412409
 40
0.9751706204
 40
1.0
 40
1.0
 40
1.0
 40
1.0
 10
272.7323684369
 20
162.4064775071
 30
0.0
 10
272.8510019319
 20
162.0049072145
 30
0.0
 10
273.0885437734
 20
161.2076323567
 30
0.0
 10
273.3532755474
 20
160.1844626533
 30
0.0
 10
273.5397643054
 20
159.3735210408
 30
0.0
 10
273.6818706103
 20
158.7567646158
 30
0.0
 10
273.7901009787
 20
158.2655050367
 30
0.0
 10
273.877449461
 20
157.8411576346
 30
0.0
 10
273.9772408801
 20
157.367050473
 30
0.0
 10
274.0439987643
 20
157.0662915515
 30
0.0
 10
274.1310631043
 20
156.6606190489
 30
0.0
 10
274.1768403676
 20
156.4580471214
 30
0.0
 10
274.2011782703
 20
156.3559410698
 30
0.0
 10
274.2128371869
 20
156.3049150071
 30
0.0
  0
SPLINE
  5
32C
100
AcDbEntity
  8
0
100
AcDbSpline
 62
7
  6
BYLAYER
 70
0
 71
3
 72
17
 73
13
 74
0
 42
0.0000001
 43
0.0000001
 44
0.0000000001
 40
0.0
 40
0.0
 40
0.0
 40
0.0
 40
0.1085201023
 40
0.2018075502
 40
0.2947034011
 40
0.3881713172
 40
0.4768132656
 40
0.6377126744
 40
0.7165679113
 40
0.7988974118
 40
0.8989691108
 40
1.0
 40
1.0
 40
1.0
 40
1.0
 10
274.2128371869
 20
156.3049150071
 30
0.0
 10
274.2597909819
 20
156.1079816211
 30
0.0
 10
274.3489502391
 20
155.7492020874
 30
0.0
 10
274.5484081036
 20
155.2339205732
 30
0.0
 10
274.786159438
 20
154.765334912
 30
0.0
 10
275.0660444075
 20
154.3492320605
 30
0.0
 10
275.4837896659
 20
153.8707373633
 30
0.0
 10
275.9669718764
 20
153.4799487949
 30
0.0
 10
276.5038124764
 20
153.2011432159
 30
0.0
 10
276.9524426913
 20
153.0362791139
 30
0.0
 10
277.4746372355
 20
152.9291799086
 30
0.0
 10
277.8369046619
 20
152.911614014
 30
0.0
 10
278.0253371869
 20
152.9064775071
 30
0.0
  0
SPLINE
  5
32D
100
AcDbEntity
  8
0
100
AcDbSpline
 62
7
  6
BYLAYER
 70
0
 71
3
 72
15
 73
11
 74
0
 42
0.0000001
 43
0.0000001
 44
0.0000000001
 40
0.0
 40
0.0
 40
0.0
 40
0.0
 40
0.1026099148
 40
0.2307512269
 40
0.3686269414
 40
0.5070429767
 40
0.6507639477
 40
0.798573425
 40
0.8992867125
 40
1.0
 40
1.0
 40
1.0
 40
1.0
 10
278.0253371869
 20
152.9064775071
 30
0.0
 10
278.2542454536
 20
152.91489434
 30
0.0
 10
278.7764983872
 20
152.9463353674
 30
0.0
 10
279.585159546
 20
153.1986564336
 30
0.0
 10
280.3666582255
 20
153.6715040518
 30
0.0
 10
281.0279462719
 20
154.3297781469
 30
0.0
 10
281.5480507893
 20
155.1655371823
 30
0.0
 10
281.8359313165
 20
156.0143311352
 30
0.0
 10
281.9607852229
 20
156.7826239735
 30
0.0
 10
281.9751325803
 20
157.2326922063
 30
0.0
 10
281.9823684369
 20
157.4572587571
 30
0.0
  0
SPLINE
  5
32E
100
AcDbEntity
  8
0
100
AcDbSpline
 62
7
  6
BYLAYER
 70
0
 71
3
 72
13
 73
9
 74
0
 42
0.0000001
 43
0.0000001
 44
0.0000000001
 40
0.0
 40
0.0
 40
0.0
 40
0.0
 40
0.1208876252
 40
0.2417752504
 40
0.4490460208
 40
0.6631526649
 40
0.801619449
 40
1.0
 40
1.0
 40
1.0
 40
1.0
 10
281.9823684369
 20
157.4572587571
 30
0.0
 10
281.9759851903
 20
157.6906468563
 30
0.0
 10
281.9642113663
 20
158.1329495526
 30
0.0
 10
281.8496720165
 20
158.9665695623
 30
0.0
 10
281.5684190787
 20
159.9712646006
 30
0.0
 10
281.0443989653
 20
160.9572796685
 30
0.0
 10
280.4811621032
 20
161.8337778838
 30
0.0
 10
280.0699832386
 20
162.3462385831
 30
0.0
 10
279.8300246869
 20
162.6447587571
 30
0.0
  0
SPLINE
  5
32F
100
AcDbEntity
  8
0
100
AcDbSpline
 62
7
  6
BYLAYER
 70
0
 71
3
 72
12
 73
8
 74
0
 42
0.0000001
 43
0.0000001
 44
0.0000000001
 40
0.0
 40
0.0
 40
0.0
 40
0.0
 40
0.2467298419
 40
0.5938773815
 40
0.8028976051
 40
0.9026791124
 40
1.0
 40
1.0
 40
1.0
 40
1.0
 10
279.8300246869
 20
162.6447587571
 30
0.0
 10
280.0597249519
 20
162.7792977048
 30
0.0
 10
280.606982189
 20
163.113832084
 30
0.0
 10
281.3043331238
 20
163.624660537
 30
0.0
 10
281.7695133251
 20
164.15239212
 30
0.0
 10
281.9528140521
 20
164.5534330923
 30
0.0
 10
281.9742212186
 20
164.7781230706
 30
0.0
 10
281.9823684369
 20
164.8830400071
 30
0.0
  0
SPLINE
  5
330
100
AcDbEntity
  8
0
100
AcDbSpline
 62
7
  6
BYLAYER
 70
0
 71
3
 72
16
 73
12
 74
0
 42
0.0000001
 43
0.0000001
 44
0.0000000001
 40
0.0
 40
0.0
 40
0.0
 40
0.0
 40
0.1478141504
 40
0.2427335373
 40
0.4031448324
 40
0.5420450565
 40
0.6108179979
 40
0.7352444507
 40
0.800562871
 40
0.8995190799
 40
1.0
 40
1.0
 40
1.0
 40
1.0
 10
274.4632550619
 20
172.1554289292
 30
0.0
 10
274.1488794953
 20
172.1613118027
 30
0.0
 10
273.6566990633
 20
172.175467867
 30
0.0
 10
272.7969188139
 20
172.3165588628
 30
0.0
 10
272.0192434193
 20
172.5507591779
 30
0.0
 10
271.3172130473
 20
172.9702587189
 30
0.0
 10
270.7999535821
 20
173.4483707992
 30
0.0
 10
270.4882789516
 20
173.8645186262
 30
0.0
 10
270.2230654752
 20
174.4181300765
 30
0.0
 10
270.0757471982
 20
174.9723615484
 30
0.0
 10
270.0562796336
 20
175.3831828801
 30
0.0
 10
270.0491925619
 20
175.5968351792
 30
0.0
  0
SPLINE
  5
331
100
AcDbEntity
  8
0
100
AcDbSpline
 62
7
  6
BYLAYER
 70
0
 71
3
 72
15
 73
11
 74
0
 42
0.0000001
 43
0.0000001
 44
0.0000000001
 40
0.0
 40
0.0
 40
0.0
 40
0.0
 40
0.0927428555
 40
0.2238468969
 40
0.35114717
 40
0.5644460766
 40
0.7156549227
 40
0.8053985764
 40
0.9021744911
 40
1.0
 40
1.0
 40
1.0
 40
1.0
 10
270.0491925619
 20
175.5968351792
 30
0.0
 10
270.0552799769
 20
175.7984981656
 30
0.0
 10
270.0777579768
 20
176.2768011003
 30
0.0
 10
270.2946179599
 20
177.0149720924
 30
0.0
 10
270.8416789883
 20
177.881135784
 30
0.0
 10
271.6844585919
 20
178.5484312385
 30
0.0
 10
272.6043472405
 20
178.903951581
 30
0.0
 10
273.3157911679
 20
179.0647978262
 30
0.0
 10
273.9571424055
 20
179.1416746626
 30
0.0
 10
274.3911121403
 20
179.1521919874
 30
0.0
 10
274.6038800619
 20
179.1554289292
 30
0.0
  0
SPLINE
  5
332
100
AcDbEntity
  8
0
100
AcDbSpline
 62
7
  6
BYLAYER
 70
0
 71
3
 72
15
 73
11
 74
0
 42
0.0000001
 43
0.0000001
 44
0.0000000001
 40
0.0
 40
0.0
 40
0.0
 40
0.0
 40
0.0246433424
 40
0.2023737345
 40
0.3628435125
 40
0.518317524
 40
0.658375236
 40
0.8009559466
 40
0.9007883089
 40
1.0
 40
1.0
 40
1.0
 40
1.0
 10
274.6038800619
 20
179.1554289292
 30
0.0
 10
274.6547008819
 20
179.1541170749
 30
0.0
 10
275.0731122055
 20
179.1438696696
 30
0.0
 10
275.7908304975
 20
179.0879049834
 30
0.0
 10
276.7666548135
 20
178.7599705416
 30
0.0
 10
277.562902686
 20
178.2687777861
 30
0.0
 10
278.2077912249
 20
177.6052073871
 30
0.0
 10
278.5638809217
 20
176.9127542266
 30
0.0
 10
278.7674458073
 20
176.2374223565
 30
0.0
 10
278.7902224569
 20
175.8247645102
 30
0.0
 10
278.7991925619
 20
175.6202726792
 30
0.0
  0
SPLINE
  5
333
100
AcDbEntity
  8
0
100
AcDbSpline
 62
7
  6
BYLAYER
 70
0
 71
3
 72
16
 73
12
 74
0
 42
0.0000001
 43
0.0000001
 44
0.0000000001
 40
0.0
 40
0.0
 40
0.0
 40
0.0
 40
0.0953645664
 40
0.1656473189
 40
0.2925018833
 40
0.4284837341
 40
0.5650499596
 40
0.7099695337
 40
0.8025198478
 40
0.901588914
 40
1.0
 40
1.0
 40
1.0
 40
1.0
 10
278.7991925619
 20
175.6202726792
 30
0.0
 10
278.7957801269
 20
175.4176215146
 30
0.0
 10
278.778585404
 20
175.0831904692
 30
0.0
 10
278.6353656044
 20
174.4647481503
 30
0.0
 10
278.3658382052
 20
173.8448077705
 30
0.0
 10
277.8108469879
 20
173.1666336785
 30
0.0
 10
277.1077504386
 20
172.6685246113
 30
0.0
 10
276.4060723561
 20
172.3980002057
 30
0.0
 10
275.6977986649
 20
172.238322699
 30
0.0
 10
275.0939746657
 20
172.1674979715
 30
0.0
 10
274.6722566253
 20
172.1593872511
 30
0.0
 10
274.4632550619
 20
172.1554289292
 30
0.0
  0
SPLINE
  5
334
100
AcDbEntity
  8
0
100
AcDbSpline
 62
7
  6
BYLAYER
 70
0
 71
3
 72
14
 73
10
 74
0
 42
0.0000001
 43
0.0000001
 44
0.0000000001
 40
0.0
 40
0.0
 40
0.0
 40
0.0
 40
0.0755454111
 40
0.1754537412
 40
0.2727255677
 40
0.470770289
 40
0.6777706553
 40
0.8038479642
 40
1.0
 40
1.0
 40
1.0
 40
1.0
 10
267.2718488119
 20
180.9327726792
 30
0.0
 10
267.2749579636
 20
180.8583329676
 30
0.0
 10
267.2814376408
 20
180.6839194754
 30
0.0
 10
267.3347331321
 20
180.4279359099
 30
0.0
 10
267.4959428087
 20
180.0611965603
 30
0.0
 10
267.8187258367
 20
179.6897976746
 30
0.0
 10
268.2731127178
 20
179.4462099391
 30
0.0
 10
268.7782764464
 20
179.3077524206
 30
0.0
 10
269.1059826953
 20
179.2926989021
 30
0.0
 10
269.2991925619
 20
179.2882414292
 30
0.0
  0
SPLINE
  5
335
100
AcDbEntity
  8
0
100
AcDbSpline
 62
7
  6
BYLAYER
 70
0
 71
3
 72
13
 73
9
 74
0
 42
0.0000001
 43
0.0000001
 44
0.0000000001
 40
0.0
 40
0.0
 40
0.0
 40
0.0
 40
0.0993145308
 40
0.2170594334
 40
0.4207121921
 40
0.6066430796
 40
0.7974163132
 40
1.0
 40
1.0
 40
1.0
 40
1.0
 10
269.8030988119
 20
179.2882414292
 30
0.0
 10
269.6572043653
 20
179.1760021802
 30
0.0
 10
269.3361809726
 20
178.9305404298
 30
0.0
 10
268.769674622
 20
178.4105519238
 30
0.0
 10
268.1420538747
 20
177.6790714237
 30
0.0
 10
267.6313496791
 20
176.7211888784
 30
0.0
 10
267.3462770192
 20
175.6539878154
 30
0.0
 10
267.3100755253
 20
174.9448080646
 30
0.0
 10
267.2991925619
 20
174.5694914292
 30
0.0
  0
SPLINE
  5
336
100
AcDbEntity
  8
0
100
AcDbSpline
 62
7
  6
BYLAYER
 70
0
 71
3
 72
15
 73
11
 74
0
 42
0.0000001
 43
0.0000001
 44
0.0000000001
 40
0.0
 40
0.0
 40
0.0
 40
0.0
 40
0.1154755492
 40
0.2273555599
 40
0.3913253627
 40
0.5594369937
 40
0.675238898
 40
0.8021709661
 40
0.9015866314
 40
1.0
 40
1.0
 40
1.0
 40
1.0
 10
267.2991925619
 20
174.5694914292
 30
0.0
 10
267.3080658103
 20
174.1728154131
 30
0.0
 10
267.3539404372
 20
173.4439003935
 30
0.0
 10
267.7188133641
 20
172.1446924915
 30
0.0
 10
268.5125188438
 20
170.829895746
 30
0.0
 10
269.6896263709
 20
169.8108322353
 30
0.0
 10
270.9619277059
 20
169.1778603392
 30
0.0
 10
272.0873159557
 20
168.8485420539
 30
0.0
 10
273.1883875754
 20
168.6806787123
 30
0.0
 10
273.8830638369
 20
168.6619717621
 30
0.0
 10
274.2210675619
 20
168.6554289292
 30
0.0
  0
SPLINE
  5
337
100
AcDbEntity
  8
0
100
AcDbSpline
 62
7
  6
BYLAYER
 70
0
 71
3
 72
20
 73
16
 74
0
 42
0.0000001
 43
0.0000001
 44
0.0000000001
 40
0.0
 40
0.0
 40
0.0
 40
0.0
 40
0.1048163156
 40
0.3094605857
 40
0.4330397567
 40
0.4824646982
 40
0.5363911175
 40
0.5996982205
 40
0.649085524
 40
0.7517694676
 40
0.7996431562
 40
0.8498780629
 40
0.9005596644
 40
0.9507847012
 40
1.0
 40
1.0
 40
1.0
 40
1.0
 10
274.2210675619
 20
168.6554289292
 30
0.0
 10
274.5897831436
 20
168.6650481214
 30
0.0
 10
275.7094035893
 20
168.6985706356
 30
0.0
 10
277.1888434999
 20
168.9904259915
 30
0.0
 10
278.4499620246
 20
169.548696998
 30
0.0
 10
279.143927447
 20
169.9640656734
 30
0.0
 10
279.615277525
 20
170.3198545102
 30
0.0
 10
280.0280420962
 20
170.7062899151
 30
0.0
 10
280.5288557565
 20
171.269041032
 30
0.0
 10
280.9120500056
 20
171.8784923869
 30
0.0
 10
281.2000186323
 20
172.5220361068
 30
0.0
 10
281.3596860348
 20
173.0238287514
 30
0.0
 10
281.4704121134
 20
173.5377338409
 30
0.0
 10
281.5352347434
 20
174.0586193746
 30
0.0
 10
281.5454278519
 20
174.4237054214
 30
0.0
 10
281.5491925619
 20
174.5968351792
 30
0.0
  0
SPLINE
  5
338
100
AcDbEntity
  8
0
100
AcDbSpline
 62
7
  6
BYLAYER
 70
0
 71
3
 72
12
 73
8
 74
0
 42
0.0000001
 43
0.0000001
 44
0.0000000001
 40
0.0
 40
0.0
 40
0.0
 40
0.0
 40
0.0977791545
 40
0.3032195627
 40
0.4877992016
 40
0.7981693338
 40
1.0
 40
1.0
 40
1.0
 40
1.0
 10
281.5491925619
 20
174.5968351792
 30
0.0
 10
281.5442236503
 20
174.7708439606
 30
0.0
 10
281.530943371
 20
175.3080476078
 30
0.0
 10
281.3816863616
 20
176.1896717465
 30
0.0
 10
280.9163733879
 20
177.3216921448
 30
0.0
 10
280.1111574903
 20
178.3356658229
 30
0.0
 10
279.4006367853
 20
178.8756177657
 30
0.0
 10
279.1116925619
 20
179.0890226792
 30
0.0
  0
SPLINE
  5
339
100
AcDbEntity
  8
0
100
AcDbSpline
 62
7
  6
BYLAYER
 70
0
 71
3
 72
21
 73
17
 74
0
 42
0.0000001
 43
0.0000001
 44
0.0000000001
 40
0.0
 40
0.0
 40
0.0
 40
0.0
 40
0.0336508396
 40
0.1067815735
 40
0.1839186071
 40
0.2291157437
 40
0.2743128803
 40
0.3074532968
 40
0.3405937134
 40
0.4068653216
 40
0.5238809043
 40
0.6117291403
 40
0.7036623904
 40
0.8042190628
 40
0.9017257457
 40
1.0
 40
1.0
 40
1.0
 40
1.0
 10
279.1116925619
 20
179.0890226792
 30
0.0
 10
279.2018607069
 20
179.0874623451
 30
0.0
 10
279.4864822128
 20
179.0823998265
 30
0.0
 10
279.9931069224
 20
179.0739057357
 30
0.0
 10
280.4654858583
 20
179.0600383722
 30
0.0
 10
280.9224223421
 20
179.0483774158
 30
0.0
 10
281.2517349604
 20
179.0375994636
 30
0.0
 10
281.549969176
 20
179.0163651855
 30
0.0
 10
281.9053741334
 20
179.0010313907
 30
0.0
 10
282.4761833058
 20
178.9226031825
 30
0.0
 10
283.2114255596
 20
178.7172289912
 30
0.0
 10
283.8796031531
 20
178.3112190823
 30
0.0
 10
284.3583927725
 20
177.7062839097
 30
0.0
 10
284.6471623964
 20
176.9814811912
 30
0.0
 10
284.7817861523
 20
176.1652403015
 30
0.0
 10
284.7955563386
 20
175.6259246871
 30
0.0
 10
284.7991925619
 20
175.3624601792
 30
0.0
  0
SPLINE
  5
33A
100
AcDbEntity
  8
0
100
AcDbSpline
 62
7
  6
BYLAYER
 70
0
 71
3
 72
13
 73
9
 74
0
 42
0.0000001
 43
0.0000001
 44
0.0000000001
 40
0.0
 40
0.0
 40
0.0
 40
0.0
 40
0.1986618174
 40
0.4126230831
 40
0.6000734928
 40
0.7997917741
 40
0.899895887
 40
1.0
 40
1.0
 40
1.0
 40
1.0
 10
284.7991925619
 20
175.3624601792
 30
0.0
 10
284.7928761703
 20
175.0892114174
 30
0.0
 10
284.7746541472
 20
174.5102573503
 30
0.0
 10
284.5735198201
 20
173.7020909252
 30
0.0
 10
284.1533432152
 20
172.9857806441
 30
0.0
 10
283.652812939
 20
172.5302846112
 30
0.0
 10
283.2259941719
 20
172.1846083478
 30
0.0
 10
283.0117568586
 20
172.0114580154
 30
0.0
 10
282.9046613119
 20
171.9249601792
 30
0.0
  0
SPLINE
  5
33B
100
AcDbEntity
  8
0
100
AcDbSpline
 62
7
  6
BYLAYER
 70
0
 71
3
 72
11
 73
7
 74
0
 42
0.0000001
 43
0.0000001
 44
0.0000000001
 40
0.0
 40
0.0
 40
0.0
 40
0.0
 40
0.2797066092
 40
0.6397556244
 40
0.7995654362
 40
1.0
 40
1.0
 40
1.0
 40
1.0
 10
282.9046613119
 20
171.9249601792
 30
0.0
 10
282.7800699919
 20
171.8334185296
 30
0.0
 10
282.495105914
 20
171.6237945367
 30
0.0
 10
282.2148123553
 20
171.2713860889
 30
0.0
 10
282.0748136822
 20
170.8904180338
 30
0.0
 10
282.0588795069
 20
170.6917815721
 30
0.0
 10
282.0491925619
 20
170.5812101792
 30
0.0
  0
SPLINE
  5
33C
100
AcDbEntity
  8
0
100
AcDbSpline
 62
7
  6
BYLAYER
 70
0
 71
3
 72
14
 73
10
 74
0
 42
0.0000001
 43
0.0000001
 44
0.0000000001
 40
0.0
 40
0.0
 40
0.0
 40
0.0
 40
0.0736458778
 40
0.1996678125
 40
0.317182345
 40
0.4387460437
 40
0.5598510397
 40
0.7987091749
 40
1.0
 40
1.0
 40
1.0
 40
1.0
 10
282.0491925619
 20
170.5812101792
 30
0.0
 10
282.0519149019
 20
170.5224438934
 30
0.0
 10
282.058457656
 20
170.3615918742
 30
0.0
 10
282.1084842981
 20
170.1227762025
 30
0.0
 10
282.2278388952
 20
169.8447063999
 30
0.0
 10
282.3923272019
 20
169.6179756253
 30
0.0
 10
282.6763965897
 20
169.3401531199
 30
0.0
 10
283.0916588241
 20
169.1342813562
 30
0.0
 10
283.4394343753
 20
169.1076643361
 30
0.0
 10
283.5999738119
 20
169.1007414292
 30
0.0
  0
SPLINE
  5
33D
100
AcDbEntity
  8
0
100
AcDbSpline
 62
7
  6
BYLAYER
 70
0
 71
3
 72
16
 73
12
 74
0
 42
0.0000001
 43
0.0000001
 44
0.0000000001
 40
0.0
 40
0.0
 40
0.0
 40
0.0
 40
0.0652556457
 40
0.104601007
 40
0.1512078996
 40
0.2044948958
 40
0.3202450852
 40
0.4562478391
 40
0.6224685513
 40
0.7964012728
 40
1.0
 40
1.0
 40
1.0
 40
1.0
 10
283.5999738119
 20
169.1007414292
 30
0.0
 10
283.7760754086
 20
169.1126488819
 30
0.0
 10
284.0748125102
 20
169.1376324765
 30
0.0
 10
284.4572835716
 20
169.2771964101
 30
0.0
 10
284.7931473652
 20
169.449841051
 30
0.0
 10
285.2743451342
 20
169.7809615091
 30
0.0
 10
285.8503394954
 20
170.372020956
 30
0.0
 10
286.4433415566
 20
171.3251512726
 30
0.0
 10
286.9204137373
 20
172.4894033103
 30
0.0
 10
287.2429540492
 20
173.9480353335
 30
0.0
 10
287.2869308086
 20
174.9066223381
 30
0.0
 10
287.2991925619
 20
175.4562101792
 30
0.0
  0
SPLINE
  5
33E
100
AcDbEntity
  8
0
100
AcDbSpline
 62
7
  6
BYLAYER
 70
0
 71
3
 72
17
 73
13
 74
0
 42
0.0000001
 43
0.0000001
 44
0.0000000001
 40
0.0
 40
0.0
 40
0.0
 40
0.0
 40
0.0825954671
 40
0.2222617613
 40
0.3317361151
 40
0.4305771364
 40
0.5152670357
 40
0.6013636405
 40
0.6959535993
 40
0.8011771262
 40
0.9008298569
 40
1.0
 40
1.0
 40
1.0
 40
1.0
 10
287.2991925619
 20
175.4562101792
 30
0.0
 10
287.2936844436
 20
175.7761234671
 30
0.0
 10
287.2796786623
 20
176.6385959533
 30
0.0
 10
287.1423436673
 20
177.9099206588
 30
0.0
 10
286.8143643147
 20
179.2132272043
 30
0.0
 10
286.3238309066
 20
180.2378721937
 30
0.0
 10
285.6878988526
 20
181.0595487966
 30
0.0
 10
284.8903964871
 20
181.6999567011
 30
0.0
 10
283.8866765861
 20
182.1910567016
 30
0.0
 10
282.7577102481
 20
182.4800848864
 30
0.0
 10
281.5912255877
 20
182.6344229371
 30
0.0
 10
280.8122397303
 20
182.6496610037
 30
0.0
 10
280.4280988119
 20
182.6554289292
 30
0.0
  0
SPLINE
  5
33F
100
AcDbEntity
  8
0
100
AcDbSpline
 62
7
  6
BYLAYER
 70
0
 71
3
 72
14
 73
10
 74
0
 42
0.0000001
 43
0.0000001
 44
0.0000000001
 40
0.0
 40
0.0
 40
0.0
 40
0.0
 40
0.3073978195
 40
0.5213683223
 40
0.6690905516
 40
0.7394123648
 40
0.803244848
 40
0.901226519
 40
1.0
 40
1.0
 40
1.0
 40
1.0
 10
269.9945050619
 20
182.6554289292
 30
0.0
 10
269.6103305036
 20
182.6510901416
 30
0.0
 10
269.0020455248
 20
182.6229791646
 30
0.0
 10
268.1780860912
 20
182.4391496333
 30
0.0
 10
267.7052242576
 20
182.1680400652
 30
0.0
 10
267.4896355892
 20
181.8924697003
 30
0.0
 10
267.362346244
 20
181.6228132143
 30
0.0
 10
267.2838887121
 20
181.302010947
 30
0.0
 10
267.2754253969
 20
181.0561525896
 30
0.0
 10
267.2718488119
 20
180.9327726792
 30
0.0
  0
SPLINE
  5
340
100
AcDbEntity
  8
0
100
AcDbSpline
 62
7
  6
BYLAYER
 70
0
 71
3
 72
16
 73
12
 74
0
 42
0.0000001
 43
0.0000001
 44
0.0000000001
 40
0.0
 40
0.0
 40
0.0
 40
0.0
 40
0.1463861411
 40
0.2406189528
 40
0.3356203173
 40
0.4178148566
 40
0.4935598948
 40
0.6458212386
 40
0.8001603957
 40
0.8994854036
 40
1.0
 40
1.0
 40
1.0
 40
1.0
 10
273.1045681959
 20
189.4043148137
 30
0.0
 10
272.8456532576
 20
189.4374912119
 30
0.0
 10
272.4498135994
 20
189.4954700493
 30
0.0
 10
271.8597544594
 20
189.6480630157
 30
0.0
 10
271.416444816
 20
189.824800553
 30
0.0
 10
271.0159858271
 20
190.0360035363
 30
0.0
 10
270.5597191824
 20
190.3584931634
 30
0.0
 10
270.0910954952
 20
190.8672078434
 30
0.0
 10
269.7705913878
 20
191.5113792251
 30
0.0
 10
269.6243710335
 20
192.1354891782
 30
0.0
 10
269.6104265909
 20
192.4829862034
 30
0.0
 10
269.6045681959
 20
192.6621273137
 30
0.0
  0
SPLINE
  5
341
100
AcDbEntity
  8
0
100
AcDbSpline
 62
7
  6
BYLAYER
 70
0
 71
3
 72
16
 73
12
 74
0
 42
0.0000001
 43
0.0000001
 44
0.0000000001
 40
0.0
 40
0.0
 40
0.0
 40
0.0
 40
0.1072659404
 40
0.1800566928
 40
0.2572331064
 40
0.4023179694
 40
0.5555646888
 40
0.7123716302
 40
0.8052968759
 40
0.9018472982
 40
1.0
 40
1.0
 40
1.0
 40
1.0
 10
269.6045681959
 20
192.6621273137
 30
0.0
 10
269.6068957593
 20
192.8541103792
 30
0.0
 10
269.6219599138
 20
193.1562765774
 30
0.0
 10
269.7088599692
 20
193.6156189227
 30
0.0
 10
269.8774204593
 20
194.1153345188
 30
0.0
 10
270.2178057899
 20
194.7057439296
 30
0.0
 10
270.7906698367
 20
195.253238851
 30
0.0
 10
271.460900758
 20
195.5932610658
 30
0.0
 10
272.0428653916
 20
195.7724769749
 30
0.0
 10
272.5751403494
 20
195.8835765623
 30
0.0
 10
272.9295355559
 20
195.9169959799
 30
0.0
 10
273.1045681959
 20
195.9316585637
 30
0.0
  0
SPLINE
  5
342
100
AcDbEntity
  8
0
100
AcDbSpline
 62
7
  6
BYLAYER
 70
0
 71
3
 72
20
 73
16
 74
0
 42
0.0000001
 43
0.0000001
 44
0.0000000001
 40
0.0
 40
0.0
 40
0.0
 40
0.0
 40
0.1034121038
 40
0.2156816872
 40
0.3313108599
 40
0.3853761214
 40
0.4468301823
 40
0.5053060157
 40
0.5575053928
 40
0.6234366459
 40
0.6824283664
 40
0.7952873182
 40
0.8453925413
 40
0.8954977645
 40
1.0
 40
1.0
 40
1.0
 40
1.0
 10
273.0030056959
 20
199.4121273137
 30
0.0
 10
272.6611592043
 20
199.3989885482
 30
0.0
 10
271.9513013029
 20
199.3561585867
 30
0.0
 10
270.8984052659
 20
199.0189932659
 30
0.0
 10
270.0577732956
 20
198.6028261078
 30
0.0
 10
269.4332866918
 20
198.1554353454
 30
0.0
 10
269.0089529369
 20
197.7806334446
 30
0.0
 10
268.6328084558
 20
197.3683186765
 30
0.0
 10
268.2470863038
 20
196.8579408241
 30
0.0
 10
267.9514671509
 20
196.378107074
 30
0.0
 10
267.5965319567
 20
195.6742184697
 30
0.0
 10
267.3530954481
 20
194.9446805357
 30
0.0
 10
267.2184292109
 20
194.2625753282
 30
0.0
 10
267.1265792383
 20
193.5812509062
 30
0.0
 10
267.1073291709
 20
193.1248524376
 30
0.0
 10
267.1045681959
 20
192.7793148137
 30
0.0
  0
SPLINE
  5
343
100
AcDbEntity
  8
0
100
AcDbSpline
 62
7
  6
BYLAYER
 70
0
 71
3
 72
16
 73
12
 74
0
 42
0.0000001
 43
0.0000001
 44
0.0000000001
 40
0.0
 40
0.0
 40
0.0
 40
0.0
 40
0.0975818319
 40
0.2113978473
 40
0.3204143624
 40
0.4728884512
 40
0.5746600886
 40
0.6833285669
 40
0.8001238891
 40
0.8995585959
 40
1.0
 40
1.0
 40
1.0
 40
1.0
 10
267.1045681959
 20
192.7793148137
 30
0.0
 10
267.1118789176
 20
192.4109950701
 30
0.0
 10
267.1405659892
 20
191.6171367023
 30
0.0
 10
267.3886342179
 20
190.4027610386
 30
0.0
 10
267.9137191934
 20
189.0775085206
 30
0.0
 10
268.7140289004
 20
187.957126511
 30
0.0
 10
269.7890576855
 20
187.0938494992
 30
0.0
 10
270.8692872078
 20
186.5222967468
 30
0.0
 10
272.0260476741
 20
186.1484852205
 30
0.0
 10
273.2212099209
 20
185.937116853
 30
0.0
 10
273.9637616293
 20
185.9112538332
 30
0.0
 10
274.3428494459
 20
185.9043148137
 30
0.0
  0
SPLINE
  5
344
100
AcDbEntity
  8
0
100
AcDbSpline
 62
7
  6
BYLAYER
 70
0
 71
3
 72
17
 73
13
 74
0
 42
0.0000001
 43
0.0000001
 44
0.0000000001
 40
0.0
 40
0.0
 40
0.0
 40
0.0
 40
0.0452171222
 40
0.1693585112
 40
0.2855970655
 40
0.3900518637
 40
0.4895437886
 40
0.5902834281
 40
0.6906780207
 40
0.7991474165
 40
0.8994060308
 40
1.0
 40
1.0
 40
1.0
 40
1.0
 10
274.3428494459
 20
185.9043148137
 30
0.0
 10
274.5162420743
 20
185.9073170579
 30
0.0
 10
275.1631995774
 20
185.9164344001
 30
0.0
 10
276.2825125187
 20
186.0392722378
 30
0.0
 10
277.5472072578
 20
186.3988383873
 30
0.0
 10
278.6758205492
 20
186.9444579356
 30
0.0
 10
279.6247761109
 20
187.6643741493
 30
0.0
 10
280.3996645791
 20
188.5319322149
 30
0.0
 10
280.9919081957
 20
189.570758489
 30
0.0
 10
281.3732001583
 20
190.7126744189
 30
0.0
 10
281.5727871978
 20
191.8891172218
 30
0.0
 10
281.5962211893
 20
192.6592365529
 30
0.0
 10
281.6045681959
 20
193.0449398137
 30
0.0
  0
SPLINE
  5
345
100
AcDbEntity
  8
0
100
AcDbSpline
 62
7
  6
BYLAYER
 70
0
 71
3
 72
16
 73
12
 74
0
 42
0.0000001
 43
0.0000001
 44
0.0000000001
 40
0.0
 40
0.0
 40
0.0
 40
0.0
 40
0.1083682499
 40
0.2676343799
 40
0.4336050747
 40
0.5796462855
 40
0.725332543
 40
0.8446759859
 40
0.8998480483
 40
0.9494752796
 40
1.0
 40
1.0
 40
1.0
 40
1.0
 10
281.6045681959
 20
193.0449398137
 30
0.0
 10
281.6004207893
 20
193.3307145911
 30
0.0
 10
281.5849382041
 20
194.0580998669
 30
0.0
 10
281.3863781869
 20
195.2400410322
 30
0.0
 10
280.9916746743
 20
196.3502372706
 30
0.0
 10
280.4189466657
 20
197.4258158147
 30
0.0
 10
279.697327736
 20
198.260906487
 30
0.0
 10
279.0670449907
 20
198.7517765805
 30
0.0
 10
278.5368360354
 20
199.0220989614
 30
0.0
 10
278.146104442
 20
199.1690010586
 30
0.0
 10
277.8900226809
 20
199.1933009689
 30
0.0
 10
277.7569119459
 20
199.2011898137
 30
0.0
  0
SPLINE
  5
346
100
AcDbEntity
  8
0
100
AcDbSpline
 62
7
  6
BYLAYER
 70
0
 71
3
 72
13
 73
9
 74
0
 42
0.0000001
 43
0.0000001
 44
0.0000000001
 40
0.0
 40
0.0
 40
0.0
 40
0.0
 40
0.1591987505
 40
0.2878315211
 40
0.536564999
 40
0.6721610834
 40
0.7994481965
 40
1.0
 40
1.0
 40
1.0
 40
1.0
 10
277.7569119459
 20
199.2011898137
 30
0.0
 10
277.6539151209
 20
199.1981772639
 30
0.0
 10
277.458794936
 20
199.189328747
 30
0.0
 10
277.1275220822
 20
199.0768119584
 30
0.0
 10
276.8703242625
 20
198.8727910894
 30
0.0
 10
276.6969736522
 20
198.5941986724
 30
0.0
 10
276.5960800607
 20
198.2994031061
 30
0.0
 10
276.5817720976
 20
198.0925904294
 30
0.0
 10
276.5772244459
 20
197.9629085637
 30
0.0
  0
SPLINE
  5
347
100
AcDbEntity
  8
0
100
AcDbSpline
 62
7
  6
BYLAYER
 70
0
 71
3
 72
10
 73
6
 74
0
 42
0.0000001
 43
0.0000001
 44
0.0000000001
 40
0.0
 40
0.0
 40
0.0
 40
0.0
 40
0.1967796995
 40
0.5909422509
 40
1.0
 40
1.0
 40
1.0
 40
1.0
 10
276.5772244459
 20
197.9629085637
 30
0.0
 10
276.5793421076
 20
197.9067035029
 30
0.0
 10
276.5853710091
 20
197.7389689629
 30
0.0
 10
276.6320928262
 20
197.4467816859
 30
0.0
 10
276.7426235176
 20
197.2645132211
 30
0.0
 10
276.8115994459
 20
197.1699398137
 30
0.0
  0
SPLINE
  5
348
100
AcDbEntity
  8
0
100
AcDbSpline
 62
7
  6
BYLAYER
 70
0
 71
3
 72
15
 73
11
 74
0
 42
0.0000001
 43
0.0000001
 44
0.0000000001
 40
0.0
 40
0.0
 40
0.0
 40
0.0
 40
0.0386814512
 40
0.1436403288
 40
0.2433588975
 40
0.4023066206
 40
0.5179263842
 40
0.8005450899
 40
0.900272545
 40
1.0
 40
1.0
 40
1.0
 40
1.0
 10
276.8115994459
 20
197.1699398137
 30
0.0
 10
276.8553301809
 20
197.1231028972
 30
0.0
 10
277.0204615885
 20
196.9466665761
 30
0.0
 10
277.2633954648
 20
196.6771740331
 30
0.0
 10
277.6831909192
 20
196.2216908165
 30
0.0
 10
278.0694473336
 20
195.7598942572
 30
0.0
 10
278.6037864503
 20
195.0228312186
 30
0.0
 10
278.9767874157
 20
194.2252034478
 30
0.0
 10
279.08605996
 20
193.4354225451
 30
0.0
 10
279.0983974359
 20
193.1046284906
 30
0.0
 10
279.1045681959
 20
192.9394710637
 30
0.0
  0
SPLINE
  5
349
100
AcDbEntity
  8
0
100
AcDbSpline
 62
7
  6
BYLAYER
 70
0
 71
3
 72
15
 73
11
 74
0
 42
0.0000001
 43
0.0000001
 44
0.0000000001
 40
0.0
 40
0.0
 40
0.0
 40
0.0
 40
0.0502119656
 40
0.1935812379
 40
0.3416459079
 40
0.4842656456
 40
0.6343904111
 40
0.798777064
 40
0.8996740757
 40
1.0
 40
1.0
 40
1.0
 40
1.0
 10
279.1045681959
 20
192.9394710637
 30
0.0
 10
279.1003282126
 20
192.8399055667
 30
0.0
 10
279.0865609114
 20
192.4571853132
 30
0.0
 10
278.9512044234
 20
191.7714358801
 30
0.0
 10
278.5697861884
 20
190.9963605055
 30
0.0
 10
277.9736669631
 20
190.3375392831
 30
0.0
 10
277.1853265562
 20
189.8311936235
 30
0.0
 10
276.414998602
 20
189.5595718582
 30
0.0
 10
275.703948037
 20
189.4260143859
 30
0.0
 10
275.3036002476
 20
189.4113164996
 30
0.0
 10
275.1045681959
 20
189.4043148137
 30
0.0
  0
SPLINE
  5
34A
100
AcDbEntity
  8
0
100
AcDbSpline
 62
7
  6
BYLAYER
 70
0
 71
3
 72
17
 73
13
 74
0
 42
0.0000001
 43
0.0000001
 44
0.0000000001
 40
0.0
 40
0.0
 40
0.0
 40
0.0
 40
0.108617173
 40
0.3627188021
 40
0.4594183865
 40
0.5365454444
 40
0.5985245717
 40
0.6601446585
 40
0.725578407
 40
0.7998858472
 40
0.8999429236
 40
1.0
 40
1.0
 40
1.0
 40
1.0
 10
275.1045681959
 20
196.4472835637
 30
0.0
 10
275.1020435076
 20
196.6000510641
 30
0.0
 10
275.094816538
 20
197.1086735614
 30
0.0
 10
275.0177935494
 20
197.7637211648
 30
0.0
 10
274.847499628
 20
198.3436740332
 30
0.0
 10
274.7185285159
 20
198.645004602
 30
0.0
 10
274.5619770732
 20
198.8831409875
 30
0.0
 10
274.3667065641
 20
199.0668114183
 30
0.0
 10
274.1204628243
 20
199.2116065987
 30
0.0
 10
273.8080959283
 20
199.3298940184
 30
0.0
 10
273.4250854271
 20
199.4025463408
 30
0.0
 10
273.1437184443
 20
199.4093384971
 30
0.0
 10
273.0030056959
 20
199.4121273137
 30
0.0
  0
ENDSEC
  0
SECTION
  2
OBJECTS
  0
DICTIONARY
  5
C
100
AcDbDictionary
280
0
281
1
  3
ACAD_GROUP
350
D
  3
ACAD_MLINESTYLE
350
17
  3
ACAD_LAYOUT
350
1A
  3
ACAD_PLOTSETTINGS
350
19
  3
ACAD_PLOTSTYLENAME
350
E
  0
DICTIONARY
  5
D
102
{ACAD_REACTORS
330
C
102
}
100
AcDbDictionary
280
0
281
1
  0
ACDBDICTIONARYWDFLT
  5
E
102
{ACAD_REACTORS
330
C
102
}
100
AcDbDictionary
281
1
  3
Normal
350
F
100
AcDbDictionaryWithDefault
340
F
  0
DICTIONARY
  5
17
102
{ACAD_REACTORS
330
C
102
}
100
AcDbDictionary
280
0
281
1
  3
Standard
350
18
  0
DICTIONARY
  5
19
102
{ACAD_REACTORS
330
C
102
}
100
AcDbDictionary
281
1
  0
DICTIONARY
  5
1A
102
{ACAD_REACTORS
330
C
102
}
100
AcDbDictionary
281
1
  3
Model
350
34B
  3
Layout1
350
34C
  0
ACDBPLACEHOLDER
  5
F
102
{ACAD_REACTORS
330
E
102
}
  0
MLINESTYLE
  5
18
102
{ACAD_REACTORS
330
17
102
}
100
AcDbMlineStyle
  2
STANDARD
 70
0
  3

 62
256
 51
90.0
 52
90.0
 71
2
 49
0.5
 62
256
  6
BYLAYER
 49
-0.5
 62
256
  6
BYLAYER
  0
LAYOUT
  5
34B
102
{ACAD_REACTORS
330
1A
102
}
100
AcDbPlotSettings
  1

  2
none_device
  4

  6

 40
0.0
 41
0.0
 42
0.0
 43
0.0
 44
210.0
 45
297.0
 46
0.0
 47
0.0
 48
0.0
 49
0.0
140
0.0
141
0.0
142
1.0
143
1.0
 70
1024
 72
1
 73
0
 74
0
  7

 75
0
147
1.0
148
0.0
149
0.0
100
AcDbLayout
  1
Model
 70
0
 71
0
 10
0.0
 20
0.0
 11
210.0
 21
297.0
 12
0.0
 22
0.0
 32
0.0
 14
0.0
 24
0.0
 34
0.0
 15
0.0
 25
0.0
 35
0.0
146
0.0
 13
0.0
 23
0.0
 33
0.0
 16
1.0
 26
0.0
 36
0.0
 17
0.0
 27
1.0
 37
0.0
 76
0
330
210
345
0
346
0
  0
LAYOUT
  5
34C
102
{ACAD_REACTORS
330
1A
102
}
100
AcDbPlotSettings
  1

  2
none_device
  4

  6

 40
0.0
 41
0.0
 42
0.0
 43
0.0
 44
210.0
 45
297.0
 46
0.0
 47
0.0
 48
0.0
 49
0.0
140
0.0
141
0.0
142
1.0
143
1.0
 70
0
 72
1
 73
0
 74
0
  7

 75
0
147
1.0
148
0.0
149
0.0
100
AcDbLayout
  1
Layout1
 70
0
 71
1
 10
0.0
 20
0.0
 11
210.0
 21
297.0
 12
0.0
 22
0.0
 32
0.0
 14
0.0
 24
0.0
 34
0.0
 15
0.0
 25
0.0
 35
0.0
146
0.0
 13
0.0
 23
0.0
 33
0.0
 16
1.0
 26
0.0
 36
0.0
 17
0.0
 27
1.0
 37
0.0
 76
0
330
211
345
0
346
0
  0
ENDSEC
  0
EOF
