999
DXF file: C:\Users\sesa63760\Dev\_Creo\CAD\MCADPD0003769_3D-CAD\drw0001_1.dxf
999
Pro/ENGINEER 2019471 by Parametric Technology Corporation
  0
SECTION
  2
HEADER
  9
$ACADVER
  1
AC1024
  9
$DWGCODEPAGE
  3
ANSI_1252
  9
$EXTMAX
 10
73.2630079238
 20
103.6148254923
 30
0.0
  9
$EXTMIN
 10
0.0
 20
0.0
 30
0.0
  9
$LIMMIN
 10
0.0
 20
0.0
  9
$LIMMAX
 10
73.2630079238
 20
103.6148254923
  9
$VIEWCTR
 10
36.6315039619
 20
51.8074127461
  9
$VIEWSIZE
 40
103.6148254923
  9
$CLAYER
  8
0
  9
$LTSCALE
 40
6.7541515876
  9
$CELTYPE
  6
BYLAYER
  9
$DIMSCALE
 40
1.0
  9
$DIMASZ
 40
0.8721786658
  9
$DIMEXO
 40
1.0
  9
$DIMDLI
 40
4.6665047333
  9
$DIMEXE
 40
1.0
  9
$DIMCEN
 40
1.1052248053
  9
$DIMLFAC
 40
1.0
  9
$DIMBLK
  1
_FILLED
  9
$DIMALT
 70
0
  9
$DIMALTF
 40
0.0393700787
  9
$DIMTXT
 40
1.2210501321
  9
$DIMTOL
 70
1
  9
$DIMLIM
 70
0
  9
$DIMTFAC
 40
1.0
  9
$DIMTP
 40
0.01
  9
$DIMTM
 40
0.01
  9
$DIMGAP
 40
0.625
  9
$DIMDSEP
 70
46
  9
$AUNITS
 70
0
  9
$PDMODE
 70
3
  9
$PDSIZE
 40
0.3125
  9
$HANDSEED
  5
2C3
  9
$TILEMODE
 70
1
  9
$MEASUREMENT
 70
1
  9
$INSUNITS
 70
4
  0
ENDSEC
  0
SECTION
  2
CLASSES
  0
CLASS
  1
ACDBDICTIONARYWDFLT
  2
AcDbDictionaryWithDefault
  3
AutoCAD 2000
 90
0
 91
1
280
0
281
0
  0
CLASS
  1
ACDBPLACEHOLDER
  2
AcDbPlaceHolder
  3
AutoCAD 2000
 90
0
 91
1
280
0
281
0
  0
CLASS
  1
LAYOUT
  2
AcDbLayout
  3
AutoCAD 2000
 90
0
 91
0
280
0
281
0
  0
ENDSEC
  0
SECTION
  2
TABLES
  0
TABLE
  2
VPORT
  5
8
100
AcDbSymbolTable
 70
2
  0
VPORT
  5
1F4
100
AcDbSymbolTableRecord
100
AcDbViewportTableRecord
  2
*ACTIVE
 70
0
 10
0.0
 20
0.0
 11
1.0
 21
1.0
 12
36.6315039619
 22
51.8074127461
 13
0.0
 23
0.0
 14
1.0
 24
1.0
 15
0.0
 25
0.0
 16
0.0
 26
0.0
 36
1.0
 17
0.0
 27
0.0
 37
0.0
 40
103.6148254923
 41
0.7070707071
 42
50.0
 43
0.0
 44
0.0
 50
0.0
 51
0.0
 71
0
 72
100
 73
1
 74
1
 75
0
 76
0
 77
0
 78
0
  0
ENDTAB
  0
TABLE
  2
LTYPE
  5
5
100
AcDbSymbolTable
 70
6
  0
LTYPE
  5
14
100
AcDbSymbolTableRecord
100
AcDbLinetypeTableRecord
  2
BYBLOCK
 70
0
  3

 72
65
 73
0
 40
0.0
  0
LTYPE
  5
15
100
AcDbSymbolTableRecord
100
AcDbLinetypeTableRecord
  2
BYLAYER
 70
0
  3

 72
65
 73
0
 40
0.0
  0
LTYPE
  5
16
100
AcDbSymbolTableRecord
100
AcDbLinetypeTableRecord
  2
CONTINUOUS
 70
64
  3
Solid line
 72
65
 73
0
 40
0.0
  0
LTYPE
  5
1F5
100
AcDbSymbolTableRecord
100
AcDbLinetypeTableRecord
  2
CENTER
 70
64
  3
____ _ ____ _ ____ _ ____ _ ____ _ ____ _ ____
 72
65
 73
4
 40
0.6
 49
0.375
 74
0
 49
-0.075
 74
0
 49
0.075
 74
0
 49
-0.075
 74
0
  0
LTYPE
  5
1F6
100
AcDbSymbolTableRecord
100
AcDbLinetypeTableRecord
  2
HIDDEN
 70
64
  3
- - - - - - - - - - - - - - - - - - - -
 72
65
 73
2
 40
0.2
 49
0.1
 74
0
 49
-0.1
 74
0
  0
LTYPE
  5
1F7
100
AcDbSymbolTableRecord
100
AcDbLinetypeTableRecord
  2
PHANTOM
 70
64
  3
_____ _ _ _____ _ _ _____ _ _ _____
 72
65
 73
6
 40
0.8
 49
0.45
 74
0
 49
-0.05
 74
0
 49
0.1
 74
0
 49
-0.05
 74
0
 49
0.1
 74
0
 49
-0.05
 74
0
  0
LTYPE
  5
1F8
100
AcDbSymbolTableRecord
100
AcDbLinetypeTableRecord
  2
DOT
 70
64
  3
. . . . . . . . . . . . . . . . . . . .
 72
65
 73
2
 40
0.2
 49
0.1
 74
0
 49
-0.1
 74
0
  0
LTYPE
  5
1F9
100
AcDbSymbolTableRecord
100
AcDbLinetypeTableRecord
  2
DASHED
 70
64
  3
- - - - - - - - - - - - - - - - - - - -
 72
65
 73
2
 40
0.2
 49
0.1
 74
0
 49
-0.1
 74
0
  0
ENDTAB
  0
TABLE
  2
LAYER
  5
2
100
AcDbSymbolTable
 70
36
  0
LAYER
  5
10
100
AcDbSymbolTableRecord
100
AcDbLayerTableRecord
  2
0
 70
0
 62
7
  6
CONTINUOUS
370
-3
390
F
  0
LAYER
  5
1FA
100
AcDbSymbolTableRecord
100
AcDbLayerTableRecord
  2
DEFAULT_1
 70
0
 62
7
  6
CENTER
370
-3
390
F
  0
LAYER
  5
1FB
100
AcDbSymbolTableRecord
100
AcDbLayerTableRecord
  2
DEFAULT_2
 70
0
 62
7
  6
HIDDEN
370
-3
390
F
  0
LAYER
  5
1FC
100
AcDbSymbolTableRecord
100
AcDbLayerTableRecord
  2
DEFAULT_3
 70
0
 62
7
  6
PHANTOM
370
-3
390
F
  0
LAYER
  5
1FD
100
AcDbSymbolTableRecord
100
AcDbLayerTableRecord
  2
00_COMPONENTS
 70
0
 62
7
  6
CONTINUOUS
370
-3
390
F
  0
LAYER
  5
1FE
100
AcDbSymbolTableRecord
100
AcDbLayerTableRecord
  2
01_1_DEFAULT_DATUMS
 70
0
 62
7
  6
CONTINUOUS
370
-3
390
F
  0
LAYER
  5
1FF
100
AcDbSymbolTableRecord
100
AcDbLayerTableRecord
  2
01_PLANES
 70
0
 62
7
  6
CONTINUOUS
370
-3
390
F
  0
LAYER
  5
200
100
AcDbSymbolTableRecord
100
AcDbLayerTableRecord
  2
02_COORD_SYS
 70
0
 62
7
  6
CONTINUOUS
370
-3
390
F
  0
LAYER
  5
201
100
AcDbSymbolTableRecord
100
AcDbLayerTableRecord
  2
03_AXES
 70
0
 62
7
  6
CONTINUOUS
370
-3
390
F
  0
LAYER
  5
202
100
AcDbSymbolTableRecord
100
AcDbLayerTableRecord
  2
04_POINTS
 70
0
 62
7
  6
CONTINUOUS
370
-3
390
F
  0
LAYER
  5
203
100
AcDbSymbolTableRecord
100
AcDbLayerTableRecord
  2
05_CURVES
 70
0
 62
7
  6
CONTINUOUS
370
-3
390
F
  0
LAYER
  5
204
100
AcDbSymbolTableRecord
100
AcDbLayerTableRecord
  2
06_SURFS
 70
0
 62
7
  6
CONTINUOUS
370
-3
390
F
  0
LAYER
  5
205
100
AcDbSymbolTableRecord
100
AcDbLayerTableRecord
  2
07_COSMETICS
 70
0
 62
7
  6
CONTINUOUS
370
-3
390
F
  0
LAYER
  5
206
100
AcDbSymbolTableRecord
100
AcDbLayerTableRecord
  2
10_NOTES
 70
0
 62
7
  6
CONTINUOUS
370
-3
390
F
  0
LAYER
  5
207
100
AcDbSymbolTableRecord
100
AcDbLayerTableRecord
  2
11_NOTES_PUB
 70
0
 62
7
  6
CONTINUOUS
370
-3
390
F
  0
LAYER
  5
208
100
AcDbSymbolTableRecord
100
AcDbLayerTableRecord
  2
13_REF_GTOL
 70
0
 62
7
  6
CONTINUOUS
370
-3
390
F
  0
LAYER
  5
209
100
AcDbSymbolTableRecord
100
AcDbLayerTableRecord
  2
16_MISC
 70
0
 62
7
  6
CONTINUOUS
370
-3
390
F
  0
LAYER
  5
20A
100
AcDbSymbolTableRecord
100
AcDbLayerTableRecord
  2
17_NO_PRINT
 70
0
 62
7
  6
CONTINUOUS
370
-3
390
F
  0
LAYER
  5
20B
100
AcDbSymbolTableRecord
100
AcDbLayerTableRecord
  2
18_DATUM_CAMS_JOINTS
 70
0
 62
7
  6
CONTINUOUS
370
-3
390
F
  0
LAYER
  5
20C
100
AcDbSymbolTableRecord
100
AcDbLayerTableRecord
  2
19_DATUM_FUNCTIONAL
 70
0
 62
7
  6
CONTINUOUS
370
-3
390
F
  0
LAYER
  5
20D
100
AcDbSymbolTableRecord
100
AcDbLayerTableRecord
  2
20_DATUM_KINEMATIC_SCHEME
 70
0
 62
7
  6
CONTINUOUS
370
-3
390
F
  0
ENDTAB
  0
TABLE
  2
STYLE
  5
3
100
AcDbSymbolTable
 70
1
  0
STYLE
  5
11
100
AcDbSymbolTableRecord
100
AcDbTextStyleTableRecord
  2
STANDARD
 70
0
 40
0.0
 41
1.0
 50
0.0
 71
0
 42
0.2
  3
ARIAL.TTF
  4

  0
STYLE
  5
20E
100
AcDbSymbolTableRecord
100
AcDbTextStyleTableRecord
  2
TEXTSTYLE_1
 70
0
 40
0.0
 41
0.8
 50
0.0
 71
0
 42
0.2
  3
gdt
  4

  0
ENDTAB
  0
TABLE
  2
VIEW
  5
6
100
AcDbSymbolTable
 70
0
  0
ENDTAB
  0
TABLE
  2
UCS
  5
7
100
AcDbSymbolTable
 70
0
  0
ENDTAB
  0
TABLE
  2
APPID
  5
9
100
AcDbSymbolTable
 70
1
  0
APPID
  5
20F
100
AcDbSymbolTableRecord
100
AcDbRegAppTableRecord
  2
ACAD
 70
0
  0
ENDTAB
  0
TABLE
  2
BLOCK_RECORD
  5
1
100
AcDbSymbolTable
 70
0
  0
BLOCK_RECORD
  5
210
100
AcDbSymbolTableRecord
100
AcDbBlockTableRecord
  2
*Model_Space
  0
BLOCK_RECORD
  5
211
100
AcDbSymbolTableRecord
100
AcDbBlockTableRecord
  2
*Paper_Space
  0
BLOCK_RECORD
  5
212
100
AcDbSymbolTableRecord
100
AcDbBlockTableRecord
  2
_FILLED
  0
ENDTAB
  0
TABLE
  2
DIMSTYLE
  5
A
100
AcDbSymbolTable
 70
1
100
AcDbDimStyleTable
 71
0
  0
DIMSTYLE
105
213
100
AcDbSymbolTableRecord
100
AcDbDimStyleTableRecord
  2
STANDARD
 70
0
  3

  4

 40
1.0
 41
0.8721786658
 42
1.0
 43
0.38
 44
1.0
 45
0.0
 46
0.0
 47
0.01
 48
0.01
140
1.2210501321
141
0.09
142
0.0
143
25.4
144
1.0
145
0.0
146
1.0
147
0.625
 71
1
 72
0
 73
0
 74
0
 75
0
 76
0
 77
1
 78
8
 79
2
170
0
171
1
172
0
173
0
174
0
175
0
176
0
177
0
178
0
270
2
179
2
271
2
272
2
273
2
274
2
275
0
280
0
281
0
282
0
283
1
284
8
285
0
286
0
287
3
288
0
340
11
278
46
341
212
342
212
343
212
344
212
  0
ENDTAB
  0
ENDSEC
  0
SECTION
  2
BLOCKS
  0
BLOCK
  5
20
100
AcDbEntity
  8
0
100
AcDbBlockBegin
  2
*Model_Space
 70
0
 10
0.0
 20
0.0
 30
0.0
  3
*Model_Space
  1

  0
ENDBLK
  5
21
100
AcDbEntity
  8
0
100
AcDbBlockEnd
  0
BLOCK
  5
1C
100
AcDbEntity
  8
0
100
AcDbBlockBegin
  2
*Paper_Space
 70
0
 10
0.0
 20
0.0
 30
0.0
  3
*Paper_Space
  1

  0
ENDBLK
  5
1D
100
AcDbEntity
  8
0
100
AcDbBlockEnd
  0
BLOCK
  5
214
100
AcDbEntity
  8
0
100
AcDbBlockBegin
  2
_FILLED
 70
64
 10
0.0
 20
0.0
  3
_FILLED
  1

  0
SOLID
  5
215
100
AcDbEntity
  8
0
  6
BYBLOCK
 62
0
100
AcDbTrace
 10
0.0
 20
0.0
 11
-1.0
 21
0.25
 12
-1.0
 22
-0.25
 13
-1.0
 23
-0.25
  0
ENDBLK
  5
216
100
AcDbEntity
  8
0
  6
BYBLOCK
 62
0
100
AcDbBlockEnd
  0
ENDSEC
  0
SECTION
  2
ENTITIES
  0
LINE
  5
217
100
AcDbEntity
  8
0
100
AcDbLine
 62
7
  6
BYLAYER
 10
26.3657181902
 20
14.0626194988
 11
19.8691501808
 21
17.6614610413
  0
LINE
  5
218
100
AcDbEntity
  8
0
100
AcDbLine
 62
7
  6
BYLAYER
 10
28.5665126587
 20
12.8847913565
 11
26.3832350919
 21
14.0942407142
  0
LINE
  5
219
100
AcDbEntity
  8
0
100
AcDbLine
 62
7
  6
BYLAYER
 10
31.7425470756
 20
14.1703461626
 11
27.7018200681
 21
16.4087489924
  0
LINE
  5
21A
100
AcDbEntity
  8
0
100
AcDbLine
 62
7
  6
BYLAYER
 10
9.1210823585
 20
23.86672051
 11
19.8691501808
 21
17.6614610413
  0
LINE
  5
21B
100
AcDbEntity
  8
0
100
AcDbLine
 62
7
  6
BYLAYER
 10
28.7079334261
 20
12.9664401873
 11
30.475707739
 21
11.945838301
  0
LINE
  5
21C
100
AcDbEntity
  8
0
100
AcDbLine
 62
7
  6
BYLAYER
 10
42.8499353936
 20
91.9218604689
 11
19.7276399168
 21
78.5722766373
  0
LINE
  5
21D
100
AcDbEntity
  8
0
100
AcDbLine
 62
7
  6
BYLAYER
 10
37.087052957
 20
86.6759310801
 11
32.9858507012
 21
84.3081149876
  0
LINE
  5
21E
100
AcDbEntity
  8
0
100
AcDbLine
 62
7
  6
BYLAYER
 10
21.4954142296
 20
77.551674751
 11
21.3539934622
 21
77.4700259202
  0
LINE
  5
21F
100
AcDbEntity
  8
0
100
AcDbLine
 62
7
  6
BYLAYER
 10
8.8389388952
 20
33.0127341598
 11
15.9100361467
 21
28.9303266146
  0
LINE
  5
220
100
AcDbEntity
  8
0
100
AcDbLine
 62
7
  6
BYLAYER
 10
8.4993518301
 20
33.3289234965
 11
15.5704490816
 21
29.2465159513
  0
LINE
  5
221
100
AcDbEntity
  8
0
100
AcDbLine
 62
7
  6
BYLAYER
 10
16.7782124492
 20
29.2440034071
 11
18.8084855931
 21
28.0718511786
  0
LINE
  5
222
100
AcDbEntity
  8
0
100
AcDbLine
 62
7
  6
BYLAYER
 10
9.1210823585
 20
60.6093292808
 11
9.1210823585
 21
35.6954147442
  0
LINE
  5
223
100
AcDbEntity
  8
0
100
AcDbLine
 62
7
  6
BYLAYER
 10
9.1210823585
 20
32.8498422404
 11
9.1210823585
 21
23.86672051
  0
LINE
  5
224
100
AcDbEntity
  8
0
100
AcDbLine
 62
7
  6
BYLAYER
 10
10.1817469463
 20
37.4170790189
 11
10.1817469463
 21
55.0979536463
  0
LINE
  5
225
100
AcDbEntity
  8
0
100
AcDbLine
 62
7
  6
BYLAYER
 10
15.6176503679
 20
71.7097166232
 11
9.1210823585
 21
60.6093292808
  0
LINE
  5
226
100
AcDbEntity
  8
0
100
AcDbLine
 62
7
  6
BYLAYER
 10
10.2670817654
 20
61.5975778299
 11
14.5657854379
 21
68.942575337
  0
LINE
  5
227
100
AcDbEntity
  8
0
100
AcDbLine
 62
7
  6
BYLAYER
 10
20.9944792534
 20
77.8105801079
 11
16.9677329716
 21
70.9302637021
  0
LINE
  5
228
100
AcDbEntity
  8
0
100
AcDbLine
 62
7
  6
BYLAYER
 10
21.3539934622
 20
77.4700259202
 11
17.3854246808
 21
70.6891147369
  0
LINE
  5
229
100
AcDbEntity
  8
0
100
AcDbLine
 62
7
  6
BYLAYER
 10
23.121767775
 20
76.4494240339
 11
23.2631885425
 21
76.5310728647
  0
LINE
  5
22A
100
AcDbEntity
  8
0
100
AcDbLine
 62
7
  6
BYLAYER
 10
35.2839573079
 20
82.9813325354
 11
39.3851595637
 21
85.3491486279
  0
LINE
  5
22B
100
AcDbEntity
  8
0
100
AcDbLine
 62
7
  6
BYLAYER
 10
47.0218562763
 20
89.5131612279
 11
47.7289601135
 21
89.9214053817
  0
LINE
  5
22C
100
AcDbEntity
  8
0
100
AcDbLine
 62
7
  6
BYLAYER
 10
8.8889194816
 20
35.2932946135
 11
15.9600167331
 21
31.2108870683
  0
LINE
  5
22D
100
AcDbEntity
  8
0
100
AcDbLine
 62
7
  6
BYLAYER
 10
9.5889165672
 20
36.5057318613
 11
16.6600138187
 21
32.4233243161
  0
LINE
  5
22E
100
AcDbEntity
  8
0
100
AcDbLine
 62
7
  6
BYLAYER
 10
18.8084855931
 20
31.7460597855
 11
18.7632274237
 21
31.7721890107
  0
LINE
  5
22F
100
AcDbEntity
  8
0
100
AcDbLine
 62
7
  6
BYLAYER
 10
9.93891511
 20
36.996479606
 11
17.0100123615
 21
32.9140720608
  0
LINE
  5
230
100
AcDbEntity
  8
0
100
AcDbLine
 62
7
  6
BYLAYER
 10
14.5657854379
 20
68.942575337
 11
14.5657854379
 21
64.0794207377
  0
LINE
  5
231
100
AcDbEntity
  8
0
100
AcDbLine
 62
7
  6
BYLAYER
 10
23.121767775
 20
76.4494240339
 11
19.1531989937
 21
69.6685128506
  0
LINE
  5
232
100
AcDbEntity
  8
0
100
AcDbLine
 62
7
  6
BYLAYER
 10
24.5300278791
 20
75.7693763353
 11
20.5032815974
 21
68.8890599295
  0
LINE
  5
233
100
AcDbEntity
  8
0
100
AcDbLine
 62
7
  6
BYLAYER
 10
42.2135984643
 20
83.7161856098
 11
38.1123962085
 21
81.3483695174
  0
LINE
  5
234
100
AcDbEntity
  8
0
100
AcDbLine
 62
7
  6
BYLAYER
 10
26.9401591133
 20
74.4082209412
 11
26.7987383458
 21
74.3265721104
  0
LINE
  5
235
100
AcDbEntity
  8
0
100
AcDbLine
 62
7
  6
BYLAYER
 10
28.5665126587
 20
73.3059702241
 11
28.7079334261
 21
73.3876190549
  0
LINE
  5
236
100
AcDbEntity
  8
0
100
AcDbLine
 62
7
  6
BYLAYER
 10
40.4105028152
 20
80.0215870652
 11
44.511705071
 21
82.3894031576
  0
LINE
  5
237
100
AcDbEntity
  8
0
100
AcDbLine
 62
7
  6
BYLAYER
 10
10.9389109466
 20
38.7285328172
 11
10.3732231665
 21
39.0551254208
  0
LINE
  5
238
100
AcDbEntity
  8
0
100
AcDbLine
 62
7
  6
BYLAYER
 10
18.0100081981
 20
34.646125272
 11
18.8084855931
 21
34.1851276788
  0
LINE
  5
239
100
AcDbEntity
  8
0
100
AcDbLine
 62
7
  6
BYLAYER
 10
10.8732210848
 20
39.9211520264
 11
18.8084855931
 21
35.3398285699
  0
LINE
  5
23A
100
AcDbEntity
  8
0
100
AcDbLine
 62
7
  6
BYLAYER
 10
12.1262576022
 20
53.9753152931
 11
13.29300383
 21
50.6071593114
  0
LINE
  5
23B
100
AcDbEntity
  8
0
100
AcDbLine
 62
7
  6
BYLAYER
 10
26.7987383458
 20
74.3265721104
 11
22.8301695644
 21
67.5456609271
  0
LINE
  5
23C
100
AcDbEntity
  8
0
100
AcDbLine
 62
7
  6
BYLAYER
 10
10.2670817654
 20
61.5975778299
 11
14.5657854379
 21
64.0794207377
  0
LINE
  5
23D
100
AcDbEntity
  8
0
100
AcDbLine
 62
7
  6
BYLAYER
 10
53.5980032159
 20
85.7166010002
 11
30.475707739
 21
72.3670171686
  0
LINE
  5
23E
100
AcDbEntity
  8
0
100
AcDbLine
 62
7
  6
BYLAYER
 10
56.7091947436
 20
85.5530751291
 11
56.0022538709
 21
85.1449250623
  0
LINE
  5
23F
100
AcDbEntity
  8
0
100
AcDbLine
 62
7
  6
BYLAYER
 10
12.8911526696
 20
41.8789916823
 11
12.3254648895
 21
42.2055842859
  0
LINE
  5
240
100
AcDbEntity
  8
0
100
AcDbLine
 62
7
  6
BYLAYER
 10
18.8084855931
 20
39.9586016442
 11
13.5389001218
 21
43.0009294079
  0
LINE
  5
241
100
AcDbEntity
  8
0
100
AcDbLine
 62
7
  6
BYLAYER
 10
18.8084855931
 20
28.0718511786
 11
18.8084855931
 21
50.1174164411
  0
LINE
  5
242
100
AcDbEntity
  8
0
100
AcDbLine
 62
7
  6
BYLAYER
 10
19.8691501808
 20
54.4040698121
 11
19.8691501808
 21
17.6614610413
  0
LINE
  5
243
100
AcDbEntity
  8
0
100
AcDbLine
 62
7
  6
BYLAYER
 10
10.8732210848
 20
39.9211520264
 11
10.3732231665
 21
39.0551254208
  0
LINE
  5
244
100
AcDbEntity
  8
0
100
AcDbLine
 62
7
  6
BYLAYER
 10
12.3254648895
 20
42.2055842859
 11
10.9732206685
 21
39.8634155891
  0
LINE
  5
245
100
AcDbEntity
  8
0
100
AcDbLine
 62
7
  6
BYLAYER
 10
9.5889165672
 20
36.5057318613
 11
8.8889194816
 21
35.2932946135
  0
LINE
  5
246
100
AcDbEntity
  8
0
100
AcDbLine
 62
7
  6
BYLAYER
 10
10.9389109466
 20
38.7285328172
 11
9.93891511
 21
36.996479606
  0
LINE
  5
247
100
AcDbEntity
  8
0
100
AcDbLine
 62
7
  6
BYLAYER
 10
13.5389001218
 20
43.0009294079
 11
12.8911526696
 21
41.8789916823
  0
LINE
  5
248
100
AcDbEntity
  8
0
100
AcDbLine
 62
7
  6
BYLAYER
 10
28.5665126587
 20
73.3059702241
 11
24.5979438773
 21
66.5250590408
  0
LINE
  5
249
100
AcDbEntity
  8
0
100
AcDbLine
 62
7
  6
BYLAYER
 10
24.4653215899
 20
63.2272047738
 11
20.1666179175
 21
55.8822072666
  0
LINE
  5
24A
100
AcDbEntity
  8
0
100
AcDbLine
 62
7
  6
BYLAYER
 10
29.9747727627
 20
72.6259225255
 11
25.948026481
 21
65.7456061197
  0
LINE
  5
24B
100
AcDbEntity
  8
0
100
AcDbLine
 62
7
  6
BYLAYER
 10
19.8691501808
 20
54.4040698121
 11
26.3657181902
 21
65.5044571545
  0
LINE
  5
24C
100
AcDbEntity
  8
0
100
AcDbLine
 62
7
  6
BYLAYER
 10
55.7900168681
 20
84.4509758718
 11
56.4971207054
 21
84.8592200257
  0
LINE
  5
24D
100
AcDbEntity
  8
0
100
AcDbLine
 62
7
  6
BYLAYER
 10
27.7018200681
 20
64.7011160094
 11
31.7425470756
 21
71.6053206392
  0
LINE
  5
24E
100
AcDbEntity
  8
0
100
AcDbLine
 62
7
  6
BYLAYER
 10
9.93891511
 20
36.996479606
 11
9.5889165672
 21
36.5057318613
  0
LINE
  5
24F
100
AcDbEntity
  8
0
100
AcDbLine
 62
7
  6
BYLAYER
 10
61.6589628196
 20
82.6953898475
 11
58.144437683
 21
80.6662899258
  0
LINE
  5
250
100
AcDbEntity
  8
0
100
AcDbLine
 62
7
  6
BYLAYER
 10
18.8084855931
 20
47.4228664691
 11
13.29300383
 21
50.6071593114
  0
LINE
  5
251
100
AcDbEntity
  8
0
100
AcDbLine
 62
7
  6
BYLAYER
 10
60.0536339408
 20
79.5640398886
 11
56.7799704833
 21
77.6740006922
  0
LINE
  5
252
100
AcDbEntity
  8
0
100
AcDbLine
 62
7
  6
BYLAYER
 10
61.6589628196
 20
77.5042887147
 11
62.4136068736
 21
77.9399800617
  0
LINE
  5
253
100
AcDbEntity
  8
0
100
AcDbLine
 62
7
  6
BYLAYER
 10
10.1817469463
 20
55.0979536463
 11
18.8084855931
 21
50.1174164411
  0
LINE
  5
254
100
AcDbEntity
  8
0
100
AcDbLine
 62
7
  6
BYLAYER
 10
18.8084855931
 20
31.8714829841
 11
18.5600059082
 21
31.3263320077
  0
LINE
  5
255
100
AcDbEntity
  8
0
100
AcDbLine
 62
7
  6
BYLAYER
 10
16.6600138187
 20
32.4233243161
 11
15.9600167331
 21
31.2108870683
  0
LINE
  5
256
100
AcDbEntity
  8
0
100
AcDbLine
 62
7
  6
BYLAYER
 10
18.0100081981
 20
34.646125272
 11
17.0100123615
 21
32.9140720608
  0
LINE
  5
257
100
AcDbEntity
  8
0
100
AcDbLine
 62
7
  6
BYLAYER
 10
18.8084855931
 20
34.722738347
 11
18.5756959782
 21
34.3195326684
  0
LINE
  5
258
100
AcDbEntity
  8
0
100
AcDbLine
 62
7
  6
BYLAYER
 10
9.1210823585
 20
60.6093292808
 11
19.8691501808
 21
54.4040698121
  0
LINE
  5
259
100
AcDbEntity
  8
0
100
AcDbLine
 62
7
  6
BYLAYER
 10
17.8600088226
 20
30.1138947599
 11
18.5600059082
 21
31.3263320077
  0
LINE
  5
25A
100
AcDbEntity
  8
0
100
AcDbLine
 62
7
  6
BYLAYER
 10
16.6600138187
 20
32.4233243161
 11
17.0100123615
 21
32.9140720608
  0
LINE
  5
25B
100
AcDbEntity
  8
0
100
AcDbLine
 62
7
  6
BYLAYER
 10
65.7601650754
 20
75.0202262092
 11
64.4873781685
 21
74.2853867322
  0
LINE
  5
25C
100
AcDbEntity
  8
0
100
AcDbLine
 62
7
  6
BYLAYER
 10
64.0631158661
 20
73.2239378228
 11
63.5681590775
 21
72.9381760934
  0
LINE
  5
25D
100
AcDbEntity
  8
0
100
AcDbLine
 62
7
  6
BYLAYER
 10
10.2670817654
 20
61.5975778299
 11
20.1666179175
 21
55.8822072666
  0
LINE
  5
25E
100
AcDbEntity
  8
0
100
AcDbLine
 62
7
  6
BYLAYER
 10
37.087052957
 20
86.6759310801
 11
37.087052957
 21
84.0223440798
  0
LINE
  5
25F
100
AcDbEntity
  8
0
100
AcDbLine
 62
7
  6
BYLAYER
 10
63.2840306002
 20
45.5561471906
 11
56.7799704833
 21
46.8097046248
  0
LINE
  5
260
100
AcDbEntity
  8
0
100
AcDbLine
 62
7
  6
BYLAYER
 10
56.7799704833
 20
37.4903519974
 11
60.6640145145
 21
35.2479488604
  0
LINE
  5
261
100
AcDbEntity
  8
0
100
AcDbLine
 62
7
  6
BYLAYER
 10
56.7799704833
 20
38.1948417038
 11
60.508629478
 21
36.04214813
  0
LINE
  5
262
100
AcDbEntity
  8
0
100
AcDbLine
 62
7
  6
BYLAYER
 10
14.5657854379
 20
64.0794207377
 11
22.3379492525
 21
59.5922613802
  0
LINE
  5
263
100
AcDbEntity
  8
0
100
AcDbLine
 62
7
  6
BYLAYER
 10
56.7799704833
 20
41.3862618434
 11
59.3962305405
 21
39.8757975664
  0
LINE
  5
264
100
AcDbEntity
  8
0
100
AcDbLine
 62
7
  6
BYLAYER
 10
14.5657854379
 20
68.942575337
 11
24.4653215899
 21
63.2272047738
  0
LINE
  5
265
100
AcDbEntity
  8
0
100
AcDbLine
 62
7
  6
BYLAYER
 10
42.2135984643
 20
83.7161856098
 11
42.2135984643
 21
81.0625986096
  0
LINE
  5
266
100
AcDbEntity
  8
0
100
AcDbLine
 62
7
  6
BYLAYER
 10
15.6176503679
 20
71.7097166232
 11
17.3854246808
 21
70.6891147369
  0
LINE
  5
267
100
AcDbEntity
  8
0
100
AcDbLine
 62
7
  6
BYLAYER
 10
19.1531989937
 20
69.6685128506
 11
22.8301695644
 21
67.5456609271
  0
LINE
  5
268
100
AcDbEntity
  8
0
100
AcDbLine
 62
7
  6
BYLAYER
 10
24.5979438773
 20
66.5250590408
 11
26.3657181902
 21
65.5044571545
  0
LINE
  5
269
100
AcDbEntity
  8
0
100
AcDbLine
 62
7
  6
BYLAYER
 10
26.3657181902
 20
65.5044571545
 11
27.7018200681
 21
64.7011160094
  0
LINE
  5
26A
100
AcDbEntity
  8
0
100
AcDbLine
 62
7
  6
BYLAYER
 10
27.7018200681
 20
16.4087489924
 11
26.3657181902
 21
14.0626194988
  0
LINE
  5
26B
100
AcDbEntity
  8
0
100
AcDbLine
 62
7
  6
BYLAYER
 10
65.1286643808
 20
80.1723021546
 11
63.1439124688
 21
76.8146519423
  0
LINE
  5
26C
100
AcDbEntity
  8
0
100
AcDbLine
 62
7
  6
BYLAYER
 10
65.7601650754
 20
72.5419861553
 11
63.5681590775
 21
69.808024315
  0
LINE
  5
26D
100
AcDbEntity
  8
0
100
AcDbLine
 62
7
  6
BYLAYER
 10
63.5681590775
 20
62.3228406117
 11
64.3840035457
 21
62.9330865054
  0
LINE
  5
26E
100
AcDbEntity
  8
0
100
AcDbLine
 62
7
  6
BYLAYER
 10
29.9568825162
 20
15.1595336517
 11
28.7079334261
 21
12.9664401873
  0
LINE
  5
26F
100
AcDbEntity
  8
0
100
AcDbLine
 62
7
  6
BYLAYER
 10
64.9130524992
 20
60.6728155582
 11
63.5681590775
 21
59.4822211543
  0
LINE
  5
270
100
AcDbEntity
  8
0
100
AcDbLine
 62
7
  6
BYLAYER
 10
63.5681590775
 20
52.1614866766
 11
65.7545971877
 21
51.2438363524
  0
LINE
  5
271
100
AcDbEntity
  8
0
100
AcDbLine
 62
7
  6
BYLAYER
 10
65.7545971877
 20
51.2438363524
 11
65.7772578085
 21
51.2324652891
  0
LINE
  5
272
100
AcDbEntity
  8
0
100
AcDbLine
 62
7
  6
BYLAYER
 10
30.475707739
 20
11.945838301
 11
31.7425470756
 21
14.1703461626
  0
LINE
  5
273
100
AcDbEntity
  8
0
100
AcDbLine
 62
7
  6
BYLAYER
 10
65.7545971877
 20
51.2438363524
 11
63.5681590775
 21
52.5061484266
  0
LINE
  5
274
100
AcDbEntity
  8
0
100
AcDbLine
 62
7
  6
BYLAYER
 10
63.5681590775
 20
52.5080001587
 11
65.7773184504
 21
51.2325702542
  0
LINE
  5
275
100
AcDbEntity
  8
0
100
AcDbLine
 62
7
  6
BYLAYER
 10
21.3539934622
 20
77.4700259202
 11
23.121767775
 21
76.4494240339
  0
LINE
  5
276
100
AcDbEntity
  8
0
100
AcDbLine
 62
7
  6
BYLAYER
 10
26.7987383458
 20
74.3265721104
 11
28.5665126587
 21
73.3059702241
  0
LINE
  5
277
100
AcDbEntity
  8
0
100
AcDbLine
 62
7
  6
BYLAYER
 10
20.9944792534
 20
77.8105801079
 11
21.4691706488
 21
77.536523103
  0
LINE
  5
278
100
AcDbEntity
  8
0
100
AcDbLine
 62
7
  6
BYLAYER
 10
24.5300278791
 20
75.7693763353
 11
26.9139155324
 21
74.3930692932
  0
LINE
  5
279
100
AcDbEntity
  8
0
100
AcDbLine
 62
7
  6
BYLAYER
 10
29.9747727627
 20
72.6259225255
 11
31.7425470756
 21
71.6053206392
  0
LINE
  5
27A
100
AcDbEntity
  8
0
100
AcDbLine
 62
7
  6
BYLAYER
 10
19.7276399168
 20
78.5722766373
 11
21.4954142296
 21
77.551674751
  0
LINE
  5
27B
100
AcDbEntity
  8
0
100
AcDbLine
 62
7
  6
BYLAYER
 10
23.2631885425
 20
76.5310728647
 11
26.9401591133
 21
74.4082209412
  0
LINE
  5
27C
100
AcDbEntity
  8
0
100
AcDbLine
 62
7
  6
BYLAYER
 10
28.7079334261
 20
73.3876190549
 11
30.475707739
 21
72.3670171686
  0
LINE
  5
27D
100
AcDbEntity
  8
0
100
AcDbLine
 62
7
  6
BYLAYER
 10
19.7276399168
 20
78.5722766373
 11
20.9944792534
 21
77.8105801079
  0
LINE
  5
27E
100
AcDbEntity
  8
0
100
AcDbLine
 62
7
  6
BYLAYER
 10
23.2631885425
 20
76.5310728647
 11
24.5300278791
 21
75.7693763353
  0
LINE
  5
27F
100
AcDbEntity
  8
0
100
AcDbLine
 62
7
  6
BYLAYER
 10
28.7079334261
 20
73.3876190549
 11
29.9747727627
 21
72.6259225255
  0
LINE
  5
280
100
AcDbEntity
  8
0
100
AcDbLine
 62
7
  6
BYLAYER
 10
31.7425470756
 20
71.6053206392
 11
30.475707739
 21
72.3670171686
  0
LINE
  5
281
100
AcDbEntity
  8
0
100
AcDbLine
 62
7
  6
BYLAYER
 10
56.4971207054
 20
84.8592200257
 11
56.4971207054
 21
84.0427468801
  0
LINE
  5
282
100
AcDbEntity
  8
0
100
AcDbLine
 62
7
  6
BYLAYER
 10
56.7799704833
 20
30.8067817021
 11
56.7799704833
 21
83.8794388155
  0
LINE
  5
283
100
AcDbEntity
  8
0
100
AcDbLine
 62
7
  6
BYLAYER
 10
64.0631158661
 20
73.2239378228
 11
64.4873781685
 21
74.2853867322
  0
LINE
  5
284
100
AcDbEntity
  8
0
100
AcDbLine
 62
7
  6
BYLAYER
 10
59.3962305405
 20
39.8757975664
 11
59.5231561237
 21
46.2809978338
  0
LINE
  5
285
100
AcDbEntity
  8
0
100
AcDbLine
 62
7
  6
BYLAYER
 10
65.654696118
 20
50.3703244893
 11
63.5681590775
 21
48.0568290578
  0
LINE
  5
286
100
AcDbEntity
  8
0
100
AcDbLine
 62
7
  6
BYLAYER
 10
64.3840035458
 20
62.9330865054
 11
63.5681590775
 21
63.404103873
  0
LINE
  5
287
100
AcDbEntity
  8
0
100
AcDbLine
 62
7
  6
BYLAYER
 10
61.6589628196
 20
77.0903881184
 11
61.6589628196
 21
77.5042887147
  0
LINE
  5
288
100
AcDbEntity
  8
0
100
AcDbLine
 62
7
  6
BYLAYER
 10
63.5681590775
 20
42.1805681354
 11
63.5681590775
 21
73.8363668475
  0
LINE
  5
289
100
AcDbEntity
  8
0
100
AcDbLine
 62
7
  6
BYLAYER
 10
65.1816091291
 20
62.4307620088
 11
64.9130524992
 21
60.6728155582
  0
LINE
  5
28A
100
AcDbEntity
  8
0
100
AcDbLine
 62
7
  6
BYLAYER
 10
61.1720336705
 20
45.9632020771
 11
59.3962305405
 21
39.8757975664
  0
LINE
  5
28B
100
AcDbEntity
  8
0
100
AcDbLine
 62
7
  6
BYLAYER
 10
63.5681590775
 20
63.8704330894
 11
64.9873696849
 21
63.0510699996
  0
LINE
  5
28C
100
AcDbEntity
  8
0
100
AcDbLine
 62
7
  6
BYLAYER
 10
32.9858507012
 20
84.3081149876
 11
35.2839573079
 21
82.9813325354
  0
LINE
  5
28D
100
AcDbEntity
  8
0
100
AcDbLine
 62
7
  6
BYLAYER
 10
38.1123962085
 20
81.3483695174
 11
40.4105028152
 21
80.0215870652
  0
LINE
  5
28E
100
AcDbEntity
  8
0
100
AcDbLine
 62
7
  6
BYLAYER
 10
65.7601650754
 20
72.5419861553
 11
65.7601650754
 21
75.0202262092
  0
LINE
  5
28F
100
AcDbEntity
  8
0
100
AcDbLine
 62
7
  6
BYLAYER
 10
60.508629478
 20
36.04214813
 11
63.2840306002
 21
45.5561471906
  0
LINE
  5
290
100
AcDbEntity
  8
0
100
AcDbLine
 62
7
  6
BYLAYER
 10
63.5681590775
 20
42.1805681354
 11
61.8193825839
 21
36.1858101942
  0
LINE
  5
291
100
AcDbEntity
  8
0
100
AcDbLine
 62
7
  6
BYLAYER
 10
56.7799704833
 20
30.8067817021
 11
53.5980032159
 21
25.2954221326
  0
LINE
  5
292
100
AcDbEntity
  8
0
100
AcDbLine
 62
7
  6
BYLAYER
 10
28.7079334261
 20
12.9664401873
 11
28.5665126587
 21
12.8847913565
  0
LINE
  5
293
100
AcDbEntity
  8
0
100
AcDbLine
 62
7
  6
BYLAYER
 10
30.475707739
 20
11.945838301
 11
53.5980032159
 21
25.2954221326
  0
LINE
  5
294
100
AcDbEntity
  8
0
100
AcDbLine
 62
7
  6
BYLAYER
 10
44.511705071
 20
82.3894031576
 11
42.2135984643
 21
83.7161856098
  0
LINE
  5
295
100
AcDbEntity
  8
0
100
AcDbLine
 62
7
  6
BYLAYER
 10
39.3851595637
 20
85.3491486279
 11
37.087052957
 21
86.6759310801
  0
LINE
  5
296
100
AcDbEntity
  8
0
100
AcDbLine
 62
7
  6
BYLAYER
 10
63.5681590775
 20
73.5096947933
 11
64.0631158661
 21
73.2239378228
  0
LINE
  5
297
100
AcDbEntity
  8
0
100
AcDbLine
 62
7
  6
BYLAYER
 10
62.8753356347
 20
75.216078868
 11
64.4873781685
 21
74.2853867322
  0
LINE
  5
298
100
AcDbEntity
  8
0
100
AcDbLine
 62
7
  6
BYLAYER
 10
61.6589628196
 20
77.3880028694
 11
65.7601650754
 21
75.0202262092
  0
LINE
  5
299
100
AcDbEntity
  8
0
100
AcDbLine
 62
7
  6
BYLAYER
 10
61.8041799592
 20
77.5881293689
 11
63.1439124688
 21
76.8146519423
  0
LINE
  5
29A
100
AcDbEntity
  8
0
100
AcDbLine
 62
7
  6
BYLAYER
 10
60.0536339408
 20
79.5640398886
 11
58.144437683
 21
80.6662899258
  0
LINE
  5
29B
100
AcDbEntity
  8
0
100
AcDbLine
 62
7
  6
BYLAYER
 10
60.0536339408
 20
79.5640398886
 11
63.4387765351
 21
74.3478726088
  0
LINE
  5
29C
100
AcDbEntity
  8
0
100
AcDbLine
 62
7
  6
BYLAYER
 10
63.1439124688
 20
76.8146519423
 11
62.4136068736
 21
77.9399800617
  0
LINE
  5
29D
100
AcDbEntity
  8
0
100
AcDbLine
 62
7
  6
BYLAYER
 10
42.8499353936
 20
91.9218604689
 11
56.7799704833
 21
83.8794388155
  0
LINE
  5
29E
100
AcDbEntity
  8
0
100
AcDbLine
 62
7
  6
BYLAYER
 10
47.7289601135
 20
89.9214053817
 11
56.4971207054
 21
84.8592200257
  0
LINE
  5
29F
100
AcDbEntity
  8
0
100
AcDbLine
 62
7
  6
BYLAYER
 10
56.7091947436
 20
85.5530751291
 11
61.6589628196
 21
82.6953898475
  0
LINE
  5
2A0
100
AcDbEntity
  8
0
100
AcDbLine
 62
7
  6
BYLAYER
 10
61.6589628196
 20
82.6953898475
 11
65.1286643808
 21
80.1723021546
  0
ARC
  5
2A1
100
AcDbEntity
  8
0
100
AcDbCircle
 62
7
  6
BYLAYER
 10
15.3260073873
 20
44.137062457
 40
2.3535776695
100
AcDbArc
 50
212.6952679616
 51
215.2996075358
  0
ARC
  5
2A2
100
AcDbEntity
  8
0
100
AcDbCircle
 62
7
  6
BYLAYER
 10
14.3568171382
 20
44.3662503231
 40
1.8292527133
100
AcDbArc
 50
238.5837558602
 51
239.1947469293
  0
SPLINE
  5
2A3
100
AcDbEntity
  8
0
100
AcDbSpline
 62
7
  6
BYLAYER
 70
0
 71
3
 72
11
 73
7
 74
0
 42
0.0000001
 43
0.0000001
 44
0.0000000001
 40
0.0
 40
0.0
 40
0.0
 40
0.0
 40
0.235282868
 40
0.4813248855
 40
0.736776501
 40
1.0
 40
1.0
 40
1.0
 40
1.0
 10
8.8889194816
 20
35.2932946135
 30
0.0
 10
8.883584081
 20
35.1357757064
 30
0.0
 10
8.8580349159
 20
34.8139055309
 30
0.0
 10
8.7796088296
 20
34.3261666068
 30
0.0
 10
8.6609706302
 20
33.8273931284
 30
0.0
 10
8.5573365076
 20
33.49544253
 30
0.0
 10
8.4993518301
 20
33.3289234965
 30
0.0
  0
SPLINE
  5
2A4
100
AcDbEntity
  8
0
100
AcDbSpline
 62
7
  6
BYLAYER
 70
0
 71
3
 72
9
 73
5
 74
0
 42
0.0000001
 43
0.0000001
 44
0.0000000001
 40
0.0
 40
0.0
 40
0.0
 40
0.0
 40
0.5082416537
 40
1.0
 40
1.0
 40
1.0
 40
1.0
 10
8.4993518301
 20
33.3289234965
 30
0.0
 10
8.5446007006
 20
33.2640629527
 30
0.0
 10
8.6465495142
 20
33.1447791282
 30
0.0
 10
8.7726522615
 20
33.0510058596
 30
0.0
 10
8.8389196898
 20
33.0127452481
 30
0.0
  0
SPLINE
  5
2A5
100
AcDbEntity
  8
0
100
AcDbSpline
 62
7
  6
BYLAYER
 70
0
 71
3
 72
9
 73
5
 74
0
 42
0.0000001
 43
0.0000001
 44
0.0000000001
 40
0.0
 40
0.0
 40
0.0
 40
0.0
 40
0.5082401633
 40
1.0
 40
1.0
 40
1.0
 40
1.0
 10
16.3536132352
 20
28.7943429883
 30
0.0
 10
16.2748225003
 20
28.8011005382
 30
0.0
 10
16.1205541037
 20
28.8297500158
 30
0.0
 10
15.9763010793
 20
28.8920694062
 30
0.0
 10
15.9100361467
 20
28.9303266146
 30
0.0
  0
SPLINE
  5
2A6
100
AcDbEntity
  8
0
100
AcDbSpline
 62
7
  6
BYLAYER
 70
0
 71
3
 72
11
 73
7
 74
0
 42
0.0000001
 43
0.0000001
 44
0.0000000001
 40
0.0
 40
0.0
 40
0.0
 40
0.0
 40
0.2352822498
 40
0.4813240243
 40
0.7367758322
 40
1.0
 40
1.0
 40
1.0
 40
1.0
 10
17.8600088226
 20
30.1138947599
 30
0.0
 10
17.7262625432
 20
30.0305159061
 30
0.0
 10
17.460292091
 20
29.8474566922
 30
0.0
 10
17.0771149252
 20
29.5356708598
 30
0.0
 10
16.7044873854
 20
29.1835423478
 30
0.0
 10
16.4688293754
 20
28.9278182959
 30
0.0
 10
16.3536132352
 20
28.7943429883
 30
0.0
  0
SPLINE
  5
2A7
100
AcDbEntity
  8
0
100
AcDbSpline
 62
7
  6
BYLAYER
 70
0
 71
3
 72
11
 73
7
 74
0
 42
0.0000001
 43
0.0000001
 44
0.0000000001
 40
0.0
 40
0.0
 40
0.0
 40
0.0
 40
0.263223499
 40
0.5186751145
 40
0.764717132
 40
1.0
 40
1.0
 40
1.0
 40
1.0
 10
15.5704490816
 20
29.2465159513
 30
0.0
 10
15.6284337591
 20
29.4130349848
 30
0.0
 10
15.7320678817
 20
29.7449855832
 30
0.0
 10
15.8507060811
 20
30.2437590616
 30
0.0
 10
15.9291321674
 20
30.7314979857
 30
0.0
 10
15.9546813325
 20
31.0533681612
 30
0.0
 10
15.9600167331
 20
31.2108870683
 30
0.0
  0
SPLINE
  5
2A8
100
AcDbEntity
  8
0
100
AcDbSpline
 62
7
  6
BYLAYER
 70
0
 71
3
 72
9
 73
5
 74
0
 42
0.0000001
 43
0.0000001
 44
0.0000000001
 40
0.0
 40
0.0
 40
0.0
 40
0.0
 40
0.4917583463
 40
1.0
 40
1.0
 40
1.0
 40
1.0
 10
15.9100169413
 20
28.9303377029
 30
0.0
 10
15.843749513
 20
28.9685983144
 30
0.0
 10
15.7176467657
 20
29.062371583
 30
0.0
 10
15.6156979521
 20
29.1816554075
 30
0.0
 10
15.5704490816
 20
29.2465159513
 30
0.0
  0
SPLINE
  5
2A9
100
AcDbEntity
  8
0
100
AcDbSpline
 62
7
  6
BYLAYER
 70
0
 71
3
 72
12
 73
8
 74
0
 42
0.0000001
 43
0.0000001
 44
0.0000000001
 40
0.0
 40
0.0
 40
0.0
 40
0.0
 40
0.1081693544
 40
0.2183735177
 40
0.4513309383
 40
0.7105262175
 40
1.0
 40
1.0
 40
1.0
 40
1.0
 10
18.3199462272
 20
62.8026480774
 30
0.0
 10
18.3642126698
 20
62.8282132254
 30
0.0
 10
18.4492921272
 20
62.8876638829
 30
0.0
 10
18.6019953061
 20
63.0377801469
 30
0.0
 10
18.7532490493
 20
63.2843333949
 30
0.0
 10
18.858348393
 20
63.6416554057
 30
0.0
 10
18.8791547613
 20
63.901860496
 30
0.0
 10
18.8791547613
 20
64.0386593865
 30
0.0
  0
SPLINE
  5
2AA
100
AcDbEntity
  8
0
100
AcDbSpline
 62
7
  6
BYLAYER
 70
0
 71
3
 72
11
 73
7
 74
0
 42
0.0000001
 43
0.0000001
 44
0.0000000001
 40
0.0
 40
0.0
 40
0.0
 40
0.0
 40
0.2177679319
 40
0.4508925601
 40
0.7103615767
 40
1.0
 40
1.0
 40
1.0
 40
1.0
 10
64.9873599936
 20
63.0510533473
 30
0.0
 10
65.0203368834
 20
63.0319975196
 30
0.0
 10
65.0820821459
 20
62.9801589366
 30
0.0
 10
65.147779836
 20
62.8726990329
 30
0.0
 10
65.1867815838
 20
62.7403016664
 30
0.0
 10
65.1944820057
 20
62.6439404543
 30
0.0
 10
65.1944820057
 20
62.5932838518
 30
0.0
  0
SPLINE
  5
2AB
100
AcDbEntity
  8
0
100
AcDbSpline
 62
7
  6
BYLAYER
 70
0
 71
3
 72
9
 73
5
 74
0
 42
0.0000001
 43
0.0000001
 44
0.0000000001
 40
0.0
 40
0.0
 40
0.0
 40
0.0
 40
0.2468847718
 40
1.0
 40
1.0
 40
1.0
 40
1.0
 10
65.7773112611
 20
51.2325578175
 30
0.0
 10
65.7826332489
 20
51.229479607
 30
0.0
 10
65.803613395
 20
51.2160288442
 30
0.0
 10
65.822034315
 20
51.1986764842
 30
0.0
 10
65.8339622978
 20
51.1842038627
 30
0.0
  0
SPLINE
  5
2AC
100
AcDbEntity
  8
0
100
AcDbSpline
 62
7
  6
BYLAYER
 70
0
 71
3
 72
9
 73
5
 74
0
 42
0.0000001
 43
0.0000001
 44
0.0000000001
 40
0.0
 40
0.0
 40
0.0
 40
0.0
 40
0.4596669752
 40
1.0
 40
1.0
 40
1.0
 40
1.0
 10
65.8339622978
 20
51.1842038627
 30
0.0
 10
65.8573160627
 20
51.1558679566
 30
0.0
 10
65.8928628829
 20
51.0815341774
 30
0.0
 10
65.9015858429
 20
51.0010619017
 30
0.0
 10
65.9015858429
 20
50.9578985655
 30
0.0
  0
SPLINE
  5
2AD
100
AcDbEntity
  8
0
100
AcDbSpline
 62
7
  6
BYLAYER
 70
0
 71
3
 72
11
 73
7
 74
0
 42
0.0000001
 43
0.0000001
 44
0.0000000001
 40
0.0
 40
0.0
 40
0.0
 40
0.0
 40
0.2764774245
 40
0.53491247
 40
0.7754293586
 40
1.0
 40
1.0
 40
1.0
 40
1.0
 10
12.8588353395
 20
44.8042911857
 30
0.0
 10
12.8588353395
 20
44.6177763813
 30
0.0
 10
12.8775681348
 20
44.2565073278
 30
0.0
 10
12.9679270774
 20
43.7397707071
 30
0.0
 10
13.1189177552
 20
43.2737971177
 30
0.0
 10
13.2634965317
 20
42.9932158599
 30
0.0
 10
13.3453413964
 20
42.8657284808
 30
0.0
  0
SPLINE
  5
2AE
100
AcDbEntity
  8
0
100
AcDbSpline
 62
7
  6
BYLAYER
 70
0
 71
3
 72
9
 73
5
 74
0
 42
0.0000001
 43
0.0000001
 44
0.0000000001
 40
0.0
 40
0.0
 40
0.0
 40
0.0
 40
0.2254380513
 40
1.0
 40
1.0
 40
1.0
 40
1.0
 10
63.4387765351
 20
74.3478726088
 30
0.0
 10
63.4605374781
 20
74.3143411648
 30
0.0
 10
63.5427139705
 20
74.1561739092
 30
0.0
 10
63.5681590775
 20
73.9737088079
 30
0.0
 10
63.5681590775
 20
73.8363668475
 30
0.0
  0
SPLINE
  5
2AF
100
AcDbEntity
  8
0
100
AcDbSpline
 62
7
  6
BYLAYER
 70
0
 71
3
 72
16
 73
12
 74
0
 42
0.0000001
 43
0.0000001
 44
0.0000000001
 40
0.0
 40
0.0
 40
0.0
 40
0.0
 40
0.1449916984
 40
0.293806818
 40
0.4402788247
 40
0.5788765249
 40
0.7049394556
 40
0.8158740773
 40
0.9123368145
 40
0.9568020387
 40
1.0
 40
1.0
 40
1.0
 40
1.0
 10
61.8193825839
 20
36.1858101942
 30
0.0
 10
61.7970248431
 20
36.1091684709
 30
0.0
 10
61.7391412434
 20
35.9573349232
 30
0.0
 10
61.6212928377
 20
35.744627021
 30
0.0
 10
61.4767722671
 20
35.5533279043
 30
0.0
 10
61.3141323478
 20
35.3944793231
 30
0.0
 10
61.1422089234
 20
35.2771985245
 30
0.0
 10
60.9701835132
 20
35.20811628
 30
0.0
 10
60.8290469059
 20
35.195541338
 30
0.0
 10
60.7291748106
 20
35.2163862319
 30
0.0
 10
60.6846312076
 20
35.2360860882
 30
0.0
 10
60.6640339516
 20
35.2479824485
 30
0.0
  0
SPLINE
  5
2B0
100
AcDbEntity
  8
0
100
AcDbSpline
 62
7
  6
BYLAYER
 70
0
 71
3
 72
12
 73
8
 74
0
 42
0.0000001
 43
0.0000001
 44
0.0000000001
 40
0.0
 40
0.0
 40
0.0
 40
0.0
 40
0.2624788442
 40
0.5233042338
 40
0.7720076267
 40
0.8891053074
 40
1.0
 40
1.0
 40
1.0
 40
1.0
 10
14.7072173924
 20
49.7906602936
 30
0.0
 10
14.422319003
 20
49.4137114181
 30
0.0
 10
13.9093935295
 20
48.6188916035
 30
0.0
 10
13.3266016352
 20
47.3525603866
 30
0.0
 10
13.0106699635
 20
46.2639223576
 30
0.0
 10
12.8816175434
 20
45.4145698788
 30
0.0
 10
12.8588353395
 20
45.0039183009
 30
0.0
 10
12.8588353395
 20
44.8042911857
 30
0.0
  0
SPLINE
  5
2B1
100
AcDbEntity
  8
0
100
AcDbSpline
 62
7
  6
BYLAYER
 70
0
 71
3
 72
11
 73
7
 74
0
 42
0.0000001
 43
0.0000001
 44
0.0000000001
 40
0.0
 40
0.0
 40
0.0
 40
0.0
 40
0.2285513053
 40
0.4799032833
 40
0.7418011801
 40
1.0
 40
1.0
 40
1.0
 40
1.0
 10
65.9015858429
 20
50.9578985655
 30
0.0
 10
65.9015858429
 20
50.908409397
 30
0.0
 10
65.8881248987
 20
50.8043929486
 30
0.0
 10
65.8379848953
 20
50.6510209257
 30
0.0
 10
65.760046965
 20
50.5024664478
 30
0.0
 10
65.6921406962
 20
50.4118420177
 30
0.0
 10
65.654696118
 20
50.3703244893
 30
0.0
  0
SPLINE
  5
2B2
100
AcDbEntity
  8
0
100
AcDbSpline
 62
7
  6
BYLAYER
 70
0
 71
3
 72
19
 73
15
 74
0
 42
0.0000001
 43
0.0000001
 44
0.0000000001
 40
0.0
 40
0.0
 40
0.0
 40
0.0
 40
0.062391684
 40
0.1288324836
 40
0.2703533745
 40
0.4174431196
 40
0.5617172598
 40
0.6953244085
 40
0.7563177584
 40
0.812797985
 40
0.8647366222
 40
0.9125504304
 40
0.9571578829
 40
1.0
 40
1.0
 40
1.0
 40
1.0
 10
18.8791547613
 20
64.0386593865
 30
0.0
 10
18.8791547613
 20
64.1506006377
 30
0.0
 10
18.8639031314
 20
64.3819073543
 30
0.0
 10
18.7789601449
 20
64.8602126426
 30
0.0
 10
18.5735134002
 20
65.4674296588
 30
0.0
 10
18.2022281966
 20
66.1535495267
 30
0.0
 10
17.730694385
 20
66.7572597751
 30
0.0
 10
17.2719112713
 20
67.1635695345
 30
0.0
 10
16.8867905495
 20
67.3993153811
 30
0.0
 10
16.6077994971
 20
67.522604105
 30
0.0
 10
16.3355925311
 20
67.5948991341
 30
0.0
 10
16.0754940837
 20
67.6141022132
 30
0.0
 10
15.8332909793
 20
67.5785385494
 30
0.0
 10
15.6865335542
 20
67.5176126932
 30
0.0
 10
15.6199707795
 20
67.4791707701
 30
0.0
  0
SPLINE
  5
2B3
100
AcDbEntity
  8
0
100
AcDbSpline
 62
7
  6
BYLAYER
 70
0
 71
3
 72
17
 73
13
 74
0
 42
0.0000001
 43
0.0000001
 44
0.0000000001
 40
0.0
 40
0.0
 40
0.0
 40
0.0
 40
0.1454857892
 40
0.2943694473
 40
0.4407512481
 40
0.5790768614
 40
0.704846083
 40
0.8155668155
 40
0.8654979667
 40
0.9123009956
 40
0.9567734516
 40
1.0
 40
1.0
 40
1.0
 40
1.0
 10
23.819617323
 20
62.0448786417
 30
0.0
 10
23.7575538848
 20
62.2501944013
 30
0.0
 10
23.5989254677
 20
62.6561669635
 30
0.0
 10
23.2790148926
 20
63.2240230989
 30
0.0
 10
22.8893502923
 20
63.7335657501
 30
0.0
 10
22.4519971756
 20
64.1556939241
 30
0.0
 10
21.991450464
 20
64.4666010675
 30
0.0
 10
21.5937561385
 20
64.6234644831
 30
0.0
 10
21.2901737379
 20
64.6694920954
 30
0.0
 10
21.0808749074
 20
64.6657831446
 30
0.0
 10
20.8856579464
 20
64.6244207112
 30
0.0
 10
20.7663477392
 20
64.5717093871
 30
0.0
 10
20.7111608005
 20
64.5398373375
 30
0.0
  0
SPLINE
  5
2B4
100
AcDbEntity
  8
0
100
AcDbSpline
 62
7
  6
BYLAYER
 70
0
 71
3
 72
9
 73
5
 74
0
 42
0.0000001
 43
0.0000001
 44
0.0000000001
 40
0.0
 40
0.0
 40
0.0
 40
0.0
 40
0.2419568412
 40
1.0
 40
1.0
 40
1.0
 40
1.0
 10
65.1944820057
 20
62.5932838518
 30
0.0
 10
65.1944820057
 20
62.5801278357
 30
0.0
 10
65.1933434032
 20
62.5257568697
 30
0.0
 10
65.1878335814
 20
62.4715066886
 30
0.0
 10
65.1816091291
 20
62.4307620088
 30
0.0
  0
SPLINE
  5
2B5
100
AcDbEntity
  8
0
100
AcDbSpline
 62
7
  6
BYLAYER
 70
0
 71
3
 72
11
 73
7
 74
0
 42
0.0000001
 43
0.0000001
 44
0.0000000001
 40
0.0
 40
0.0
 40
0.0
 40
0.0
 40
0.2825091495
 40
0.5419834677
 40
0.7797135879
 40
1.0
 40
1.0
 40
1.0
 40
1.0
 10
11.5860425446
 20
44.8859366171
 30
0.0
 10
11.5860425446
 20
44.6259181075
 30
0.0
 10
11.6175609247
 20
44.126150338
 30
0.0
 10
11.7729649181
 20
43.4220910507
 30
0.0
 10
12.0327864227
 20
42.8104330559
 30
0.0
 10
12.2810792887
 20
42.4639814852
 30
0.0
 10
12.4194297814
 20
42.3157706981
 30
0.0
  0
SPLINE
  5
2B6
100
AcDbEntity
  8
0
100
AcDbSpline
 62
7
  6
BYLAYER
 70
0
 71
3
 72
9
 73
5
 74
0
 42
0.0000001
 43
0.0000001
 44
0.0000000001
 40
0.0
 40
0.0
 40
0.0
 40
0.0
 40
0.5036341694
 40
1.0
 40
1.0
 40
1.0
 40
1.0
 10
12.4194297814
 20
42.3157706981
 30
0.0
 10
12.4932539807
 20
42.236685019
 30
0.0
 10
12.6508525184
 20
42.0895248431
 30
0.0
 10
12.8281832652
 20
41.966737444
 30
0.0
 10
12.9201023218
 20
41.9126999884
 30
0.0
  0
SPLINE
  5
2B7
100
AcDbEntity
  8
0
100
AcDbSpline
 62
7
  6
BYLAYER
 70
0
 71
3
 72
12
 73
8
 74
0
 42
0.0000001
 43
0.0000001
 44
0.0000000001
 40
0.0
 40
0.0
 40
0.0
 40
0.0
 40
0.2630991494
 40
0.5237501155
 40
0.7720720541
 40
0.8890673725
 40
1.0
 40
1.0
 40
1.0
 40
1.0
 10
13.5921099027
 20
50.4344654023
 30
0.0
 10
13.2820794141
 20
50.0106585574
 30
0.0
 10
12.7246081031
 20
49.1215459649
 30
0.0
 10
12.0919926798
 20
47.7114910557
 30
0.0
 10
11.7500568538
 20
46.5037662496
 30
0.0
 10
11.6106107274
 20
45.5624909943
 30
0.0
 10
11.5860425446
 20
45.1073392434
 30
0.0
 10
11.5860425446
 20
44.8859366171
 30
0.0
  0
SPLINE
  5
2B8
100
AcDbEntity
  8
0
100
AcDbSpline
 62
7
  6
BYLAYER
 70
0
 71
3
 72
11
 73
7
 74
0
 42
0.0000001
 43
0.0000001
 44
0.0000000001
 40
0.0
 40
0.0
 40
0.0
 40
0.0
 40
0.2177456106
 40
0.4508806986
 40
0.710429715
 40
1.0
 40
1.0
 40
1.0
 40
1.0
 10
60.6640339516
 20
35.2479824485
 30
0.0
 10
60.6310565833
 20
35.2670291923
 30
0.0
 10
60.5692966097
 20
35.3188474595
 30
0.0
 10
60.5035928825
 20
35.4263229301
 30
0.0
 10
60.4646233534
 20
35.5587311284
 30
0.0
 10
60.4569021938
 20
35.6550906231
 30
0.0
 10
60.4569021938
 20
35.7057350082
 30
0.0
  0
SPLINE
  5
2B9
100
AcDbEntity
  8
0
100
AcDbSpline
 62
7
  6
BYLAYER
 70
0
 71
3
 72
19
 73
15
 74
0
 42
0.0000001
 43
0.0000001
 44
0.0000000001
 40
0.0
 40
0.0
 40
0.0
 40
0.0
 40
0.062391684
 40
0.1288324836
 40
0.2703533745
 40
0.4174431196
 40
0.5617172598
 40
0.6953244085
 40
0.7563177584
 40
0.812797985
 40
0.8647366222
 40
0.9125504304
 40
0.9571578829
 40
1.0
 40
1.0
 40
1.0
 40
1.0
 10
15.0607622455
 20
66.2431594609
 30
0.0
 10
15.0607622455
 20
66.1312182098
 30
0.0
 10
15.0760138754
 20
65.8999114932
 30
0.0
 10
15.1609568618
 20
65.4216062049
 30
0.0
 10
15.3664036065
 20
64.8143891886
 30
0.0
 10
15.7376888101
 20
64.1282693208
 30
0.0
 10
16.2092226217
 20
63.5245590723
 30
0.0
 10
16.6680057354
 20
63.118249313
 30
0.0
 10
17.0531264572
 20
62.8825034664
 30
0.0
 10
17.3321175096
 20
62.7592147425
 30
0.0
 10
17.6043244756
 20
62.6869197134
 30
0.0
 10
17.864422923
 20
62.6677166343
 30
0.0
 10
18.1066260274
 20
62.7032802981
 30
0.0
 10
18.2533834525
 20
62.7642061543
 30
0.0
 10
18.3199462272
 20
62.8026480774
 30
0.0
  0
SPLINE
  5
2BA
100
AcDbEntity
  8
0
100
AcDbSpline
 62
7
  6
BYLAYER
 70
0
 71
3
 72
15
 73
11
 74
0
 42
0.0000001
 43
0.0000001
 44
0.0000000001
 40
0.0
 40
0.0
 40
0.0
 40
0.0
 40
0.1177601005
 40
0.2458099937
 40
0.3803969178
 40
0.5171517952
 40
0.651413203
 40
0.7788099316
 40
0.8957369606
 40
1.0
 40
1.0
 40
1.0
 40
1.0
 10
20.1519522665
 20
63.3038260284
 30
0.0
 10
20.1519522665
 20
63.1285050001
 30
0.0
 10
20.1893281705
 20
62.762162973
 30
0.0
 10
20.3351872312
 20
62.213037187
 30
0.0
 10
20.5665189037
 20
61.6632964532
 30
0.0
 10
20.8716815574
 20
61.1402798039
 30
0.0
 10
21.2357171899
 20
60.6697496366
 30
0.0
 10
21.6408517626
 20
60.2748136228
 30
0.0
 10
22.0672110515
 20
59.9748384212
 30
0.0
 10
22.371340772
 20
59.8400373273
 30
0.0
 10
22.5203744746
 20
59.7966292473
 30
0.0
  0
SPLINE
  5
2BB
100
AcDbEntity
  8
0
100
AcDbSpline
 62
7
  6
BYLAYER
 70
0
 71
3
 72
11
 73
7
 74
0
 42
0.0000001
 43
0.0000001
 44
0.0000000001
 40
0.0
 40
0.0
 40
0.0
 40
0.0
 40
0.2972974507
 40
0.5599027546
 40
0.7900361709
 40
1.0
 40
1.0
 40
1.0
 40
1.0
 10
64.3840035457
 20
62.9330865054
 30
0.0
 10
64.43541988
 20
62.9715455599
 30
0.0
 10
64.5385770681
 20
63.0362625016
 30
0.0
 10
64.7007606261
 20
63.0944683318
 30
0.0
 10
64.8548400633
 20
63.1038816787
 30
0.0
 10
64.9480971215
 20
63.0737415549
 30
0.0
 10
64.9873599936
 20
63.0510533473
 30
0.0
  0
SPLINE
  5
2BC
100
AcDbEntity
  8
0
100
AcDbSpline
 62
7
  6
BYLAYER
 70
0
 71
3
 72
11
 73
7
 74
0
 42
0.0000001
 43
0.0000001
 44
0.0000000001
 40
0.0
 40
0.0
 40
0.0
 40
0.0
 40
0.2220244654
 40
0.4610308027
 40
0.7201234874
 40
1.0
 40
1.0
 40
1.0
 40
1.0
 10
12.9945373802
 20
42.0614482653
 30
0.0
 10
12.8772712303
 20
42.2102032405
 30
0.0
 10
12.6685004659
 20
42.5475094645
 30
0.0
 10
12.4504076958
 20
43.1251015372
 30
0.0
 10
12.3198810301
 20
43.7784071662
 30
0.0
 10
12.2931522697
 20
44.2389212431
 30
0.0
 10
12.2931522697
 20
44.4776958626
 30
0.0
  0
SPLINE
  5
2BD
100
AcDbEntity
  8
0
100
AcDbSpline
 62
7
  6
BYLAYER
 70
0
 71
3
 72
9
 73
5
 74
0
 42
0.0000001
 43
0.0000001
 44
0.0000000001
 40
0.0
 40
0.0
 40
0.0
 40
0.0
 40
0.2357341948
 40
1.0
 40
1.0
 40
1.0
 40
1.0
 10
60.4569021938
 20
35.7057350082
 30
0.0
 10
60.4569021938
 20
35.7325319922
 30
0.0
 10
60.4617553262
 20
35.8461967238
 30
0.0
 10
60.484299837
 20
35.9587467867
 30
0.0
 10
60.508629478
 20
36.04214813
 30
0.0
  0
SPLINE
  5
2BE
100
AcDbEntity
  8
0
100
AcDbSpline
 62
7
  6
BYLAYER
 70
0
 71
3
 72
12
 73
8
 74
0
 42
0.0000001
 43
0.0000001
 44
0.0000000001
 40
0.0
 40
0.0
 40
0.0
 40
0.0
 40
0.1081693544
 40
0.2183735177
 40
0.4513309383
 40
0.7105262175
 40
1.0
 40
1.0
 40
1.0
 40
1.0
 10
15.6199707795
 20
67.4791707701
 30
0.0
 10
15.5757043369
 20
67.4536056221
 30
0.0
 10
15.4906248795
 20
67.3941549646
 30
0.0
 10
15.3379217006
 20
67.2440387006
 30
0.0
 10
15.1866679574
 20
66.9974854526
 30
0.0
 10
15.0815686137
 20
66.6401634418
 30
0.0
 10
15.0607622455
 20
66.3799583515
 30
0.0
 10
15.0607622455
 20
66.2431594609
 30
0.0
  0
SPLINE
  5
2BF
100
AcDbEntity
  8
0
100
AcDbSpline
 62
7
  6
BYLAYER
 70
0
 71
3
 72
12
 73
8
 74
0
 42
0.0000001
 43
0.0000001
 44
0.0000000001
 40
0.0
 40
0.0
 40
0.0
 40
0.0
 40
0.1109326275
 40
0.2279279459
 40
0.4762498845
 40
0.7369008506
 40
1.0
 40
1.0
 40
1.0
 40
1.0
 10
12.2931522697
 20
44.4776958626
 30
0.0
 10
12.2931522697
 20
44.6990984889
 30
0.0
 10
12.3177204525
 20
45.1542502397
 30
0.0
 10
12.4571665789
 20
46.0955254951
 30
0.0
 10
12.799102405
 20
47.3032503012
 30
0.0
 10
13.4317178282
 20
48.7133052103
 30
0.0
 10
13.9891891393
 20
49.6024178029
 30
0.0
 10
14.2992196279
 20
50.0262246478
 30
0.0
  0
SPLINE
  5
2C0
100
AcDbEntity
  8
0
100
AcDbSpline
 62
7
  6
BYLAYER
 70
0
 71
3
 72
12
 73
8
 74
0
 42
0.0000001
 43
0.0000001
 44
0.0000000001
 40
0.0
 40
0.0
 40
0.0
 40
0.0
 40
0.1081693544
 40
0.2183735177
 40
0.4513309383
 40
0.7105262175
 40
1.0
 40
1.0
 40
1.0
 40
1.0
 10
20.7111608005
 20
64.5398373375
 30
0.0
 10
20.666894358
 20
64.5142721896
 30
0.0
 10
20.5818149006
 20
64.454821532
 30
0.0
 10
20.4291117216
 20
64.3047052681
 30
0.0
 10
20.2778579784
 20
64.05815202
 30
0.0
 10
20.1727586348
 20
63.7008300092
 30
0.0
 10
20.1519522665
 20
63.4406249189
 30
0.0
 10
20.1519522665
 20
63.3038260284
 30
0.0
  0
ENDSEC
  0
SECTION
  2
OBJECTS
  0
DICTIONARY
  5
C
100
AcDbDictionary
280
0
281
1
  3
ACAD_GROUP
350
D
  3
ACAD_MLINESTYLE
350
17
  3
ACAD_LAYOUT
350
1A
  3
ACAD_PLOTSETTINGS
350
19
  3
ACAD_PLOTSTYLENAME
350
E
  0
DICTIONARY
  5
D
102
{ACAD_REACTORS
330
C
102
}
100
AcDbDictionary
280
0
281
1
  0
ACDBDICTIONARYWDFLT
  5
E
102
{ACAD_REACTORS
330
C
102
}
100
AcDbDictionary
281
1
  3
Normal
350
F
100
AcDbDictionaryWithDefault
340
F
  0
DICTIONARY
  5
17
102
{ACAD_REACTORS
330
C
102
}
100
AcDbDictionary
280
0
281
1
  3
Standard
350
18
  0
DICTIONARY
  5
19
102
{ACAD_REACTORS
330
C
102
}
100
AcDbDictionary
281
1
  0
DICTIONARY
  5
1A
102
{ACAD_REACTORS
330
C
102
}
100
AcDbDictionary
281
1
  3
Model
350
2C1
  3
Layout1
350
2C2
  0
ACDBPLACEHOLDER
  5
F
102
{ACAD_REACTORS
330
E
102
}
  0
MLINESTYLE
  5
18
102
{ACAD_REACTORS
330
17
102
}
100
AcDbMlineStyle
  2
STANDARD
 70
0
  3

 62
256
 51
90.0
 52
90.0
 71
2
 49
0.5
 62
256
  6
BYLAYER
 49
-0.5
 62
256
  6
BYLAYER
  0
LAYOUT
  5
2C1
102
{ACAD_REACTORS
330
1A
102
}
100
AcDbPlotSettings
  1

  2
none_device
  4

  6

 40
0.0
 41
0.0
 42
0.0
 43
0.0
 44
210.0
 45
297.0
 46
0.0
 47
0.0
 48
0.0
 49
0.0
140
0.0
141
0.0
142
1.0
143
1.0
 70
1024
 72
1
 73
0
 74
0
  7

 75
0
147
1.0
148
0.0
149
0.0
100
AcDbLayout
  1
Model
 70
0
 71
0
 10
0.0
 20
0.0
 11
210.0
 21
297.0
 12
0.0
 22
0.0
 32
0.0
 14
0.0
 24
0.0
 34
0.0
 15
0.0
 25
0.0
 35
0.0
146
0.0
 13
0.0
 23
0.0
 33
0.0
 16
1.0
 26
0.0
 36
0.0
 17
0.0
 27
1.0
 37
0.0
 76
0
330
210
345
0
346
0
  0
LAYOUT
  5
2C2
102
{ACAD_REACTORS
330
1A
102
}
100
AcDbPlotSettings
  1

  2
none_device
  4

  6

 40
0.0
 41
0.0
 42
0.0
 43
0.0
 44
210.0
 45
297.0
 46
0.0
 47
0.0
 48
0.0
 49
0.0
140
0.0
141
0.0
142
1.0
143
1.0
 70
0
 72
1
 73
0
 74
0
  7

 75
0
147
1.0
148
0.0
149
0.0
100
AcDbLayout
  1
Layout1
 70
0
 71
1
 10
0.0
 20
0.0
 11
210.0
 21
297.0
 12
0.0
 22
0.0
 32
0.0
 14
0.0
 24
0.0
 34
0.0
 15
0.0
 25
0.0
 35
0.0
146
0.0
 13
0.0
 23
0.0
 33
0.0
 16
1.0
 26
0.0
 36
0.0
 17
0.0
 27
1.0
 37
0.0
 76
0
330
211
345
0
346
0
  0
ENDSEC
  0
EOF
