999
DXF file: C:\Users\sesa63760\Dev\_Creo\CAD\MCADPP0003424_3D-CAD\drw0001_7.dxf
999
Pro/ENGINEER 2019471 by Parametric Technology Corporation
  0
SECTION
  2
HEADER
  9
$ACADVER
  1
AC1024
  9
$DWGCODEPAGE
  3
ANSI_1252
  9
$EXTMAX
 10
63.1372320726
 20
89.2940853598
 30
0.0
  9
$EXTMIN
 10
0.0
 20
0.0
 30
0.0
  9
$LIMMIN
 10
0.0
 20
0.0
  9
$LIMMAX
 10
63.1372320726
 20
89.2940853598
  9
$VIEWCTR
 10
31.5686160363
 20
44.6470426799
  9
$VIEWSIZE
 40
89.2940853598
  9
$CLAYER
  8
0
  9
$LTSCALE
 40
5.8206514901
  9
$CELTYPE
  6
BYLAYER
  9
$DIMSCALE
 40
1.0
  9
$DIMASZ
 40
0.7516337151
  9
$DIMEXO
 40
1.0
  9
$DIMDLI
 40
4.0215410295
  9
$DIMEXE
 40
1.0
  9
$DIMCEN
 40
0.9524702438
  9
$DIMLFAC
 40
1.0
  9
$DIMBLK
  1
_FILLED
  9
$DIMALT
 70
0
  9
$DIMALTF
 40
0.0393700787
  9
$DIMTXT
 40
1.0522872012
  9
$DIMTOL
 70
1
  9
$DIMLIM
 70
0
  9
$DIMTFAC
 40
1.0
  9
$DIMTP
 40
0.01
  9
$DIMTM
 40
0.01
  9
$DIMGAP
 40
0.625
  9
$DIMDSEP
 70
46
  9
$AUNITS
 70
0
  9
$PDMODE
 70
3
  9
$PDSIZE
 40
0.3125
  9
$HANDSEED
  5
294
  9
$TILEMODE
 70
1
  9
$MEASUREMENT
 70
1
  9
$INSUNITS
 70
4
  0
ENDSEC
  0
SECTION
  2
CLASSES
  0
CLASS
  1
ACDBDICTIONARYWDFLT
  2
AcDbDictionaryWithDefault
  3
AutoCAD 2000
 90
0
 91
1
280
0
281
0
  0
CLASS
  1
ACDBPLACEHOLDER
  2
AcDbPlaceHolder
  3
AutoCAD 2000
 90
0
 91
1
280
0
281
0
  0
CLASS
  1
LAYOUT
  2
AcDbLayout
  3
AutoCAD 2000
 90
0
 91
0
280
0
281
0
  0
ENDSEC
  0
SECTION
  2
TABLES
  0
TABLE
  2
VPORT
  5
8
100
AcDbSymbolTable
 70
2
  0
VPORT
  5
1F4
100
AcDbSymbolTableRecord
100
AcDbViewportTableRecord
  2
*ACTIVE
 70
0
 10
0.0
 20
0.0
 11
1.0
 21
1.0
 12
31.5686160363
 22
44.6470426799
 13
0.0
 23
0.0
 14
1.0
 24
1.0
 15
0.0
 25
0.0
 16
0.0
 26
0.0
 36
1.0
 17
0.0
 27
0.0
 37
0.0
 40
89.2940853598
 41
0.7070707071
 42
50.0
 43
0.0
 44
0.0
 50
0.0
 51
0.0
 71
0
 72
100
 73
1
 74
1
 75
0
 76
0
 77
0
 78
0
  0
ENDTAB
  0
TABLE
  2
LTYPE
  5
5
100
AcDbSymbolTable
 70
6
  0
LTYPE
  5
14
100
AcDbSymbolTableRecord
100
AcDbLinetypeTableRecord
  2
BYBLOCK
 70
0
  3

 72
65
 73
0
 40
0.0
  0
LTYPE
  5
15
100
AcDbSymbolTableRecord
100
AcDbLinetypeTableRecord
  2
BYLAYER
 70
0
  3

 72
65
 73
0
 40
0.0
  0
LTYPE
  5
16
100
AcDbSymbolTableRecord
100
AcDbLinetypeTableRecord
  2
CONTINUOUS
 70
64
  3
Solid line
 72
65
 73
0
 40
0.0
  0
LTYPE
  5
1F5
100
AcDbSymbolTableRecord
100
AcDbLinetypeTableRecord
  2
CENTER
 70
64
  3
____ _ ____ _ ____ _ ____ _ ____ _ ____ _ ____
 72
65
 73
4
 40
0.6
 49
0.375
 74
0
 49
-0.075
 74
0
 49
0.075
 74
0
 49
-0.075
 74
0
  0
LTYPE
  5
1F6
100
AcDbSymbolTableRecord
100
AcDbLinetypeTableRecord
  2
HIDDEN
 70
64
  3
- - - - - - - - - - - - - - - - - - - -
 72
65
 73
2
 40
0.2
 49
0.1
 74
0
 49
-0.1
 74
0
  0
LTYPE
  5
1F7
100
AcDbSymbolTableRecord
100
AcDbLinetypeTableRecord
  2
PHANTOM
 70
64
  3
_____ _ _ _____ _ _ _____ _ _ _____
 72
65
 73
6
 40
0.8
 49
0.45
 74
0
 49
-0.05
 74
0
 49
0.1
 74
0
 49
-0.05
 74
0
 49
0.1
 74
0
 49
-0.05
 74
0
  0
LTYPE
  5
1F8
100
AcDbSymbolTableRecord
100
AcDbLinetypeTableRecord
  2
DOT
 70
64
  3
. . . . . . . . . . . . . . . . . . . .
 72
65
 73
2
 40
0.2
 49
0.1
 74
0
 49
-0.1
 74
0
  0
LTYPE
  5
1F9
100
AcDbSymbolTableRecord
100
AcDbLinetypeTableRecord
  2
DASHED
 70
64
  3
- - - - - - - - - - - - - - - - - - - -
 72
65
 73
2
 40
0.2
 49
0.1
 74
0
 49
-0.1
 74
0
  0
ENDTAB
  0
TABLE
  2
LAYER
  5
2
100
AcDbSymbolTable
 70
36
  0
LAYER
  5
10
100
AcDbSymbolTableRecord
100
AcDbLayerTableRecord
  2
0
 70
0
 62
7
  6
CONTINUOUS
370
-3
390
F
  0
LAYER
  5
1FA
100
AcDbSymbolTableRecord
100
AcDbLayerTableRecord
  2
DEFAULT_1
 70
0
 62
7
  6
CENTER
370
-3
390
F
  0
LAYER
  5
1FB
100
AcDbSymbolTableRecord
100
AcDbLayerTableRecord
  2
DEFAULT_2
 70
0
 62
8
  6
HIDDEN
370
-3
390
F
  0
LAYER
  5
1FC
100
AcDbSymbolTableRecord
100
AcDbLayerTableRecord
  2
DEFAULT_3
 70
0
 62
7
  6
PHANTOM
370
-3
390
F
  0
LAYER
  5
1FD
100
AcDbSymbolTableRecord
100
AcDbLayerTableRecord
  2
00_COMPONENTS
 70
0
 62
7
  6
CONTINUOUS
370
-3
390
F
  0
LAYER
  5
1FE
100
AcDbSymbolTableRecord
100
AcDbLayerTableRecord
  2
01_1_DEFAULT_DATUMS
 70
0
 62
7
  6
CONTINUOUS
370
-3
390
F
  0
LAYER
  5
1FF
100
AcDbSymbolTableRecord
100
AcDbLayerTableRecord
  2
01_PLANES
 70
0
 62
7
  6
CONTINUOUS
370
-3
390
F
  0
LAYER
  5
200
100
AcDbSymbolTableRecord
100
AcDbLayerTableRecord
  2
02_COORD_SYS
 70
0
 62
7
  6
CONTINUOUS
370
-3
390
F
  0
LAYER
  5
201
100
AcDbSymbolTableRecord
100
AcDbLayerTableRecord
  2
03_AXES
 70
0
 62
7
  6
CONTINUOUS
370
-3
390
F
  0
LAYER
  5
202
100
AcDbSymbolTableRecord
100
AcDbLayerTableRecord
  2
04_POINTS
 70
0
 62
7
  6
CONTINUOUS
370
-3
390
F
  0
LAYER
  5
203
100
AcDbSymbolTableRecord
100
AcDbLayerTableRecord
  2
05_CURVES
 70
0
 62
7
  6
CONTINUOUS
370
-3
390
F
  0
LAYER
  5
204
100
AcDbSymbolTableRecord
100
AcDbLayerTableRecord
  2
06_SURFS
 70
0
 62
7
  6
CONTINUOUS
370
-3
390
F
  0
LAYER
  5
205
100
AcDbSymbolTableRecord
100
AcDbLayerTableRecord
  2
07_COSMETICS
 70
0
 62
7
  6
CONTINUOUS
370
-3
390
F
  0
LAYER
  5
206
100
AcDbSymbolTableRecord
100
AcDbLayerTableRecord
  2
10_NOTES
 70
0
 62
7
  6
CONTINUOUS
370
-3
390
F
  0
LAYER
  5
207
100
AcDbSymbolTableRecord
100
AcDbLayerTableRecord
  2
11_NOTES_PUB
 70
0
 62
7
  6
CONTINUOUS
370
-3
390
F
  0
LAYER
  5
208
100
AcDbSymbolTableRecord
100
AcDbLayerTableRecord
  2
13_REF_GTOL
 70
0
 62
7
  6
CONTINUOUS
370
-3
390
F
  0
LAYER
  5
209
100
AcDbSymbolTableRecord
100
AcDbLayerTableRecord
  2
16_MISC
 70
0
 62
7
  6
CONTINUOUS
370
-3
390
F
  0
LAYER
  5
20A
100
AcDbSymbolTableRecord
100
AcDbLayerTableRecord
  2
17_NO_PRINT
 70
0
 62
7
  6
CONTINUOUS
370
-3
390
F
  0
LAYER
  5
20B
100
AcDbSymbolTableRecord
100
AcDbLayerTableRecord
  2
18_DATUM_CAMS_JOINTS
 70
0
 62
7
  6
CONTINUOUS
370
-3
390
F
  0
LAYER
  5
20C
100
AcDbSymbolTableRecord
100
AcDbLayerTableRecord
  2
19_DATUM_FUNCTIONAL
 70
0
 62
7
  6
CONTINUOUS
370
-3
390
F
  0
LAYER
  5
20D
100
AcDbSymbolTableRecord
100
AcDbLayerTableRecord
  2
20_DATUM_KINEMATIC_SCHEME
 70
0
 62
7
  6
CONTINUOUS
370
-3
390
F
  0
ENDTAB
  0
TABLE
  2
STYLE
  5
3
100
AcDbSymbolTable
 70
1
  0
STYLE
  5
11
100
AcDbSymbolTableRecord
100
AcDbTextStyleTableRecord
  2
STANDARD
 70
0
 40
0.0
 41
0.8
 50
0.0
 71
0
 42
0.2
  3
txt
  4

  0
STYLE
  5
20E
100
AcDbSymbolTableRecord
100
AcDbTextStyleTableRecord
  2
TEXTSTYLE_1
 70
0
 40
0.0
 41
0.8
 50
0.0
 71
0
 42
0.2
  3
gdt
  4

  0
ENDTAB
  0
TABLE
  2
VIEW
  5
6
100
AcDbSymbolTable
 70
0
  0
ENDTAB
  0
TABLE
  2
UCS
  5
7
100
AcDbSymbolTable
 70
0
  0
ENDTAB
  0
TABLE
  2
APPID
  5
9
100
AcDbSymbolTable
 70
1
  0
APPID
  5
20F
100
AcDbSymbolTableRecord
100
AcDbRegAppTableRecord
  2
ACAD
 70
0
  0
ENDTAB
  0
TABLE
  2
BLOCK_RECORD
  5
1
100
AcDbSymbolTable
 70
0
  0
BLOCK_RECORD
  5
210
100
AcDbSymbolTableRecord
100
AcDbBlockTableRecord
  2
*Model_Space
  0
BLOCK_RECORD
  5
211
100
AcDbSymbolTableRecord
100
AcDbBlockTableRecord
  2
*Paper_Space
  0
BLOCK_RECORD
  5
212
100
AcDbSymbolTableRecord
100
AcDbBlockTableRecord
  2
_FILLED
  0
ENDTAB
  0
TABLE
  2
DIMSTYLE
  5
A
100
AcDbSymbolTable
 70
1
100
AcDbDimStyleTable
 71
0
  0
DIMSTYLE
105
213
100
AcDbSymbolTableRecord
100
AcDbDimStyleTableRecord
  2
STANDARD
 70
0
  3

  4

 40
1.0
 41
0.7516337151
 42
1.0
 43
0.38
 44
1.0
 45
0.0
 46
0.0
 47
0.01
 48
0.01
140
1.0522872012
141
0.09
142
0.0
143
25.4
144
1.0
145
0.0
146
1.0
147
0.625
 71
1
 72
0
 73
0
 74
0
 75
0
 76
0
 77
1
 78
8
 79
2
170
0
171
1
172
0
173
0
174
0
175
0
176
0
177
0
178
0
270
2
179
2
271
2
272
2
273
2
274
2
275
0
280
0
281
0
282
0
283
1
284
8
285
0
286
0
287
3
288
0
340
11
278
46
341
212
342
212
343
212
344
212
  0
ENDTAB
  0
ENDSEC
  0
SECTION
  2
BLOCKS
  0
BLOCK
  5
20
100
AcDbEntity
  8
0
100
AcDbBlockBegin
  2
*Model_Space
 70
0
 10
0.0
 20
0.0
 30
0.0
  3
*Model_Space
  1

  0
ENDBLK
  5
21
100
AcDbEntity
  8
0
100
AcDbBlockEnd
  0
BLOCK
  5
1C
100
AcDbEntity
  8
0
100
AcDbBlockBegin
  2
*Paper_Space
 70
0
 10
0.0
 20
0.0
 30
0.0
  3
*Paper_Space
  1

  0
ENDBLK
  5
1D
100
AcDbEntity
  8
0
100
AcDbBlockEnd
  0
BLOCK
  5
214
100
AcDbEntity
  8
0
100
AcDbBlockBegin
  2
_FILLED
 70
64
 10
0.0
 20
0.0
  3
_FILLED
  1

  0
SOLID
  5
215
100
AcDbEntity
  8
0
  6
BYBLOCK
 62
0
100
AcDbTrace
 10
0.0
 20
0.0
 11
-1.0
 21
0.25
 12
-1.0
 22
-0.25
 13
-1.0
 23
-0.25
  0
ENDBLK
  5
216
100
AcDbEntity
  8
0
  6
BYBLOCK
 62
0
100
AcDbBlockEnd
  0
ENDSEC
  0
SECTION
  2
ENTITIES
  0
LINE
  5
217
100
AcDbEntity
  8
0
100
AcDbLine
 62
7
  6
CONTINUOUS
 10
14.1779111224
 20
6.6123563121
 11
49.1779111224
 21
6.6123563121
  0
LINE
  5
218
100
AcDbEntity
  8
0
100
AcDbLine
 62
7
  6
CONTINUOUS
 10
49.1779111224
 20
8.1124051775
 11
14.1779111224
 21
8.1124051775
  0
LINE
  5
219
100
AcDbEntity
  8
0
100
AcDbLine
 62
7
  6
CONTINUOUS
 10
14.1779111224
 20
8.7287660965
 11
49.1779111224
 21
8.7287660965
  0
LINE
  5
21A
100
AcDbEntity
  8
0
100
AcDbLine
 62
7
  6
CONTINUOUS
 10
49.1779111224
 20
9.2117330394
 11
14.1779111224
 21
9.2117330394
  0
LINE
  5
21B
100
AcDbEntity
  8
0
100
AcDbLine
 62
7
  6
CONTINUOUS
 10
14.1779111224
 20
9.3195035035
 11
49.1779111224
 21
9.3195035035
  0
LINE
  5
21C
100
AcDbEntity
  8
0
100
AcDbLine
 62
7
  6
CONTINUOUS
 10
49.1779111224
 20
9.3280190914
 11
14.1779111224
 21
9.3280190914
  0
LINE
  5
21D
100
AcDbEntity
  8
0
100
AcDbLine
 62
7
  6
CONTINUOUS
 10
14.1779111224
 20
9.5136365978
 11
49.1779111224
 21
9.5136365978
  0
LINE
  5
21E
100
AcDbEntity
  8
0
100
AcDbLine
 62
7
  6
CONTINUOUS
 10
14.1779111224
 20
9.6430536499
 11
49.1779111224
 21
9.6430536499
  0
LINE
  5
21F
100
AcDbEntity
  8
0
100
AcDbLine
 62
7
  6
CONTINUOUS
 10
14.1779111224
 20
9.7724707007
 11
49.1779111224
 21
9.7724707007
  0
LINE
  5
220
100
AcDbEntity
  8
0
100
AcDbLine
 62
7
  6
CONTINUOUS
 10
14.1779111224
 20
9.9018877515
 11
49.1779111224
 21
9.9018877515
  0
LINE
  5
221
100
AcDbEntity
  8
0
100
AcDbLine
 62
7
  6
CONTINUOUS
 10
49.1779111224
 20
10.1124695066
 11
14.1779111224
 21
10.1124695066
  0
LINE
  5
222
100
AcDbEntity
  8
0
100
AcDbLine
 62
7
  6
CONTINUOUS
 10
14.1779111224
 20
10.6124696239
 11
49.1779111224
 21
10.6124696239
  0
LINE
  5
223
100
AcDbEntity
  8
0
100
AcDbLine
 62
7
  6
CONTINUOUS
 10
49.1779111224
 20
12.0771243076
 11
14.1779111224
 21
12.0771243076
  0
LINE
  5
224
100
AcDbEntity
  8
0
100
AcDbLine
 62
7
  6
CONTINUOUS
 10
14.1779111224
 20
12.6836929294
 11
49.1779111224
 21
12.6836929294
  0
LINE
  5
225
100
AcDbEntity
  8
0
100
AcDbLine
 62
7
  6
CONTINUOUS
 10
40.3090856157
 20
81.6042812536
 11
41.0829169828
 21
82.092116857
  0
LINE
  5
226
100
AcDbEntity
  8
0
100
AcDbLine
 62
7
  6
CONTINUOUS
 10
14.1779111224
 20
17.7086505094
 11
49.1779111224
 21
17.7086505094
  0
LINE
  5
227
100
AcDbEntity
  8
0
100
AcDbLine
 62
7
  6
CONTINUOUS
 10
46.9279111224
 20
18.4404316837
 11
45.4279111224
 21
18.4404316837
  0
LINE
  5
228
100
AcDbEntity
  8
0
100
AcDbLine
 62
7
  6
CONTINUOUS
 10
17.9279111224
 20
18.4404316837
 11
16.4279111224
 21
18.4404316837
  0
LINE
  5
229
100
AcDbEntity
  8
0
100
AcDbLine
 62
7
  6
CONTINUOUS
 10
49.1779111224
 20
18.7793082613
 11
46.9279111224
 21
18.7793082613
  0
LINE
  5
22A
100
AcDbEntity
  8
0
100
AcDbLine
 62
7
  6
CONTINUOUS
 10
16.4279111224
 20
18.7793082613
 11
14.1779111224
 21
18.7793082613
  0
LINE
  5
22B
100
AcDbEntity
  8
0
100
AcDbLine
 62
7
  6
CONTINUOUS
 10
45.4279111224
 20
19.7549084395
 11
17.9279111224
 21
19.7549084395
  0
LINE
  5
22C
100
AcDbEntity
  8
0
100
AcDbLine
 62
7
  6
CONTINUOUS
 10
14.1779111224
 20
19.8240982955
 11
16.4279111224
 21
19.8240982955
  0
LINE
  5
22D
100
AcDbEntity
  8
0
100
AcDbLine
 62
7
  6
CONTINUOUS
 10
46.9279111224
 20
19.8240982955
 11
49.1779111224
 21
19.8240982955
  0
LINE
  5
22E
100
AcDbEntity
  8
0
100
AcDbLine
 62
7
  6
CONTINUOUS
 10
49.1779111224
 20
19.8665076166
 11
46.9279111224
 21
19.8665076166
  0
LINE
  5
22F
100
AcDbEntity
  8
0
100
AcDbLine
 62
7
  6
CONTINUOUS
 10
16.4279111224
 20
19.8665076166
 11
14.1779111224
 21
19.8665076166
  0
LINE
  5
230
100
AcDbEntity
  8
0
100
AcDbLine
 62
7
  6
CONTINUOUS
 10
14.1779111224
 20
20.1147574916
 11
17.9279111224
 21
20.1147574916
  0
LINE
  5
231
100
AcDbEntity
  8
0
100
AcDbLine
 62
7
  6
CONTINUOUS
 10
45.4279111224
 20
20.1147574916
 11
49.1779111224
 21
20.1147574916
  0
LINE
  5
232
100
AcDbEntity
  8
0
100
AcDbLine
 62
7
  6
CONTINUOUS
 10
14.1779111224
 20
20.6467229378
 11
16.4279111224
 21
20.6467229378
  0
LINE
  5
233
100
AcDbEntity
  8
0
100
AcDbLine
 62
7
  6
CONTINUOUS
 10
46.9279111224
 20
20.6467229378
 11
49.1779111224
 21
20.6467229378
  0
LINE
  5
234
100
AcDbEntity
  8
0
100
AcDbLine
 62
7
  6
CONTINUOUS
 10
49.1779111224
 20
20.6901540239
 11
46.9279111224
 21
20.6901540239
  0
LINE
  5
235
100
AcDbEntity
  8
0
100
AcDbLine
 62
7
  6
CONTINUOUS
 10
16.4279111224
 20
20.6901540239
 11
14.1779111224
 21
20.6901540239
  0
LINE
  5
236
100
AcDbEntity
  8
0
100
AcDbLine
 62
7
  6
CONTINUOUS
 10
14.1779111224
 20
21.7847574915
 11
25.1779111224
 21
21.7847574915
  0
LINE
  5
237
100
AcDbEntity
  8
0
100
AcDbLine
 62
7
  6
CONTINUOUS
 10
38.1779111224
 20
21.7847574915
 11
49.1779111224
 21
21.7847574915
  0
LINE
  5
238
100
AcDbEntity
  8
0
100
AcDbLine
 62
7
  6
CONTINUOUS
 10
23.1379504303
 20
64.5755635151
 11
22.2718981126
 21
63.7095103378
  0
LINE
  5
239
100
AcDbEntity
  8
0
100
AcDbLine
 62
7
  6
CONTINUOUS
 10
49.1779111224
 20
23.3647574915
 11
38.1779111224
 21
23.3647574915
  0
LINE
  5
23A
100
AcDbEntity
  8
0
100
AcDbLine
 62
7
  6
CONTINUOUS
 10
25.1779111224
 20
23.3647574915
 11
14.1779111224
 21
23.3647574915
  0
LINE
  5
23B
100
AcDbEntity
  8
0
100
AcDbLine
 62
7
  6
CONTINUOUS
 10
14.1779111224
 20
25.2847574915
 11
25.1779111224
 21
25.2847574915
  0
LINE
  5
23C
100
AcDbEntity
  8
0
100
AcDbLine
 62
7
  6
CONTINUOUS
 10
38.1779111224
 20
25.2847574915
 11
49.1779111224
 21
25.2847574915
  0
LINE
  5
23D
100
AcDbEntity
  8
0
100
AcDbLine
 62
7
  6
CONTINUOUS
 10
14.1779111224
 20
6.6123563121
 11
14.1779111224
 21
51.5215792796
  0
LINE
  5
23E
100
AcDbEntity
  8
0
100
AcDbLine
 62
7
  6
CONTINUOUS
 10
14.1779111224
 20
51.6138139114
 11
14.1779111224
 21
83.1148450222
  0
LINE
  5
23F
100
AcDbEntity
  8
0
100
AcDbLine
 62
7
  6
CONTINUOUS
 10
14.6356232721
 20
63.7095103378
 11
14.6356206414
 21
62.3847574915
  0
LINE
  5
240
100
AcDbEntity
  8
0
100
AcDbLine
 62
7
  6
CONTINUOUS
 10
14.635616352
 20
60.2247574915
 11
14.6356117052
 21
57.8847574915
  0
LINE
  5
241
100
AcDbEntity
  8
0
100
AcDbLine
 62
7
  6
CONTINUOUS
 10
14.6356074159
 20
55.7247574915
 11
14.6356022312
 21
53.1138628792
  0
LINE
  5
242
100
AcDbEntity
  8
0
100
AcDbLine
 62
7
  6
CONTINUOUS
 10
14.6773553457
 20
63.7095103378
 11
14.6773553457
 21
82.092116857
  0
LINE
  5
243
100
AcDbEntity
  8
0
100
AcDbLine
 62
7
  6
CONTINUOUS
 10
14.9279111224
 20
30.3647574915
 11
14.9279111224
 21
28.7847574915
  0
LINE
  5
244
100
AcDbEntity
  8
0
100
AcDbLine
 62
7
  6
CONTINUOUS
 10
14.9279111224
 20
26.8647574915
 11
14.9279111224
 21
25.2847574915
  0
LINE
  5
245
100
AcDbEntity
  8
0
100
AcDbLine
 62
7
  6
CONTINUOUS
 10
14.9279111224
 20
23.3647574915
 11
14.9279111224
 21
21.7847574915
  0
LINE
  5
246
100
AcDbEntity
  8
0
100
AcDbLine
 62
7
  6
CONTINUOUS
 10
49.1779111224
 20
26.8647574915
 11
38.1779111224
 21
26.8647574915
  0
LINE
  5
247
100
AcDbEntity
  8
0
100
AcDbLine
 62
7
  6
CONTINUOUS
 10
25.1779111224
 20
26.8647574915
 11
14.1779111224
 21
26.8647574915
  0
LINE
  5
248
100
AcDbEntity
  8
0
100
AcDbLine
 62
7
  6
CONTINUOUS
 10
16.4279111224
 20
20.6901540239
 11
16.4279111224
 21
20.6467229378
  0
LINE
  5
249
100
AcDbEntity
  8
0
100
AcDbLine
 62
7
  6
CONTINUOUS
 10
16.4279111224
 20
17.7027862187
 11
16.4279111224
 21
19.8665076166
  0
LINE
  5
24A
100
AcDbEntity
  8
0
100
AcDbLine
 62
7
  6
CONTINUOUS
 10
16.4279111224
 20
32.1147574915
 11
16.4279111224
 21
52.6138466092
  0
LINE
  5
24B
100
AcDbEntity
  8
0
100
AcDbLine
 62
7
  6
CONTINUOUS
 10
17.9279111224
 20
18.4404316837
 11
17.9279111224
 21
21.7847574915
  0
LINE
  5
24C
100
AcDbEntity
  8
0
100
AcDbLine
 62
7
  6
CONTINUOUS
 10
17.9279111224
 20
23.3647574915
 11
17.9279111224
 21
25.2847574915
  0
LINE
  5
24D
100
AcDbEntity
  8
0
100
AcDbLine
 62
7
  6
CONTINUOUS
 10
17.9279111224
 20
26.8647574915
 11
17.9279111224
 21
28.7847574915
  0
LINE
  5
24E
100
AcDbEntity
  8
0
100
AcDbLine
 62
7
  6
CONTINUOUS
 10
17.9279111224
 20
30.3647574915
 11
17.9279111224
 21
32.1147574915
  0
LINE
  5
24F
100
AcDbEntity
  8
0
100
AcDbLine
 62
7
  6
CONTINUOUS
 10
14.1779111224
 20
28.7847574915
 11
25.1779111224
 21
28.7847574915
  0
LINE
  5
250
100
AcDbEntity
  8
0
100
AcDbLine
 62
7
  6
CONTINUOUS
 10
38.1779111224
 20
28.7847574915
 11
49.1779111224
 21
28.7847574915
  0
LINE
  5
251
100
AcDbEntity
  8
0
100
AcDbLine
 62
7
  6
CONTINUOUS
 10
49.1779111224
 20
30.3647574915
 11
38.1779111224
 21
30.3647574915
  0
LINE
  5
252
100
AcDbEntity
  8
0
100
AcDbLine
 62
7
  6
CONTINUOUS
 10
25.1779111224
 20
30.3647574915
 11
14.1779111224
 21
30.3647574915
  0
LINE
  5
253
100
AcDbEntity
  8
0
100
AcDbLine
 62
7
  6
CONTINUOUS
 10
46.9279111224
 20
32.1147574915
 11
45.4279111224
 21
32.1147574915
  0
LINE
  5
254
100
AcDbEntity
  8
0
100
AcDbLine
 62
7
  6
CONTINUOUS
 10
17.9279111224
 20
32.1147574915
 11
16.4279111224
 21
32.1147574915
  0
LINE
  5
255
100
AcDbEntity
  8
0
100
AcDbLine
 62
7
  6
CONTINUOUS
 10
22.2729049728
 20
63.7095103378
 11
22.2729049728
 21
82.0921171695
  0
LINE
  5
256
100
AcDbEntity
  8
0
100
AcDbLine
 62
7
  6
CONTINUOUS
 10
23.1389576853
 20
81.529600538
 11
23.1389576853
 21
64.576570771
  0
LINE
  5
257
100
AcDbEntity
  8
0
100
AcDbLine
 62
7
  6
CONTINUOUS
 10
23.9459926321
 20
65.4416161998
 11
23.9459926321
 21
80.6645562205
  0
LINE
  5
258
100
AcDbEntity
  8
0
100
AcDbLine
 62
7
  6
CONTINUOUS
 10
25.1779111224
 20
21.7847574915
 11
25.1779111224
 21
23.3647574915
  0
LINE
  5
259
100
AcDbEntity
  8
0
100
AcDbLine
 62
7
  6
CONTINUOUS
 10
25.1779111224
 20
25.2847574915
 11
25.1779111224
 21
26.8647574915
  0
LINE
  5
25A
100
AcDbEntity
  8
0
100
AcDbLine
 62
7
  6
CONTINUOUS
 10
25.1779111224
 20
28.7847574915
 11
25.1779111224
 21
30.3647574915
  0
LINE
  5
25B
100
AcDbEntity
  8
0
100
AcDbLine
 62
7
  6
CONTINUOUS
 10
16.4279111224
 20
42.4131177785
 11
46.9279111224
 21
42.4131177785
  0
LINE
  5
25C
100
AcDbEntity
  8
0
100
AcDbLine
 62
7
  6
CONTINUOUS
 10
46.9279111224
 20
44.3735769409
 11
16.4279111224
 21
44.3735769409
  0
LINE
  5
25D
100
AcDbEntity
  8
0
100
AcDbLine
 62
7
  6
CONTINUOUS
 10
14.1779111224
 20
47.6136829924
 11
16.4279111224
 21
47.6136829924
  0
LINE
  5
25E
100
AcDbEntity
  8
0
100
AcDbLine
 62
7
  6
CONTINUOUS
 10
46.9279111224
 20
47.6136829924
 11
49.1779111224
 21
47.6136829924
  0
LINE
  5
25F
100
AcDbEntity
  8
0
100
AcDbLine
 62
7
  6
CONTINUOUS
 10
38.1779111224
 20
30.3647574915
 11
38.1779111224
 21
28.7847574915
  0
LINE
  5
260
100
AcDbEntity
  8
0
100
AcDbLine
 62
7
  6
CONTINUOUS
 10
38.1779111224
 20
26.8647574915
 11
38.1779111224
 21
25.2847574915
  0
LINE
  5
261
100
AcDbEntity
  8
0
100
AcDbLine
 62
7
  6
CONTINUOUS
 10
38.1779111224
 20
23.3647574915
 11
38.1779111224
 21
21.7847574915
  0
LINE
  5
262
100
AcDbEntity
  8
0
100
AcDbLine
 62
7
  6
CONTINUOUS
 10
39.4098553083
 20
80.6645562205
 11
39.4098553083
 21
65.4416161998
  0
LINE
  5
263
100
AcDbEntity
  8
0
100
AcDbLine
 62
7
  6
CONTINUOUS
 10
40.2168650344
 20
64.5765707761
 11
40.2168650344
 21
81.529600533
  0
LINE
  5
264
100
AcDbEntity
  8
0
100
AcDbLine
 62
7
  6
CONTINUOUS
 10
14.1779111224
 20
51.6138139114
 11
16.4279111224
 21
51.6138139114
  0
LINE
  5
265
100
AcDbEntity
  8
0
100
AcDbLine
 62
7
  6
CONTINUOUS
 10
46.9279111224
 20
51.6138139114
 11
49.1779111224
 21
51.6138139114
  0
LINE
  5
266
100
AcDbEntity
  8
0
100
AcDbLine
 62
7
  6
CONTINUOUS
 10
49.1779111224
 20
52.6138466156
 11
14.1779111224
 21
52.613846617
  0
LINE
  5
267
100
AcDbEntity
  8
0
100
AcDbLine
 62
7
  6
CONTINUOUS
 10
48.4312660104
 20
53.1138628792
 11
14.6356022312
 21
53.1138628792
  0
LINE
  5
268
100
AcDbEntity
  8
0
100
AcDbLine
 62
7
  6
CONTINUOUS
 10
41.0829169828
 20
63.7105176946
 11
41.0829169828
 21
82.092116857
  0
LINE
  5
269
100
AcDbEntity
  8
0
100
AcDbLine
 62
7
  6
CONTINUOUS
 10
41.2179111224
 20
55.7247574915
 11
41.2179111224
 21
57.8847574915
  0
LINE
  5
26A
100
AcDbEntity
  8
0
100
AcDbLine
 62
7
  6
CONTINUOUS
 10
41.2179111224
 20
60.2247574915
 11
41.2179111224
 21
62.3847574915
  0
LINE
  5
26B
100
AcDbEntity
  8
0
100
AcDbLine
 62
7
  6
CONTINUOUS
 10
14.1779111224
 20
55.7247574915
 11
41.2179111224
 21
55.7247574915
  0
LINE
  5
26C
100
AcDbEntity
  8
0
100
AcDbLine
 62
7
  6
CONTINUOUS
 10
45.4279111224
 20
32.1147574915
 11
45.4279111224
 21
30.3647574915
  0
LINE
  5
26D
100
AcDbEntity
  8
0
100
AcDbLine
 62
7
  6
CONTINUOUS
 10
45.4279111224
 20
28.7847574915
 11
45.4279111224
 21
26.8647574915
  0
LINE
  5
26E
100
AcDbEntity
  8
0
100
AcDbLine
 62
7
  6
CONTINUOUS
 10
45.4279111224
 20
25.2847574915
 11
45.4279111224
 21
23.3647574915
  0
LINE
  5
26F
100
AcDbEntity
  8
0
100
AcDbLine
 62
7
  6
CONTINUOUS
 10
45.4279111224
 20
21.7847574915
 11
45.4279111224
 21
18.4404316837
  0
LINE
  5
270
100
AcDbEntity
  8
0
100
AcDbLine
 62
7
  6
CONTINUOUS
 10
41.2179111224
 20
57.8847574915
 11
14.1779111224
 21
57.8847574915
  0
LINE
  5
271
100
AcDbEntity
  8
0
100
AcDbLine
 62
7
  6
CONTINUOUS
 10
46.9279111224
 20
52.6138466092
 11
46.9279111224
 21
32.1147574915
  0
LINE
  5
272
100
AcDbEntity
  8
0
100
AcDbLine
 62
7
  6
CONTINUOUS
 10
46.9279111224
 20
19.8665076166
 11
46.9279111224
 21
17.7027862187
  0
LINE
  5
273
100
AcDbEntity
  8
0
100
AcDbLine
 62
7
  6
CONTINUOUS
 10
46.9279111224
 20
20.6467229378
 11
46.9279111224
 21
20.6901540239
  0
LINE
  5
274
100
AcDbEntity
  8
0
100
AcDbLine
 62
7
  6
CONTINUOUS
 10
48.378458314
 20
82.0921174949
 11
48.378458314
 21
63.7095103378
  0
LINE
  5
275
100
AcDbEntity
  8
0
100
AcDbLine
 62
7
  6
CONTINUOUS
 10
48.4279111224
 20
21.7847574915
 11
48.4279111224
 21
23.3647574915
  0
LINE
  5
276
100
AcDbEntity
  8
0
100
AcDbLine
 62
7
  6
CONTINUOUS
 10
48.4279111224
 20
25.2847574915
 11
48.4279111224
 21
26.8647574915
  0
LINE
  5
277
100
AcDbEntity
  8
0
100
AcDbLine
 62
7
  6
CONTINUOUS
 10
48.4279111224
 20
28.7847574915
 11
48.4279111224
 21
30.3647574915
  0
LINE
  5
278
100
AcDbEntity
  8
0
100
AcDbLine
 62
7
  6
CONTINUOUS
 10
48.4312660104
 20
53.1138628792
 11
48.4312393559
 21
63.7095103378
  0
LINE
  5
279
100
AcDbEntity
  8
0
100
AcDbLine
 62
7
  6
CONTINUOUS
 10
14.1779111224
 20
60.2247574915
 11
41.2179111224
 21
60.2247574915
  0
LINE
  5
27A
100
AcDbEntity
  8
0
100
AcDbLine
 62
7
  6
CONTINUOUS
 10
49.1779111224
 20
6.6123563121
 11
49.1779111224
 21
51.5215792796
  0
LINE
  5
27B
100
AcDbEntity
  8
0
100
AcDbLine
 62
7
  6
CONTINUOUS
 10
49.1779111224
 20
51.6138139114
 11
49.1779111224
 21
83.1148450222
  0
LINE
  5
27C
100
AcDbEntity
  8
0
100
AcDbLine
 62
7
  6
CONTINUOUS
 10
41.2179111224
 20
62.3847574915
 11
14.1779111224
 21
62.3847574915
  0
LINE
  5
27D
100
AcDbEntity
  8
0
100
AcDbLine
 62
7
  6
CONTINUOUS
 10
14.6356232721
 20
63.7095103378
 11
48.4312393559
 21
63.7095103378
  0
LINE
  5
27E
100
AcDbEntity
  8
0
100
AcDbLine
 62
7
  6
CONTINUOUS
 10
23.1379504303
 20
64.5755635151
 11
40.2178722941
 21
64.5755635151
  0
LINE
  5
27F
100
AcDbEntity
  8
0
100
AcDbLine
 62
7
  6
CONTINUOUS
 10
41.0839243383
 20
63.7095103378
 11
40.2178722941
 21
64.5755635151
  0
LINE
  5
280
100
AcDbEntity
  8
0
100
AcDbLine
 62
7
  6
CONTINUOUS
 10
39.4098553083
 20
65.4416161998
 11
23.9459926321
 21
65.4416161998
  0
LINE
  5
281
100
AcDbEntity
  8
0
100
AcDbLine
 62
7
  6
CONTINUOUS
 10
22.2729049728
 20
82.0921171695
 11
23.0467370799
 21
81.6042812536
  0
LINE
  5
282
100
AcDbEntity
  8
0
100
AcDbLine
 62
7
  6
CONTINUOUS
 10
23.9459926321
 20
80.6645562205
 11
39.4098553083
 21
80.6645562205
  0
LINE
  5
283
100
AcDbEntity
  8
0
100
AcDbLine
 62
7
  6
CONTINUOUS
 10
40.3090856157
 20
81.6042812536
 11
23.0467370799
 21
81.6042812536
  0
LINE
  5
284
100
AcDbEntity
  8
0
100
AcDbLine
 62
7
  6
CONTINUOUS
 10
14.6773583549
 20
82.092116857
 11
22.2729049728
 21
82.0921171695
  0
LINE
  5
285
100
AcDbEntity
  8
0
100
AcDbLine
 62
7
  6
CONTINUOUS
 10
41.0829169828
 20
82.092116857
 11
48.3784575503
 21
82.0921174949
  0
LINE
  5
286
100
AcDbEntity
  8
0
100
AcDbLine
 62
7
  6
CONTINUOUS
 10
14.1779111224
 20
83.1148450222
 11
49.1779111224
 21
83.1148450222
  0
CIRCLE
  5
287
100
AcDbEntity
  8
0
100
AcDbCircle
 62
7
  6
CONTINUOUS
 10
31.6779111224
 20
73.7147574915
 40
1.5
  0
SPLINE
  5
288
100
AcDbEntity
  8
0
100
AcDbSpline
 62
7
  6
CONTINUOUS
 70
0
 71
3
 72
20
 73
16
 74
0
 42
0.0000001
 43
0.0000001
 44
0.0000000001
 40
0.0
 40
0.0
 40
0.0
 40
0.0
 40
0.0823162659
 40
0.1233873712
 40
0.1644708703
 40
0.2457908331
 40
0.3262000501
 40
0.4826955692
 40
0.6305259324
 40
0.7647752621
 40
0.8782188774
 40
0.9240479928
 40
0.9607419768
 40
0.9866901472
 40
1.0
 40
1.0
 40
1.0
 40
1.0
 10
14.6356021911
 20
53.1138628792
 30
0.0
 10
14.63039513
 20
53.0959407026
 30
0.0
 10
14.6188382903
 20
53.0696707547
 30
0.0
 10
14.5945782021
 20
53.0412215038
 30
0.0
 10
14.5691577383
 20
53.0142695255
 30
0.0
 10
14.538090204
 20
52.9803538328
 30
0.0
 10
14.4878120836
 20
52.9286039542
 30
0.0
 10
14.4268333235
 20
52.8662301036
 30
0.0
 10
14.3568703982
 20
52.7955687479
 30
0.0
 10
14.293848935
 20
52.7317742484
 30
0.0
 10
14.2469861386
 20
52.6845179274
 30
0.0
 10
14.2158075825
 20
52.6528713815
 30
0.0
 10
14.1983773355
 20
52.6355043878
 30
0.0
 10
14.1862601532
 20
52.6233056825
 30
0.0
 10
14.179771559
 20
52.6171547236
 30
0.0
 10
14.1779111224
 20
52.614778747
 30
0.0
  0
SPLINE
  5
289
100
AcDbEntity
  8
0
100
AcDbSpline
 62
7
  6
CONTINUOUS
 70
0
 71
3
 72
21
 73
17
 74
0
 42
0.0000001
 43
0.0000001
 44
0.0000000001
 40
0.0
 40
0.0
 40
0.0
 40
0.0
 40
0.0317384358
 40
0.0703350997
 40
0.1659999193
 40
0.2819448485
 40
0.412006303
 40
0.5516652867
 40
0.6976800644
 40
0.7723214562
 40
0.8099473273
 40
0.8476852989
 40
0.885580038
 40
0.9237198364
 40
0.9617315722
 40
1.0
 40
1.0
 40
1.0
 40
1.0
 10
49.1208050829
 20
52.613846617
 30
0.0
 10
49.111662986
 20
52.613846617
 30
0.0
 10
49.0914409903
 20
52.6171280874
 30
0.0
 10
49.046117788
 20
52.6326269168
 30
0.0
 10
48.9822891492
 20
52.6668061092
 30
0.0
 10
48.8993495729
 20
52.7197231266
 30
0.0
 10
48.8086064098
 20
52.7838944678
 30
0.0
 10
48.712731813
 20
52.8556468009
 30
0.0
 10
48.6309803725
 20
52.9196030612
 30
0.0
 10
48.5729904352
 20
52.9662089936
 30
0.0
 10
48.5395231369
 20
52.9935392037
 30
0.0
 10
48.5146187343
 20
53.014617379
 30
0.0
 10
48.4901315147
 20
53.0363981889
 30
0.0
 10
48.4649441484
 20
53.0575025097
 30
0.0
 10
48.4433561087
 20
53.0828465727
 30
0.0
 10
48.4344569327
 20
53.1033117912
 30
0.0
 10
48.4312660561
 20
53.1138628792
 30
0.0
  0
SPLINE
  5
28A
100
AcDbEntity
  8
0
100
AcDbSpline
 62
7
  6
CONTINUOUS
 70
0
 71
3
 72
18
 73
14
 74
0
 42
0.0000001
 43
0.0000001
 44
0.0000000001
 40
0.0
 40
0.0
 40
0.0
 40
0.0
 40
0.03474577
 40
0.0704480296
 40
0.1397618753
 40
0.2091117683
 40
0.2779631336
 40
0.3462618005
 40
0.4138366528
 40
0.5461481487
 40
0.6733290303
 40
0.7933321622
 40
1.0
 40
1.0
 40
1.0
 40
1.0
 10
23.9459905669
 20
65.4416161998
 30
0.0
 10
23.9459893859
 20
65.4278379566
 30
0.0
 10
23.9353497992
 20
65.4004452226
 30
0.0
 10
23.9025082815
 20
65.3560904498
 30
0.0
 10
23.8562377918
 20
65.3044194571
 30
0.0
 10
23.7997939389
 20
65.244623196
 30
0.0
 10
23.7428371264
 20
65.1857653388
 30
0.0
 10
23.6860421386
 20
65.1277632721
 30
0.0
 10
23.6113693832
 20
65.052039765
 30
0.0
 10
23.5201438011
 20
64.9598499077
 30
0.0
 10
23.4140939818
 20
64.8530799924
 30
0.0
 10
23.287134188
 20
64.7255212346
 30
0.0
 10
23.1959466307
 20
64.6335131649
 30
0.0
 10
23.137997251
 20
64.5755635151
 30
0.0
  0
SPLINE
  5
28B
100
AcDbEntity
  8
0
100
AcDbSpline
 62
7
  6
CONTINUOUS
 70
0
 71
3
 72
18
 73
14
 74
0
 42
0.0000001
 43
0.0000001
 44
0.0000000001
 40
0.0
 40
0.0
 40
0.0
 40
0.0
 40
0.2066701257
 40
0.3266738225
 40
0.4538551689
 40
0.5861670259
 40
0.653742155
 40
0.7220406339
 40
0.7908931817
 40
0.8602407023
 40
0.9295583003
 40
0.9652509572
 40
1.0
 40
1.0
 40
1.0
 40
1.0
 10
40.217825899
 20
64.5755635151
 30
0.0
 10
40.1598764892
 20
64.6335129506
 30
0.0
 10
40.0686888814
 20
64.7255202535
 30
0.0
 10
39.941729925
 20
64.853078486
 30
0.0
 10
39.8356811824
 20
64.9598475636
 30
0.0
 10
39.7444566171
 20
65.0520367311
 30
0.0
 10
39.6697854801
 20
65.1277601991
 30
0.0
 10
39.612990349
 20
65.1857613709
 30
0.0
 10
39.5560376023
 20
65.2446210725
 30
0.0
 10
39.499593339
 20
65.304416453
 30
0.0
 10
39.4533245845
 20
65.3560847791
 30
0.0
 10
39.4204985029
 20
65.4004480659
 30
0.0
 10
39.4098585491
 20
65.4278368332
 30
0.0
 10
39.4098573687
 20
65.4416161998
 30
0.0
  0
SPLINE
  5
28C
100
AcDbEntity
  8
0
100
AcDbSpline
 62
7
  6
CONTINUOUS
 70
0
 71
3
 72
9
 73
5
 74
0
 42
0.0000001
 43
0.0000001
 44
0.0000000001
 40
0.0
 40
0.0
 40
0.0
 40
0.0
 40
0.2394663204
 40
1.0
 40
1.0
 40
1.0
 40
1.0
 10
23.0467370799
 20
81.6042812536
 30
0.0
 10
23.0547596554
 20
81.5992236287
 30
0.0
 10
23.0876020781
 20
81.5770625234
 30
0.0
 10
23.1177084662
 20
81.5509471819
 30
0.0
 10
23.1389576853
 20
81.529600538
 30
0.0
  0
SPLINE
  5
28D
100
AcDbEntity
  8
0
100
AcDbSpline
 62
7
  6
CONTINUOUS
 70
0
 71
3
 72
9
 73
5
 74
0
 42
0.0000001
 43
0.0000001
 44
0.0000000001
 40
0.0
 40
0.0
 40
0.0
 40
0.0
 40
0.2614123298
 40
1.0
 40
1.0
 40
1.0
 40
1.0
 10
40.2168650344
 20
81.529600533
 30
0.0
 10
40.2241685057
 20
81.5369374921
 30
0.0
 10
40.2528030998
 20
81.5642927049
 30
0.0
 10
40.2843427388
 20
81.5886827429
 30
0.0
 10
40.3090856157
 20
81.6042812536
 30
0.0
  0
SPLINE
  5
28E
100
AcDbEntity
  8
0
100
AcDbSpline
 62
7
  6
CONTINUOUS
 70
0
 71
3
 72
19
 73
15
 74
0
 42
0.0000001
 43
0.0000001
 44
0.0000000001
 40
0.0
 40
0.0
 40
0.0
 40
0.0
 40
0.0347284622
 40
0.0704174301
 40
0.1396988731
 40
0.2090183738
 40
0.2778398531
 40
0.3461108498
 40
0.4136613195
 40
0.5459369219
 40
0.6731047278
 40
0.7931299163
 40
0.903283877
 40
1.0
 40
1.0
 40
1.0
 40
1.0
 10
39.4098573376
 20
80.6645562205
 30
0.0
 10
39.4098584954
 20
80.6783108654
 30
0.0
 10
39.4204594156
 20
80.7056631117
 30
0.0
 10
39.4532316958
 20
80.7499582282
 30
0.0
 10
39.4994079826
 20
80.8015584613
 30
0.0
 10
39.5557579767
 20
80.8612561422
 30
0.0
 10
39.6126165087
 20
80.9200218827
 30
0.0
 10
39.6693071186
 20
80.977942738
 30
0.0
 10
39.7438702544
 20
81.0535439331
 30
0.0
 10
39.8349727591
 20
81.1455929835
 30
0.0
 10
39.940890881
 20
81.2522208942
 30
0.0
 10
40.0407223066
 20
81.3525449315
 30
0.0
 10
40.1319522986
 20
81.4444135117
 30
0.0
 10
40.1897654969
 20
81.5024715408
 30
0.0
 10
40.2167897717
 20
81.5296194788
 30
0.0
  0
SPLINE
  5
28F
100
AcDbEntity
  8
0
100
AcDbSpline
 62
7
  6
CONTINUOUS
 70
0
 71
3
 72
19
 73
15
 74
0
 42
0.0000001
 43
0.0000001
 44
0.0000000001
 40
0.0
 40
0.0
 40
0.0
 40
0.0
 40
0.096716918
 40
0.2068721698
 40
0.3268980924
 40
0.454066581
 40
0.586342711
 40
0.653893508
 40
0.72216433
 40
0.7909870055
 40
0.8603040608
 40
0.929588847
 40
0.9652686081
 40
1.0
 40
1.0
 40
1.0
 40
1.0
 10
23.1390329385
 20
81.5296194814
 30
0.0
 10
23.1660576883
 20
81.5024709521
 30
0.0
 10
23.2238717426
 20
81.4444112834
 30
0.0
 10
23.3151040431
 20
81.352541329
 30
0.0
 10
23.4149370817
 20
81.2522150939
 30
0.0
 10
23.5208571953
 20
81.1455856459
 30
0.0
 10
23.611961548
 20
81.05353548
 30
0.0
 10
23.6865257715
 20
80.9779332629
 30
0.0
 10
23.7432190564
 20
80.9200130054
 30
0.0
 10
23.8000761075
 20
80.8612451799
 30
0.0
 10
23.8564310988
 20
80.801550355
 30
0.0
 10
23.9026105345
 20
80.7499546745
 30
0.0
 10
23.9353784816
 20
80.7056593034
 30
0.0
 10
23.945989448
 20
80.6783121835
 30
0.0
 10
23.9459906064
 20
80.6645562205
 30
0.0
  0
SPLINE
  5
290
100
AcDbEntity
  8
0
100
AcDbSpline
 62
7
  6
CONTINUOUS
 70
0
 71
3
 72
13
 73
9
 74
0
 42
0.0000001
 43
0.0000001
 44
0.0000000001
 40
0.0
 40
0.0
 40
0.0
 40
0.0
 40
0.1404095314
 40
0.2388586115
 40
0.35833091
 40
0.4979540677
 40
0.6547811597
 40
1.0
 40
1.0
 40
1.0
 40
1.0
 10
14.1779111224
 20
82.2654054258
 30
0.0
 10
14.1812940804
 20
82.2396884037
 30
0.0
 10
14.2129167151
 20
82.2015907251
 30
0.0
 10
14.2687889302
 20
82.1675542955
 30
0.0
 10
14.3300878222
 20
82.1416244579
 30
0.0
 10
14.4039930705
 20
82.1204467257
 30
0.0
 10
14.520594856
 20
82.098302385
 30
0.0
 10
14.6135843047
 20
82.0921169967
 30
0.0
 10
14.6773583549
 20
82.092116857
 30
0.0
  0
SPLINE
  5
291
100
AcDbEntity
  8
0
100
AcDbSpline
 62
7
  6
CONTINUOUS
 70
0
 71
3
 72
15
 73
11
 74
0
 42
0.0000001
 43
0.0000001
 44
0.0000000001
 40
0.0
 40
0.0
 40
0.0
 40
0.0
 40
0.1758233068
 40
0.3456214505
 40
0.5023132312
 40
0.6415914201
 40
0.7605141537
 40
0.8582567638
 40
0.9362231836
 40
1.0
 40
1.0
 40
1.0
 40
1.0
 10
48.3784575503
 20
82.0921174949
 30
0.0
 10
48.4307369294
 20
82.0921175131
 30
0.0
 10
48.5335389517
 20
82.0958477235
 30
0.0
 10
48.6821688344
 20
82.1119125251
 30
0.0
 10
48.8183603609
 20
82.1379881628
 30
0.0
 10
48.9370487835
 20
82.1724282404
 30
0.0
 10
49.034788806
 20
82.2138567836
 30
0.0
 10
49.1093568588
 20
82.2608533578
 30
0.0
 10
49.1596064492
 20
82.3126849764
 30
0.0
 10
49.1759494004
 20
82.3534265412
 30
0.0
 10
49.1779111224
 20
82.3722882271
 30
0.0
  0
ENDSEC
  0
SECTION
  2
OBJECTS
  0
DICTIONARY
  5
C
100
AcDbDictionary
280
0
281
1
  3
ACAD_GROUP
350
D
  3
ACAD_MLINESTYLE
350
17
  3
ACAD_LAYOUT
350
1A
  3
ACAD_PLOTSETTINGS
350
19
  3
ACAD_PLOTSTYLENAME
350
E
  0
DICTIONARY
  5
D
102
{ACAD_REACTORS
330
C
102
}
100
AcDbDictionary
280
0
281
1
  0
ACDBDICTIONARYWDFLT
  5
E
102
{ACAD_REACTORS
330
C
102
}
100
AcDbDictionary
281
1
  3
Normal
350
F
100
AcDbDictionaryWithDefault
340
F
  0
DICTIONARY
  5
17
102
{ACAD_REACTORS
330
C
102
}
100
AcDbDictionary
280
0
281
1
  3
Standard
350
18
  0
DICTIONARY
  5
19
102
{ACAD_REACTORS
330
C
102
}
100
AcDbDictionary
281
1
  0
DICTIONARY
  5
1A
102
{ACAD_REACTORS
330
C
102
}
100
AcDbDictionary
281
1
  3
Model
350
292
  3
Layout1
350
293
  0
ACDBPLACEHOLDER
  5
F
102
{ACAD_REACTORS
330
E
102
}
  0
MLINESTYLE
  5
18
102
{ACAD_REACTORS
330
17
102
}
100
AcDbMlineStyle
  2
STANDARD
 70
0
  3

 62
256
 51
90.0
 52
90.0
 71
2
 49
0.5
 62
256
  6
BYLAYER
 49
-0.5
 62
256
  6
BYLAYER
  0
LAYOUT
  5
292
102
{ACAD_REACTORS
330
1A
102
}
100
AcDbPlotSettings
  1

  2
none_device
  4

  6

 40
0.0
 41
0.0
 42
0.0
 43
0.0
 44
210.0
 45
297.0
 46
0.0
 47
0.0
 48
0.0
 49
0.0
140
0.0
141
0.0
142
1.0
143
1.0
 70
1024
 72
1
 73
0
 74
0
  7

 75
0
147
1.0
148
0.0
149
0.0
100
AcDbLayout
  1
Model
 70
0
 71
0
 10
0.0
 20
0.0
 11
210.0
 21
297.0
 12
0.0
 22
0.0
 32
0.0
 14
0.0
 24
0.0
 34
0.0
 15
0.0
 25
0.0
 35
0.0
146
0.0
 13
0.0
 23
0.0
 33
0.0
 16
1.0
 26
0.0
 36
0.0
 17
0.0
 27
1.0
 37
0.0
 76
0
330
210
345
0
346
0
  0
LAYOUT
  5
293
102
{ACAD_REACTORS
330
1A
102
}
100
AcDbPlotSettings
  1

  2
none_device
  4

  6

 40
0.0
 41
0.0
 42
0.0
 43
0.0
 44
210.0
 45
297.0
 46
0.0
 47
0.0
 48
0.0
 49
0.0
140
0.0
141
0.0
142
1.0
143
1.0
 70
0
 72
1
 73
0
 74
0
  7

 75
0
147
1.0
148
0.0
149
0.0
100
AcDbLayout
  1
Layout1
 70
0
 71
1
 10
0.0
 20
0.0
 11
210.0
 21
297.0
 12
0.0
 22
0.0
 32
0.0
 14
0.0
 24
0.0
 34
0.0
 15
0.0
 25
0.0
 35
0.0
146
0.0
 13
0.0
 23
0.0
 33
0.0
 16
1.0
 26
0.0
 36
0.0
 17
0.0
 27
1.0
 37
0.0
 76
0
330
211
345
0
346
0
  0
ENDSEC
  0
EOF
