  0
SECTION
  2
HEADER
  9
$ACADVER
  1
AC1006
  9
$EXTMIN
 10
-2.441000
 20
-4.191016
  9
$EXTMAX
 10
2.441000
 20
4.191000
  9
$LTSCALE
 40
0.000394
  9
$PDMODE
 70
    35
  9
$PDSIZE
 40
0.000315
  0
ENDSEC
  0
SECTION
  2
TABLES
  0
TABLE
  2
LTYPE
 70
     9
  0
LTYPE
  2
CONTINUOUS
 70
    64
  3
Solid line
 72
    65
 73
     0
 40
0.000000
  0
LTYPE
  2
DASHED
 70
    64
  3
__ __ __ __ __ __ __ __ __ __ __ __ __ __ __
 72
    65
 73
     2
 40
0.000003
 49
0.000002
 49
-0.000001
  0
LTYPE
  2
HIDDEN
 70
    64
  3
 _ _ _ _ _ _ _ _ _ _ _ _ _ _ _ _ _ _ _ _ _ _
 72
    65
 73
     2
 40
0.000001
 49
0.000001
 49
-0.000000
  0
LTYPE
  2
CENTER
 70
    64
  3
____ _ ____ _ ____ _ ____ _ ____ _ ____ _ ____
 72
    65
 73
     4
 40
0.000008
 49
0.000005
 49
-0.000001
 49
0.000001
 49
-0.000001
  0
LTYPE
  2
PHANTOM
 70
    64
  3
_____ _ _ _____ _ _ _____ _ _ _____ _ _ ____
 72
    65
 73
     6
 40
0.000010
 49
0.000005
 49
-0.000001
 49
0.000001
 49
-0.000001
 49
0.000001
 49
-0.000001
  0
LTYPE
  2
DOT
 70
    64
  3
...............................................
 72
    65
 73
     2
 40
0.000001
 49
0.000000
 49
-0.000001
  0
LTYPE
  2
DASHDOT
 70
    64
  3
__ . __ . __ . __ . __ . __ . __ . __ . __ . __
 72
    65
 73
     4
 40
0.000004
 49
0.000002
 49
-0.000001
 49
0.000000
 49
-0.000001
  0
LTYPE
  2
BORDER
 70
    64
  3
__ __ . __ __ . __ __ . __ __ . __ __ . __ __
 72
    65
 73
     6
 40
0.000007
 49
0.000002
 49
-0.000001
 49
0.000002
 49
-0.000001
 49
0.000000
 49
-0.000001
  0
LTYPE
  2
DIVIDE
 70
    64
  3
__ . . __ . . __ . . __ . . __ . . __ . . __
 72
    65
 73
     6
 40
0.000005
 49
0.000002
 49
-0.000001
 49
0.000000
 49
-0.000001
 49
0.000000
 49
-0.000001
  0
LTYPE
  2
DOTDOT
 70
    64
  3
 . .  . .  . .  . .  . .  . . 
 72
    65
 73
     5
 40
0.000002
 49
-0.000001
 49
0.000000
 49
-0.000001
 49
0.000000
 49
-0.000001
  0
ENDTAB
  0
TABLE
  2
STYLE
 70
     0
  0
ENDTAB
  0
TABLE
  2
LAYER
 70
     3
  0
LAYER
  2
FOREGROUND
 70
    64
 62
     7
  6
CONTINUOUS
  0
LAYER
  2
BACKGROUND
 70
    65
 62
    -7
  6
CONTINUOUS
  0
LAYER
  2
PLAN_1
 70
    64
 62
     7
  6
CONTINUOUS
  0
ENDTAB
  0
ENDSEC
  0
SECTION
  2
ENTITIES
  0
POLYLINE
  8
PLAN_1
  6
CONTINUOUS
 66
     1
 40
0.003000
 41
0.003000
  0
VERTEX
  8
PLAN_1
  6
CONTINUOUS
 10
0.361736
 20
-4.185776
  0
VERTEX
  8
PLAN_1
  6
CONTINUOUS
 10
0.328209
 20
-4.185776
  0
VERTEX
  8
PLAN_1
  6
CONTINUOUS
 10
0.274772
 20
-4.104051
  0
VERTEX
  8
PLAN_1
  6
CONTINUOUS
 10
0.219768
 20
-4.185776
  0
VERTEX
  8
PLAN_1
  6
CONTINUOUS
 10
0.187287
 20
-4.185776
  0
VERTEX
  8
PLAN_1
  6
CONTINUOUS
 10
0.258531
 20
-4.083622
  0
VERTEX
  8
PLAN_1
  6
CONTINUOUS
 10
0.191476
 20
-3.986705
  0
VERTEX
  8
PLAN_1
  6
CONTINUOUS
 10
0.225528
 20
-3.986705
  0
VERTEX
  8
PLAN_1
  6
CONTINUOUS
 10
0.275819
 20
-4.062665
  0
VERTEX
  8
PLAN_1
  6
CONTINUOUS
 10
0.326638
 20
-3.986705
  0
VERTEX
  8
PLAN_1
  6
CONTINUOUS
 10
0.358594
 20
-3.986705
  0
VERTEX
  8
PLAN_1
  6
CONTINUOUS
 10
0.291535
 20
-4.083622
  0
VERTEX
  8
PLAN_1
  6
CONTINUOUS
 10
0.361736
 20
-4.185776
  0
SEQEND
  8
0
  0
POLYLINE
  8
PLAN_1
  6
CONTINUOUS
 66
     1
 40
0.003000
 41
0.003000
  0
VERTEX
  8
PLAN_1
  6
CONTINUOUS
 10
0.527803
 20
-4.046425
  0
VERTEX
  8
PLAN_1
  6
CONTINUOUS
 10
0.526232
 20
-4.040138
  0
VERTEX
  8
PLAN_1
  6
CONTINUOUS
 10
0.524138
 20
-4.034378
  0
VERTEX
  8
PLAN_1
  6
CONTINUOUS
 10
0.521520
 20
-4.029661
  0
VERTEX
  8
PLAN_1
  6
CONTINUOUS
 10
0.518898
 20
-4.024945
  0
VERTEX
  8
PLAN_1
  6
CONTINUOUS
 10
0.515756
 20
-4.021280
  0
VERTEX
  8
PLAN_1
  6
CONTINUOUS
 10
0.512091
 20
-4.018138
  0
VERTEX
  8
PLAN_1
  6
CONTINUOUS
 10
0.508421
 20
-4.014992
  0
VERTEX
  8
PLAN_1
  6
CONTINUOUS
 10
0.504232
 20
-4.012374
  0
VERTEX
  8
PLAN_1
  6
CONTINUOUS
 10
0.500563
 20
-4.010803
  0
VERTEX
  8
PLAN_1
  6
CONTINUOUS
 10
0.496374
 20
-4.008705
  0
VERTEX
  8
PLAN_1
  6
CONTINUOUS
 10
0.492181
 20
-4.007657
  0
VERTEX
  8
PLAN_1
  6
CONTINUOUS
 10
0.487992
 20
-4.006610
  0
VERTEX
  8
PLAN_1
  6
CONTINUOUS
 10
0.479610
 20
-4.005563
  0
VERTEX
  8
PLAN_1
  6
CONTINUOUS
 10
0.472276
 20
-4.005039
  0
VERTEX
  8
PLAN_1
  6
CONTINUOUS
 10
0.465465
 20
-4.005563
  0
VERTEX
  8
PLAN_1
  6
CONTINUOUS
 10
0.459177
 20
-4.006087
  0
VERTEX
  8
PLAN_1
  6
CONTINUOUS
 10
0.452890
 20
-4.007657
  0
VERTEX
  8
PLAN_1
  6
CONTINUOUS
 10
0.446602
 20
-4.010280
  0
VERTEX
  8
PLAN_1
  6
CONTINUOUS
 10
0.440843
 20
-4.012898
  0
VERTEX
  8
PLAN_1
  6
CONTINUOUS
 10
0.435602
 20
-4.016039
  0
VERTEX
  8
PLAN_1
  6
CONTINUOUS
 10
0.430890
 20
-4.020232
  0
VERTEX
  8
PLAN_1
  6
CONTINUOUS
 10
0.426173
 20
-4.024945
  0
VERTEX
  8
PLAN_1
  6
CONTINUOUS
 10
0.421980
 20
-4.030185
  0
VERTEX
  8
PLAN_1
  6
CONTINUOUS
 10
0.418315
 20
-4.035949
  0
VERTEX
  8
PLAN_1
  6
CONTINUOUS
 10
0.414650
 20
-4.042760
  0
VERTEX
  8
PLAN_1
  6
CONTINUOUS
 10
0.412028
 20
-4.049567
  0
VERTEX
  8
PLAN_1
  6
CONTINUOUS
 10
0.409933
 20
-4.057425
  0
VERTEX
  8
PLAN_1
  6
CONTINUOUS
 10
0.408362
 20
-4.065807
  0
VERTEX
  8
PLAN_1
  6
CONTINUOUS
 10
0.407315
 20
-4.074717
  0
VERTEX
  8
PLAN_1
  6
CONTINUOUS
 10
0.406791
 20
-4.084146
  0
VERTEX
  8
PLAN_1
  6
CONTINUOUS
 10
0.407315
 20
-4.093051
  0
VERTEX
  8
PLAN_1
  6
CONTINUOUS
 10
0.407839
 20
-4.101433
  0
VERTEX
  8
PLAN_1
  6
CONTINUOUS
 10
0.408886
 20
-4.109291
  0
VERTEX
  8
PLAN_1
  6
CONTINUOUS
 10
0.410457
 20
-4.117150
  0
VERTEX
  8
PLAN_1
  6
CONTINUOUS
 10
0.412551
 20
-4.123961
  0
VERTEX
  8
PLAN_1
  6
CONTINUOUS
 10
0.414650
 20
-4.130768
  0
VERTEX
  8
PLAN_1
  6
CONTINUOUS
 10
0.417791
 20
-4.137579
  0
VERTEX
  8
PLAN_1
  6
CONTINUOUS
 10
0.421457
 20
-4.143343
  0
VERTEX
  8
PLAN_1
  6
CONTINUOUS
 10
0.425650
 20
-4.148583
  0
VERTEX
  8
PLAN_1
  6
CONTINUOUS
 10
0.430362
 20
-4.153295
  0
VERTEX
  8
PLAN_1
  6
CONTINUOUS
 10
0.435602
 20
-4.157488
  0
VERTEX
  8
PLAN_1
  6
CONTINUOUS
 10
0.441890
 20
-4.160630
  0
VERTEX
  8
PLAN_1
  6
CONTINUOUS
 10
0.448701
 20
-4.163248
  0
VERTEX
  8
PLAN_1
  6
CONTINUOUS
 10
0.456035
 20
-4.165346
  0
VERTEX
  8
PLAN_1
  6
CONTINUOUS
 10
0.464417
 20
-4.166917
  0
VERTEX
  8
PLAN_1
  6
CONTINUOUS
 10
0.472799
 20
-4.166917
  0
VERTEX
  8
PLAN_1
  6
CONTINUOUS
 10
0.480134
 20
-4.166917
  0
VERTEX
  8
PLAN_1
  6
CONTINUOUS
 10
0.487992
 20
-4.165346
  0
VERTEX
  8
PLAN_1
  6
CONTINUOUS
 10
0.492181
 20
-4.163776
  0
VERTEX
  8
PLAN_1
  6
CONTINUOUS
 10
0.496374
 20
-4.162201
  0
VERTEX
  8
PLAN_1
  6
CONTINUOUS
 10
0.500563
 20
-4.160106
  0
VERTEX
  8
PLAN_1
  6
CONTINUOUS
 10
0.504756
 20
-4.156965
  0
VERTEX
  8
PLAN_1
  6
CONTINUOUS
 10
0.508421
 20
-4.153819
  0
VERTEX
  8
PLAN_1
  6
CONTINUOUS
 10
0.512614
 20
-4.150154
  0
VERTEX
  8
PLAN_1
  6
CONTINUOUS
 10
0.516280
 20
-4.145437
  0
VERTEX
  8
PLAN_1
  6
CONTINUOUS
 10
0.519421
 20
-4.140724
  0
VERTEX
  8
PLAN_1
  6
CONTINUOUS
 10
0.522567
 20
-4.134961
  0
VERTEX
  8
PLAN_1
  6
CONTINUOUS
 10
0.525709
 20
-4.128150
  0
VERTEX
  8
PLAN_1
  6
CONTINUOUS
 10
0.527803
 20
-4.120815
  0
VERTEX
  8
PLAN_1
  6
CONTINUOUS
 10
0.529902
 20
-4.112433
  0
VERTEX
  8
PLAN_1
  6
CONTINUOUS
 10
0.556094
 20
-4.112433
  0
VERTEX
  8
PLAN_1
  6
CONTINUOUS
 10
0.555047
 20
-4.119244
  0
VERTEX
  8
PLAN_1
  6
CONTINUOUS
 10
0.553476
 20
-4.125531
  0
VERTEX
  8
PLAN_1
  6
CONTINUOUS
 10
0.551902
 20
-4.131819
  0
VERTEX
  8
PLAN_1
  6
CONTINUOUS
 10
0.549807
 20
-4.137579
  0
VERTEX
  8
PLAN_1
  6
CONTINUOUS
 10
0.547713
 20
-4.142819
  0
VERTEX
  8
PLAN_1
  6
CONTINUOUS
 10
0.545094
 20
-4.147535
  0
VERTEX
  8
PLAN_1
  6
CONTINUOUS
 10
0.542472
 20
-4.152248
  0
VERTEX
  8
PLAN_1
  6
CONTINUOUS
 10
0.539854
 20
-4.156441
  0
VERTEX
  8
PLAN_1
  6
CONTINUOUS
 10
0.536713
 20
-4.160630
  0
VERTEX
  8
PLAN_1
  6
CONTINUOUS
 10
0.534091
 20
-4.163776
  0
VERTEX
  8
PLAN_1
  6
CONTINUOUS
 10
0.530949
 20
-4.167441
  0
VERTEX
  8
PLAN_1
  6
CONTINUOUS
 10
0.527280
 20
-4.170583
  0
VERTEX
  8
PLAN_1
  6
CONTINUOUS
 10
0.520996
 20
-4.175823
  0
VERTEX
  8
PLAN_1
  6
CONTINUOUS
 10
0.513661
 20
-4.180016
  0
VERTEX
  8
PLAN_1
  6
CONTINUOUS
 10
0.506850
 20
-4.183157
  0
VERTEX
  8
PLAN_1
  6
CONTINUOUS
 10
0.500039
 20
-4.185776
  0
VERTEX
  8
PLAN_1
  6
CONTINUOUS
 10
0.493752
 20
-4.187870
  0
VERTEX
  8
PLAN_1
  6
CONTINUOUS
 10
0.487469
 20
-4.189445
  0
VERTEX
  8
PLAN_1
  6
CONTINUOUS
 10
0.476465
 20
-4.190492
  0
VERTEX
  8
PLAN_1
  6
CONTINUOUS
 10
0.469130
 20
-4.191016
  0
VERTEX
  8
PLAN_1
  6
CONTINUOUS
 10
0.460224
 20
-4.190492
  0
VERTEX
  8
PLAN_1
  6
CONTINUOUS
 10
0.451843
 20
-4.189445
  0
VERTEX
  8
PLAN_1
  6
CONTINUOUS
 10
0.443984
 20
-4.187870
  0
VERTEX
  8
PLAN_1
  6
CONTINUOUS
 10
0.435602
 20
-4.185252
  0
VERTEX
  8
PLAN_1
  6
CONTINUOUS
 10
0.428268
 20
-4.182110
  0
VERTEX
  8
PLAN_1
  6
CONTINUOUS
 10
0.420409
 20
-4.177917
  0
VERTEX
  8
PLAN_1
  6
CONTINUOUS
 10
0.413598
 20
-4.172681
  0
VERTEX
  8
PLAN_1
  6
CONTINUOUS
 10
0.407315
 20
-4.166917
  0
VERTEX
  8
PLAN_1
  6
CONTINUOUS
 10
0.404169
 20
-4.163248
  0
VERTEX
  8
PLAN_1
  6
CONTINUOUS
 10
0.401028
 20
-4.160106
  0
VERTEX
  8
PLAN_1
  6
CONTINUOUS
 10
0.398409
 20
-4.156441
  0
VERTEX
  8
PLAN_1
  6
CONTINUOUS
 10
0.395787
 20
-4.152248
  0
VERTEX
  8
PLAN_1
  6
CONTINUOUS
 10
0.393169
 20
-4.148059
  0
VERTEX
  8
PLAN_1
  6
CONTINUOUS
 10
0.391075
 20
-4.143343
  0
VERTEX
  8
PLAN_1
  6
CONTINUOUS
 10
0.388976
 20
-4.138626
  0
VERTEX
  8
PLAN_1
  6
CONTINUOUS
 10
0.386882
 20
-4.133913
  0
VERTEX
  8
PLAN_1
  6
CONTINUOUS
 10
0.385311
 20
-4.128673
  0
VERTEX
  8
PLAN_1
  6
CONTINUOUS
 10
0.383740
 20
-4.123437
  0
VERTEX
  8
PLAN_1
  6
CONTINUOUS
 10
0.382169
 20
-4.117673
  0
VERTEX
  8
PLAN_1
  6
CONTINUOUS
 10
0.381118
 20
-4.111386
  0
VERTEX
  8
PLAN_1
  6
CONTINUOUS
 10
0.380594
 20
-4.105098
  0
VERTEX
  8
PLAN_1
  6
CONTINUOUS
 10
0.379547
 20
-4.098815
  0
VERTEX
  8
PLAN_1
  6
CONTINUOUS
 10
0.379547
 20
-4.092004
  0
VERTEX
  8
PLAN_1
  6
CONTINUOUS
 10
0.379024
 20
-4.085193
  0
VERTEX
  8
PLAN_1
  6
CONTINUOUS
 10
0.379547
 20
-4.073665
  0
VERTEX
  8
PLAN_1
  6
CONTINUOUS
 10
0.380594
 20
-4.062665
  0
VERTEX
  8
PLAN_1
  6
CONTINUOUS
 10
0.382693
 20
-4.052713
  0
VERTEX
  8
PLAN_1
  6
CONTINUOUS
 10
0.385835
 20
-4.042760
  0
VERTEX
  8
PLAN_1
  6
CONTINUOUS
 10
0.388976
 20
-4.033854
  0
VERTEX
  8
PLAN_1
  6
CONTINUOUS
 10
0.393169
 20
-4.024945
  0
VERTEX
  8
PLAN_1
  6
CONTINUOUS
 10
0.398409
 20
-4.017087
  0
VERTEX
  8
PLAN_1
  6
CONTINUOUS
 10
0.404169
 20
-4.010280
  0
VERTEX
  8
PLAN_1
  6
CONTINUOUS
 10
0.410457
 20
-4.003469
  0
VERTEX
  8
PLAN_1
  6
CONTINUOUS
 10
0.417268
 20
-3.997705
  0
VERTEX
  8
PLAN_1
  6
CONTINUOUS
 10
0.425126
 20
-3.992988
  0
VERTEX
  8
PLAN_1
  6
CONTINUOUS
 10
0.432984
 20
-3.988799
  0
VERTEX
  8
PLAN_1
  6
CONTINUOUS
 10
0.441890
 20
-3.985657
  0
VERTEX
  8
PLAN_1
  6
CONTINUOUS
 10
0.451319
 20
-3.983035
  0
VERTEX
  8
PLAN_1
  6
CONTINUOUS
 10
0.461795
 20
-3.981465
  0
VERTEX
  8
PLAN_1
  6
CONTINUOUS
 10
0.472276
 20
-3.980941
  0
VERTEX
  8
PLAN_1
  6
CONTINUOUS
 10
0.481705
 20
-3.981465
  0
VERTEX
  8
PLAN_1
  6
CONTINUOUS
 10
0.490087
 20
-3.982512
  0
VERTEX
  8
PLAN_1
  6
CONTINUOUS
 10
0.498469
 20
-3.984083
  0
VERTEX
  8
PLAN_1
  6
CONTINUOUS
 10
0.506327
 20
-3.986705
  0
VERTEX
  8
PLAN_1
  6
CONTINUOUS
 10
0.513138
 20
-3.989846
  0
VERTEX
  8
PLAN_1
  6
CONTINUOUS
 10
0.519421
 20
-3.992988
  0
VERTEX
  8
PLAN_1
  6
CONTINUOUS
 10
0.525709
 20
-3.997181
  0
VERTEX
  8
PLAN_1
  6
CONTINUOUS
 10
0.530949
 20
-4.001374
  0
VERTEX
  8
PLAN_1
  6
CONTINUOUS
 10
0.535661
 20
-4.006087
  0
VERTEX
  8
PLAN_1
  6
CONTINUOUS
 10
0.539854
 20
-4.011327
  0
VERTEX
  8
PLAN_1
  6
CONTINUOUS
 10
0.543520
 20
-4.016563
  0
VERTEX
  8
PLAN_1
  6
CONTINUOUS
 10
0.546665
 20
-4.022327
  0
VERTEX
  8
PLAN_1
  6
CONTINUOUS
 10
0.549283
 20
-4.028091
  0
VERTEX
  8
PLAN_1
  6
CONTINUOUS
 10
0.551378
 20
-4.033854
  0
VERTEX
  8
PLAN_1
  6
CONTINUOUS
 10
0.552953
 20
-4.040138
  0
VERTEX
  8
PLAN_1
  6
CONTINUOUS
 10
0.554000
 20
-4.046425
  0
VERTEX
  8
PLAN_1
  6
CONTINUOUS
 10
0.527803
 20
-4.046425
  0
SEQEND
  8
0
  0
POLYLINE
  8
PLAN_1
  6
CONTINUOUS
 66
     1
 40
0.003000
 41
0.003000
  0
VERTEX
  8
PLAN_1
  6
CONTINUOUS
 10
0.615291
 20
-4.185776
  0
VERTEX
  8
PLAN_1
  6
CONTINUOUS
 10
0.588575
 20
-4.185776
  0
VERTEX
  8
PLAN_1
  6
CONTINUOUS
 10
0.588575
 20
-3.986705
  0
VERTEX
  8
PLAN_1
  6
CONTINUOUS
 10
0.615291
 20
-3.986705
  0
VERTEX
  8
PLAN_1
  6
CONTINUOUS
 10
0.615291
 20
-4.083098
  0
VERTEX
  8
PLAN_1
  6
CONTINUOUS
 10
0.712209
 20
-3.986705
  0
VERTEX
  8
PLAN_1
  6
CONTINUOUS
 10
0.749406
 20
-3.986705
  0
VERTEX
  8
PLAN_1
  6
CONTINUOUS
 10
0.666110
 20
-4.066858
  0
VERTEX
  8
PLAN_1
  6
CONTINUOUS
 10
0.751500
 20
-4.185776
  0
VERTEX
  8
PLAN_1
  6
CONTINUOUS
 10
0.716402
 20
-4.185776
  0
VERTEX
  8
PLAN_1
  6
CONTINUOUS
 10
0.646724
 20
-4.085717
  0
VERTEX
  8
PLAN_1
  6
CONTINUOUS
 10
0.615291
 20
-4.115579
  0
VERTEX
  8
PLAN_1
  6
CONTINUOUS
 10
0.615291
 20
-4.185776
  0
SEQEND
  8
0
  0
POLYLINE
  8
PLAN_1
  6
CONTINUOUS
 66
     1
 40
0.003000
 41
0.003000
  0
VERTEX
  8
PLAN_1
  6
CONTINUOUS
 10
0.938000
 20
-4.185776
  0
VERTEX
  8
PLAN_1
  6
CONTINUOUS
 10
0.938000
 20
-4.067906
  0
VERTEX
  8
PLAN_1
  6
CONTINUOUS
 10
0.938000
 20
-4.064760
  0
VERTEX
  8
PLAN_1
  6
CONTINUOUS
 10
0.938000
 20
-4.060571
  0
VERTEX
  8
PLAN_1
  6
CONTINUOUS
 10
0.938000
 20
-4.054807
  0
VERTEX
  8
PLAN_1
  6
CONTINUOUS
 10
0.938000
 20
-4.047996
  0
VERTEX
  8
PLAN_1
  6
CONTINUOUS
 10
0.938000
 20
-4.040661
  0
VERTEX
  8
PLAN_1
  6
CONTINUOUS
 10
0.938524
 20
-4.033327
  0
VERTEX
  8
PLAN_1
  6
CONTINUOUS
 10
0.938524
 20
-4.025469
  0
VERTEX
  8
PLAN_1
  6
CONTINUOUS
 10
0.938524
 20
-4.018138
  0
VERTEX
  8
PLAN_1
  6
CONTINUOUS
 10
0.938000
 20
-4.018138
  0
VERTEX
  8
PLAN_1
  6
CONTINUOUS
 10
0.881945
 20
-4.185776
  0
VERTEX
  8
PLAN_1
  6
CONTINUOUS
 10
0.855228
 20
-4.185776
  0
VERTEX
  8
PLAN_1
  6
CONTINUOUS
 10
0.799173
 20
-4.018661
  0
VERTEX
  8
PLAN_1
  6
CONTINUOUS
 10
0.798650
 20
-4.018661
  0
VERTEX
  8
PLAN_1
  6
CONTINUOUS
 10
0.798650
 20
-4.025996
  0
VERTEX
  8
PLAN_1
  6
CONTINUOUS
 10
0.798650
 20
-4.033327
  0
VERTEX
  8
PLAN_1
  6
CONTINUOUS
 10
0.798650
 20
-4.040661
  0
VERTEX
  8
PLAN_1
  6
CONTINUOUS
 10
0.798650
 20
-4.047996
  0
VERTEX
  8
PLAN_1
  6
CONTINUOUS
 10
0.799173
 20
-4.054807
  0
VERTEX
  8
PLAN_1
  6
CONTINUOUS
 10
0.799173
 20
-4.060571
  0
VERTEX
  8
PLAN_1
  6
CONTINUOUS
 10
0.799173
 20
-4.064760
  0
VERTEX
  8
PLAN_1
  6
CONTINUOUS
 10
0.799173
 20
-4.067906
  0
VERTEX
  8
PLAN_1
  6
CONTINUOUS
 10
0.799173
 20
-4.185776
  0
VERTEX
  8
PLAN_1
  6
CONTINUOUS
 10
0.772980
 20
-4.185776
  0
VERTEX
  8
PLAN_1
  6
CONTINUOUS
 10
0.772980
 20
-3.986705
  0
VERTEX
  8
PLAN_1
  6
CONTINUOUS
 10
0.811744
 20
-3.986705
  0
VERTEX
  8
PLAN_1
  6
CONTINUOUS
 10
0.868323
 20
-4.154866
  0
VERTEX
  8
PLAN_1
  6
CONTINUOUS
 10
0.868846
 20
-4.154866
  0
VERTEX
  8
PLAN_1
  6
CONTINUOUS
 10
0.925425
 20
-3.986705
  0
VERTEX
  8
PLAN_1
  6
CONTINUOUS
 10
0.964193
 20
-3.986705
  0
VERTEX
  8
PLAN_1
  6
CONTINUOUS
 10
0.964193
 20
-4.185776
  0
VERTEX
  8
PLAN_1
  6
CONTINUOUS
 10
0.938000
 20
-4.185776
  0
SEQEND
  8
0
  0
POLYLINE
  8
PLAN_1
  6
CONTINUOUS
 66
     1
 40
0.003000
 41
0.003000
  0
VERTEX
  8
PLAN_1
  6
CONTINUOUS
 10
1.167980
 20
-4.031232
  0
VERTEX
  8
PLAN_1
  6
CONTINUOUS
 10
1.186843
 20
-4.031232
  0
VERTEX
  8
PLAN_1
  6
CONTINUOUS
 10
1.182650
 20
-4.045902
  0
VERTEX
  8
PLAN_1
  6
CONTINUOUS
 10
1.178461
 20
-4.061094
  0
VERTEX
  8
PLAN_1
  6
CONTINUOUS
 10
1.174268
 20
-4.075240
  0
VERTEX
  8
PLAN_1
  6
CONTINUOUS
 10
1.170079
 20
-4.088335
  0
VERTEX
  8
PLAN_1
  6
CONTINUOUS
 10
1.166933
 20
-4.100386
  0
VERTEX
  8
PLAN_1
  6
CONTINUOUS
 10
1.164315
 20
-4.109815
  0
VERTEX
  8
PLAN_1
  6
CONTINUOUS
 10
1.162220
 20
-4.117673
  0
VERTEX
  8
PLAN_1
  6
CONTINUOUS
 10
1.161697
 20
-4.121862
  0
VERTEX
  8
PLAN_1
  6
CONTINUOUS
 10
1.161697
 20
-4.123961
  0
VERTEX
  8
PLAN_1
  6
CONTINUOUS
 10
1.162220
 20
-4.125531
  0
VERTEX
  8
PLAN_1
  6
CONTINUOUS
 10
1.162220
 20
-4.126579
  0
VERTEX
  8
PLAN_1
  6
CONTINUOUS
 10
1.162744
 20
-4.128150
  0
VERTEX
  8
PLAN_1
  6
CONTINUOUS
 10
1.163791
 20
-4.128673
  0
VERTEX
  8
PLAN_1
  6
CONTINUOUS
 10
1.164839
 20
-4.129197
  0
VERTEX
  8
PLAN_1
  6
CONTINUOUS
 10
1.165886
 20
-4.129720
  0
VERTEX
  8
PLAN_1
  6
CONTINUOUS
 10
1.167457
 20
-4.129720
  0
VERTEX
  8
PLAN_1
  6
CONTINUOUS
 10
1.171126
 20
-4.129720
  0
VERTEX
  8
PLAN_1
  6
CONTINUOUS
 10
1.174791
 20
-4.128673
  0
VERTEX
  8
PLAN_1
  6
CONTINUOUS
 10
1.177937
 20
-4.127102
  0
VERTEX
  8
PLAN_1
  6
CONTINUOUS
 10
1.181602
 20
-4.125008
  0
VERTEX
  8
PLAN_1
  6
CONTINUOUS
 10
1.184744
 20
-4.121862
  0
VERTEX
  8
PLAN_1
  6
CONTINUOUS
 10
1.188413
 20
-4.118720
  0
VERTEX
  8
PLAN_1
  6
CONTINUOUS
 10
1.191555
 20
-4.115055
  0
VERTEX
  8
PLAN_1
  6
CONTINUOUS
 10
1.194177
 20
-4.110862
  0
VERTEX
  8
PLAN_1
  6
CONTINUOUS
 10
1.196795
 20
-4.106669
  0
VERTEX
  8
PLAN_1
  6
CONTINUOUS
 10
1.199413
 20
-4.101957
  0
VERTEX
  8
PLAN_1
  6
CONTINUOUS
 10
1.201508
 20
-4.097240
  0
VERTEX
  8
PLAN_1
  6
CONTINUOUS
 10
1.203606
 20
-4.092004
  0
VERTEX
  8
PLAN_1
  6
CONTINUOUS
 10
1.204654
 20
-4.086764
  0
VERTEX
  8
PLAN_1
  6
CONTINUOUS
 10
1.206224
 20
-4.081000
  0
VERTEX
  8
PLAN_1
  6
CONTINUOUS
 10
1.206748
 20
-4.075764
  0
VERTEX
  8
PLAN_1
  6
CONTINUOUS
 10
1.206748
 20
-4.070000
  0
VERTEX
  8
PLAN_1
  6
CONTINUOUS
 10
1.206748
 20
-4.061618
  0
VERTEX
  8
PLAN_1
  6
CONTINUOUS
 10
1.205177
 20
-4.054283
  0
VERTEX
  8
PLAN_1
  6
CONTINUOUS
 10
1.203606
 20
-4.046949
  0
VERTEX
  8
PLAN_1
  6
CONTINUOUS
 10
1.200461
 20
-4.040138
  0
VERTEX
  8
PLAN_1
  6
CONTINUOUS
 10
1.197319
 20
-4.033854
  0
VERTEX
  8
PLAN_1
  6
CONTINUOUS
 10
1.193650
 20
-4.027567
  0
VERTEX
  8
PLAN_1
  6
CONTINUOUS
 10
1.188937
 20
-4.022327
  0
VERTEX
  8
PLAN_1
  6
CONTINUOUS
 10
1.183697
 20
-4.017614
  0
VERTEX
  8
PLAN_1
  6
CONTINUOUS
 10
1.178461
 20
-4.013421
  0
VERTEX
  8
PLAN_1
  6
CONTINUOUS
 10
1.172173
 20
-4.009228
  0
VERTEX
  8
PLAN_1
  6
CONTINUOUS
 10
1.165886
 20
-4.006087
  0
VERTEX
  8
PLAN_1
  6
CONTINUOUS
 10
1.159075
 20
-4.003469
  0
VERTEX
  8
PLAN_1
  6
CONTINUOUS
 10
1.152264
 20
-4.001374
  0
VERTEX
  8
PLAN_1
  6
CONTINUOUS
 10
1.144929
 20
-3.999799
  0
VERTEX
  8
PLAN_1
  6
CONTINUOUS
 10
1.137071
 20
-3.998752
  0
VERTEX
  8
PLAN_1
  6
CONTINUOUS
 10
1.129217
 20
-3.998228
  0
VERTEX
  8
PLAN_1
  6
CONTINUOUS
 10
1.120307
 20
-3.998752
  0
VERTEX
  8
PLAN_1
  6
CONTINUOUS
 10
1.111402
 20
-4.000323
  0
VERTEX
  8
PLAN_1
  6
CONTINUOUS
 10
1.103543
 20
-4.002421
  0
VERTEX
  8
PLAN_1
  6
CONTINUOUS
 10
1.095685
 20
-4.005563
  0
VERTEX
  8
PLAN_1
  6
CONTINUOUS
 10
1.087827
 20
-4.009228
  0
VERTEX
  8
PLAN_1
  6
CONTINUOUS
 10
1.081020
 20
-4.013421
  0
VERTEX
  8
PLAN_1
  6
CONTINUOUS
 10
1.074732
 20
-4.018661
  0
VERTEX
  8
PLAN_1
  6
CONTINUOUS
 10
1.068969
 20
-4.024421
  0
VERTEX
  8
PLAN_1
  6
CONTINUOUS
 10
1.063205
 20
-4.030709
  0
VERTEX
  8
PLAN_1
  6
CONTINUOUS
 10
1.059016
 20
-4.037520
  0
VERTEX
  8
PLAN_1
  6
CONTINUOUS
 10
1.054823
 20
-4.044854
  0
VERTEX
  8
PLAN_1
  6
CONTINUOUS
 10
1.051157
 20
-4.052713
  0
VERTEX
  8
PLAN_1
  6
CONTINUOUS
 10
1.048539
 20
-4.060571
  0
VERTEX
  8
PLAN_1
  6
CONTINUOUS
 10
1.046441
 20
-4.069476
  0
VERTEX
  8
PLAN_1
  6
CONTINUOUS
 10
1.045394
 20
-4.077858
  0
VERTEX
  8
PLAN_1
  6
CONTINUOUS
 10
1.044870
 20
-4.087287
  0
VERTEX
  8
PLAN_1
  6
CONTINUOUS
 10
1.045394
 20
-4.096193
  0
VERTEX
  8
PLAN_1
  6
CONTINUOUS
 10
1.046965
 20
-4.105098
  0
VERTEX
  8
PLAN_1
  6
CONTINUOUS
 10
1.049063
 20
-4.113480
  0
VERTEX
  8
PLAN_1
  6
CONTINUOUS
 10
1.051681
 20
-4.121339
  0
VERTEX
  8
PLAN_1
  6
CONTINUOUS
 10
1.055346
 20
-4.129197
  0
VERTEX
  8
PLAN_1
  6
CONTINUOUS
 10
1.059539
 20
-4.136008
  0
VERTEX
  8
PLAN_1
  6
CONTINUOUS
 10
1.064256
 20
-4.142819
  0
VERTEX
  8
PLAN_1
  6
CONTINUOUS
 10
1.070016
 20
-4.149106
  0
VERTEX
  8
PLAN_1
  6
CONTINUOUS
 10
1.076303
 20
-4.154343
  0
VERTEX
  8
PLAN_1
  6
CONTINUOUS
 10
1.082591
 20
-4.159583
  0
VERTEX
  8
PLAN_1
  6
CONTINUOUS
 10
1.089925
 20
-4.163776
  0
VERTEX
  8
PLAN_1
  6
CONTINUOUS
 10
1.097260
 20
-4.167441
  0
VERTEX
  8
PLAN_1
  6
CONTINUOUS
 10
1.105642
 20
-4.170059
  0
VERTEX
  8
PLAN_1
  6
CONTINUOUS
 10
1.113500
 20
-4.172157
  0
VERTEX
  8
PLAN_1
  6
CONTINUOUS
 10
1.122406
 20
-4.173205
  0
VERTEX
  8
PLAN_1
  6
CONTINUOUS
 10
1.131311
 20
-4.173728
  0
VERTEX
  8
PLAN_1
  6
CONTINUOUS
 10
1.136024
 20
-4.173728
  0
VERTEX
  8
PLAN_1
  6
CONTINUOUS
 10
1.141264
 20
-4.173205
  0
VERTEX
  8
PLAN_1
  6
CONTINUOUS
 10
1.145980
 20
-4.172681
  0
VERTEX
  8
PLAN_1
  6
CONTINUOUS
 10
1.150693
 20
-4.171630
  0
VERTEX
  8
PLAN_1
  6
CONTINUOUS
 10
1.160122
 20
-4.169012
  0
VERTEX
  8
PLAN_1
  6
CONTINUOUS
 10
1.169028
 20
-4.165346
  0
VERTEX
  8
PLAN_1
  6
CONTINUOUS
 10
1.177409
 20
-4.160630
  0
VERTEX
  8
PLAN_1
  6
CONTINUOUS
 10
1.185268
 20
-4.155390
  0
VERTEX
  8
PLAN_1
  6
CONTINUOUS
 10
1.188937
 20
-4.152248
  0
VERTEX
  8
PLAN_1
  6
CONTINUOUS
 10
1.192602
 20
-4.149106
  0
VERTEX
  8
PLAN_1
  6
CONTINUOUS
 10
1.195748
 20
-4.145961
  0
VERTEX
  8
PLAN_1
  6
CONTINUOUS
 10
1.198890
 20
-4.142295
  0
VERTEX
  8
PLAN_1
  6
CONTINUOUS
 10
1.217224
 20
-4.142295
  0
VERTEX
  8
PLAN_1
  6
CONTINUOUS
 10
1.214083
 20
-4.147535
  0
VERTEX
  8
PLAN_1
  6
CONTINUOUS
 10
1.209890
 20
-4.152772
  0
VERTEX
  8
PLAN_1
  6
CONTINUOUS
 10
1.205701
 20
-4.158012
  0
VERTEX
  8
PLAN_1
  6
CONTINUOUS
 10
1.201508
 20
-4.162724
  0
VERTEX
  8
PLAN_1
  6
CONTINUOUS
 10
1.196795
 20
-4.166917
  0
VERTEX
  8
PLAN_1
  6
CONTINUOUS
 10
1.191555
 20
-4.171106
  0
VERTEX
  8
PLAN_1
  6
CONTINUOUS
 10
1.186319
 20
-4.174776
  0
VERTEX
  8
PLAN_1
  6
CONTINUOUS
 10
1.180555
 20
-4.177917
  0
VERTEX
  8
PLAN_1
  6
CONTINUOUS
 10
1.174791
 20
-4.181063
  0
VERTEX
  8
PLAN_1
  6
CONTINUOUS
 10
1.169028
 20
-4.183681
  0
VERTEX
  8
PLAN_1
  6
CONTINUOUS
 10
1.163268
 20
-4.185776
  0
VERTEX
  8
PLAN_1
  6
CONTINUOUS
 10
1.156980
 20
-4.187870
  0
VERTEX
  8
PLAN_1
  6
CONTINUOUS
 10
1.150693
 20
-4.188921
  0
VERTEX
  8
PLAN_1
  6
CONTINUOUS
 10
1.143882
 20
-4.189969
  0
VERTEX
  8
PLAN_1
  6
CONTINUOUS
 10
1.137598
 20
-4.191016
  0
VERTEX
  8
PLAN_1
  6
CONTINUOUS
 10
1.130787
 20
-4.191016
  0
VERTEX
  8
PLAN_1
  6
CONTINUOUS
 10
1.125547
 20
-4.191016
  0
VERTEX
  8
PLAN_1
  6
CONTINUOUS
 10
1.119783
 20
-4.190492
  0
VERTEX
  8
PLAN_1
  6
CONTINUOUS
 10
1.114547
 20
-4.189969
  0
VERTEX
  8
PLAN_1
  6
CONTINUOUS
 10
1.109307
 20
-4.188921
  0
VERTEX
  8
PLAN_1
  6
CONTINUOUS
 10
1.098831
 20
-4.186299
  0
VERTEX
  8
PLAN_1
  6
CONTINUOUS
 10
1.089402
 20
-4.182634
  0
VERTEX
  8
PLAN_1
  6
CONTINUOUS
 10
1.079969
 20
-4.178441
  0
VERTEX
  8
PLAN_1
  6
CONTINUOUS
 10
1.071063
 20
-4.173205
  0
VERTEX
  8
PLAN_1
  6
CONTINUOUS
 10
1.063205
 20
-4.167441
  0
VERTEX
  8
PLAN_1
  6
CONTINUOUS
 10
1.055346
 20
-4.160630
  0
VERTEX
  8
PLAN_1
  6
CONTINUOUS
 10
1.048539
 20
-4.152772
  0
VERTEX
  8
PLAN_1
  6
CONTINUOUS
 10
1.042776
 20
-4.144913
  0
VERTEX
  8
PLAN_1
  6
CONTINUOUS
 10
1.037535
 20
-4.136008
  0
VERTEX
  8
PLAN_1
  6
CONTINUOUS
 10
1.032823
 20
-4.127102
  0
VERTEX
  8
PLAN_1
  6
CONTINUOUS
 10
1.029677
 20
-4.117150
  0
VERTEX
  8
PLAN_1
  6
CONTINUOUS
 10
1.027059
 20
-4.107197
  0
VERTEX
  8
PLAN_1
  6
CONTINUOUS
 10
1.026012
 20
-4.101957
  0
VERTEX
  8
PLAN_1
  6
CONTINUOUS
 10
1.025488
 20
-4.096717
  0
VERTEX
  8
PLAN_1
  6
CONTINUOUS
 10
1.024965
 20
-4.090957
  0
VERTEX
  8
PLAN_1
  6
CONTINUOUS
 10
1.024965
 20
-4.085717
  0
VERTEX
  8
PLAN_1
  6
CONTINUOUS
 10
1.024965
 20
-4.079953
  0
VERTEX
  8
PLAN_1
  6
CONTINUOUS
 10
1.025488
 20
-4.074717
  0
VERTEX
  8
PLAN_1
  6
CONTINUOUS
 10
1.026012
 20
-4.069476
  0
VERTEX
  8
PLAN_1
  6
CONTINUOUS
 10
1.027059
 20
-4.064236
  0
VERTEX
  8
PLAN_1
  6
CONTINUOUS
 10
1.029677
 20
-4.054283
  0
VERTEX
  8
PLAN_1
  6
CONTINUOUS
 10
1.033346
 20
-4.044854
  0
VERTEX
  8
PLAN_1
  6
CONTINUOUS
 10
1.037535
 20
-4.035425
  0
VERTEX
  8
PLAN_1
  6
CONTINUOUS
 10
1.042776
 20
-4.027043
  0
VERTEX
  8
PLAN_1
  6
CONTINUOUS
 10
1.049063
 20
-4.019185
  0
VERTEX
  8
PLAN_1
  6
CONTINUOUS
 10
1.055870
 20
-4.011850
  0
VERTEX
  8
PLAN_1
  6
CONTINUOUS
 10
1.063205
 20
-4.005039
  0
VERTEX
  8
PLAN_1
  6
CONTINUOUS
 10
1.071063
 20
-3.998752
  0
VERTEX
  8
PLAN_1
  6
CONTINUOUS
 10
1.079969
 20
-3.993516
  0
VERTEX
  8
PLAN_1
  6
CONTINUOUS
 10
1.088878
 20
-3.989323
  0
VERTEX
  8
PLAN_1
  6
CONTINUOUS
 10
1.098831
 20
-3.985657
  0
VERTEX
  8
PLAN_1
  6
CONTINUOUS
 10
1.108783
 20
-3.983035
  0
VERTEX
  8
PLAN_1
  6
CONTINUOUS
 10
1.113500
 20
-3.982512
  0
VERTEX
  8
PLAN_1
  6
CONTINUOUS
 10
1.118736
 20
-3.981465
  0
VERTEX
  8
PLAN_1
  6
CONTINUOUS
 10
1.123976
 20
-3.981465
  0
VERTEX
  8
PLAN_1
  6
CONTINUOUS
 10
1.129217
 20
-3.980941
  0
VERTEX
  8
PLAN_1
  6
CONTINUOUS
 10
1.139169
 20
-3.981465
  0
VERTEX
  8
PLAN_1
  6
CONTINUOUS
 10
1.148075
 20
-3.983035
  0
VERTEX
  8
PLAN_1
  6
CONTINUOUS
 10
1.157504
 20
-3.984606
  0
VERTEX
  8
PLAN_1
  6
CONTINUOUS
 10
1.165886
 20
-3.987752
  0
VERTEX
  8
PLAN_1
  6
CONTINUOUS
 10
1.174268
 20
-3.990894
  0
VERTEX
  8
PLAN_1
  6
CONTINUOUS
 10
1.182126
 20
-3.995087
  0
VERTEX
  8
PLAN_1
  6
CONTINUOUS
 10
1.189461
 20
-4.000323
  0
VERTEX
  8
PLAN_1
  6
CONTINUOUS
 10
1.196272
 20
-4.005563
  0
VERTEX
  8
PLAN_1
  6
CONTINUOUS
 10
1.202559
 20
-4.011327
  0
VERTEX
  8
PLAN_1
  6
CONTINUOUS
 10
1.208319
 20
-4.018138
  0
VERTEX
  8
PLAN_1
  6
CONTINUOUS
 10
1.213035
 20
-4.025469
  0
VERTEX
  8
PLAN_1
  6
CONTINUOUS
 10
1.217224
 20
-4.032803
  0
VERTEX
  8
PLAN_1
  6
CONTINUOUS
 10
1.220370
 20
-4.041185
  0
VERTEX
  8
PLAN_1
  6
CONTINUOUS
 10
1.222988
 20
-4.049567
  0
VERTEX
  8
PLAN_1
  6
CONTINUOUS
 10
1.224559
 20
-4.058476
  0
VERTEX
  8
PLAN_1
  6
CONTINUOUS
 10
1.225083
 20
-4.067906
  0
VERTEX
  8
PLAN_1
  6
CONTINUOUS
 10
1.224559
 20
-4.076811
  0
VERTEX
  8
PLAN_1
  6
CONTINUOUS
 10
1.222988
 20
-4.085717
  0
VERTEX
  8
PLAN_1
  6
CONTINUOUS
 10
1.220894
 20
-4.094098
  0
VERTEX
  8
PLAN_1
  6
CONTINUOUS
 10
1.218272
 20
-4.101433
  0
VERTEX
  8
PLAN_1
  6
CONTINUOUS
 10
1.214606
 20
-4.108768
  0
VERTEX
  8
PLAN_1
  6
CONTINUOUS
 10
1.210417
 20
-4.115055
  0
VERTEX
  8
PLAN_1
  6
CONTINUOUS
 10
1.205701
 20
-4.121339
  0
VERTEX
  8
PLAN_1
  6
CONTINUOUS
 10
1.200984
 20
-4.126579
  0
VERTEX
  8
PLAN_1
  6
CONTINUOUS
 10
1.195748
 20
-4.131819
  0
VERTEX
  8
PLAN_1
  6
CONTINUOUS
 10
1.190508
 20
-4.136008
  0
VERTEX
  8
PLAN_1
  6
CONTINUOUS
 10
1.184744
 20
-4.139677
  0
VERTEX
  8
PLAN_1
  6
CONTINUOUS
 10
1.179508
 20
-4.142295
  0
VERTEX
  8
PLAN_1
  6
CONTINUOUS
 10
1.173744
 20
-4.144913
  0
VERTEX
  8
PLAN_1
  6
CONTINUOUS
 10
1.168504
 20
-4.146484
  0
VERTEX
  8
PLAN_1
  6
CONTINUOUS
 10
1.163268
 20
-4.147535
  0
VERTEX
  8
PLAN_1
  6
CONTINUOUS
 10
1.158551
 20
-4.148059
  0
VERTEX
  8
PLAN_1
  6
CONTINUOUS
 10
1.155409
 20
-4.147535
  0
VERTEX
  8
PLAN_1
  6
CONTINUOUS
 10
1.151740
 20
-4.147008
  0
VERTEX
  8
PLAN_1
  6
CONTINUOUS
 10
1.149122
 20
-4.145437
  0
VERTEX
  8
PLAN_1
  6
CONTINUOUS
 10
1.146504
 20
-4.143866
  0
VERTEX
  8
PLAN_1
  6
CONTINUOUS
 10
1.144406
 20
-4.141248
  0
VERTEX
  8
PLAN_1
  6
CONTINUOUS
 10
1.142311
 20
-4.138102
  0
VERTEX
  8
PLAN_1
  6
CONTINUOUS
 10
1.141264
 20
-4.134437
  0
VERTEX
  8
PLAN_1
  6
CONTINUOUS
 10
1.140740
 20
-4.130244
  0
VERTEX
  8
PLAN_1
  6
CONTINUOUS
 10
1.140217
 20
-4.130768
  0
VERTEX
  8
PLAN_1
  6
CONTINUOUS
 10
1.137071
 20
-4.133913
  0
VERTEX
  8
PLAN_1
  6
CONTINUOUS
 10
1.133406
 20
-4.137055
  0
VERTEX
  8
PLAN_1
  6
CONTINUOUS
 10
1.129740
 20
-4.140201
  0
VERTEX
  8
PLAN_1
  6
CONTINUOUS
 10
1.125547
 20
-4.142819
  0
VERTEX
  8
PLAN_1
  6
CONTINUOUS
 10
1.121358
 20
-4.144913
  0
VERTEX
  8
PLAN_1
  6
CONTINUOUS
 10
1.116642
 20
-4.146484
  0
VERTEX
  8
PLAN_1
  6
CONTINUOUS
 10
1.111925
 20
-4.147535
  0
VERTEX
  8
PLAN_1
  6
CONTINUOUS
 10
1.107213
 20
-4.148059
  0
VERTEX
  8
PLAN_1
  6
CONTINUOUS
 10
1.102496
 20
-4.147535
  0
VERTEX
  8
PLAN_1
  6
CONTINUOUS
 10
1.098307
 20
-4.147008
  0
VERTEX
  8
PLAN_1
  6
CONTINUOUS
 10
1.094114
 20
-4.145961
  0
VERTEX
  8
PLAN_1
  6
CONTINUOUS
 10
1.090449
 20
-4.144390
  0
VERTEX
  8
PLAN_1
  6
CONTINUOUS
 10
1.086780
 20
-4.142819
  0
VERTEX
  8
PLAN_1
  6
CONTINUOUS
 10
1.083638
 20
-4.140201
  0
VERTEX
  8
PLAN_1
  6
CONTINUOUS
 10
1.080496
 20
-4.137579
  0
VERTEX
  8
PLAN_1
  6
CONTINUOUS
 10
1.077874
 20
-4.134961
  0
VERTEX
  8
PLAN_1
  6
CONTINUOUS
 10
1.075256
 20
-4.131819
  0
VERTEX
  8
PLAN_1
  6
CONTINUOUS
 10
1.072638
 20
-4.128150
  0
VERTEX
  8
PLAN_1
  6
CONTINUOUS
 10
1.071063
 20
-4.124484
  0
VERTEX
  8
PLAN_1
  6
CONTINUOUS
 10
1.068969
 20
-4.120815
  0
VERTEX
  8
PLAN_1
  6
CONTINUOUS
 10
1.067921
 20
-4.116626
  0
VERTEX
  8
PLAN_1
  6
CONTINUOUS
 10
1.066874
 20
-4.112433
  0
VERTEX
  8
PLAN_1
  6
CONTINUOUS
 10
1.066350
 20
-4.108244
  0
VERTEX
  8
PLAN_1
  6
CONTINUOUS
 10
1.066350
 20
-4.103528
  0
VERTEX
  8
PLAN_1
  6
CONTINUOUS
 10
1.066350
 20
-4.096717
  0
VERTEX
  8
PLAN_1
  6
CONTINUOUS
 10
1.067398
 20
-4.089382
  0
VERTEX
  8
PLAN_1
  6
CONTINUOUS
 10
1.068969
 20
-4.082575
  0
VERTEX
  8
PLAN_1
  6
CONTINUOUS
 10
1.070539
 20
-4.075764
  0
VERTEX
  8
PLAN_1
  6
CONTINUOUS
 10
1.073161
 20
-4.069476
  0
VERTEX
  8
PLAN_1
  6
CONTINUOUS
 10
1.076303
 20
-4.062665
  0
VERTEX
  8
PLAN_1
  6
CONTINUOUS
 10
1.079969
 20
-4.056902
  0
VERTEX
  8
PLAN_1
  6
CONTINUOUS
 10
1.083638
 20
-4.051142
  0
VERTEX
  8
PLAN_1
  6
CONTINUOUS
 10
1.088350
 20
-4.045902
  0
VERTEX
  8
PLAN_1
  6
CONTINUOUS
 10
1.093067
 20
-4.041185
  0
VERTEX
  8
PLAN_1
  6
CONTINUOUS
 10
1.098307
 20
-4.036996
  0
VERTEX
  8
PLAN_1
  6
CONTINUOUS
 10
1.104067
 20
-4.033854
  0
VERTEX
  8
PLAN_1
  6
CONTINUOUS
 10
1.109831
 20
-4.030709
  0
VERTEX
  8
PLAN_1
  6
CONTINUOUS
 10
1.116642
 20
-4.028614
  0
VERTEX
  8
PLAN_1
  6
CONTINUOUS
 10
1.123453
 20
-4.027567
  0
VERTEX
  8
PLAN_1
  6
CONTINUOUS
 10
1.130264
 20
-4.027043
  0
VERTEX
  8
PLAN_1
  6
CONTINUOUS
 10
1.134976
 20
-4.027043
  0
VERTEX
  8
PLAN_1
  6
CONTINUOUS
 10
1.139693
 20
-4.028091
  0
VERTEX
  8
PLAN_1
  6
CONTINUOUS
 10
1.144406
 20
-4.029661
  0
VERTEX
  8
PLAN_1
  6
CONTINUOUS
 10
1.148598
 20
-4.031756
  0
VERTEX
  8
PLAN_1
  6
CONTINUOUS
 10
1.152264
 20
-4.034902
  0
VERTEX
  8
PLAN_1
  6
CONTINUOUS
 10
1.155933
 20
-4.038567
  0
VERTEX
  8
PLAN_1
  6
CONTINUOUS
 10
1.159075
 20
-4.043283
  0
VERTEX
  8
PLAN_1
  6
CONTINUOUS
 10
1.162220
 20
-4.048520
  0
VERTEX
  8
PLAN_1
  6
CONTINUOUS
 10
1.167980
 20
-4.031232
  0
SEQEND
  8
0
  0
POLYLINE
  8
PLAN_1
  6
CONTINUOUS
 66
     1
 40
0.003000
 41
0.003000
  0
VERTEX
  8
PLAN_1
  6
CONTINUOUS
 10
1.130787
 20
-4.046949
  0
VERTEX
  8
PLAN_1
  6
CONTINUOUS
 10
1.126071
 20
-4.047472
  0
VERTEX
  8
PLAN_1
  6
CONTINUOUS
 10
1.121882
 20
-4.048520
  0
VERTEX
  8
PLAN_1
  6
CONTINUOUS
 10
1.117689
 20
-4.050094
  0
VERTEX
  8
PLAN_1
  6
CONTINUOUS
 10
1.114024
 20
-4.052189
  0
VERTEX
  8
PLAN_1
  6
CONTINUOUS
 10
1.110354
 20
-4.054807
  0
VERTEX
  8
PLAN_1
  6
CONTINUOUS
 10
1.106689
 20
-4.057949
  0
VERTEX
  8
PLAN_1
  6
CONTINUOUS
 10
1.103543
 20
-4.061618
  0
VERTEX
  8
PLAN_1
  6
CONTINUOUS
 10
1.100402
 20
-4.065283
  0
VERTEX
  8
PLAN_1
  6
CONTINUOUS
 10
1.097783
 20
-4.069476
  0
VERTEX
  8
PLAN_1
  6
CONTINUOUS
 10
1.095685
 20
-4.073665
  0
VERTEX
  8
PLAN_1
  6
CONTINUOUS
 10
1.093591
 20
-4.078382
  0
VERTEX
  8
PLAN_1
  6
CONTINUOUS
 10
1.092020
 20
-4.083098
  0
VERTEX
  8
PLAN_1
  6
CONTINUOUS
 10
1.090449
 20
-4.087287
  0
VERTEX
  8
PLAN_1
  6
CONTINUOUS
 10
1.089925
 20
-4.092004
  0
VERTEX
  8
PLAN_1
  6
CONTINUOUS
 10
1.089402
 20
-4.096717
  0
VERTEX
  8
PLAN_1
  6
CONTINUOUS
 10
1.088878
 20
-4.100909
  0
VERTEX
  8
PLAN_1
  6
CONTINUOUS
 10
1.089402
 20
-4.106669
  0
VERTEX
  8
PLAN_1
  6
CONTINUOUS
 10
1.090449
 20
-4.111909
  0
VERTEX
  8
PLAN_1
  6
CONTINUOUS
 10
1.092543
 20
-4.116626
  0
VERTEX
  8
PLAN_1
  6
CONTINUOUS
 10
1.095161
 20
-4.120291
  0
VERTEX
  8
PLAN_1
  6
CONTINUOUS
 10
1.098831
 20
-4.123437
  0
VERTEX
  8
PLAN_1
  6
CONTINUOUS
 10
1.103020
 20
-4.126055
  0
VERTEX
  8
PLAN_1
  6
CONTINUOUS
 10
1.105118
 20
-4.127102
  0
VERTEX
  8
PLAN_1
  6
CONTINUOUS
 10
1.107213
 20
-4.127626
  0
VERTEX
  8
PLAN_1
  6
CONTINUOUS
 10
1.109831
 20
-4.127626
  0
VERTEX
  8
PLAN_1
  6
CONTINUOUS
 10
1.112449
 20
-4.128150
  0
VERTEX
  8
PLAN_1
  6
CONTINUOUS
 10
1.116642
 20
-4.127626
  0
VERTEX
  8
PLAN_1
  6
CONTINUOUS
 10
1.120831
 20
-4.126579
  0
VERTEX
  8
PLAN_1
  6
CONTINUOUS
 10
1.125024
 20
-4.125008
  0
VERTEX
  8
PLAN_1
  6
CONTINUOUS
 10
1.128689
 20
-4.122386
  0
VERTEX
  8
PLAN_1
  6
CONTINUOUS
 10
1.132358
 20
-4.119768
  0
VERTEX
  8
PLAN_1
  6
CONTINUOUS
 10
1.135500
 20
-4.116102
  0
VERTEX
  8
PLAN_1
  6
CONTINUOUS
 10
1.138646
 20
-4.112433
  0
VERTEX
  8
PLAN_1
  6
CONTINUOUS
 10
1.141787
 20
-4.108768
  0
VERTEX
  8
PLAN_1
  6
CONTINUOUS
 10
1.144406
 20
-4.104051
  0
VERTEX
  8
PLAN_1
  6
CONTINUOUS
 10
1.146504
 20
-4.099862
  0
VERTEX
  8
PLAN_1
  6
CONTINUOUS
 10
1.148598
 20
-4.095146
  0
VERTEX
  8
PLAN_1
  6
CONTINUOUS
 10
1.150693
 20
-4.090429
  0
VERTEX
  8
PLAN_1
  6
CONTINUOUS
 10
1.151740
 20
-4.085717
  0
VERTEX
  8
PLAN_1
  6
CONTINUOUS
 10
1.152787
 20
-4.081000
  0
VERTEX
  8
PLAN_1
  6
CONTINUOUS
 10
1.153311
 20
-4.076811
  0
VERTEX
  8
PLAN_1
  6
CONTINUOUS
 10
1.153839
 20
-4.072618
  0
VERTEX
  8
PLAN_1
  6
CONTINUOUS
 10
1.153311
 20
-4.067382
  0
VERTEX
  8
PLAN_1
  6
CONTINUOUS
 10
1.151740
 20
-4.062665
  0
VERTEX
  8
PLAN_1
  6
CONTINUOUS
 10
1.149646
 20
-4.058476
  0
VERTEX
  8
PLAN_1
  6
CONTINUOUS
 10
1.147028
 20
-4.054807
  0
VERTEX
  8
PLAN_1
  6
CONTINUOUS
 10
1.143358
 20
-4.051665
  0
VERTEX
  8
PLAN_1
  6
CONTINUOUS
 10
1.139693
 20
-4.049043
  0
VERTEX
  8
PLAN_1
  6
CONTINUOUS
 10
1.135500
 20
-4.047472
  0
VERTEX
  8
PLAN_1
  6
CONTINUOUS
 10
1.130787
 20
-4.046949
  0
SEQEND
  8
0
  0
POLYLINE
  8
PLAN_1
  6
CONTINUOUS
 66
     1
 40
0.003000
 41
0.003000
  0
VERTEX
  8
PLAN_1
  6
CONTINUOUS
 10
1.426776
 20
-4.046425
  0
VERTEX
  8
PLAN_1
  6
CONTINUOUS
 10
1.425205
 20
-4.040138
  0
VERTEX
  8
PLAN_1
  6
CONTINUOUS
 10
1.423110
 20
-4.034378
  0
VERTEX
  8
PLAN_1
  6
CONTINUOUS
 10
1.420488
 20
-4.029661
  0
VERTEX
  8
PLAN_1
  6
CONTINUOUS
 10
1.417870
 20
-4.024945
  0
VERTEX
  8
PLAN_1
  6
CONTINUOUS
 10
1.414728
 20
-4.021280
  0
VERTEX
  8
PLAN_1
  6
CONTINUOUS
 10
1.411059
 20
-4.018138
  0
VERTEX
  8
PLAN_1
  6
CONTINUOUS
 10
1.407394
 20
-4.014992
  0
VERTEX
  8
PLAN_1
  6
CONTINUOUS
 10
1.403201
 20
-4.012374
  0
VERTEX
  8
PLAN_1
  6
CONTINUOUS
 10
1.399535
 20
-4.010803
  0
VERTEX
  8
PLAN_1
  6
CONTINUOUS
 10
1.395343
 20
-4.008705
  0
VERTEX
  8
PLAN_1
  6
CONTINUOUS
 10
1.391154
 20
-4.007657
  0
VERTEX
  8
PLAN_1
  6
CONTINUOUS
 10
1.386961
 20
-4.006610
  0
VERTEX
  8
PLAN_1
  6
CONTINUOUS
 10
1.378579
 20
-4.005563
  0
VERTEX
  8
PLAN_1
  6
CONTINUOUS
 10
1.371244
 20
-4.005039
  0
VERTEX
  8
PLAN_1
  6
CONTINUOUS
 10
1.364433
 20
-4.005563
  0
VERTEX
  8
PLAN_1
  6
CONTINUOUS
 10
1.358150
 20
-4.006087
  0
VERTEX
  8
PLAN_1
  6
CONTINUOUS
 10
1.351862
 20
-4.007657
  0
VERTEX
  8
PLAN_1
  6
CONTINUOUS
 10
1.345575
 20
-4.010280
  0
VERTEX
  8
PLAN_1
  6
CONTINUOUS
 10
1.339811
 20
-4.012898
  0
VERTEX
  8
PLAN_1
  6
CONTINUOUS
 10
1.334575
 20
-4.016039
  0
VERTEX
  8
PLAN_1
  6
CONTINUOUS
 10
1.329335
 20
-4.020232
  0
VERTEX
  8
PLAN_1
  6
CONTINUOUS
 10
1.325146
 20
-4.024945
  0
VERTEX
  8
PLAN_1
  6
CONTINUOUS
 10
1.320953
 20
-4.030185
  0
VERTEX
  8
PLAN_1
  6
CONTINUOUS
 10
1.316764
 20
-4.035949
  0
VERTEX
  8
PLAN_1
  6
CONTINUOUS
 10
1.313618
 20
-4.042760
  0
VERTEX
  8
PLAN_1
  6
CONTINUOUS
 10
1.311000
 20
-4.049567
  0
VERTEX
  8
PLAN_1
  6
CONTINUOUS
 10
1.308906
 20
-4.057425
  0
VERTEX
  8
PLAN_1
  6
CONTINUOUS
 10
1.307331
 20
-4.065807
  0
VERTEX
  8
PLAN_1
  6
CONTINUOUS
 10
1.306283
 20
-4.074717
  0
VERTEX
  8
PLAN_1
  6
CONTINUOUS
 10
1.305760
 20
-4.084146
  0
VERTEX
  8
PLAN_1
  6
CONTINUOUS
 10
1.306283
 20
-4.093051
  0
VERTEX
  8
PLAN_1
  6
CONTINUOUS
 10
1.306807
 20
-4.101433
  0
VERTEX
  8
PLAN_1
  6
CONTINUOUS
 10
1.307858
 20
-4.109291
  0
VERTEX
  8
PLAN_1
  6
CONTINUOUS
 10
1.309429
 20
-4.117150
  0
VERTEX
  8
PLAN_1
  6
CONTINUOUS
 10
1.311000
 20
-4.123961
  0
VERTEX
  8
PLAN_1
  6
CONTINUOUS
 10
1.313618
 20
-4.130768
  0
VERTEX
  8
PLAN_1
  6
CONTINUOUS
 10
1.316764
 20
-4.137579
  0
VERTEX
  8
PLAN_1
  6
CONTINUOUS
 10
1.320429
 20
-4.143343
  0
VERTEX
  8
PLAN_1
  6
CONTINUOUS
 10
1.324622
 20
-4.148583
  0
VERTEX
  8
PLAN_1
  6
CONTINUOUS
 10
1.329335
 20
-4.153295
  0
VERTEX
  8
PLAN_1
  6
CONTINUOUS
 10
1.334575
 20
-4.157488
  0
VERTEX
  8
PLAN_1
  6
CONTINUOUS
 10
1.340862
 20
-4.160630
  0
VERTEX
  8
PLAN_1
  6
CONTINUOUS
 10
1.347669
 20
-4.163248
  0
VERTEX
  8
PLAN_1
  6
CONTINUOUS
 10
1.355004
 20
-4.165346
  0
VERTEX
  8
PLAN_1
  6
CONTINUOUS
 10
1.362862
 20
-4.166917
  0
VERTEX
  8
PLAN_1
  6
CONTINUOUS
 10
1.371768
 20
-4.166917
  0
VERTEX
  8
PLAN_1
  6
CONTINUOUS
 10
1.379102
 20
-4.166917
  0
VERTEX
  8
PLAN_1
  6
CONTINUOUS
 10
1.386961
 20
-4.165346
  0
VERTEX
  8
PLAN_1
  6
CONTINUOUS
 10
1.391154
 20
-4.163776
  0
VERTEX
  8
PLAN_1
  6
CONTINUOUS
 10
1.395343
 20
-4.162201
  0
VERTEX
  8
PLAN_1
  6
CONTINUOUS
 10
1.399535
 20
-4.160106
  0
VERTEX
  8
PLAN_1
  6
CONTINUOUS
 10
1.403724
 20
-4.156965
  0
VERTEX
  8
PLAN_1
  6
CONTINUOUS
 10
1.407394
 20
-4.153819
  0
VERTEX
  8
PLAN_1
  6
CONTINUOUS
 10
1.411583
 20
-4.150154
  0
VERTEX
  8
PLAN_1
  6
CONTINUOUS
 10
1.415252
 20
-4.145437
  0
VERTEX
  8
PLAN_1
  6
CONTINUOUS
 10
1.418394
 20
-4.140724
  0
VERTEX
  8
PLAN_1
  6
CONTINUOUS
 10
1.421535
 20
-4.134961
  0
VERTEX
  8
PLAN_1
  6
CONTINUOUS
 10
1.424681
 20
-4.128150
  0
VERTEX
  8
PLAN_1
  6
CONTINUOUS
 10
1.426776
 20
-4.120815
  0
VERTEX
  8
PLAN_1
  6
CONTINUOUS
 10
1.428870
 20
-4.112433
  0
VERTEX
  8
PLAN_1
  6
CONTINUOUS
 10
1.455067
 20
-4.112433
  0
VERTEX
  8
PLAN_1
  6
CONTINUOUS
 10
1.453492
 20
-4.119244
  0
VERTEX
  8
PLAN_1
  6
CONTINUOUS
 10
1.452445
 20
-4.125531
  0
VERTEX
  8
PLAN_1
  6
CONTINUOUS
 10
1.450350
 20
-4.131819
  0
VERTEX
  8
PLAN_1
  6
CONTINUOUS
 10
1.448780
 20
-4.137579
  0
VERTEX
  8
PLAN_1
  6
CONTINUOUS
 10
1.446161
 20
-4.142819
  0
VERTEX
  8
PLAN_1
  6
CONTINUOUS
 10
1.444063
 20
-4.147535
  0
VERTEX
  8
PLAN_1
  6
CONTINUOUS
 10
1.441445
 20
-4.152248
  0
VERTEX
  8
PLAN_1
  6
CONTINUOUS
 10
1.438827
 20
-4.156441
  0
VERTEX
  8
PLAN_1
  6
CONTINUOUS
 10
1.435681
 20
-4.160630
  0
VERTEX
  8
PLAN_1
  6
CONTINUOUS
 10
1.432539
 20
-4.163776
  0
VERTEX
  8
PLAN_1
  6
CONTINUOUS
 10
1.429394
 20
-4.167441
  0
VERTEX
  8
PLAN_1
  6
CONTINUOUS
 10
1.426252
 20
-4.170583
  0
VERTEX
  8
PLAN_1
  6
CONTINUOUS
 10
1.419441
 20
-4.175823
  0
VERTEX
  8
PLAN_1
  6
CONTINUOUS
 10
1.412630
 20
-4.180016
  0
VERTEX
  8
PLAN_1
  6
CONTINUOUS
 10
1.405823
 20
-4.183157
  0
VERTEX
  8
PLAN_1
  6
CONTINUOUS
 10
1.399012
 20
-4.185776
  0
VERTEX
  8
PLAN_1
  6
CONTINUOUS
 10
1.392201
 20
-4.187870
  0
VERTEX
  8
PLAN_1
  6
CONTINUOUS
 10
1.385913
 20
-4.189445
  0
VERTEX
  8
PLAN_1
  6
CONTINUOUS
 10
1.375437
 20
-4.190492
  0
VERTEX
  8
PLAN_1
  6
CONTINUOUS
 10
1.367579
 20
-4.191016
  0
VERTEX
  8
PLAN_1
  6
CONTINUOUS
 10
1.359197
 20
-4.190492
  0
VERTEX
  8
PLAN_1
  6
CONTINUOUS
 10
1.350815
 20
-4.189445
  0
VERTEX
  8
PLAN_1
  6
CONTINUOUS
 10
1.342433
 20
-4.187870
  0
VERTEX
  8
PLAN_1
  6
CONTINUOUS
 10
1.334575
 20
-4.185252
  0
VERTEX
  8
PLAN_1
  6
CONTINUOUS
 10
1.326717
 20
-4.182110
  0
VERTEX
  8
PLAN_1
  6
CONTINUOUS
 10
1.319382
 20
-4.177917
  0
VERTEX
  8
PLAN_1
  6
CONTINUOUS
 10
1.312571
 20
-4.172681
  0
VERTEX
  8
PLAN_1
  6
CONTINUOUS
 10
1.305760
 20
-4.166917
  0
VERTEX
  8
PLAN_1
  6
CONTINUOUS
 10
1.302618
 20
-4.163248
  0
VERTEX
  8
PLAN_1
  6
CONTINUOUS
 10
1.300000
 20
-4.160106
  0
VERTEX
  8
PLAN_1
  6
CONTINUOUS
 10
1.297378
 20
-4.156441
  0
VERTEX
  8
PLAN_1
  6
CONTINUOUS
 10
1.294760
 20
-4.152248
  0
VERTEX
  8
PLAN_1
  6
CONTINUOUS
 10
1.292142
 20
-4.148059
  0
VERTEX
  8
PLAN_1
  6
CONTINUOUS
 10
1.289520
 20
-4.143343
  0
VERTEX
  8
PLAN_1
  6
CONTINUOUS
 10
1.287425
 20
-4.138626
  0
VERTEX
  8
PLAN_1
  6
CONTINUOUS
 10
1.285854
 20
-4.133913
  0
VERTEX
  8
PLAN_1
  6
CONTINUOUS
 10
1.283760
 20
-4.128673
  0
VERTEX
  8
PLAN_1
  6
CONTINUOUS
 10
1.282709
 20
-4.123437
  0
VERTEX
  8
PLAN_1
  6
CONTINUOUS
 10
1.281138
 20
-4.117673
  0
VERTEX
  8
PLAN_1
  6
CONTINUOUS
 10
1.280091
 20
-4.111386
  0
VERTEX
  8
PLAN_1
  6
CONTINUOUS
 10
1.279043
 20
-4.105098
  0
VERTEX
  8
PLAN_1
  6
CONTINUOUS
 10
1.278520
 20
-4.098815
  0
VERTEX
  8
PLAN_1
  6
CONTINUOUS
 10
1.277996
 20
-4.092004
  0
VERTEX
  8
PLAN_1
  6
CONTINUOUS
 10
1.277996
 20
-4.085193
  0
VERTEX
  8
PLAN_1
  6
CONTINUOUS
 10
1.278520
 20
-4.073665
  0
VERTEX
  8
PLAN_1
  6
CONTINUOUS
 10
1.279567
 20
-4.062665
  0
VERTEX
  8
PLAN_1
  6
CONTINUOUS
 10
1.281661
 20
-4.052713
  0
VERTEX
  8
PLAN_1
  6
CONTINUOUS
 10
1.284283
 20
-4.042760
  0
VERTEX
  8
PLAN_1
  6
CONTINUOUS
 10
1.287949
 20
-4.033854
  0
VERTEX
  8
PLAN_1
  6
CONTINUOUS
 10
1.292142
 20
-4.024945
  0
VERTEX
  8
PLAN_1
  6
CONTINUOUS
 10
1.297378
 20
-4.017087
  0
VERTEX
  8
PLAN_1
  6
CONTINUOUS
 10
1.302618
 20
-4.010280
  0
VERTEX
  8
PLAN_1
  6
CONTINUOUS
 10
1.308906
 20
-4.003469
  0
VERTEX
  8
PLAN_1
  6
CONTINUOUS
 10
1.316240
 20
-3.997705
  0
VERTEX
  8
PLAN_1
  6
CONTINUOUS
 10
1.323571
 20
-3.992988
  0
VERTEX
  8
PLAN_1
  6
CONTINUOUS
 10
1.331953
 20
-3.988799
  0
VERTEX
  8
PLAN_1
  6
CONTINUOUS
 10
1.340862
 20
-3.985657
  0
VERTEX
  8
PLAN_1
  6
CONTINUOUS
 10
1.350291
 20
-3.983035
  0
VERTEX
  8
PLAN_1
  6
CONTINUOUS
 10
1.360244
 20
-3.981465
  0
VERTEX
  8
PLAN_1
  6
CONTINUOUS
 10
1.371244
 20
-3.980941
  0
VERTEX
  8
PLAN_1
  6
CONTINUOUS
 10
1.380673
 20
-3.981465
  0
VERTEX
  8
PLAN_1
  6
CONTINUOUS
 10
1.389059
 20
-3.982512
  0
VERTEX
  8
PLAN_1
  6
CONTINUOUS
 10
1.397441
 20
-3.984083
  0
VERTEX
  8
PLAN_1
  6
CONTINUOUS
 10
1.404772
 20
-3.986705
  0
VERTEX
  8
PLAN_1
  6
CONTINUOUS
 10
1.412106
 20
-3.989846
  0
VERTEX
  8
PLAN_1
  6
CONTINUOUS
 10
1.418394
 20
-3.992988
  0
VERTEX
  8
PLAN_1
  6
CONTINUOUS
 10
1.424681
 20
-3.997181
  0
VERTEX
  8
PLAN_1
  6
CONTINUOUS
 10
1.429921
 20
-4.001374
  0
VERTEX
  8
PLAN_1
  6
CONTINUOUS
 10
1.434634
 20
-4.006087
  0
VERTEX
  8
PLAN_1
  6
CONTINUOUS
 10
1.438827
 20
-4.011327
  0
VERTEX
  8
PLAN_1
  6
CONTINUOUS
 10
1.442492
 20
-4.016563
  0
VERTEX
  8
PLAN_1
  6
CONTINUOUS
 10
1.445634
 20
-4.022327
  0
VERTEX
  8
PLAN_1
  6
CONTINUOUS
 10
1.448256
 20
-4.028091
  0
VERTEX
  8
PLAN_1
  6
CONTINUOUS
 10
1.450350
 20
-4.033854
  0
VERTEX
  8
PLAN_1
  6
CONTINUOUS
 10
1.451921
 20
-4.040138
  0
VERTEX
  8
PLAN_1
  6
CONTINUOUS
 10
1.452969
 20
-4.046425
  0
VERTEX
  8
PLAN_1
  6
CONTINUOUS
 10
1.426776
 20
-4.046425
  0
SEQEND
  8
0
  0
POLYLINE
  8
PLAN_1
  6
CONTINUOUS
 66
     1
 40
0.003000
 41
0.003000
  0
VERTEX
  8
PLAN_1
  6
CONTINUOUS
 10
1.566126
 20
-4.185776
  0
VERTEX
  8
PLAN_1
  6
CONTINUOUS
 10
1.539933
 20
-4.185776
  0
VERTEX
  8
PLAN_1
  6
CONTINUOUS
 10
1.539933
 20
-4.047472
  0
VERTEX
  8
PLAN_1
  6
CONTINUOUS
 10
1.494354
 20
-4.047472
  0
VERTEX
  8
PLAN_1
  6
CONTINUOUS
 10
1.494354
 20
-4.027567
  0
VERTEX
  8
PLAN_1
  6
CONTINUOUS
 10
1.505358
 20
-4.027043
  0
VERTEX
  8
PLAN_1
  6
CONTINUOUS
 10
1.514787
 20
-4.025469
  0
VERTEX
  8
PLAN_1
  6
CONTINUOUS
 10
1.518976
 20
-4.024421
  0
VERTEX
  8
PLAN_1
  6
CONTINUOUS
 10
1.522646
 20
-4.023374
  0
VERTEX
  8
PLAN_1
  6
CONTINUOUS
 10
1.526311
 20
-4.022327
  0
VERTEX
  8
PLAN_1
  6
CONTINUOUS
 10
1.529457
 20
-4.020232
  0
VERTEX
  8
PLAN_1
  6
CONTINUOUS
 10
1.532598
 20
-4.018138
  0
VERTEX
  8
PLAN_1
  6
CONTINUOUS
 10
1.535217
 20
-4.016039
  0
VERTEX
  8
PLAN_1
  6
CONTINUOUS
 10
1.537839
 20
-4.012898
  0
VERTEX
  8
PLAN_1
  6
CONTINUOUS
 10
1.539933
 20
-4.009756
  0
VERTEX
  8
PLAN_1
  6
CONTINUOUS
 10
1.542028
 20
-4.005563
  0
VERTEX
  8
PLAN_1
  6
CONTINUOUS
 10
1.543602
 20
-4.001374
  0
VERTEX
  8
PLAN_1
  6
CONTINUOUS
 10
1.545173
 20
-3.996134
  0
VERTEX
  8
PLAN_1
  6
CONTINUOUS
 10
1.546744
 20
-3.990370
  0
VERTEX
  8
PLAN_1
  6
CONTINUOUS
 10
1.566126
 20
-3.990370
  0
VERTEX
  8
PLAN_1
  6
CONTINUOUS
 10
1.566126
 20
-4.185776
  0
SEQEND
  8
0
  0
POLYLINE
  8
PLAN_1
  6
CONTINUOUS
 66
     1
 40
0.003000
 41
0.003000
  0
VERTEX
  8
PLAN_1
  6
CONTINUOUS
 10
1.671949
 20
-4.185776
  0
VERTEX
  8
PLAN_1
  6
CONTINUOUS
 10
1.645232
 20
-4.185776
  0
VERTEX
  8
PLAN_1
  6
CONTINUOUS
 10
1.645232
 20
-3.986705
  0
VERTEX
  8
PLAN_1
  6
CONTINUOUS
 10
1.737433
 20
-3.986705
  0
VERTEX
  8
PLAN_1
  6
CONTINUOUS
 10
1.743720
 20
-3.986705
  0
VERTEX
  8
PLAN_1
  6
CONTINUOUS
 10
1.749484
 20
-3.987228
  0
VERTEX
  8
PLAN_1
  6
CONTINUOUS
 10
1.755772
 20
-3.987752
  0
VERTEX
  8
PLAN_1
  6
CONTINUOUS
 10
1.761531
 20
-3.988799
  0
VERTEX
  8
PLAN_1
  6
CONTINUOUS
 10
1.767295
 20
-3.990370
  0
VERTEX
  8
PLAN_1
  6
CONTINUOUS
 10
1.772535
 20
-3.992465
  0
VERTEX
  8
PLAN_1
  6
CONTINUOUS
 10
1.777772
 20
-3.994563
  0
VERTEX
  8
PLAN_1
  6
CONTINUOUS
 10
1.782488
 20
-3.997181
  0
VERTEX
  8
PLAN_1
  6
CONTINUOUS
 10
1.786677
 20
-4.000846
  0
VERTEX
  8
PLAN_1
  6
CONTINUOUS
 10
1.790870
 20
-4.004516
  0
VERTEX
  8
PLAN_1
  6
CONTINUOUS
 10
1.794012
 20
-4.008705
  0
VERTEX
  8
PLAN_1
  6
CONTINUOUS
 10
1.797157
 20
-4.013945
  0
VERTEX
  8
PLAN_1
  6
CONTINUOUS
 10
1.799776
 20
-4.019185
  0
VERTEX
  8
PLAN_1
  6
CONTINUOUS
 10
1.801346
 20
-4.025469
  0
VERTEX
  8
PLAN_1
  6
CONTINUOUS
 10
1.802394
 20
-4.032280
  0
VERTEX
  8
PLAN_1
  6
CONTINUOUS
 10
1.802917
 20
-4.040138
  0
VERTEX
  8
PLAN_1
  6
CONTINUOUS
 10
1.802917
 20
-4.045378
  0
VERTEX
  8
PLAN_1
  6
CONTINUOUS
 10
1.802394
 20
-4.050094
  0
VERTEX
  8
PLAN_1
  6
CONTINUOUS
 10
1.801346
 20
-4.054807
  0
VERTEX
  8
PLAN_1
  6
CONTINUOUS
 10
1.800299
 20
-4.059000
  0
VERTEX
  8
PLAN_1
  6
CONTINUOUS
 10
1.798728
 20
-4.062665
  0
VERTEX
  8
PLAN_1
  6
CONTINUOUS
 10
1.797681
 20
-4.066335
  0
VERTEX
  8
PLAN_1
  6
CONTINUOUS
 10
1.795587
 20
-4.069476
  0
VERTEX
  8
PLAN_1
  6
CONTINUOUS
 10
1.794012
 20
-4.072094
  0
VERTEX
  8
PLAN_1
  6
CONTINUOUS
 10
1.789299
 20
-4.077335
  0
VERTEX
  8
PLAN_1
  6
CONTINUOUS
 10
1.784583
 20
-4.081524
  0
VERTEX
  8
PLAN_1
  6
CONTINUOUS
 10
1.779870
 20
-4.084669
  0
VERTEX
  8
PLAN_1
  6
CONTINUOUS
 10
1.775154
 20
-4.087811
  0
VERTEX
  8
PLAN_1
  6
CONTINUOUS
 10
1.779346
 20
-4.089382
  0
VERTEX
  8
PLAN_1
  6
CONTINUOUS
 10
1.783535
 20
-4.091480
  0
VERTEX
  8
PLAN_1
  6
CONTINUOUS
 10
1.787205
 20
-4.094622
  0
VERTEX
  8
PLAN_1
  6
CONTINUOUS
 10
1.790870
 20
-4.097764
  0
VERTEX
  8
PLAN_1
  6
CONTINUOUS
 10
1.792441
 20
-4.099862
  0
VERTEX
  8
PLAN_1
  6
CONTINUOUS
 10
1.794012
 20
-4.102480
  0
VERTEX
  8
PLAN_1
  6
CONTINUOUS
 10
1.795059
 20
-4.105098
  0
VERTEX
  8
PLAN_1
  6
CONTINUOUS
 10
1.796110
 20
-4.108244
  0
VERTEX
  8
PLAN_1
  6
CONTINUOUS
 10
1.797157
 20
-4.111909
  0
VERTEX
  8
PLAN_1
  6
CONTINUOUS
 10
1.798205
 20
-4.116102
  0
VERTEX
  8
PLAN_1
  6
CONTINUOUS
 10
1.798728
 20
-4.120291
  0
VERTEX
  8
PLAN_1
  6
CONTINUOUS
 10
1.798728
 20
-4.125008
  0
VERTEX
  8
PLAN_1
  6
CONTINUOUS
 10
1.800823
 20
-4.161154
  0
VERTEX
  8
PLAN_1
  6
CONTINUOUS
 10
1.800823
 20
-4.165346
  0
VERTEX
  8
PLAN_1
  6
CONTINUOUS
 10
1.801346
 20
-4.168488
  0
VERTEX
  8
PLAN_1
  6
CONTINUOUS
 10
1.801870
 20
-4.171106
  0
VERTEX
  8
PLAN_1
  6
CONTINUOUS
 10
1.802394
 20
-4.173728
  0
VERTEX
  8
PLAN_1
  6
CONTINUOUS
 10
1.803969
 20
-4.175823
  0
VERTEX
  8
PLAN_1
  6
CONTINUOUS
 10
1.805539
 20
-4.177917
  0
VERTEX
  8
PLAN_1
  6
CONTINUOUS
 10
1.807634
 20
-4.179488
  0
VERTEX
  8
PLAN_1
  6
CONTINUOUS
 10
1.810776
 20
-4.181063
  0
VERTEX
  8
PLAN_1
  6
CONTINUOUS
 10
1.810776
 20
-4.185776
  0
VERTEX
  8
PLAN_1
  6
CONTINUOUS
 10
1.777772
 20
-4.185776
  0
VERTEX
  8
PLAN_1
  6
CONTINUOUS
 10
1.776201
 20
-4.180539
  0
VERTEX
  8
PLAN_1
  6
CONTINUOUS
 10
1.775154
 20
-4.173728
  0
VERTEX
  8
PLAN_1
  6
CONTINUOUS
 10
1.774630
 20
-4.166394
  0
VERTEX
  8
PLAN_1
  6
CONTINUOUS
 10
1.773583
 20
-4.159059
  0
VERTEX
  8
PLAN_1
  6
CONTINUOUS
 10
1.773583
 20
-4.151724
  0
VERTEX
  8
PLAN_1
  6
CONTINUOUS
 10
1.773059
 20
-4.144913
  0
VERTEX
  8
PLAN_1
  6
CONTINUOUS
 10
1.773059
 20
-4.139677
  0
VERTEX
  8
PLAN_1
  6
CONTINUOUS
 10
1.773059
 20
-4.136008
  0
VERTEX
  8
PLAN_1
  6
CONTINUOUS
 10
1.772535
 20
-4.129720
  0
VERTEX
  8
PLAN_1
  6
CONTINUOUS
 10
1.772012
 20
-4.123437
  0
VERTEX
  8
PLAN_1
  6
CONTINUOUS
 10
1.770965
 20
-4.120291
  0
VERTEX
  8
PLAN_1
  6
CONTINUOUS
 10
1.769913
 20
-4.117150
  0
VERTEX
  8
PLAN_1
  6
CONTINUOUS
 10
1.768866
 20
-4.114528
  0
VERTEX
  8
PLAN_1
  6
CONTINUOUS
 10
1.767295
 20
-4.111909
  0
VERTEX
  8
PLAN_1
  6
CONTINUOUS
 10
1.765201
 20
-4.109291
  0
VERTEX
  8
PLAN_1
  6
CONTINUOUS
 10
1.762579
 20
-4.107197
  0
VERTEX
  8
PLAN_1
  6
CONTINUOUS
 10
1.759961
 20
-4.105098
  0
VERTEX
  8
PLAN_1
  6
CONTINUOUS
 10
1.756295
 20
-4.103528
  0
VERTEX
  8
PLAN_1
  6
CONTINUOUS
 10
1.752626
 20
-4.101957
  0
VERTEX
  8
PLAN_1
  6
CONTINUOUS
 10
1.747913
 20
-4.100909
  0
VERTEX
  8
PLAN_1
  6
CONTINUOUS
 10
1.743197
 20
-4.100386
  0
VERTEX
  8
PLAN_1
  6
CONTINUOUS
 10
1.737433
 20
-4.100386
  0
VERTEX
  8
PLAN_1
  6
CONTINUOUS
 10
1.671949
 20
-4.100386
  0
VERTEX
  8
PLAN_1
  6
CONTINUOUS
 10
1.671949
 20
-4.185776
  0
SEQEND
  8
0
  0
POLYLINE
  8
PLAN_1
  6
CONTINUOUS
 66
     1
 40
0.003000
 41
0.003000
  0
VERTEX
  8
PLAN_1
  6
CONTINUOUS
 10
1.671949
 20
-4.077335
  0
VERTEX
  8
PLAN_1
  6
CONTINUOUS
 10
1.734815
 20
-4.077335
  0
VERTEX
  8
PLAN_1
  6
CONTINUOUS
 10
1.742150
 20
-4.076811
  0
VERTEX
  8
PLAN_1
  6
CONTINUOUS
 10
1.748961
 20
-4.075764
  0
VERTEX
  8
PLAN_1
  6
CONTINUOUS
 10
1.752626
 20
-4.075240
  0
VERTEX
  8
PLAN_1
  6
CONTINUOUS
 10
1.756295
 20
-4.074189
  0
VERTEX
  8
PLAN_1
  6
CONTINUOUS
 10
1.759437
 20
-4.072618
  0
VERTEX
  8
PLAN_1
  6
CONTINUOUS
 10
1.762055
 20
-4.071047
  0
VERTEX
  8
PLAN_1
  6
CONTINUOUS
 10
1.765201
 20
-4.068953
  0
VERTEX
  8
PLAN_1
  6
CONTINUOUS
 10
1.767295
 20
-4.066858
  0
VERTEX
  8
PLAN_1
  6
CONTINUOUS
 10
1.769913
 20
-4.063713
  0
VERTEX
  8
PLAN_1
  6
CONTINUOUS
 10
1.771488
 20
-4.060571
  0
VERTEX
  8
PLAN_1
  6
CONTINUOUS
 10
1.773059
 20
-4.056902
  0
VERTEX
  8
PLAN_1
  6
CONTINUOUS
 10
1.774106
 20
-4.052713
  0
VERTEX
  8
PLAN_1
  6
CONTINUOUS
 10
1.774630
 20
-4.047996
  0
VERTEX
  8
PLAN_1
  6
CONTINUOUS
 10
1.775154
 20
-4.042760
  0
VERTEX
  8
PLAN_1
  6
CONTINUOUS
 10
1.774630
 20
-4.037520
  0
VERTEX
  8
PLAN_1
  6
CONTINUOUS
 10
1.774106
 20
-4.032280
  0
VERTEX
  8
PLAN_1
  6
CONTINUOUS
 10
1.773059
 20
-4.028091
  0
VERTEX
  8
PLAN_1
  6
CONTINUOUS
 10
1.771488
 20
-4.024421
  0
VERTEX
  8
PLAN_1
  6
CONTINUOUS
 10
1.769390
 20
-4.021280
  0
VERTEX
  8
PLAN_1
  6
CONTINUOUS
 10
1.767295
 20
-4.018661
  0
VERTEX
  8
PLAN_1
  6
CONTINUOUS
 10
1.764677
 20
-4.016563
  0
VERTEX
  8
PLAN_1
  6
CONTINUOUS
 10
1.762055
 20
-4.014469
  0
VERTEX
  8
PLAN_1
  6
CONTINUOUS
 10
1.759437
 20
-4.012898
  0
VERTEX
  8
PLAN_1
  6
CONTINUOUS
 10
1.756295
 20
-4.011850
  0
VERTEX
  8
PLAN_1
  6
CONTINUOUS
 10
1.753673
 20
-4.010803
  0
VERTEX
  8
PLAN_1
  6
CONTINUOUS
 10
1.750531
 20
-4.010280
  0
VERTEX
  8
PLAN_1
  6
CONTINUOUS
 10
1.744768
 20
-4.009756
  0
VERTEX
  8
PLAN_1
  6
CONTINUOUS
 10
1.739531
 20
-4.009228
  0
VERTEX
  8
PLAN_1
  6
CONTINUOUS
 10
1.671949
 20
-4.009228
  0
VERTEX
  8
PLAN_1
  6
CONTINUOUS
 10
1.671949
 20
-4.077335
  0
SEQEND
  8
0
  0
SOLID
  8
PLAN_1
 10
1.874165
 20
-4.185776
 11
1.845354
 21
-4.185776
 12
1.874165
 22
-4.156441
 13
1.845354
 23
-4.156441
  0
POLYLINE
  8
PLAN_1
  6
CONTINUOUS
 66
     1
 40
0.003000
 41
0.003000
  0
VERTEX
  8
PLAN_1
  6
CONTINUOUS
 10
1.874165
 20
-4.185776
  0
VERTEX
  8
PLAN_1
  6
CONTINUOUS
 10
1.845354
 20
-4.185776
  0
VERTEX
  8
PLAN_1
  6
CONTINUOUS
 10
1.845354
 20
-4.156441
  0
VERTEX
  8
PLAN_1
  6
CONTINUOUS
 10
1.874165
 20
-4.156441
  0
VERTEX
  8
PLAN_1
  6
CONTINUOUS
 10
1.874165
 20
-4.185776
  0
SEQEND
  8
0
  0
POLYLINE
  8
PLAN_1
  6
CONTINUOUS
 66
     1
 40
0.003000
 41
0.003000
  0
VERTEX
  8
PLAN_1
  6
CONTINUOUS
 10
2.069571
 20
-4.185776
  0
VERTEX
  8
PLAN_1
  6
CONTINUOUS
 10
1.922362
 20
-4.185776
  0
VERTEX
  8
PLAN_1
  6
CONTINUOUS
 10
1.922362
 20
-3.986705
  0
VERTEX
  8
PLAN_1
  6
CONTINUOUS
 10
2.067476
 20
-3.986705
  0
VERTEX
  8
PLAN_1
  6
CONTINUOUS
 10
2.067476
 20
-4.010280
  0
VERTEX
  8
PLAN_1
  6
CONTINUOUS
 10
1.949079
 20
-4.010280
  0
VERTEX
  8
PLAN_1
  6
CONTINUOUS
 10
1.949079
 20
-4.071571
  0
VERTEX
  8
PLAN_1
  6
CONTINUOUS
 10
2.058047
 20
-4.071571
  0
VERTEX
  8
PLAN_1
  6
CONTINUOUS
 10
2.058047
 20
-4.095146
  0
VERTEX
  8
PLAN_1
  6
CONTINUOUS
 10
1.949079
 20
-4.095146
  0
VERTEX
  8
PLAN_1
  6
CONTINUOUS
 10
1.949079
 20
-4.161677
  0
VERTEX
  8
PLAN_1
  6
CONTINUOUS
 10
2.069571
 20
-4.161677
  0
VERTEX
  8
PLAN_1
  6
CONTINUOUS
 10
2.069571
 20
-4.185776
  0
SEQEND
  8
0
  0
POLYLINE
  8
PLAN_1
  6
CONTINUOUS
 66
     1
 40
0.003000
 41
0.003000
  0
VERTEX
  8
PLAN_1
  6
CONTINUOUS
 10
2.134531
 20
-4.185776
  0
VERTEX
  8
PLAN_1
  6
CONTINUOUS
 10
2.107291
 20
-4.185776
  0
VERTEX
  8
PLAN_1
  6
CONTINUOUS
 10
2.107291
 20
-3.986705
  0
VERTEX
  8
PLAN_1
  6
CONTINUOUS
 10
2.197398
 20
-3.986705
  0
VERTEX
  8
PLAN_1
  6
CONTINUOUS
 10
2.203685
 20
-3.986705
  0
VERTEX
  8
PLAN_1
  6
CONTINUOUS
 10
2.210496
 20
-3.987752
  0
VERTEX
  8
PLAN_1
  6
CONTINUOUS
 10
2.216256
 20
-3.988799
  0
VERTEX
  8
PLAN_1
  6
CONTINUOUS
 10
2.222020
 20
-3.990894
  0
VERTEX
  8
PLAN_1
  6
CONTINUOUS
 10
2.227260
 20
-3.992988
  0
VERTEX
  8
PLAN_1
  6
CONTINUOUS
 10
2.231972
 20
-3.995610
  0
VERTEX
  8
PLAN_1
  6
CONTINUOUS
 10
2.236689
 20
-3.998752
  0
VERTEX
  8
PLAN_1
  6
CONTINUOUS
 10
2.240354
 20
-4.002421
  0
VERTEX
  8
PLAN_1
  6
CONTINUOUS
 10
2.244024
 20
-4.006087
  0
VERTEX
  8
PLAN_1
  6
CONTINUOUS
 10
2.247165
 20
-4.010803
  0
VERTEX
  8
PLAN_1
  6
CONTINUOUS
 10
2.249783
 20
-4.014992
  0
VERTEX
  8
PLAN_1
  6
CONTINUOUS
 10
2.252406
 20
-4.020232
  0
VERTEX
  8
PLAN_1
  6
CONTINUOUS
 10
2.253976
 20
-4.025469
  0
VERTEX
  8
PLAN_1
  6
CONTINUOUS
 10
2.255024
 20
-4.030709
  0
VERTEX
  8
PLAN_1
  6
CONTINUOUS
 10
2.256071
 20
-4.036472
  0
VERTEX
  8
PLAN_1
  6
CONTINUOUS
 10
2.256071
 20
-4.042760
  0
VERTEX
  8
PLAN_1
  6
CONTINUOUS
 10
2.256071
 20
-4.047996
  0
VERTEX
  8
PLAN_1
  6
CONTINUOUS
 10
2.255547
 20
-4.053236
  0
VERTEX
  8
PLAN_1
  6
CONTINUOUS
 10
2.254500
 20
-4.058476
  0
VERTEX
  8
PLAN_1
  6
CONTINUOUS
 10
2.252929
 20
-4.063713
  0
VERTEX
  8
PLAN_1
  6
CONTINUOUS
 10
2.251358
 20
-4.068429
  0
VERTEX
  8
PLAN_1
  6
CONTINUOUS
 10
2.249260
 20
-4.073665
  0
VERTEX
  8
PLAN_1
  6
CONTINUOUS
 10
2.246118
 20
-4.077858
  0
VERTEX
  8
PLAN_1
  6
CONTINUOUS
 10
2.242976
 20
-4.082575
  0
VERTEX
  8
PLAN_1
  6
CONTINUOUS
 10
2.239307
 20
-4.086764
  0
VERTEX
  8
PLAN_1
  6
CONTINUOUS
 10
2.235118
 20
-4.090429
  0
VERTEX
  8
PLAN_1
  6
CONTINUOUS
 10
2.229878
 20
-4.093575
  0
VERTEX
  8
PLAN_1
  6
CONTINUOUS
 10
2.224638
 20
-4.096193
  0
VERTEX
  8
PLAN_1
  6
CONTINUOUS
 10
2.218878
 20
-4.098815
  0
VERTEX
  8
PLAN_1
  6
CONTINUOUS
 10
2.212067
 20
-4.100386
  0
VERTEX
  8
PLAN_1
  6
CONTINUOUS
 10
2.204732
 20
-4.101433
  0
VERTEX
  8
PLAN_1
  6
CONTINUOUS
 10
2.197398
 20
-4.101433
  0
VERTEX
  8
PLAN_1
  6
CONTINUOUS
 10
2.134531
 20
-4.101433
  0
VERTEX
  8
PLAN_1
  6
CONTINUOUS
 10
2.134531
 20
-4.185776
  0
SEQEND
  8
0
  0
POLYLINE
  8
PLAN_1
  6
CONTINUOUS
 66
     1
 40
0.003000
 41
0.003000
  0
VERTEX
  8
PLAN_1
  6
CONTINUOUS
 10
2.134531
 20
-4.078382
  0
VERTEX
  8
PLAN_1
  6
CONTINUOUS
 10
2.187969
 20
-4.078382
  0
VERTEX
  8
PLAN_1
  6
CONTINUOUS
 10
2.196874
 20
-4.078382
  0
VERTEX
  8
PLAN_1
  6
CONTINUOUS
 10
2.204732
 20
-4.076811
  0
VERTEX
  8
PLAN_1
  6
CONTINUOUS
 10
2.207874
 20
-4.075764
  0
VERTEX
  8
PLAN_1
  6
CONTINUOUS
 10
2.211543
 20
-4.074189
  0
VERTEX
  8
PLAN_1
  6
CONTINUOUS
 10
2.214685
 20
-4.072618
  0
VERTEX
  8
PLAN_1
  6
CONTINUOUS
 10
2.217303
 20
-4.071047
  0
VERTEX
  8
PLAN_1
  6
CONTINUOUS
 10
2.219925
 20
-4.068429
  0
VERTEX
  8
PLAN_1
  6
CONTINUOUS
 10
2.222020
 20
-4.065807
  0
VERTEX
  8
PLAN_1
  6
CONTINUOUS
 10
2.224114
 20
-4.063189
  0
VERTEX
  8
PLAN_1
  6
CONTINUOUS
 10
2.225685
 20
-4.059524
  0
VERTEX
  8
PLAN_1
  6
CONTINUOUS
 10
2.226736
 20
-4.055854
  0
VERTEX
  8
PLAN_1
  6
CONTINUOUS
 10
2.227783
 20
-4.052189
  0
VERTEX
  8
PLAN_1
  6
CONTINUOUS
 10
2.228307
 20
-4.047472
  0
VERTEX
  8
PLAN_1
  6
CONTINUOUS
 10
2.228307
 20
-4.042760
  0
VERTEX
  8
PLAN_1
  6
CONTINUOUS
 10
2.228307
 20
-4.038043
  0
VERTEX
  8
PLAN_1
  6
CONTINUOUS
 10
2.227783
 20
-4.033854
  0
VERTEX
  8
PLAN_1
  6
CONTINUOUS
 10
2.226736
 20
-4.030185
  0
VERTEX
  8
PLAN_1
  6
CONTINUOUS
 10
2.225685
 20
-4.027043
  0
VERTEX
  8
PLAN_1
  6
CONTINUOUS
 10
2.224114
 20
-4.023898
  0
VERTEX
  8
PLAN_1
  6
CONTINUOUS
 10
2.222020
 20
-4.021280
  0
VERTEX
  8
PLAN_1
  6
CONTINUOUS
 10
2.219925
 20
-4.018661
  0
VERTEX
  8
PLAN_1
  6
CONTINUOUS
 10
2.217303
 20
-4.016563
  0
VERTEX
  8
PLAN_1
  6
CONTINUOUS
 10
2.214161
 20
-4.014992
  0
VERTEX
  8
PLAN_1
  6
CONTINUOUS
 10
2.211543
 20
-4.013421
  0
VERTEX
  8
PLAN_1
  6
CONTINUOUS
 10
2.207874
 20
-4.012374
  0
VERTEX
  8
PLAN_1
  6
CONTINUOUS
 10
2.204732
 20
-4.011327
  0
VERTEX
  8
PLAN_1
  6
CONTINUOUS
 10
2.197398
 20
-4.009756
  0
VERTEX
  8
PLAN_1
  6
CONTINUOUS
 10
2.189016
 20
-4.009228
  0
VERTEX
  8
PLAN_1
  6
CONTINUOUS
 10
2.134531
 20
-4.009228
  0
VERTEX
  8
PLAN_1
  6
CONTINUOUS
 10
2.134531
 20
-4.078382
  0
SEQEND
  8
0
  0
POLYLINE
  8
PLAN_1
  6
CONTINUOUS
 66
     1
 40
0.003000
 41
0.003000
  0
VERTEX
  8
PLAN_1
  6
CONTINUOUS
 10
2.410091
 20
-4.044854
  0
VERTEX
  8
PLAN_1
  6
CONTINUOUS
 10
2.409567
 20
-4.039091
  0
VERTEX
  8
PLAN_1
  6
CONTINUOUS
 10
2.408520
 20
-4.034378
  0
VERTEX
  8
PLAN_1
  6
CONTINUOUS
 10
2.406949
 20
-4.029661
  0
VERTEX
  8
PLAN_1
  6
CONTINUOUS
 10
2.404854
 20
-4.025469
  0
VERTEX
  8
PLAN_1
  6
CONTINUOUS
 10
2.402756
 20
-4.021803
  0
VERTEX
  8
PLAN_1
  6
CONTINUOUS
 10
2.399614
 20
-4.018138
  0
VERTEX
  8
PLAN_1
  6
CONTINUOUS
 10
2.396996
 20
-4.015516
  0
VERTEX
  8
PLAN_1
  6
CONTINUOUS
 10
2.393327
 20
-4.012898
  0
VERTEX
  8
PLAN_1
  6
CONTINUOUS
 10
2.389661
 20
-4.010803
  0
VERTEX
  8
PLAN_1
  6
CONTINUOUS
 10
2.385992
 20
-4.008705
  0
VERTEX
  8
PLAN_1
  6
CONTINUOUS
 10
2.381803
 20
-4.007657
  0
VERTEX
  8
PLAN_1
  6
CONTINUOUS
 10
2.377610
 20
-4.006087
  0
VERTEX
  8
PLAN_1
  6
CONTINUOUS
 10
2.369228
 20
-4.004516
  0
VERTEX
  8
PLAN_1
  6
CONTINUOUS
 10
2.360846
 20
-4.003992
  0
VERTEX
  8
PLAN_1
  6
CONTINUOUS
 10
2.354035
 20
-4.004516
  0
VERTEX
  8
PLAN_1
  6
CONTINUOUS
 10
2.346701
 20
-4.005563
  0
VERTEX
  8
PLAN_1
  6
CONTINUOUS
 10
2.342512
 20
-4.006087
  0
VERTEX
  8
PLAN_1
  6
CONTINUOUS
 10
2.338843
 20
-4.007134
  0
VERTEX
  8
PLAN_1
  6
CONTINUOUS
 10
2.335177
 20
-4.008705
  0
VERTEX
  8
PLAN_1
  6
CONTINUOUS
 10
2.331512
 20
-4.010280
  0
VERTEX
  8
PLAN_1
  6
CONTINUOUS
 10
2.328366
 20
-4.012374
  0
VERTEX
  8
PLAN_1
  6
CONTINUOUS
 10
2.325224
 20
-4.014992
  0
VERTEX
  8
PLAN_1
  6
CONTINUOUS
 10
2.322602
 20
-4.017614
  0
VERTEX
  8
PLAN_1
  6
CONTINUOUS
 10
2.319984
 20
-4.020756
  0
VERTEX
  8
PLAN_1
  6
CONTINUOUS
 10
2.317890
 20
-4.024945
  0
VERTEX
  8
PLAN_1
  6
CONTINUOUS
 10
2.316319
 20
-4.029138
  0
VERTEX
  8
PLAN_1
  6
CONTINUOUS
 10
2.315795
 20
-4.033854
  0
VERTEX
  8
PLAN_1
  6
CONTINUOUS
 10
2.315272
 20
-4.039091
  0
VERTEX
  8
PLAN_1
  6
CONTINUOUS
 10
2.315272
 20
-4.042236
  0
VERTEX
  8
PLAN_1
  6
CONTINUOUS
 10
2.315795
 20
-4.044854
  0
VERTEX
  8
PLAN_1
  6
CONTINUOUS
 10
2.316319
 20
-4.047472
  0
VERTEX
  8
PLAN_1
  6
CONTINUOUS
 10
2.317366
 20
-4.050094
  0
VERTEX
  8
PLAN_1
  6
CONTINUOUS
 10
2.319461
 20
-4.053760
  0
VERTEX
  8
PLAN_1
  6
CONTINUOUS
 10
2.322602
 20
-4.056902
  0
VERTEX
  8
PLAN_1
  6
CONTINUOUS
 10
2.326272
 20
-4.059524
  0
VERTEX
  8
PLAN_1
  6
CONTINUOUS
 10
2.330461
 20
-4.061618
  0
VERTEX
  8
PLAN_1
  6
CONTINUOUS
 10
2.334654
 20
-4.063189
  0
VERTEX
  8
PLAN_1
  6
CONTINUOUS
 10
2.338843
 20
-4.064236
  0
VERTEX
  8
PLAN_1
  6
CONTINUOUS
 10
2.395945
 20
-4.077335
  0
VERTEX
  8
PLAN_1
  6
CONTINUOUS
 10
2.400661
 20
-4.078906
  0
VERTEX
  8
PLAN_1
  6
CONTINUOUS
 10
2.404854
 20
-4.080476
  0
VERTEX
  8
PLAN_1
  6
CONTINUOUS
 10
2.409567
 20
-4.082047
  0
VERTEX
  8
PLAN_1
  6
CONTINUOUS
 10
2.413760
 20
-4.084146
  0
VERTEX
  8
PLAN_1
  6
CONTINUOUS
 10
2.417425
 20
-4.086240
  0
VERTEX
  8
PLAN_1
  6
CONTINUOUS
 10
2.421618
 20
-4.088858
  0
VERTEX
  8
PLAN_1
  6
CONTINUOUS
 10
2.424760
 20
-4.091480
  0
VERTEX
  8
PLAN_1
  6
CONTINUOUS
 10
2.427902
 20
-4.094622
  0
VERTEX
  8
PLAN_1
  6
CONTINUOUS
 10
2.431047
 20
-4.097764
  0
VERTEX
  8
PLAN_1
  6
CONTINUOUS
 10
2.433665
 20
-4.101433
  0
VERTEX
  8
PLAN_1
  6
CONTINUOUS
 10
2.435760
 20
-4.105622
  0
VERTEX
  8
PLAN_1
  6
CONTINUOUS
 10
2.437335
 20
-4.109815
  0
VERTEX
  8
PLAN_1
  6
CONTINUOUS
 10
2.438906
 20
-4.114528
  0
VERTEX
  8
PLAN_1
  6
CONTINUOUS
 10
2.439953
 20
-4.119768
  0
VERTEX
  8
PLAN_1
  6
CONTINUOUS
 10
2.441000
 20
-4.125008
  0
VERTEX
  8
PLAN_1
  6
CONTINUOUS
 10
2.441000
 20
-4.130768
  0
VERTEX
  8
PLAN_1
  6
CONTINUOUS
 10
2.440476
 20
-4.139150
  0
VERTEX
  8
PLAN_1
  6
CONTINUOUS
 10
2.438906
 20
-4.147008
  0
VERTEX
  8
PLAN_1
  6
CONTINUOUS
 10
2.436807
 20
-4.153819
  0
VERTEX
  8
PLAN_1
  6
CONTINUOUS
 10
2.433665
 20
-4.160106
  0
VERTEX
  8
PLAN_1
  6
CONTINUOUS
 10
2.430000
 20
-4.165870
  0
VERTEX
  8
PLAN_1
  6
CONTINUOUS
 10
2.425283
 20
-4.170583
  0
VERTEX
  8
PLAN_1
  6
CONTINUOUS
 10
2.420043
 20
-4.174776
  0
VERTEX
  8
PLAN_1
  6
CONTINUOUS
 10
2.414807
 20
-4.178441
  0
VERTEX
  8
PLAN_1
  6
CONTINUOUS
 10
2.409043
 20
-4.181587
  0
VERTEX
  8
PLAN_1
  6
CONTINUOUS
 10
2.402756
 20
-4.184205
  0
VERTEX
  8
PLAN_1
  6
CONTINUOUS
 10
2.396472
 20
-4.186299
  0
VERTEX
  8
PLAN_1
  6
CONTINUOUS
 10
2.389661
 20
-4.188398
  0
VERTEX
  8
PLAN_1
  6
CONTINUOUS
 10
2.382850
 20
-4.189445
  0
VERTEX
  8
PLAN_1
  6
CONTINUOUS
 10
2.376039
 20
-4.190492
  0
VERTEX
  8
PLAN_1
  6
CONTINUOUS
 10
2.369752
 20
-4.191016
  0
VERTEX
  8
PLAN_1
  6
CONTINUOUS
 10
2.362941
 20
-4.191016
  0
VERTEX
  8
PLAN_1
  6
CONTINUOUS
 10
2.350370
 20
-4.190492
  0
VERTEX
  8
PLAN_1
  6
CONTINUOUS
 10
2.339366
 20
-4.188921
  0
VERTEX
  8
PLAN_1
  6
CONTINUOUS
 10
2.329937
 20
-4.186823
  0
VERTEX
  8
PLAN_1
  6
CONTINUOUS
 10
2.322602
 20
-4.184205
  0
VERTEX
  8
PLAN_1
  6
CONTINUOUS
 10
2.315795
 20
-4.181587
  0
VERTEX
  8
PLAN_1
  6
CONTINUOUS
 10
2.310555
 20
-4.178441
  0
VERTEX
  8
PLAN_1
  6
CONTINUOUS
 10
2.306362
 20
-4.174776
  0
VERTEX
  8
PLAN_1
  6
CONTINUOUS
 10
2.302697
 20
-4.171630
  0
VERTEX
  8
PLAN_1
  6
CONTINUOUS
 10
2.296933
 20
-4.165870
  0
VERTEX
  8
PLAN_1
  6
CONTINUOUS
 10
2.292220
 20
-4.160106
  0
VERTEX
  8
PLAN_1
  6
CONTINUOUS
 10
2.289075
 20
-4.153819
  0
VERTEX
  8
PLAN_1
  6
CONTINUOUS
 10
2.286457
 20
-4.148059
  0
VERTEX
  8
PLAN_1
  6
CONTINUOUS
 10
2.284362
 20
-4.141248
  0
VERTEX
  8
PLAN_1
  6
CONTINUOUS
 10
2.283315
 20
-4.134961
  0
VERTEX
  8
PLAN_1
  6
CONTINUOUS
 10
2.282791
 20
-4.128150
  0
VERTEX
  8
PLAN_1
  6
CONTINUOUS
 10
2.282264
 20
-4.121339
  0
VERTEX
  8
PLAN_1
  6
CONTINUOUS
 10
2.307937
 20
-4.121339
  0
VERTEX
  8
PLAN_1
  6
CONTINUOUS
 10
2.307937
 20
-4.127626
  0
VERTEX
  8
PLAN_1
  6
CONTINUOUS
 10
2.308984
 20
-4.133913
  0
VERTEX
  8
PLAN_1
  6
CONTINUOUS
 10
2.310555
 20
-4.139150
  0
VERTEX
  8
PLAN_1
  6
CONTINUOUS
 10
2.312650
 20
-4.143866
  0
VERTEX
  8
PLAN_1
  6
CONTINUOUS
 10
2.315272
 20
-4.148059
  0
VERTEX
  8
PLAN_1
  6
CONTINUOUS
 10
2.318413
 20
-4.151724
  0
VERTEX
  8
PLAN_1
  6
CONTINUOUS
 10
2.322079
 20
-4.155390
  0
VERTEX
  8
PLAN_1
  6
CONTINUOUS
 10
2.325748
 20
-4.158012
  0
VERTEX
  8
PLAN_1
  6
CONTINUOUS
 10
2.329937
 20
-4.160630
  0
VERTEX
  8
PLAN_1
  6
CONTINUOUS
 10
2.334130
 20
-4.162724
  0
VERTEX
  8
PLAN_1
  6
CONTINUOUS
 10
2.338843
 20
-4.164299
  0
VERTEX
  8
PLAN_1
  6
CONTINUOUS
 10
2.343559
 20
-4.165870
  0
VERTEX
  8
PLAN_1
  6
CONTINUOUS
 10
2.348276
 20
-4.166917
  0
VERTEX
  8
PLAN_1
  6
CONTINUOUS
 10
2.352988
 20
-4.167441
  0
VERTEX
  8
PLAN_1
  6
CONTINUOUS
 10
2.357705
 20
-4.167965
  0
VERTEX
  8
PLAN_1
  6
CONTINUOUS
 10
2.362941
 20
-4.167965
  0
VERTEX
  8
PLAN_1
  6
CONTINUOUS
 10
2.370799
 20
-4.167965
  0
VERTEX
  8
PLAN_1
  6
CONTINUOUS
 10
2.379181
 20
-4.166917
  0
VERTEX
  8
PLAN_1
  6
CONTINUOUS
 10
2.383374
 20
-4.165870
  0
VERTEX
  8
PLAN_1
  6
CONTINUOUS
 10
2.387563
 20
-4.164823
  0
VERTEX
  8
PLAN_1
  6
CONTINUOUS
 10
2.391756
 20
-4.163776
  0
VERTEX
  8
PLAN_1
  6
CONTINUOUS
 10
2.395945
 20
-4.161677
  0
VERTEX
  8
PLAN_1
  6
CONTINUOUS
 10
2.400138
 20
-4.160106
  0
VERTEX
  8
PLAN_1
  6
CONTINUOUS
 10
2.403280
 20
-4.157488
  0
VERTEX
  8
PLAN_1
  6
CONTINUOUS
 10
2.406949
 20
-4.154866
  0
VERTEX
  8
PLAN_1
  6
CONTINUOUS
 10
2.409567
 20
-4.151724
  0
VERTEX
  8
PLAN_1
  6
CONTINUOUS
 10
2.411661
 20
-4.148059
  0
VERTEX
  8
PLAN_1
  6
CONTINUOUS
 10
2.413236
 20
-4.143866
  0
VERTEX
  8
PLAN_1
  6
CONTINUOUS
 10
2.414283
 20
-4.139677
  0
VERTEX
  8
PLAN_1
  6
CONTINUOUS
 10
2.414807
 20
-4.134437
  0
VERTEX
  8
PLAN_1
  6
CONTINUOUS
 10
2.414807
 20
-4.130768
  0
VERTEX
  8
PLAN_1
  6
CONTINUOUS
 10
2.414283
 20
-4.127102
  0
VERTEX
  8
PLAN_1
  6
CONTINUOUS
 10
2.413760
 20
-4.123961
  0
VERTEX
  8
PLAN_1
  6
CONTINUOUS
 10
2.412713
 20
-4.121339
  0
VERTEX
  8
PLAN_1
  6
CONTINUOUS
 10
2.411661
 20
-4.118720
  0
VERTEX
  8
PLAN_1
  6
CONTINUOUS
 10
2.410091
 20
-4.116102
  0
VERTEX
  8
PLAN_1
  6
CONTINUOUS
 10
2.407996
 20
-4.114004
  0
VERTEX
  8
PLAN_1
  6
CONTINUOUS
 10
2.405902
 20
-4.111909
  0
VERTEX
  8
PLAN_1
  6
CONTINUOUS
 10
2.403280
 20
-4.109815
  0
VERTEX
  8
PLAN_1
  6
CONTINUOUS
 10
2.400138
 20
-4.108244
  0
VERTEX
  8
PLAN_1
  6
CONTINUOUS
 10
2.396996
 20
-4.106669
  0
VERTEX
  8
PLAN_1
  6
CONTINUOUS
 10
2.392803
 20
-4.105098
  0
VERTEX
  8
PLAN_1
  6
CONTINUOUS
 10
2.383898
 20
-4.101957
  0
VERTEX
  8
PLAN_1
  6
CONTINUOUS
 10
2.372374
 20
-4.099339
  0
VERTEX
  8
PLAN_1
  6
CONTINUOUS
 10
2.331512
 20
-4.089906
  0
VERTEX
  8
PLAN_1
  6
CONTINUOUS
 10
2.326272
 20
-4.088335
  0
VERTEX
  8
PLAN_1
  6
CONTINUOUS
 10
2.319461
 20
-4.085717
  0
VERTEX
  8
PLAN_1
  6
CONTINUOUS
 10
2.315795
 20
-4.084669
  0
VERTEX
  8
PLAN_1
  6
CONTINUOUS
 10
2.312650
 20
-4.082575
  0
VERTEX
  8
PLAN_1
  6
CONTINUOUS
 10
2.308984
 20
-4.080476
  0
VERTEX
  8
PLAN_1
  6
CONTINUOUS
 10
2.305315
 20
-4.077858
  0
VERTEX
  8
PLAN_1
  6
CONTINUOUS
 10
2.302173
 20
-4.075240
  0
VERTEX
  8
PLAN_1
  6
CONTINUOUS
 10
2.299031
 20
-4.072094
  0
VERTEX
  8
PLAN_1
  6
CONTINUOUS
 10
2.296409
 20
-4.068429
  0
VERTEX
  8
PLAN_1
  6
CONTINUOUS
 10
2.293791
 20
-4.064236
  0
VERTEX
  8
PLAN_1
  6
CONTINUOUS
 10
2.292220
 20
-4.059524
  0
VERTEX
  8
PLAN_1
  6
CONTINUOUS
 10
2.290646
 20
-4.054807
  0
VERTEX
  8
PLAN_1
  6
CONTINUOUS
 10
2.289598
 20
-4.049043
  0
VERTEX
  8
PLAN_1
  6
CONTINUOUS
 10
2.289075
 20
-4.042760
  0
VERTEX
  8
PLAN_1
  6
CONTINUOUS
 10
2.289598
 20
-4.036996
  0
VERTEX
  8
PLAN_1
  6
CONTINUOUS
 10
2.290122
 20
-4.031232
  0
VERTEX
  8
PLAN_1
  6
CONTINUOUS
 10
2.291173
 20
-4.025469
  0
VERTEX
  8
PLAN_1
  6
CONTINUOUS
 10
2.293268
 20
-4.020232
  0
VERTEX
  8
PLAN_1
  6
CONTINUOUS
 10
2.295362
 20
-4.014469
  0
VERTEX
  8
PLAN_1
  6
CONTINUOUS
 10
2.297980
 20
-4.009756
  0
VERTEX
  8
PLAN_1
  6
CONTINUOUS
 10
2.301650
 20
-4.005039
  0
VERTEX
  8
PLAN_1
  6
CONTINUOUS
 10
2.305315
 20
-4.000323
  0
VERTEX
  8
PLAN_1
  6
CONTINUOUS
 10
2.310031
 20
-3.996134
  0
VERTEX
  8
PLAN_1
  6
CONTINUOUS
 10
2.314744
 20
-3.992465
  0
VERTEX
  8
PLAN_1
  6
CONTINUOUS
 10
2.320508
 20
-3.989323
  0
VERTEX
  8
PLAN_1
  6
CONTINUOUS
 10
2.326795
 20
-3.986181
  0
VERTEX
  8
PLAN_1
  6
CONTINUOUS
 10
2.333606
 20
-3.984083
  0
VERTEX
  8
PLAN_1
  6
CONTINUOUS
 10
2.340941
 20
-3.982512
  0
VERTEX
  8
PLAN_1
  6
CONTINUOUS
 10
2.348799
 20
-3.981465
  0
VERTEX
  8
PLAN_1
  6
CONTINUOUS
 10
2.357705
 20
-3.980941
  0
VERTEX
  8
PLAN_1
  6
CONTINUOUS
 10
2.370276
 20
-3.981465
  0
VERTEX
  8
PLAN_1
  6
CONTINUOUS
 10
2.381280
 20
-3.983035
  0
VERTEX
  8
PLAN_1
  6
CONTINUOUS
 10
2.390709
 20
-3.985134
  0
VERTEX
  8
PLAN_1
  6
CONTINUOUS
 10
2.399091
 20
-3.988276
  0
VERTEX
  8
PLAN_1
  6
CONTINUOUS
 10
2.406425
 20
-3.991417
  0
VERTEX
  8
PLAN_1
  6
CONTINUOUS
 10
2.412713
 20
-3.995610
  0
VERTEX
  8
PLAN_1
  6
CONTINUOUS
 10
2.417949
 20
-3.999799
  0
VERTEX
  8
PLAN_1
  6
CONTINUOUS
 10
2.422142
 20
-4.004516
  0
VERTEX
  8
PLAN_1
  6
CONTINUOUS
 10
2.425807
 20
-4.009756
  0
VERTEX
  8
PLAN_1
  6
CONTINUOUS
 10
2.428953
 20
-4.014992
  0
VERTEX
  8
PLAN_1
  6
CONTINUOUS
 10
2.431047
 20
-4.020232
  0
VERTEX
  8
PLAN_1
  6
CONTINUOUS
 10
2.432618
 20
-4.025469
  0
VERTEX
  8
PLAN_1
  6
CONTINUOUS
 10
2.434713
 20
-4.035949
  0
VERTEX
  8
PLAN_1
  6
CONTINUOUS
 10
2.435236
 20
-4.044854
  0
VERTEX
  8
PLAN_1
  6
CONTINUOUS
 10
2.410091
 20
-4.044854
  0
SEQEND
  8
0
  0
POLYLINE
  8
PLAN_1
  6
CONTINUOUS
 66
     1
 40
0.006807
 41
0.006807
  0
VERTEX
  8
PLAN_1
  6
CONTINUOUS
 10
-1.435681
 20
3.230213
  0
VERTEX
  8
PLAN_1
  6
CONTINUOUS
 10
-1.435681
 20
3.515201
  0
VERTEX
  8
PLAN_1
  6
CONTINUOUS
 10
-1.479689
 20
3.515201
  0
VERTEX
  8
PLAN_1
  6
CONTINUOUS
 10
-1.479689
 20
3.230213
  0
VERTEX
  8
PLAN_1
  6
CONTINUOUS
 10
-1.435681
 20
3.230213
  0
SEQEND
  8
0
  0
POLYLINE
  8
PLAN_1
  6
CONTINUOUS
 66
     1
 40
0.008382
 41
0.008382
  0
VERTEX
  8
PLAN_1
  6
CONTINUOUS
 10
-1.520028
 20
2.496260
  0
VERTEX
  8
PLAN_1
  6
CONTINUOUS
 10
-1.521075
 20
2.808492
  0
VERTEX
  8
PLAN_1
  6
CONTINUOUS
 10
-2.091051
 20
2.809539
  0
VERTEX
  8
PLAN_1
  6
CONTINUOUS
 10
-2.091051
 20
2.496260
  0
VERTEX
  8
PLAN_1
  6
CONTINUOUS
 10
-2.009327
 20
2.496260
  0
VERTEX
  8
PLAN_1
  6
CONTINUOUS
 10
-2.009327
 20
2.740386
  0
SEQEND
  8
0
  0
POLYLINE
  8
PLAN_1
  6
CONTINUOUS
 66
     1
 40
0.008382
 41
0.008382
  0
VERTEX
  8
PLAN_1
  6
CONTINUOUS
 10
-2.009327
 20
2.740386
  0
VERTEX
  8
PLAN_1
  6
CONTINUOUS
 10
-1.999898
 20
2.748244
  0
VERTEX
  8
PLAN_1
  6
CONTINUOUS
 10
-1.989941
 20
2.755579
  0
VERTEX
  8
PLAN_1
  6
CONTINUOUS
 10
-1.979465
 20
2.762913
  0
VERTEX
  8
PLAN_1
  6
CONTINUOUS
 10
-1.968465
 20
2.769724
  0
VERTEX
  8
PLAN_1
  6
CONTINUOUS
 10
-1.957461
 20
2.776012
  0
VERTEX
  8
PLAN_1
  6
CONTINUOUS
 10
-1.945413
 20
2.781776
  0
VERTEX
  8
PLAN_1
  6
CONTINUOUS
 10
-1.932839
 20
2.787012
  0
VERTEX
  8
PLAN_1
  6
CONTINUOUS
 10
-1.920268
 20
2.791728
  0
VERTEX
  8
PLAN_1
  6
CONTINUOUS
 10
-1.907169
 20
2.795917
  0
VERTEX
  8
PLAN_1
  6
CONTINUOUS
 10
-1.893551
 20
2.800110
  0
VERTEX
  8
PLAN_1
  6
CONTINUOUS
 10
-1.879406
 20
2.803252
  0
VERTEX
  8
PLAN_1
  6
CONTINUOUS
 10
-1.865260
 20
2.805870
  0
VERTEX
  8
PLAN_1
  6
CONTINUOUS
 10
-1.850591
 20
2.807969
  0
VERTEX
  8
PLAN_1
  6
CONTINUOUS
 10
-1.835925
 20
2.809539
  0
VERTEX
  8
PLAN_1
  6
CONTINUOUS
 10
-1.820732
 20
2.810587
  0
VERTEX
  8
PLAN_1
  6
CONTINUOUS
 10
-1.805539
 20
2.810587
  0
VERTEX
  8
PLAN_1
  6
CONTINUOUS
 10
-1.790346
 20
2.810587
  0
VERTEX
  8
PLAN_1
  6
CONTINUOUS
 10
-1.775154
 20
2.809539
  0
VERTEX
  8
PLAN_1
  6
CONTINUOUS
 10
-1.760484
 20
2.807969
  0
VERTEX
  8
PLAN_1
  6
CONTINUOUS
 10
-1.745815
 20
2.805870
  0
VERTEX
  8
PLAN_1
  6
CONTINUOUS
 10
-1.731673
 20
2.803252
  0
VERTEX
  8
PLAN_1
  6
CONTINUOUS
 10
-1.717528
 20
2.800110
  0
VERTEX
  8
PLAN_1
  6
CONTINUOUS
 10
-1.703906
 20
2.795917
  0
VERTEX
  8
PLAN_1
  6
CONTINUOUS
 10
-1.690811
 20
2.791728
  0
VERTEX
  8
PLAN_1
  6
CONTINUOUS
 10
-1.678236
 20
2.787012
  0
VERTEX
  8
PLAN_1
  6
CONTINUOUS
 10
-1.665665
 20
2.781776
  0
VERTEX
  8
PLAN_1
  6
CONTINUOUS
 10
-1.653614
 20
2.776012
  0
VERTEX
  8
PLAN_1
  6
CONTINUOUS
 10
-1.642091
 20
2.769724
  0
VERTEX
  8
PLAN_1
  6
CONTINUOUS
 10
-1.631087
 20
2.762913
  0
VERTEX
  8
PLAN_1
  6
CONTINUOUS
 10
-1.620610
 20
2.756102
  0
VERTEX
  8
PLAN_1
  6
CONTINUOUS
 10
-1.610657
 20
2.748244
  0
VERTEX
  8
PLAN_1
  6
CONTINUOUS
 10
-1.601752
 20
2.740386
  0
SEQEND
  8
0
  0
POLYLINE
  8
PLAN_1
  6
CONTINUOUS
 66
     1
 40
0.008382
 41
0.008382
  0
VERTEX
  8
PLAN_1
  6
CONTINUOUS
 10
-1.601752
 20
2.740386
  0
VERTEX
  8
PLAN_1
  6
CONTINUOUS
 10
-1.601752
 20
2.496260
  0
VERTEX
  8
PLAN_1
  6
CONTINUOUS
 10
-1.520028
 20
2.496260
  0
SEQEND
  8
0
  0
POLYLINE
  8
PLAN_1
  6
CONTINUOUS
 66
     1
 40
0.008382
 41
0.008382
  0
VERTEX
  8
PLAN_1
  6
CONTINUOUS
 10
-1.662520
 20
3.618929
  0
VERTEX
  8
PLAN_1
  6
CONTINUOUS
 10
-1.479165
 20
3.618929
  0
VERTEX
  8
PLAN_1
  6
CONTINUOUS
 10
-1.479165
 20
3.046331
  0
VERTEX
  8
PLAN_1
  6
CONTINUOUS
 10
-1.397441
 20
3.046331
  0
VERTEX
  8
PLAN_1
  6
CONTINUOUS
 10
-1.397441
 20
2.251610
  0
VERTEX
  8
PLAN_1
  6
CONTINUOUS
 10
-2.213638
 20
2.251610
  0
VERTEX
  8
PLAN_1
  6
CONTINUOUS
 10
-2.213638
 20
3.046331
  0
VERTEX
  8
PLAN_1
  6
CONTINUOUS
 10
-2.130343
 20
3.046331
  0
VERTEX
  8
PLAN_1
  6
CONTINUOUS
 10
-2.130343
 20
3.618929
  0
VERTEX
  8
PLAN_1
  6
CONTINUOUS
 10
-1.948555
 20
3.618929
  0
SEQEND
  8
0
  0
POLYLINE
  8
PLAN_1
  6
CONTINUOUS
 66
     1
 40
0.008382
 41
0.008382
  0
VERTEX
  8
PLAN_1
  6
CONTINUOUS
 10
-1.254945
 20
-0.765913
  0
VERTEX
  8
PLAN_1
  6
CONTINUOUS
 10
-1.254945
 20
1.823079
  0
VERTEX
  8
PLAN_1
  6
CONTINUOUS
 10
-2.355606
 20
1.823079
  0
VERTEX
  8
PLAN_1
  6
CONTINUOUS
 10
-2.355606
 20
-0.765913
  0
VERTEX
  8
PLAN_1
  6
CONTINUOUS
 10
-1.254945
 20
-0.765913
  0
SEQEND
  8
0
  0
POLYLINE
  8
PLAN_1
  6
CONTINUOUS
 66
     1
 40
0.008382
 41
0.008382
  0
VERTEX
  8
PLAN_1
  6
CONTINUOUS
 10
-2.355083
 20
1.052984
  0
VERTEX
  8
PLAN_1
  6
CONTINUOUS
 10
-2.355083
 20
1.277201
  0
VERTEX
  8
PLAN_1
  6
CONTINUOUS
 10
-2.436807
 20
1.277201
  0
VERTEX
  8
PLAN_1
  6
CONTINUOUS
 10
-2.436807
 20
1.052984
  0
VERTEX
  8
PLAN_1
  6
CONTINUOUS
 10
-2.355083
 20
1.052984
  0
SEQEND
  8
0
  0
POLYLINE
  8
PLAN_1
  6
CONTINUOUS
 66
     1
 40
0.008382
 41
0.008382
  0
VERTEX
  8
PLAN_1
  6
CONTINUOUS
 10
-1.316764
 20
-0.827209
  0
VERTEX
  8
PLAN_1
  6
CONTINUOUS
 10
-1.316764
 20
-0.765913
  0
VERTEX
  8
PLAN_1
  6
CONTINUOUS
 10
-2.213638
 20
-0.765913
  0
VERTEX
  8
PLAN_1
  6
CONTINUOUS
 10
-2.213638
 20
-0.827209
  0
VERTEX
  8
PLAN_1
  6
CONTINUOUS
 10
-1.316764
 20
-0.827209
  0
SEQEND
  8
0
  0
POLYLINE
  8
PLAN_1
  6
CONTINUOUS
 66
     1
 40
0.008382
 41
0.008382
  0
VERTEX
  8
PLAN_1
  6
CONTINUOUS
 10
-1.521075
 20
3.153201
  0
VERTEX
  8
PLAN_1
  6
CONTINUOUS
 10
-1.520028
 20
2.496260
  0
VERTEX
  8
PLAN_1
  6
CONTINUOUS
 10
-2.091051
 20
2.496260
  0
VERTEX
  8
PLAN_1
  6
CONTINUOUS
 10
-2.091051
 20
3.153201
  0
SEQEND
  8
0
  0
POLYLINE
  8
PLAN_1
  6
CONTINUOUS
 66
     1
 40
0.008382
 41
0.008382
  0
VERTEX
  8
PLAN_1
  6
CONTINUOUS
 10
-2.301650
 20
-0.500835
  0
VERTEX
  8
PLAN_1
  6
CONTINUOUS
 10
-2.301126
 20
-0.500835
  0
VERTEX
  8
PLAN_1
  6
CONTINUOUS
 10
-2.301126
 20
1.375689
  0
VERTEX
  8
PLAN_1
  6
CONTINUOUS
 10
-2.355083
 20
1.375689
  0
VERTEX
  8
PLAN_1
  6
CONTINUOUS
 10
-2.355606
 20
-0.500835
  0
VERTEX
  8
PLAN_1
  6
CONTINUOUS
 10
-2.301650
 20
-0.500835
  0
SEQEND
  8
0
  0
POLYLINE
  8
PLAN_1
  6
CONTINUOUS
 66
     1
 40
0.008382
 41
0.008382
  0
VERTEX
  8
PLAN_1
  6
CONTINUOUS
 10
-2.247689
 20
-0.500835
  0
VERTEX
  8
PLAN_1
  6
CONTINUOUS
 10
-2.247165
 20
-0.500835
  0
VERTEX
  8
PLAN_1
  6
CONTINUOUS
 10
-2.247165
 20
1.090177
  0
VERTEX
  8
PLAN_1
  6
CONTINUOUS
 10
-2.301126
 20
1.090177
  0
VERTEX
  8
PLAN_1
  6
CONTINUOUS
 10
-2.301126
 20
-0.500835
  0
VERTEX
  8
PLAN_1
  6
CONTINUOUS
 10
-2.301650
 20
-0.500835
  0
VERTEX
  8
PLAN_1
  6
CONTINUOUS
 10
-2.247689
 20
-0.500835
  0
SEQEND
  8
0
  0
POLYLINE
  8
PLAN_1
  6
CONTINUOUS
 66
     1
 40
0.008382
 41
0.008382
  0
VERTEX
  8
PLAN_1
  6
CONTINUOUS
 10
-2.355606
 20
1.375165
  0
VERTEX
  8
PLAN_1
  6
CONTINUOUS
 10
-1.459256
 20
1.375165
  0
VERTEX
  8
PLAN_1
  6
CONTINUOUS
 10
-1.459256
 20
1.823079
  0
SEQEND
  8
0
  0
POLYLINE
  8
PLAN_1
  6
CONTINUOUS
 66
     1
 40
0.008382
 41
0.008382
  0
VERTEX
  8
PLAN_1
  6
CONTINUOUS
 10
-1.751579
 20
-0.563173
  0
VERTEX
  8
PLAN_1
  6
CONTINUOUS
 10
-1.730626
 20
-0.562650
  0
VERTEX
  8
PLAN_1
  6
CONTINUOUS
 10
-1.709669
 20
-0.561079
  0
VERTEX
  8
PLAN_1
  6
CONTINUOUS
 10
-1.689236
 20
-0.558461
  0
VERTEX
  8
PLAN_1
  6
CONTINUOUS
 10
-1.669331
 20
-0.554791
  0
VERTEX
  8
PLAN_1
  6
CONTINUOUS
 10
-1.649425
 20
-0.550602
  0
VERTEX
  8
PLAN_1
  6
CONTINUOUS
 10
-1.630039
 20
-0.544839
  0
VERTEX
  8
PLAN_1
  6
CONTINUOUS
 10
-1.611181
 20
-0.538551
  0
VERTEX
  8
PLAN_1
  6
CONTINUOUS
 10
-1.592846
 20
-0.531217
  0
VERTEX
  8
PLAN_1
  6
CONTINUOUS
 10
-1.574508
 20
-0.523358
  0
VERTEX
  8
PLAN_1
  6
CONTINUOUS
 10
-1.557220
 20
-0.513929
  0
VERTEX
  8
PLAN_1
  6
CONTINUOUS
 10
-1.539933
 20
-0.504500
  0
VERTEX
  8
PLAN_1
  6
CONTINUOUS
 10
-1.523693
 20
-0.493500
  0
VERTEX
  8
PLAN_1
  6
CONTINUOUS
 10
-1.507453
 20
-0.482496
  0
VERTEX
  8
PLAN_1
  6
CONTINUOUS
 10
-1.492260
 20
-0.470449
  0
VERTEX
  8
PLAN_1
  6
CONTINUOUS
 10
-1.477591
 20
-0.457350
  0
VERTEX
  8
PLAN_1
  6
CONTINUOUS
 10
-1.463449
 20
-0.443732
  0
VERTEX
  8
PLAN_1
  6
CONTINUOUS
 10
-1.449827
 20
-0.429587
  0
VERTEX
  8
PLAN_1
  6
CONTINUOUS
 10
-1.436728
 20
-0.414917
  0
VERTEX
  8
PLAN_1
  6
CONTINUOUS
 10
-1.424681
 20
-0.399724
  0
VERTEX
  8
PLAN_1
  6
CONTINUOUS
 10
-1.413681
 20
-0.383484
  0
VERTEX
  8
PLAN_1
  6
CONTINUOUS
 10
-1.402677
 20
-0.367244
  0
VERTEX
  8
PLAN_1
  6
CONTINUOUS
 10
-1.393248
 20
-0.349957
  0
VERTEX
  8
PLAN_1
  6
CONTINUOUS
 10
-1.383819
 20
-0.332146
  0
VERTEX
  8
PLAN_1
  6
CONTINUOUS
 10
-1.375961
 20
-0.314335
  0
VERTEX
  8
PLAN_1
  6
CONTINUOUS
 10
-1.368626
 20
-0.295996
  0
VERTEX
  8
PLAN_1
  6
CONTINUOUS
 10
-1.362339
 20
-0.276614
  0
VERTEX
  8
PLAN_1
  6
CONTINUOUS
 10
-1.356579
 20
-0.257756
  0
VERTEX
  8
PLAN_1
  6
CONTINUOUS
 10
-1.351862
 20
-0.237846
  0
VERTEX
  8
PLAN_1
  6
CONTINUOUS
 10
-1.348720
 20
-0.217941
  0
VERTEX
  8
PLAN_1
  6
CONTINUOUS
 10
-1.346098
 20
-0.197508
  0
VERTEX
  8
PLAN_1
  6
CONTINUOUS
 10
-1.344528
 20
-0.176555
  0
VERTEX
  8
PLAN_1
  6
CONTINUOUS
 10
-1.344004
 20
-0.155598
  0
VERTEX
  8
PLAN_1
  6
CONTINUOUS
 10
-1.344528
 20
-0.134646
  0
VERTEX
  8
PLAN_1
  6
CONTINUOUS
 10
-1.346098
 20
-0.113689
  0
VERTEX
  8
PLAN_1
  6
CONTINUOUS
 10
-1.348720
 20
-0.093780
  0
VERTEX
  8
PLAN_1
  6
CONTINUOUS
 10
-1.351862
 20
-0.073350
  0
VERTEX
  8
PLAN_1
  6
CONTINUOUS
 10
-1.356579
 20
-0.053969
  0
VERTEX
  8
PLAN_1
  6
CONTINUOUS
 10
-1.362339
 20
-0.034583
  0
VERTEX
  8
PLAN_1
  6
CONTINUOUS
 10
-1.368626
 20
-0.015201
  0
VERTEX
  8
PLAN_1
  6
CONTINUOUS
 10
-1.375961
 20
0.003134
  0
VERTEX
  8
PLAN_1
  6
CONTINUOUS
 10
-1.383819
 20
0.020949
  0
VERTEX
  8
PLAN_1
  6
CONTINUOUS
 10
-1.393248
 20
0.038760
  0
VERTEX
  8
PLAN_1
  6
CONTINUOUS
 10
-1.402677
 20
0.055524
  0
VERTEX
  8
PLAN_1
  6
CONTINUOUS
 10
-1.413681
 20
0.072287
  0
VERTEX
  8
PLAN_1
  6
CONTINUOUS
 10
-1.424681
 20
0.088528
  0
VERTEX
  8
PLAN_1
  6
CONTINUOUS
 10
-1.436728
 20
0.103720
  0
VERTEX
  8
PLAN_1
  6
CONTINUOUS
 10
-1.449827
 20
0.118390
  0
VERTEX
  8
PLAN_1
  6
CONTINUOUS
 10
-1.463449
 20
0.132531
  0
VERTEX
  8
PLAN_1
  6
CONTINUOUS
 10
-1.477591
 20
0.146154
  0
VERTEX
  8
PLAN_1
  6
CONTINUOUS
 10
-1.492260
 20
0.158728
  0
VERTEX
  8
PLAN_1
  6
CONTINUOUS
 10
-1.507453
 20
0.171299
  0
VERTEX
  8
PLAN_1
  6
CONTINUOUS
 10
-1.523693
 20
0.182303
  0
VERTEX
  8
PLAN_1
  6
CONTINUOUS
 10
-1.539933
 20
0.193303
  0
VERTEX
  8
PLAN_1
  6
CONTINUOUS
 10
-1.557220
 20
0.202732
  0
VERTEX
  8
PLAN_1
  6
CONTINUOUS
 10
-1.574508
 20
0.211638
  0
VERTEX
  8
PLAN_1
  6
CONTINUOUS
 10
-1.592846
 20
0.220020
  0
VERTEX
  8
PLAN_1
  6
CONTINUOUS
 10
-1.611181
 20
0.227354
  0
VERTEX
  8
PLAN_1
  6
CONTINUOUS
 10
-1.630039
 20
0.233642
  0
VERTEX
  8
PLAN_1
  6
CONTINUOUS
 10
-1.649425
 20
0.239406
  0
VERTEX
  8
PLAN_1
  6
CONTINUOUS
 10
-1.669331
 20
0.243594
  0
VERTEX
  8
PLAN_1
  6
CONTINUOUS
 10
-1.689236
 20
0.247264
  0
VERTEX
  8
PLAN_1
  6
CONTINUOUS
 10
-1.709669
 20
0.249882
  0
VERTEX
  8
PLAN_1
  6
CONTINUOUS
 10
-1.730626
 20
0.251453
  0
VERTEX
  8
PLAN_1
  6
CONTINUOUS
 10
-1.751579
 20
0.251976
  0
VERTEX
  8
PLAN_1
  6
CONTINUOUS
 10
-1.772535
 20
0.251453
  0
VERTEX
  8
PLAN_1
  6
CONTINUOUS
 10
-1.792965
 20
0.249882
  0
VERTEX
  8
PLAN_1
  6
CONTINUOUS
 10
-1.813398
 20
0.247264
  0
VERTEX
  8
PLAN_1
  6
CONTINUOUS
 10
-1.833827
 20
0.243594
  0
VERTEX
  8
PLAN_1
  6
CONTINUOUS
 10
-1.853213
 20
0.239406
  0
VERTEX
  8
PLAN_1
  6
CONTINUOUS
 10
-1.872594
 20
0.233642
  0
VERTEX
  8
PLAN_1
  6
CONTINUOUS
 10
-1.891453
 20
0.227354
  0
VERTEX
  8
PLAN_1
  6
CONTINUOUS
 10
-1.910315
 20
0.220020
  0
VERTEX
  8
PLAN_1
  6
CONTINUOUS
 10
-1.928126
 20
0.211638
  0
VERTEX
  8
PLAN_1
  6
CONTINUOUS
 10
-1.945937
 20
0.202732
  0
VERTEX
  8
PLAN_1
  6
CONTINUOUS
 10
-1.962701
 20
0.193303
  0
VERTEX
  8
PLAN_1
  6
CONTINUOUS
 10
-1.979465
 20
0.182303
  0
VERTEX
  8
PLAN_1
  6
CONTINUOUS
 10
-1.995705
 20
0.171299
  0
VERTEX
  8
PLAN_1
  6
CONTINUOUS
 10
-2.010898
 20
0.158728
  0
VERTEX
  8
PLAN_1
  6
CONTINUOUS
 10
-2.025567
 20
0.146154
  0
VERTEX
  8
PLAN_1
  6
CONTINUOUS
 10
-2.039713
 20
0.132531
  0
VERTEX
  8
PLAN_1
  6
CONTINUOUS
 10
-2.053331
 20
0.118390
  0
VERTEX
  8
PLAN_1
  6
CONTINUOUS
 10
-2.065906
 20
0.103720
  0
VERTEX
  8
PLAN_1
  6
CONTINUOUS
 10
-2.078476
 20
0.088528
  0
VERTEX
  8
PLAN_1
  6
CONTINUOUS
 10
-2.089480
 20
0.072287
  0
VERTEX
  8
PLAN_1
  6
CONTINUOUS
 10
-2.099957
 20
0.055524
  0
VERTEX
  8
PLAN_1
  6
CONTINUOUS
 10
-2.109909
 20
0.038760
  0
VERTEX
  8
PLAN_1
  6
CONTINUOUS
 10
-2.118815
 20
0.020949
  0
VERTEX
  8
PLAN_1
  6
CONTINUOUS
 10
-2.127197
 20
0.003134
  0
VERTEX
  8
PLAN_1
  6
CONTINUOUS
 10
-2.134531
 20
-0.015201
  0
VERTEX
  8
PLAN_1
  6
CONTINUOUS
 10
-2.140819
 20
-0.034583
  0
VERTEX
  8
PLAN_1
  6
CONTINUOUS
 10
-2.146583
 20
-0.053969
  0
VERTEX
  8
PLAN_1
  6
CONTINUOUS
 10
-2.150772
 20
-0.073350
  0
VERTEX
  8
PLAN_1
  6
CONTINUOUS
 10
-2.154441
 20
-0.093780
  0
VERTEX
  8
PLAN_1
  6
CONTINUOUS
 10
-2.157059
 20
-0.113689
  0
VERTEX
  8
PLAN_1
  6
CONTINUOUS
 10
-2.158630
 20
-0.134646
  0
VERTEX
  8
PLAN_1
  6
CONTINUOUS
 10
-2.159154
 20
-0.155598
  0
VERTEX
  8
PLAN_1
  6
CONTINUOUS
 10
-2.158630
 20
-0.176555
  0
VERTEX
  8
PLAN_1
  6
CONTINUOUS
 10
-2.157059
 20
-0.197508
  0
VERTEX
  8
PLAN_1
  6
CONTINUOUS
 10
-2.154441
 20
-0.217941
  0
VERTEX
  8
PLAN_1
  6
CONTINUOUS
 10
-2.150772
 20
-0.237846
  0
VERTEX
  8
PLAN_1
  6
CONTINUOUS
 10
-2.146583
 20
-0.257756
  0
VERTEX
  8
PLAN_1
  6
CONTINUOUS
 10
-2.140819
 20
-0.276614
  0
VERTEX
  8
PLAN_1
  6
CONTINUOUS
 10
-2.134531
 20
-0.295996
  0
VERTEX
  8
PLAN_1
  6
CONTINUOUS
 10
-2.127197
 20
-0.314335
  0
VERTEX
  8
PLAN_1
  6
CONTINUOUS
 10
-2.118815
 20
-0.332146
  0
VERTEX
  8
PLAN_1
  6
CONTINUOUS
 10
-2.109909
 20
-0.349957
  0
VERTEX
  8
PLAN_1
  6
CONTINUOUS
 10
-2.099957
 20
-0.367244
  0
VERTEX
  8
PLAN_1
  6
CONTINUOUS
 10
-2.089480
 20
-0.383484
  0
VERTEX
  8
PLAN_1
  6
CONTINUOUS
 10
-2.078476
 20
-0.399724
  0
VERTEX
  8
PLAN_1
  6
CONTINUOUS
 10
-2.065906
 20
-0.414917
  0
VERTEX
  8
PLAN_1
  6
CONTINUOUS
 10
-2.053331
 20
-0.429587
  0
VERTEX
  8
PLAN_1
  6
CONTINUOUS
 10
-2.039713
 20
-0.443732
  0
VERTEX
  8
PLAN_1
  6
CONTINUOUS
 10
-2.025567
 20
-0.457350
  0
VERTEX
  8
PLAN_1
  6
CONTINUOUS
 10
-2.010898
 20
-0.470449
  0
VERTEX
  8
PLAN_1
  6
CONTINUOUS
 10
-1.995705
 20
-0.482496
  0
VERTEX
  8
PLAN_1
  6
CONTINUOUS
 10
-1.979465
 20
-0.493500
  0
VERTEX
  8
PLAN_1
  6
CONTINUOUS
 10
-1.962701
 20
-0.504500
  0
VERTEX
  8
PLAN_1
  6
CONTINUOUS
 10
-1.945937
 20
-0.513929
  0
VERTEX
  8
PLAN_1
  6
CONTINUOUS
 10
-1.928126
 20
-0.523358
  0
VERTEX
  8
PLAN_1
  6
CONTINUOUS
 10
-1.910315
 20
-0.531217
  0
VERTEX
  8
PLAN_1
  6
CONTINUOUS
 10
-1.891453
 20
-0.538551
  0
VERTEX
  8
PLAN_1
  6
CONTINUOUS
 10
-1.872594
 20
-0.544839
  0
VERTEX
  8
PLAN_1
  6
CONTINUOUS
 10
-1.853213
 20
-0.550602
  0
VERTEX
  8
PLAN_1
  6
CONTINUOUS
 10
-1.833827
 20
-0.554791
  0
VERTEX
  8
PLAN_1
  6
CONTINUOUS
 10
-1.813398
 20
-0.558461
  0
VERTEX
  8
PLAN_1
  6
CONTINUOUS
 10
-1.792965
 20
-0.561079
  0
VERTEX
  8
PLAN_1
  6
CONTINUOUS
 10
-1.772535
 20
-0.562650
  0
VERTEX
  8
PLAN_1
  6
CONTINUOUS
 10
-1.751579
 20
-0.563173
  0
SEQEND
  8
0
  0
POLYLINE
  8
PLAN_1
  6
CONTINUOUS
 66
     1
 40
0.008382
 41
0.008382
  0
VERTEX
  8
PLAN_1
  6
CONTINUOUS
 10
-2.077429
 20
-0.185984
  0
VERTEX
  8
PLAN_1
  6
CONTINUOUS
 10
-2.077429
 20
-0.125213
  0
VERTEX
  8
PLAN_1
  6
CONTINUOUS
 10
-1.781965
 20
-0.125213
  0
VERTEX
  8
PLAN_1
  6
CONTINUOUS
 10
-1.781965
 20
0.170776
  0
VERTEX
  8
PLAN_1
  6
CONTINUOUS
 10
-1.721193
 20
0.170776
  0
VERTEX
  8
PLAN_1
  6
CONTINUOUS
 10
-1.721193
 20
-0.125213
  0
VERTEX
  8
PLAN_1
  6
CONTINUOUS
 10
-1.425205
 20
-0.125213
  0
VERTEX
  8
PLAN_1
  6
CONTINUOUS
 10
-1.425205
 20
-0.185984
  0
VERTEX
  8
PLAN_1
  6
CONTINUOUS
 10
-1.721193
 20
-0.185984
  0
VERTEX
  8
PLAN_1
  6
CONTINUOUS
 10
-1.721193
 20
-0.481972
  0
VERTEX
  8
PLAN_1
  6
CONTINUOUS
 10
-1.781965
 20
-0.481972
  0
VERTEX
  8
PLAN_1
  6
CONTINUOUS
 10
-1.781965
 20
-0.185984
  0
VERTEX
  8
PLAN_1
  6
CONTINUOUS
 10
-2.077429
 20
-0.185984
  0
SEQEND
  8
0
  0
POLYLINE
  8
PLAN_1
  6
CONTINUOUS
 66
     1
 40
0.008382
 41
0.008382
  0
VERTEX
  8
PLAN_1
  6
CONTINUOUS
 10
-2.029232
 20
1.416028
  0
VERTEX
  8
PLAN_1
  6
CONTINUOUS
 10
-2.029232
 20
1.640248
  0
VERTEX
  8
PLAN_1
  6
CONTINUOUS
 10
-2.314744
 20
1.640248
  0
VERTEX
  8
PLAN_1
  6
CONTINUOUS
 10
-2.314744
 20
1.416028
  0
VERTEX
  8
PLAN_1
  6
CONTINUOUS
 10
-2.029232
 20
1.416028
  0
SEQEND
  8
0
  0
POLYLINE
  8
PLAN_1
  6
CONTINUOUS
 66
     1
 40
0.008382
 41
0.008382
  0
VERTEX
  8
PLAN_1
  6
CONTINUOUS
 10
-1.254945
 20
1.823079
  0
VERTEX
  8
PLAN_1
  6
CONTINUOUS
 10
-1.254945
 20
2.148933
  0
VERTEX
  8
PLAN_1
  6
CONTINUOUS
 10
-2.355606
 20
2.148933
  0
VERTEX
  8
PLAN_1
  6
CONTINUOUS
 10
-2.355606
 20
1.823079
  0
VERTEX
  8
PLAN_1
  6
CONTINUOUS
 10
-1.254945
 20
1.823079
  0
SEQEND
  8
0
  0
POLYLINE
  8
PLAN_1
  6
CONTINUOUS
 66
     1
 40
0.008382
 41
0.008382
  0
VERTEX
  8
PLAN_1
  6
CONTINUOUS
 10
-2.213114
 20
2.251610
  0
VERTEX
  8
PLAN_1
  6
CONTINUOUS
 10
-2.158630
 20
2.472161
  0
SEQEND
  8
0
  0
POLYLINE
  8
PLAN_1
  6
CONTINUOUS
 66
     1
 40
0.008382
 41
0.008382
  0
VERTEX
  8
PLAN_1
  6
CONTINUOUS
 10
-2.158630
 20
2.472161
  0
VERTEX
  8
PLAN_1
  6
CONTINUOUS
 10
-2.156535
 20
2.476878
  0
VERTEX
  8
PLAN_1
  6
CONTINUOUS
 10
-2.153917
 20
2.481594
  0
VERTEX
  8
PLAN_1
  6
CONTINUOUS
 10
-2.150248
 20
2.485783
  0
VERTEX
  8
PLAN_1
  6
CONTINUOUS
 10
-2.146059
 20
2.489453
  0
VERTEX
  8
PLAN_1
  6
CONTINUOUS
 10
-2.141866
 20
2.492071
  0
VERTEX
  8
PLAN_1
  6
CONTINUOUS
 10
-2.136630
 20
2.494165
  0
VERTEX
  8
PLAN_1
  6
CONTINUOUS
 10
-2.131390
 20
2.495736
  0
VERTEX
  8
PLAN_1
  6
CONTINUOUS
 10
-2.125626
 20
2.496260
  0
SEQEND
  8
0
  0
POLYLINE
  8
PLAN_1
  6
CONTINUOUS
 66
     1
 40
0.008382
 41
0.008382
  0
VERTEX
  8
PLAN_1
  6
CONTINUOUS
 10
-2.125626
 20
2.496260
  0
VERTEX
  8
PLAN_1
  6
CONTINUOUS
 10
-1.484402
 20
2.496260
  0
SEQEND
  8
0
  0
POLYLINE
  8
PLAN_1
  6
CONTINUOUS
 66
     1
 40
0.008382
 41
0.008382
  0
VERTEX
  8
PLAN_1
  6
CONTINUOUS
 10
-1.484402
 20
2.496260
  0
VERTEX
  8
PLAN_1
  6
CONTINUOUS
 10
-1.480736
 20
2.495736
  0
VERTEX
  8
PLAN_1
  6
CONTINUOUS
 10
-1.477591
 20
2.495213
  0
VERTEX
  8
PLAN_1
  6
CONTINUOUS
 10
-1.473925
 20
2.494689
  0
VERTEX
  8
PLAN_1
  6
CONTINUOUS
 10
-1.470783
 20
2.493118
  0
VERTEX
  8
PLAN_1
  6
CONTINUOUS
 10
-1.467638
 20
2.492071
  0
VERTEX
  8
PLAN_1
  6
CONTINUOUS
 10
-1.465020
 20
2.489976
  0
VERTEX
  8
PLAN_1
  6
CONTINUOUS
 10
-1.462402
 20
2.487878
  0
VERTEX
  8
PLAN_1
  6
CONTINUOUS
 10
-1.459780
 20
2.485783
  0
VERTEX
  8
PLAN_1
  6
CONTINUOUS
 10
-1.457685
 20
2.483165
  0
VERTEX
  8
PLAN_1
  6
CONTINUOUS
 10
-1.455591
 20
2.480543
  0
VERTEX
  8
PLAN_1
  6
CONTINUOUS
 10
-1.454016
 20
2.477925
  0
VERTEX
  8
PLAN_1
  6
CONTINUOUS
 10
-1.452445
 20
2.474783
  0
VERTEX
  8
PLAN_1
  6
CONTINUOUS
 10
-1.451398
 20
2.471638
  0
VERTEX
  8
PLAN_1
  6
CONTINUOUS
 10
-1.450350
 20
2.467972
  0
VERTEX
  8
PLAN_1
  6
CONTINUOUS
 10
-1.449827
 20
2.464827
  0
VERTEX
  8
PLAN_1
  6
CONTINUOUS
 10
-1.449303
 20
2.461161
  0
SEQEND
  8
0
  0
POLYLINE
  8
PLAN_1
  6
CONTINUOUS
 66
     1
 40
0.008382
 41
0.008382
  0
VERTEX
  8
PLAN_1
  6
CONTINUOUS
 10
-1.449303
 20
2.461161
  0
VERTEX
  8
PLAN_1
  6
CONTINUOUS
 10
-1.397965
 20
2.251610
  0
SEQEND
  8
0
  0
POLYLINE
  8
PLAN_1
  6
CONTINUOUS
 66
     1
 40
0.008382
 41
0.008382
  0
VERTEX
  8
PLAN_1
  6
CONTINUOUS
 10
-1.601752
 20
2.740386
  0
VERTEX
  8
PLAN_1
  6
CONTINUOUS
 10
-1.610657
 20
2.748244
  0
VERTEX
  8
PLAN_1
  6
CONTINUOUS
 10
-1.620610
 20
2.756102
  0
VERTEX
  8
PLAN_1
  6
CONTINUOUS
 10
-1.631087
 20
2.762913
  0
VERTEX
  8
PLAN_1
  6
CONTINUOUS
 10
-1.642091
 20
2.769724
  0
VERTEX
  8
PLAN_1
  6
CONTINUOUS
 10
-1.653614
 20
2.776012
  0
VERTEX
  8
PLAN_1
  6
CONTINUOUS
 10
-1.665665
 20
2.781776
  0
VERTEX
  8
PLAN_1
  6
CONTINUOUS
 10
-1.678236
 20
2.787012
  0
VERTEX
  8
PLAN_1
  6
CONTINUOUS
 10
-1.690811
 20
2.791728
  0
VERTEX
  8
PLAN_1
  6
CONTINUOUS
 10
-1.703906
 20
2.795917
  0
VERTEX
  8
PLAN_1
  6
CONTINUOUS
 10
-1.717528
 20
2.800110
  0
VERTEX
  8
PLAN_1
  6
CONTINUOUS
 10
-1.731673
 20
2.803252
  0
VERTEX
  8
PLAN_1
  6
CONTINUOUS
 10
-1.745815
 20
2.805870
  0
VERTEX
  8
PLAN_1
  6
CONTINUOUS
 10
-1.760484
 20
2.807969
  0
VERTEX
  8
PLAN_1
  6
CONTINUOUS
 10
-1.775154
 20
2.809539
  0
VERTEX
  8
PLAN_1
  6
CONTINUOUS
 10
-1.790346
 20
2.810587
  0
VERTEX
  8
PLAN_1
  6
CONTINUOUS
 10
-1.805539
 20
2.810587
  0
VERTEX
  8
PLAN_1
  6
CONTINUOUS
 10
-1.820732
 20
2.810587
  0
VERTEX
  8
PLAN_1
  6
CONTINUOUS
 10
-1.835925
 20
2.809539
  0
VERTEX
  8
PLAN_1
  6
CONTINUOUS
 10
-1.850591
 20
2.807969
  0
VERTEX
  8
PLAN_1
  6
CONTINUOUS
 10
-1.865260
 20
2.805870
  0
VERTEX
  8
PLAN_1
  6
CONTINUOUS
 10
-1.879406
 20
2.803252
  0
VERTEX
  8
PLAN_1
  6
CONTINUOUS
 10
-1.893551
 20
2.800110
  0
VERTEX
  8
PLAN_1
  6
CONTINUOUS
 10
-1.906646
 20
2.795917
  0
VERTEX
  8
PLAN_1
  6
CONTINUOUS
 10
-1.920268
 20
2.791728
  0
VERTEX
  8
PLAN_1
  6
CONTINUOUS
 10
-1.932839
 20
2.787012
  0
VERTEX
  8
PLAN_1
  6
CONTINUOUS
 10
-1.945413
 20
2.781776
  0
VERTEX
  8
PLAN_1
  6
CONTINUOUS
 10
-1.957461
 20
2.776012
  0
VERTEX
  8
PLAN_1
  6
CONTINUOUS
 10
-1.968465
 20
2.769724
  0
VERTEX
  8
PLAN_1
  6
CONTINUOUS
 10
-1.979465
 20
2.762913
  0
VERTEX
  8
PLAN_1
  6
CONTINUOUS
 10
-1.989941
 20
2.755579
  0
VERTEX
  8
PLAN_1
  6
CONTINUOUS
 10
-1.999898
 20
2.748244
  0
VERTEX
  8
PLAN_1
  6
CONTINUOUS
 10
-2.009327
 20
2.740386
  0
SEQEND
  8
0
  0
POLYLINE
  8
PLAN_1
  6
CONTINUOUS
 66
     1
 40
0.008382
 41
0.008382
  0
VERTEX
  8
PLAN_1
  6
CONTINUOUS
 10
-2.009327
 20
2.740386
  0
VERTEX
  8
PLAN_1
  6
CONTINUOUS
 10
-2.009327
 20
2.496260
  0
VERTEX
  8
PLAN_1
  6
CONTINUOUS
 10
-1.601752
 20
2.496260
  0
VERTEX
  8
PLAN_1
  6
CONTINUOUS
 10
-1.601752
 20
2.740386
  0
SEQEND
  8
0
  0
POLYLINE
  8
PLAN_1
  6
CONTINUOUS
 66
     1
 40
0.006807
 41
0.006807
  0
VERTEX
  8
PLAN_1
  6
CONTINUOUS
 10
-2.315272
 20
1.822555
  0
VERTEX
  8
PLAN_1
  6
CONTINUOUS
 10
-2.314744
 20
1.904280
  0
VERTEX
  8
PLAN_1
  6
CONTINUOUS
 10
-2.355606
 20
1.904280
  0
SEQEND
  8
0
  0
POLYLINE
  8
PLAN_1
  6
CONTINUOUS
 66
     1
 40
0.006807
 41
0.006807
  0
VERTEX
  8
PLAN_1
  6
CONTINUOUS
 10
-1.297378
 20
1.822555
  0
VERTEX
  8
PLAN_1
  6
CONTINUOUS
 10
-1.300000
 20
1.904280
  0
VERTEX
  8
PLAN_1
  6
CONTINUOUS
 10
-1.256516
 20
1.904280
  0
SEQEND
  8
0
  0
POLYLINE
  8
PLAN_1
  6
CONTINUOUS
 66
     1
 40
0.008382
 41
0.008382
  0
VERTEX
  8
PLAN_1
  6
CONTINUOUS
 10
-1.601752
 20
2.740909
  0
VERTEX
  8
PLAN_1
  6
CONTINUOUS
 10
-2.009327
 20
2.740909
  0
SEQEND
  8
0
  0
POLYLINE
  8
PLAN_1
  6
CONTINUOUS
 66
     1
 40
0.008382
 41
0.008382
  0
VERTEX
  8
PLAN_1
  6
CONTINUOUS
 10
-1.520028
 20
2.895980
  0
VERTEX
  8
PLAN_1
  6
CONTINUOUS
 10
-2.091051
 20
2.895980
  0
SEQEND
  8
0
  0
POLYLINE
  8
PLAN_1
  6
CONTINUOUS
 66
     1
 40
0.008382
 41
0.008382
  0
VERTEX
  8
PLAN_1
  6
CONTINUOUS
 10
-1.397441
 20
2.880264
  0
VERTEX
  8
PLAN_1
  6
CONTINUOUS
 10
-1.520551
 20
2.880264
  0
SEQEND
  8
0
  0
POLYLINE
  8
PLAN_1
  6
CONTINUOUS
 66
     1
 40
0.008382
 41
0.008382
  0
VERTEX
  8
PLAN_1
  6
CONTINUOUS
 10
-2.090528
 20
2.880264
  0
VERTEX
  8
PLAN_1
  6
CONTINUOUS
 10
-2.213638
 20
2.880264
  0
SEQEND
  8
0
  0
POLYLINE
  8
PLAN_1
  6
CONTINUOUS
 66
     1
 40
0.008382
 41
0.008382
  0
VERTEX
  8
PLAN_1
  6
CONTINUOUS
 10
-1.397441
 20
2.685906
  0
VERTEX
  8
PLAN_1
  6
CONTINUOUS
 10
-1.520551
 20
2.685906
  0
SEQEND
  8
0
  0
POLYLINE
  8
PLAN_1
  6
CONTINUOUS
 66
     1
 40
0.008382
 41
0.008382
  0
VERTEX
  8
PLAN_1
  6
CONTINUOUS
 10
-2.090528
 20
2.685906
  0
VERTEX
  8
PLAN_1
  6
CONTINUOUS
 10
-2.213638
 20
2.685906
  0
SEQEND
  8
0
  0
POLYLINE
  8
PLAN_1
  6
CONTINUOUS
 66
     1
 40
0.008382
 41
0.008382
  0
VERTEX
  8
PLAN_1
  6
CONTINUOUS
 10
-1.662520
 20
2.965130
  0
VERTEX
  8
PLAN_1
  6
CONTINUOUS
 10
-1.662520
 20
3.780280
  0
VERTEX
  8
PLAN_1
  6
CONTINUOUS
 10
-1.948031
 20
3.780280
  0
VERTEX
  8
PLAN_1
  6
CONTINUOUS
 10
-1.948031
 20
2.965130
  0
VERTEX
  8
PLAN_1
  6
CONTINUOUS
 10
-1.662520
 20
2.965130
  0
SEQEND
  8
0
  0
POLYLINE
  8
PLAN_1
  6
CONTINUOUS
 66
     1
 40
0.008382
 41
0.008382
  0
VERTEX
  8
PLAN_1
  6
CONTINUOUS
 10
-1.397965
 20
2.210224
  0
VERTEX
  8
PLAN_1
  6
CONTINUOUS
 10
-1.397965
 20
2.251610
  0
VERTEX
  8
PLAN_1
  6
CONTINUOUS
 10
-2.213114
 20
2.251610
  0
VERTEX
  8
PLAN_1
  6
CONTINUOUS
 10
-2.213114
 20
2.211795
  0
SEQEND
  8
0
  0
POLYLINE
  8
PLAN_1
  6
CONTINUOUS
 66
     1
 40
0.008382
 41
0.008382
  0
VERTEX
  8
PLAN_1
  6
CONTINUOUS
 10
-2.130866
 20
2.209701
  0
VERTEX
  8
PLAN_1
  6
CONTINUOUS
 10
-2.130866
 20
2.148933
  0
VERTEX
  8
PLAN_1
  6
CONTINUOUS
 10
-2.355606
 20
2.148933
  0
VERTEX
  8
PLAN_1
  6
CONTINUOUS
 10
-2.355606
 20
2.209701
  0
VERTEX
  8
PLAN_1
  6
CONTINUOUS
 10
-2.264453
 20
2.209701
  0
VERTEX
  8
PLAN_1
  6
CONTINUOUS
 10
-2.264453
 20
2.178268
  0
VERTEX
  8
PLAN_1
  6
CONTINUOUS
 10
-2.222020
 20
2.178268
  0
VERTEX
  8
PLAN_1
  6
CONTINUOUS
 10
-2.222020
 20
2.209701
  0
VERTEX
  8
PLAN_1
  6
CONTINUOUS
 10
-2.130866
 20
2.209701
  0
SEQEND
  8
0
  0
POLYLINE
  8
PLAN_1
  6
CONTINUOUS
 66
     1
 40
0.008382
 41
0.008382
  0
VERTEX
  8
PLAN_1
  6
CONTINUOUS
 10
-1.255469
 20
2.209701
  0
VERTEX
  8
PLAN_1
  6
CONTINUOUS
 10
-1.255469
 20
2.148933
  0
VERTEX
  8
PLAN_1
  6
CONTINUOUS
 10
-1.479689
 20
2.148933
  0
VERTEX
  8
PLAN_1
  6
CONTINUOUS
 10
-1.479689
 20
2.209701
  0
VERTEX
  8
PLAN_1
  6
CONTINUOUS
 10
-1.389059
 20
2.209701
  0
VERTEX
  8
PLAN_1
  6
CONTINUOUS
 10
-1.389059
 20
2.178268
  0
VERTEX
  8
PLAN_1
  6
CONTINUOUS
 10
-1.346098
 20
2.178268
  0
VERTEX
  8
PLAN_1
  6
CONTINUOUS
 10
-1.346098
 20
2.209701
  0
VERTEX
  8
PLAN_1
  6
CONTINUOUS
 10
-1.255469
 20
2.209701
  0
SEQEND
  8
0
  0
POLYLINE
  8
PLAN_1
 62
     2
  6
CONTINUOUS
 66
     1
 40
0.004189
 41
0.004189
  0
VERTEX
  8
PLAN_1
 62
     2
  6
CONTINUOUS
 10
-1.776201
 20
4.094083
  0
VERTEX
  8
PLAN_1
 62
     2
  6
CONTINUOUS
 10
-1.429921
 20
4.094083
  0
SEQEND
  8
0
  0
SOLID
  8
PLAN_1
 62
     2
 10
-1.400059
 20
4.094083
 11
-1.459256
 21
4.109799
 12
-1.400059
 22
4.094083
 13
-1.459256
 23
4.078366
  0
POLYLINE
  8
PLAN_1
 62
     2
  6
CONTINUOUS
 66
     1
 40
0.003000
 41
0.003000
  0
VERTEX
  8
PLAN_1
 62
     2
  6
CONTINUOUS
 10
-1.400059
 20
4.094083
  0
VERTEX
  8
PLAN_1
 62
     2
  6
CONTINUOUS
 10
-1.459256
 20
4.109799
  0
VERTEX
  8
PLAN_1
 62
     2
  6
CONTINUOUS
 10
-1.459256
 20
4.078366
  0
VERTEX
  8
PLAN_1
 62
     2
  6
CONTINUOUS
 10
-1.400059
 20
4.094083
  0
SEQEND
  8
0
  0
SOLID
  8
PLAN_1
 62
     2
 10
-1.805539
 20
4.094083
 11
-1.746339
 21
4.109799
 12
-1.805539
 22
4.094083
 13
-1.746339
 23
4.078366
  0
POLYLINE
  8
PLAN_1
 62
     2
  6
CONTINUOUS
 66
     1
 40
0.003000
 41
0.003000
  0
VERTEX
  8
PLAN_1
 62
     2
  6
CONTINUOUS
 10
-1.805539
 20
4.094083
  0
VERTEX
  8
PLAN_1
 62
     2
  6
CONTINUOUS
 10
-1.746339
 20
4.109799
  0
VERTEX
  8
PLAN_1
 62
     2
  6
CONTINUOUS
 10
-1.746339
 20
4.078366
  0
VERTEX
  8
PLAN_1
 62
     2
  6
CONTINUOUS
 10
-1.805539
 20
4.094083
  0
SEQEND
  8
0
  0
POLYLINE
  8
PLAN_1
 62
     2
  6
CONTINUOUS
 66
     1
 40
0.003000
 41
0.003000
  0
VERTEX
  8
PLAN_1
 62
     2
  6
CONTINUOUS
 10
-1.623752
 20
4.117657
  0
VERTEX
  8
PLAN_1
 62
     2
  6
CONTINUOUS
 10
-1.633709
 20
4.117657
  0
VERTEX
  8
PLAN_1
 62
     2
  6
CONTINUOUS
 10
-1.633709
 20
4.169520
  0
VERTEX
  8
PLAN_1
 62
     2
  6
CONTINUOUS
 10
-1.650996
 20
4.169520
  0
VERTEX
  8
PLAN_1
 62
     2
  6
CONTINUOUS
 10
-1.650996
 20
4.176854
  0
VERTEX
  8
PLAN_1
 62
     2
  6
CONTINUOUS
 10
-1.646803
 20
4.177378
  0
VERTEX
  8
PLAN_1
 62
     2
  6
CONTINUOUS
 10
-1.643138
 20
4.177902
  0
VERTEX
  8
PLAN_1
 62
     2
  6
CONTINUOUS
 10
-1.639992
 20
4.178425
  0
VERTEX
  8
PLAN_1
 62
     2
  6
CONTINUOUS
 10
-1.637898
 20
4.180000
  0
VERTEX
  8
PLAN_1
 62
     2
  6
CONTINUOUS
 10
-1.635803
 20
4.181571
  0
VERTEX
  8
PLAN_1
 62
     2
  6
CONTINUOUS
 10
-1.633709
 20
4.183665
  0
VERTEX
  8
PLAN_1
 62
     2
  6
CONTINUOUS
 10
-1.632134
 20
4.186807
  0
VERTEX
  8
PLAN_1
 62
     2
  6
CONTINUOUS
 10
-1.631087
 20
4.191000
  0
VERTEX
  8
PLAN_1
 62
     2
  6
CONTINUOUS
 10
-1.623752
 20
4.191000
  0
VERTEX
  8
PLAN_1
 62
     2
  6
CONTINUOUS
 10
-1.623752
 20
4.117657
  0
SEQEND
  8
0
  0
POLYLINE
  8
PLAN_1
 62
     2
  6
CONTINUOUS
 66
     1
 40
0.003000
 41
0.003000
  0
VERTEX
  8
PLAN_1
 62
     2
  6
CONTINUOUS
 10
-1.559843
 20
4.135469
  0
VERTEX
  8
PLAN_1
 62
     2
  6
CONTINUOUS
 10
-1.559843
 20
4.117657
  0
VERTEX
  8
PLAN_1
 62
     2
  6
CONTINUOUS
 10
-1.568748
 20
4.117657
  0
VERTEX
  8
PLAN_1
 62
     2
  6
CONTINUOUS
 10
-1.568748
 20
4.135469
  0
VERTEX
  8
PLAN_1
 62
     2
  6
CONTINUOUS
 10
-1.600705
 20
4.135469
  0
VERTEX
  8
PLAN_1
 62
     2
  6
CONTINUOUS
 10
-1.600705
 20
4.144374
  0
VERTEX
  8
PLAN_1
 62
     2
  6
CONTINUOUS
 10
-1.567173
 20
4.191000
  0
VERTEX
  8
PLAN_1
 62
     2
  6
CONTINUOUS
 10
-1.559843
 20
4.191000
  0
VERTEX
  8
PLAN_1
 62
     2
  6
CONTINUOUS
 10
-1.559843
 20
4.143327
  0
VERTEX
  8
PLAN_1
 62
     2
  6
CONTINUOUS
 10
-1.548839
 20
4.143327
  0
VERTEX
  8
PLAN_1
 62
     2
  6
CONTINUOUS
 10
-1.548839
 20
4.135469
  0
VERTEX
  8
PLAN_1
 62
     2
  6
CONTINUOUS
 10
-1.559843
 20
4.135469
  0
SEQEND
  8
0
  0
SOLID
  8
PLAN_1
 62
     2
 10
-1.592323
 20
4.143327
 11
-1.568748
 21
4.143327
 12
-1.569272
 22
4.176854
 13
-1.568748
 23
4.176854
  0
POLYLINE
  8
PLAN_1
 62
     2
  6
CONTINUOUS
 66
     1
 40
0.003000
 41
0.003000
  0
VERTEX
  8
PLAN_1
 62
     2
  6
CONTINUOUS
 10
-1.592323
 20
4.143327
  0
VERTEX
  8
PLAN_1
 62
     2
  6
CONTINUOUS
 10
-1.568748
 20
4.143327
  0
VERTEX
  8
PLAN_1
 62
     2
  6
CONTINUOUS
 10
-1.568748
 20
4.176854
  0
VERTEX
  8
PLAN_1
 62
     2
  6
CONTINUOUS
 10
-1.569272
 20
4.176854
  0
VERTEX
  8
PLAN_1
 62
     2
  6
CONTINUOUS
 10
-1.592323
 20
4.143327
  0
SEQEND
  8
0
  0
POLYLINE
  8
PLAN_1
 62
     2
  6
CONTINUOUS
 66
     1
 40
0.004189
 41
0.004189
  0
VERTEX
  8
PLAN_1
 62
     2
  6
CONTINUOUS
 10
-2.403803
 20
-1.116386
  0
VERTEX
  8
PLAN_1
 62
     2
  6
CONTINUOUS
 10
-1.284807
 20
-1.116386
  0
SEQEND
  8
0
  0
SOLID
  8
PLAN_1
 62
     2
 10
-1.254945
 20
-1.116386
 11
-1.314142
 21
-1.100669
 12
-1.254945
 22
-1.116386
 13
-1.314142
 23
-1.132102
  0
POLYLINE
  8
PLAN_1
 62
     2
  6
CONTINUOUS
 66
     1
 40
0.003000
 41
0.003000
  0
VERTEX
  8
PLAN_1
 62
     2
  6
CONTINUOUS
 10
-1.254945
 20
-1.116386
  0
VERTEX
  8
PLAN_1
 62
     2
  6
CONTINUOUS
 10
-1.314142
 20
-1.100669
  0
VERTEX
  8
PLAN_1
 62
     2
  6
CONTINUOUS
 10
-1.314142
 20
-1.132102
  0
VERTEX
  8
PLAN_1
 62
     2
  6
CONTINUOUS
 10
-1.254945
 20
-1.116386
  0
SEQEND
  8
0
  0
SOLID
  8
PLAN_1
 62
     2
 10
-2.433142
 20
-1.116386
 11
-2.374469
 21
-1.100669
 12
-2.433142
 22
-1.116386
 13
-2.374469
 23
-1.132102
  0
POLYLINE
  8
PLAN_1
 62
     2
  6
CONTINUOUS
 66
     1
 40
0.003000
 41
0.003000
  0
VERTEX
  8
PLAN_1
 62
     2
  6
CONTINUOUS
 10
-2.433142
 20
-1.116386
  0
VERTEX
  8
PLAN_1
 62
     2
  6
CONTINUOUS
 10
-2.374469
 20
-1.100669
  0
VERTEX
  8
PLAN_1
 62
     2
  6
CONTINUOUS
 10
-2.374469
 20
-1.132102
  0
VERTEX
  8
PLAN_1
 62
     2
  6
CONTINUOUS
 10
-2.433142
 20
-1.116386
  0
SEQEND
  8
0
  0
POLYLINE
  8
PLAN_1
 62
     2
  6
CONTINUOUS
 66
     1
 40
0.003000
 41
0.003000
  0
VERTEX
  8
PLAN_1
 62
     2
  6
CONTINUOUS
 10
-1.878882
 20
-1.050902
  0
VERTEX
  8
PLAN_1
 62
     2
  6
CONTINUOUS
 10
-1.878358
 20
-1.050902
  0
VERTEX
  8
PLAN_1
 62
     2
  6
CONTINUOUS
 10
-1.877835
 20
-1.050902
  0
VERTEX
  8
PLAN_1
 62
     2
  6
CONTINUOUS
 10
-1.876787
 20
-1.051425
  0
VERTEX
  8
PLAN_1
 62
     2
  6
CONTINUOUS
 10
-1.876260
 20
-1.051425
  0
VERTEX
  8
PLAN_1
 62
     2
  6
CONTINUOUS
 10
-1.875736
 20
-1.051425
  0
VERTEX
  8
PLAN_1
 62
     2
  6
CONTINUOUS
 10
-1.875213
 20
-1.051425
  0
VERTEX
  8
PLAN_1
 62
     2
  6
CONTINUOUS
 10
-1.874689
 20
-1.051425
  0
VERTEX
  8
PLAN_1
 62
     2
  6
CONTINUOUS
 10
-1.874165
 20
-1.051425
  0
VERTEX
  8
PLAN_1
 62
     2
  6
CONTINUOUS
 10
-1.871547
 20
-1.050902
  0
VERTEX
  8
PLAN_1
 62
     2
  6
CONTINUOUS
 10
-1.868929
 20
-1.050902
  0
VERTEX
  8
PLAN_1
 62
     2
  6
CONTINUOUS
 10
-1.866307
 20
-1.049854
  0
VERTEX
  8
PLAN_1
 62
     2
  6
CONTINUOUS
 10
-1.864213
 20
-1.048807
  0
VERTEX
  8
PLAN_1
 62
     2
  6
CONTINUOUS
 10
-1.862642
 20
-1.047236
  0
VERTEX
  8
PLAN_1
 62
     2
  6
CONTINUOUS
 10
-1.861071
 20
-1.045142
  0
VERTEX
  8
PLAN_1
 62
     2
  6
CONTINUOUS
 10
-1.860547
 20
-1.042520
  0
VERTEX
  8
PLAN_1
 62
     2
  6
CONTINUOUS
 10
-1.860020
 20
-1.039378
  0
VERTEX
  8
PLAN_1
 62
     2
  6
CONTINUOUS
 10
-1.860020
 20
-1.037807
  0
VERTEX
  8
PLAN_1
 62
     2
  6
CONTINUOUS
 10
-1.860547
 20
-1.035709
  0
VERTEX
  8
PLAN_1
 62
     2
  6
CONTINUOUS
 10
-1.861594
 20
-1.033614
  0
VERTEX
  8
PLAN_1
 62
     2
  6
CONTINUOUS
 10
-1.862642
 20
-1.032043
  0
VERTEX
  8
PLAN_1
 62
     2
  6
CONTINUOUS
 10
-1.864736
 20
-1.030472
  0
VERTEX
  8
PLAN_1
 62
     2
  6
CONTINUOUS
 10
-1.866831
 20
-1.028902
  0
VERTEX
  8
PLAN_1
 62
     2
  6
CONTINUOUS
 10
-1.869976
 20
-1.027850
  0
VERTEX
  8
PLAN_1
 62
     2
  6
CONTINUOUS
 10
-1.873642
 20
-1.027850
  0
VERTEX
  8
PLAN_1
 62
     2
  6
CONTINUOUS
 10
-1.877835
 20
-1.028378
  0
VERTEX
  8
PLAN_1
 62
     2
  6
CONTINUOUS
 10
-1.880976
 20
-1.029425
  0
VERTEX
  8
PLAN_1
 62
     2
  6
CONTINUOUS
 10
-1.883594
 20
-1.031520
  0
VERTEX
  8
PLAN_1
 62
     2
  6
CONTINUOUS
 10
-1.885169
 20
-1.033614
  0
VERTEX
  8
PLAN_1
 62
     2
  6
CONTINUOUS
 10
-1.886740
 20
-1.036236
  0
VERTEX
  8
PLAN_1
 62
     2
  6
CONTINUOUS
 10
-1.887264
 20
-1.038854
  0
VERTEX
  8
PLAN_1
 62
     2
  6
CONTINUOUS
 10
-1.887787
 20
-1.041472
  0
VERTEX
  8
PLAN_1
 62
     2
  6
CONTINUOUS
 10
-1.887787
 20
-1.043567
  0
VERTEX
  8
PLAN_1
 62
     2
  6
CONTINUOUS
 10
-1.896693
 20
-1.043567
  0
VERTEX
  8
PLAN_1
 62
     2
  6
CONTINUOUS
 10
-1.896693
 20
-1.039378
  0
VERTEX
  8
PLAN_1
 62
     2
  6
CONTINUOUS
 10
-1.895646
 20
-1.035185
  0
VERTEX
  8
PLAN_1
 62
     2
  6
CONTINUOUS
 10
-1.894598
 20
-1.030996
  0
VERTEX
  8
PLAN_1
 62
     2
  6
CONTINUOUS
 10
-1.891976
 20
-1.027327
  0
VERTEX
  8
PLAN_1
 62
     2
  6
CONTINUOUS
 10
-1.890929
 20
-1.025756
  0
VERTEX
  8
PLAN_1
 62
     2
  6
CONTINUOUS
 10
-1.888835
 20
-1.024185
  0
VERTEX
  8
PLAN_1
 62
     2
  6
CONTINUOUS
 10
-1.887264
 20
-1.023138
  0
VERTEX
  8
PLAN_1
 62
     2
  6
CONTINUOUS
 10
-1.885169
 20
-1.021567
  0
VERTEX
  8
PLAN_1
 62
     2
  6
CONTINUOUS
 10
-1.882547
 20
-1.021043
  0
VERTEX
  8
PLAN_1
 62
     2
  6
CONTINUOUS
 10
-1.879929
 20
-1.019996
  0
VERTEX
  8
PLAN_1
 62
     2
  6
CONTINUOUS
 10
-1.876787
 20
-1.019469
  0
VERTEX
  8
PLAN_1
 62
     2
  6
CONTINUOUS
 10
-1.873118
 20
-1.019469
  0
VERTEX
  8
PLAN_1
 62
     2
  6
CONTINUOUS
 10
-1.867878
 20
-1.019996
  0
VERTEX
  8
PLAN_1
 62
     2
  6
CONTINUOUS
 10
-1.863689
 20
-1.021043
  0
VERTEX
  8
PLAN_1
 62
     2
  6
CONTINUOUS
 10
-1.860020
 20
-1.022614
  0
VERTEX
  8
PLAN_1
 62
     2
  6
CONTINUOUS
 10
-1.856354
 20
-1.025232
  0
VERTEX
  8
PLAN_1
 62
     2
  6
CONTINUOUS
 10
-1.853736
 20
-1.027850
  0
VERTEX
  8
PLAN_1
 62
     2
  6
CONTINUOUS
 10
-1.852165
 20
-1.030996
  0
VERTEX
  8
PLAN_1
 62
     2
  6
CONTINUOUS
 10
-1.851114
 20
-1.034661
  0
VERTEX
  8
PLAN_1
 62
     2
  6
CONTINUOUS
 10
-1.850591
 20
-1.038854
  0
VERTEX
  8
PLAN_1
 62
     2
  6
CONTINUOUS
 10
-1.850591
 20
-1.041996
  0
VERTEX
  8
PLAN_1
 62
     2
  6
CONTINUOUS
 10
-1.851638
 20
-1.045142
  0
VERTEX
  8
PLAN_1
 62
     2
  6
CONTINUOUS
 10
-1.852689
 20
-1.047236
  0
VERTEX
  8
PLAN_1
 62
     2
  6
CONTINUOUS
 10
-1.853736
 20
-1.049331
  0
VERTEX
  8
PLAN_1
 62
     2
  6
CONTINUOUS
 10
-1.855307
 20
-1.050902
  0
VERTEX
  8
PLAN_1
 62
     2
  6
CONTINUOUS
 10
-1.856878
 20
-1.052472
  0
VERTEX
  8
PLAN_1
 62
     2
  6
CONTINUOUS
 10
-1.858449
 20
-1.053000
  0
VERTEX
  8
PLAN_1
 62
     2
  6
CONTINUOUS
 10
-1.860020
 20
-1.054047
  0
VERTEX
  8
PLAN_1
 62
     2
  6
CONTINUOUS
 10
-1.857402
 20
-1.055094
  0
VERTEX
  8
PLAN_1
 62
     2
  6
CONTINUOUS
 10
-1.854783
 20
-1.056142
  0
VERTEX
  8
PLAN_1
 62
     2
  6
CONTINUOUS
 10
-1.853213
 20
-1.057713
  0
VERTEX
  8
PLAN_1
 62
     2
  6
CONTINUOUS
 10
-1.851114
 20
-1.059807
  0
VERTEX
  8
PLAN_1
 62
     2
  6
CONTINUOUS
 10
-1.849543
 20
-1.061906
  0
VERTEX
  8
PLAN_1
 62
     2
  6
CONTINUOUS
 10
-1.848496
 20
-1.064524
  0
VERTEX
  8
PLAN_1
 62
     2
  6
CONTINUOUS
 10
-1.847972
 20
-1.067665
  0
VERTEX
  8
PLAN_1
 62
     2
  6
CONTINUOUS
 10
-1.847972
 20
-1.071335
  0
VERTEX
  8
PLAN_1
 62
     2
  6
CONTINUOUS
 10
-1.847972
 20
-1.075524
  0
VERTEX
  8
PLAN_1
 62
     2
  6
CONTINUOUS
 10
-1.849020
 20
-1.079717
  0
VERTEX
  8
PLAN_1
 62
     2
  6
CONTINUOUS
 10
-1.851114
 20
-1.083906
  0
VERTEX
  8
PLAN_1
 62
     2
  6
CONTINUOUS
 10
-1.853736
 20
-1.087575
  0
VERTEX
  8
PLAN_1
 62
     2
  6
CONTINUOUS
 10
-1.855831
 20
-1.089146
  0
VERTEX
  8
PLAN_1
 62
     2
  6
CONTINUOUS
 10
-1.857402
 20
-1.090193
  0
VERTEX
  8
PLAN_1
 62
     2
  6
CONTINUOUS
 10
-1.859496
 20
-1.091764
  0
VERTEX
  8
PLAN_1
 62
     2
  6
CONTINUOUS
 10
-1.862118
 20
-1.092811
  0
VERTEX
  8
PLAN_1
 62
     2
  6
CONTINUOUS
 10
-1.864736
 20
-1.093339
  0
VERTEX
  8
PLAN_1
 62
     2
  6
CONTINUOUS
 10
-1.867354
 20
-1.094386
  0
VERTEX
  8
PLAN_1
 62
     2
  6
CONTINUOUS
 10
-1.870500
 20
-1.094386
  0
VERTEX
  8
PLAN_1
 62
     2
  6
CONTINUOUS
 10
-1.874165
 20
-1.094909
  0
VERTEX
  8
PLAN_1
 62
     2
  6
CONTINUOUS
 10
-1.876260
 20
-1.094386
  0
VERTEX
  8
PLAN_1
 62
     2
  6
CONTINUOUS
 10
-1.877835
 20
-1.094386
  0
VERTEX
  8
PLAN_1
 62
     2
  6
CONTINUOUS
 10
-1.879929
 20
-1.094386
  0
VERTEX
  8
PLAN_1
 62
     2
  6
CONTINUOUS
 10
-1.881500
 20
-1.093862
  0
VERTEX
  8
PLAN_1
 62
     2
  6
CONTINUOUS
 10
-1.883071
 20
-1.093339
  0
VERTEX
  8
PLAN_1
 62
     2
  6
CONTINUOUS
 10
-1.884646
 20
-1.092811
  0
VERTEX
  8
PLAN_1
 62
     2
  6
CONTINUOUS
 10
-1.886217
 20
-1.092287
  0
VERTEX
  8
PLAN_1
 62
     2
  6
CONTINUOUS
 10
-1.887787
 20
-1.091240
  0
VERTEX
  8
PLAN_1
 62
     2
  6
CONTINUOUS
 10
-1.890406
 20
-1.089669
  0
VERTEX
  8
PLAN_1
 62
     2
  6
CONTINUOUS
 10
-1.892500
 20
-1.087575
  0
VERTEX
  8
PLAN_1
 62
     2
  6
CONTINUOUS
 10
-1.894598
 20
-1.084953
  0
VERTEX
  8
PLAN_1
 62
     2
  6
CONTINUOUS
 10
-1.895646
 20
-1.082335
  0
VERTEX
  8
PLAN_1
 62
     2
  6
CONTINUOUS
 10
-1.896693
 20
-1.079717
  0
VERTEX
  8
PLAN_1
 62
     2
  6
CONTINUOUS
 10
-1.897740
 20
-1.076571
  0
VERTEX
  8
PLAN_1
 62
     2
  6
CONTINUOUS
 10
-1.898264
 20
-1.073429
  0
VERTEX
  8
PLAN_1
 62
     2
  6
CONTINUOUS
 10
-1.898787
 20
-1.070287
  0
VERTEX
  8
PLAN_1
 62
     2
  6
CONTINUOUS
 10
-1.888835
 20
-1.070287
  0
VERTEX
  8
PLAN_1
 62
     2
  6
CONTINUOUS
 10
-1.888835
 20
-1.072906
  0
VERTEX
  8
PLAN_1
 62
     2
  6
CONTINUOUS
 10
-1.888311
 20
-1.075524
  0
VERTEX
  8
PLAN_1
 62
     2
  6
CONTINUOUS
 10
-1.887787
 20
-1.078669
  0
VERTEX
  8
PLAN_1
 62
     2
  6
CONTINUOUS
 10
-1.886217
 20
-1.080764
  0
VERTEX
  8
PLAN_1
 62
     2
  6
CONTINUOUS
 10
-1.884118
 20
-1.083382
  0
VERTEX
  8
PLAN_1
 62
     2
  6
CONTINUOUS
 10
-1.881500
 20
-1.084953
  0
VERTEX
  8
PLAN_1
 62
     2
  6
CONTINUOUS
 10
-1.877835
 20
-1.086004
  0
VERTEX
  8
PLAN_1
 62
     2
  6
CONTINUOUS
 10
-1.873642
 20
-1.086528
  0
VERTEX
  8
PLAN_1
 62
     2
  6
CONTINUOUS
 10
-1.869976
 20
-1.086004
  0
VERTEX
  8
PLAN_1
 62
     2
  6
CONTINUOUS
 10
-1.866831
 20
-1.085480
  0
VERTEX
  8
PLAN_1
 62
     2
  6
CONTINUOUS
 10
-1.864213
 20
-1.084429
  0
VERTEX
  8
PLAN_1
 62
     2
  6
CONTINUOUS
 10
-1.862118
 20
-1.082335
  0
VERTEX
  8
PLAN_1
 62
     2
  6
CONTINUOUS
 10
-1.860020
 20
-1.080240
  0
VERTEX
  8
PLAN_1
 62
     2
  6
CONTINUOUS
 10
-1.858449
 20
-1.078146
  0
VERTEX
  8
PLAN_1
 62
     2
  6
CONTINUOUS
 10
-1.857925
 20
-1.075524
  0
VERTEX
  8
PLAN_1
 62
     2
  6
CONTINUOUS
 10
-1.857402
 20
-1.072382
  0
VERTEX
  8
PLAN_1
 62
     2
  6
CONTINUOUS
 10
-1.857925
 20
-1.068189
  0
VERTEX
  8
PLAN_1
 62
     2
  6
CONTINUOUS
 10
-1.859496
 20
-1.065047
  0
VERTEX
  8
PLAN_1
 62
     2
  6
CONTINUOUS
 10
-1.861071
 20
-1.062429
  0
VERTEX
  8
PLAN_1
 62
     2
  6
CONTINUOUS
 10
-1.863689
 20
-1.060858
  0
VERTEX
  8
PLAN_1
 62
     2
  6
CONTINUOUS
 10
-1.866307
 20
-1.059807
  0
VERTEX
  8
PLAN_1
 62
     2
  6
CONTINUOUS
 10
-1.869453
 20
-1.059283
  0
VERTEX
  8
PLAN_1
 62
     2
  6
CONTINUOUS
 10
-1.872071
 20
-1.058760
  0
VERTEX
  8
PLAN_1
 62
     2
  6
CONTINUOUS
 10
-1.874689
 20
-1.058760
  0
VERTEX
  8
PLAN_1
 62
     2
  6
CONTINUOUS
 10
-1.875213
 20
-1.058760
  0
VERTEX
  8
PLAN_1
 62
     2
  6
CONTINUOUS
 10
-1.875736
 20
-1.058760
  0
VERTEX
  8
PLAN_1
 62
     2
  6
CONTINUOUS
 10
-1.876260
 20
-1.058760
  0
VERTEX
  8
PLAN_1
 62
     2
  6
CONTINUOUS
 10
-1.876787
 20
-1.058760
  0
VERTEX
  8
PLAN_1
 62
     2
  6
CONTINUOUS
 10
-1.877311
 20
-1.058760
  0
VERTEX
  8
PLAN_1
 62
     2
  6
CONTINUOUS
 10
-1.877835
 20
-1.058760
  0
VERTEX
  8
PLAN_1
 62
     2
  6
CONTINUOUS
 10
-1.878358
 20
-1.058760
  0
VERTEX
  8
PLAN_1
 62
     2
  6
CONTINUOUS
 10
-1.878882
 20
-1.058760
  0
VERTEX
  8
PLAN_1
 62
     2
  6
CONTINUOUS
 10
-1.878882
 20
-1.050902
  0
SEQEND
  8
0
  0
POLYLINE
  8
PLAN_1
 62
     2
  6
CONTINUOUS
 66
     1
 40
0.003000
 41
0.003000
  0
VERTEX
  8
PLAN_1
 62
     2
  6
CONTINUOUS
 10
-1.815492
 20
-1.094909
  0
VERTEX
  8
PLAN_1
 62
     2
  6
CONTINUOUS
 10
-1.819157
 20
-1.094386
  0
VERTEX
  8
PLAN_1
 62
     2
  6
CONTINUOUS
 10
-1.822303
 20
-1.093862
  0
VERTEX
  8
PLAN_1
 62
     2
  6
CONTINUOUS
 10
-1.825445
 20
-1.092287
  0
VERTEX
  8
PLAN_1
 62
     2
  6
CONTINUOUS
 10
-1.828067
 20
-1.090717
  0
VERTEX
  8
PLAN_1
 62
     2
  6
CONTINUOUS
 10
-1.830161
 20
-1.089146
  0
VERTEX
  8
PLAN_1
 62
     2
  6
CONTINUOUS
 10
-1.832256
 20
-1.087051
  0
VERTEX
  8
PLAN_1
 62
     2
  6
CONTINUOUS
 10
-1.834350
 20
-1.084429
  0
VERTEX
  8
PLAN_1
 62
     2
  6
CONTINUOUS
 10
-1.835925
 20
-1.081811
  0
VERTEX
  8
PLAN_1
 62
     2
  6
CONTINUOUS
 10
-1.838020
 20
-1.075524
  0
VERTEX
  8
PLAN_1
 62
     2
  6
CONTINUOUS
 10
-1.839591
 20
-1.069240
  0
VERTEX
  8
PLAN_1
 62
     2
  6
CONTINUOUS
 10
-1.840114
 20
-1.062953
  0
VERTEX
  8
PLAN_1
 62
     2
  6
CONTINUOUS
 10
-1.840114
 20
-1.057189
  0
VERTEX
  8
PLAN_1
 62
     2
  6
CONTINUOUS
 10
-1.840114
 20
-1.050902
  0
VERTEX
  8
PLAN_1
 62
     2
  6
CONTINUOUS
 10
-1.839591
 20
-1.044618
  0
VERTEX
  8
PLAN_1
 62
     2
  6
CONTINUOUS
 10
-1.838020
 20
-1.038331
  0
VERTEX
  8
PLAN_1
 62
     2
  6
CONTINUOUS
 10
-1.835925
 20
-1.032567
  0
VERTEX
  8
PLAN_1
 62
     2
  6
CONTINUOUS
 10
-1.834350
 20
-1.029949
  0
VERTEX
  8
PLAN_1
 62
     2
  6
CONTINUOUS
 10
-1.832256
 20
-1.027327
  0
VERTEX
  8
PLAN_1
 62
     2
  6
CONTINUOUS
 10
-1.830161
 20
-1.025232
  0
VERTEX
  8
PLAN_1
 62
     2
  6
CONTINUOUS
 10
-1.828067
 20
-1.023138
  0
VERTEX
  8
PLAN_1
 62
     2
  6
CONTINUOUS
 10
-1.825445
 20
-1.021567
  0
VERTEX
  8
PLAN_1
 62
     2
  6
CONTINUOUS
 10
-1.822303
 20
-1.020520
  0
VERTEX
  8
PLAN_1
 62
     2
  6
CONTINUOUS
 10
-1.819157
 20
-1.019996
  0
VERTEX
  8
PLAN_1
 62
     2
  6
CONTINUOUS
 10
-1.815492
 20
-1.019469
  0
VERTEX
  8
PLAN_1
 62
     2
  6
CONTINUOUS
 10
-1.811299
 20
-1.019996
  0
VERTEX
  8
PLAN_1
 62
     2
  6
CONTINUOUS
 10
-1.808157
 20
-1.020520
  0
VERTEX
  8
PLAN_1
 62
     2
  6
CONTINUOUS
 10
-1.805016
 20
-1.021567
  0
VERTEX
  8
PLAN_1
 62
     2
  6
CONTINUOUS
 10
-1.802394
 20
-1.023138
  0
VERTEX
  8
PLAN_1
 62
     2
  6
CONTINUOUS
 10
-1.800299
 20
-1.025232
  0
VERTEX
  8
PLAN_1
 62
     2
  6
CONTINUOUS
 10
-1.798205
 20
-1.027327
  0
VERTEX
  8
PLAN_1
 62
     2
  6
CONTINUOUS
 10
-1.796110
 20
-1.029949
  0
VERTEX
  8
PLAN_1
 62
     2
  6
CONTINUOUS
 10
-1.795059
 20
-1.032567
  0
VERTEX
  8
PLAN_1
 62
     2
  6
CONTINUOUS
 10
-1.792441
 20
-1.038331
  0
VERTEX
  8
PLAN_1
 62
     2
  6
CONTINUOUS
 10
-1.791394
 20
-1.044618
  0
VERTEX
  8
PLAN_1
 62
     2
  6
CONTINUOUS
 10
-1.790346
 20
-1.050902
  0
VERTEX
  8
PLAN_1
 62
     2
  6
CONTINUOUS
 10
-1.790346
 20
-1.057189
  0
VERTEX
  8
PLAN_1
 62
     2
  6
CONTINUOUS
 10
-1.790346
 20
-1.062953
  0
VERTEX
  8
PLAN_1
 62
     2
  6
CONTINUOUS
 10
-1.791394
 20
-1.069240
  0
VERTEX
  8
PLAN_1
 62
     2
  6
CONTINUOUS
 10
-1.792441
 20
-1.075524
  0
VERTEX
  8
PLAN_1
 62
     2
  6
CONTINUOUS
 10
-1.795059
 20
-1.081811
  0
VERTEX
  8
PLAN_1
 62
     2
  6
CONTINUOUS
 10
-1.796110
 20
-1.084429
  0
VERTEX
  8
PLAN_1
 62
     2
  6
CONTINUOUS
 10
-1.798205
 20
-1.087051
  0
VERTEX
  8
PLAN_1
 62
     2
  6
CONTINUOUS
 10
-1.800299
 20
-1.089146
  0
VERTEX
  8
PLAN_1
 62
     2
  6
CONTINUOUS
 10
-1.802394
 20
-1.090717
  0
VERTEX
  8
PLAN_1
 62
     2
  6
CONTINUOUS
 10
-1.805016
 20
-1.092287
  0
VERTEX
  8
PLAN_1
 62
     2
  6
CONTINUOUS
 10
-1.808157
 20
-1.093862
  0
VERTEX
  8
PLAN_1
 62
     2
  6
CONTINUOUS
 10
-1.811299
 20
-1.094386
  0
VERTEX
  8
PLAN_1
 62
     2
  6
CONTINUOUS
 10
-1.815492
 20
-1.094909
  0
SEQEND
  8
0
  0
POLYLINE
  8
PLAN_1
 62
     2
  6
CONTINUOUS
 66
     1
 40
0.003000
 41
0.003000
  0
VERTEX
  8
PLAN_1
 62
     2
  6
CONTINUOUS
 10
-1.815492
 20
-1.027850
  0
VERTEX
  8
PLAN_1
 62
     2
  6
CONTINUOUS
 10
-1.817063
 20
-1.027850
  0
VERTEX
  8
PLAN_1
 62
     2
  6
CONTINUOUS
 10
-1.819157
 20
-1.028378
  0
VERTEX
  8
PLAN_1
 62
     2
  6
CONTINUOUS
 10
-1.820732
 20
-1.028902
  0
VERTEX
  8
PLAN_1
 62
     2
  6
CONTINUOUS
 10
-1.822303
 20
-1.029949
  0
VERTEX
  8
PLAN_1
 62
     2
  6
CONTINUOUS
 10
-1.824921
 20
-1.032043
  0
VERTEX
  8
PLAN_1
 62
     2
  6
CONTINUOUS
 10
-1.827016
 20
-1.035709
  0
VERTEX
  8
PLAN_1
 62
     2
  6
CONTINUOUS
 10
-1.828591
 20
-1.039902
  0
VERTEX
  8
PLAN_1
 62
     2
  6
CONTINUOUS
 10
-1.829638
 20
-1.044618
  0
VERTEX
  8
PLAN_1
 62
     2
  6
CONTINUOUS
 10
-1.830161
 20
-1.050378
  0
VERTEX
  8
PLAN_1
 62
     2
  6
CONTINUOUS
 10
-1.830685
 20
-1.057189
  0
VERTEX
  8
PLAN_1
 62
     2
  6
CONTINUOUS
 10
-1.830161
 20
-1.063476
  0
VERTEX
  8
PLAN_1
 62
     2
  6
CONTINUOUS
 10
-1.829638
 20
-1.069240
  0
VERTEX
  8
PLAN_1
 62
     2
  6
CONTINUOUS
 10
-1.828591
 20
-1.074476
  0
VERTEX
  8
PLAN_1
 62
     2
  6
CONTINUOUS
 10
-1.827016
 20
-1.078669
  0
VERTEX
  8
PLAN_1
 62
     2
  6
CONTINUOUS
 10
-1.824921
 20
-1.081811
  0
VERTEX
  8
PLAN_1
 62
     2
  6
CONTINUOUS
 10
-1.822303
 20
-1.084429
  0
VERTEX
  8
PLAN_1
 62
     2
  6
CONTINUOUS
 10
-1.820732
 20
-1.085480
  0
VERTEX
  8
PLAN_1
 62
     2
  6
CONTINUOUS
 10
-1.819157
 20
-1.086004
  0
VERTEX
  8
PLAN_1
 62
     2
  6
CONTINUOUS
 10
-1.817063
 20
-1.086528
  0
VERTEX
  8
PLAN_1
 62
     2
  6
CONTINUOUS
 10
-1.815492
 20
-1.086528
  0
VERTEX
  8
PLAN_1
 62
     2
  6
CONTINUOUS
 10
-1.813398
 20
-1.086528
  0
VERTEX
  8
PLAN_1
 62
     2
  6
CONTINUOUS
 10
-1.811827
 20
-1.086004
  0
VERTEX
  8
PLAN_1
 62
     2
  6
CONTINUOUS
 10
-1.809728
 20
-1.085480
  0
VERTEX
  8
PLAN_1
 62
     2
  6
CONTINUOUS
 10
-1.808681
 20
-1.084429
  0
VERTEX
  8
PLAN_1
 62
     2
  6
CONTINUOUS
 10
-1.805539
 20
-1.081811
  0
VERTEX
  8
PLAN_1
 62
     2
  6
CONTINUOUS
 10
-1.803445
 20
-1.078669
  0
VERTEX
  8
PLAN_1
 62
     2
  6
CONTINUOUS
 10
-1.801870
 20
-1.074476
  0
VERTEX
  8
PLAN_1
 62
     2
  6
CONTINUOUS
 10
-1.800823
 20
-1.069240
  0
VERTEX
  8
PLAN_1
 62
     2
  6
CONTINUOUS
 10
-1.800299
 20
-1.063476
  0
VERTEX
  8
PLAN_1
 62
     2
  6
CONTINUOUS
 10
-1.799776
 20
-1.057189
  0
VERTEX
  8
PLAN_1
 62
     2
  6
CONTINUOUS
 10
-1.800299
 20
-1.050378
  0
VERTEX
  8
PLAN_1
 62
     2
  6
CONTINUOUS
 10
-1.800823
 20
-1.044618
  0
VERTEX
  8
PLAN_1
 62
     2
  6
CONTINUOUS
 10
-1.801870
 20
-1.039902
  0
VERTEX
  8
PLAN_1
 62
     2
  6
CONTINUOUS
 10
-1.803445
 20
-1.035709
  0
VERTEX
  8
PLAN_1
 62
     2
  6
CONTINUOUS
 10
-1.805539
 20
-1.032043
  0
VERTEX
  8
PLAN_1
 62
     2
  6
CONTINUOUS
 10
-1.808681
 20
-1.029949
  0
VERTEX
  8
PLAN_1
 62
     2
  6
CONTINUOUS
 10
-1.809728
 20
-1.028902
  0
VERTEX
  8
PLAN_1
 62
     2
  6
CONTINUOUS
 10
-1.811827
 20
-1.028378
  0
VERTEX
  8
PLAN_1
 62
     2
  6
CONTINUOUS
 10
-1.813398
 20
-1.027850
  0
VERTEX
  8
PLAN_1
 62
     2
  6
CONTINUOUS
 10
-1.815492
 20
-1.027850
  0
SEQEND
  8
0
  0
POLYLINE
  8
PLAN_1
 62
     2
  6
CONTINUOUS
 66
     1
 40
0.003000
 41
0.003000
  0
VERTEX
  8
PLAN_1
 62
     2
  6
CONTINUOUS
 10
-1.006626
 20
-0.937220
  0
VERTEX
  8
PLAN_1
 62
     2
  6
CONTINUOUS
 10
-1.006102
 20
-0.937220
  0
VERTEX
  8
PLAN_1
 62
     2
  6
CONTINUOUS
 10
-1.005579
 20
-0.937220
  0
VERTEX
  8
PLAN_1
 62
     2
  6
CONTINUOUS
 10
-1.005055
 20
-0.937220
  0
VERTEX
  8
PLAN_1
 62
     2
  6
CONTINUOUS
 10
-1.004008
 20
-0.937220
  0
VERTEX
  8
PLAN_1
 62
     2
  6
CONTINUOUS
 10
-1.003484
 20
-0.937220
  0
VERTEX
  8
PLAN_1
 62
     2
  6
CONTINUOUS
 10
-1.002961
 20
-0.937220
  0
VERTEX
  8
PLAN_1
 62
     2
  6
CONTINUOUS
 10
-1.002437
 20
-0.937220
  0
VERTEX
  8
PLAN_1
 62
     2
  6
CONTINUOUS
 10
-1.001913
 20
-0.937220
  0
VERTEX
  8
PLAN_1
 62
     2
  6
CONTINUOUS
 10
-0.999295
 20
-0.937220
  0
VERTEX
  8
PLAN_1
 62
     2
  6
CONTINUOUS
 10
-0.996673
 20
-0.936697
  0
VERTEX
  8
PLAN_1
 62
     2
  6
CONTINUOUS
 10
-0.994579
 20
-0.936173
  0
VERTEX
  8
PLAN_1
 62
     2
  6
CONTINUOUS
 10
-0.991961
 20
-0.934602
  0
VERTEX
  8
PLAN_1
 62
     2
  6
CONTINUOUS
 10
-0.990386
 20
-0.933031
  0
VERTEX
  8
PLAN_1
 62
     2
  6
CONTINUOUS
 10
-0.989339
 20
-0.930937
  0
VERTEX
  8
PLAN_1
 62
     2
  6
CONTINUOUS
 10
-0.988291
 20
-0.928315
  0
VERTEX
  8
PLAN_1
 62
     2
  6
CONTINUOUS
 10
-0.987768
 20
-0.925173
  0
VERTEX
  8
PLAN_1
 62
     2
  6
CONTINUOUS
 10
-0.988291
 20
-0.923602
  0
VERTEX
  8
PLAN_1
 62
     2
  6
CONTINUOUS
 10
-0.988291
 20
-0.922028
  0
VERTEX
  8
PLAN_1
 62
     2
  6
CONTINUOUS
 10
-0.989339
 20
-0.919933
  0
VERTEX
  8
PLAN_1
 62
     2
  6
CONTINUOUS
 10
-0.990386
 20
-0.917839
  0
VERTEX
  8
PLAN_1
 62
     2
  6
CONTINUOUS
 10
-0.992484
 20
-0.916268
  0
VERTEX
  8
PLAN_1
 62
     2
  6
CONTINUOUS
 10
-0.994579
 20
-0.915220
  0
VERTEX
  8
PLAN_1
 62
     2
  6
CONTINUOUS
 10
-0.997720
 20
-0.914169
  0
VERTEX
  8
PLAN_1
 62
     2
  6
CONTINUOUS
 10
-1.001390
 20
-0.913646
  0
VERTEX
  8
PLAN_1
 62
     2
  6
CONTINUOUS
 10
-1.005579
 20
-0.914169
  0
VERTEX
  8
PLAN_1
 62
     2
  6
CONTINUOUS
 10
-1.009248
 20
-0.915744
  0
VERTEX
  8
PLAN_1
 62
     2
  6
CONTINUOUS
 10
-1.011343
 20
-0.917315
  0
VERTEX
  8
PLAN_1
 62
     2
  6
CONTINUOUS
 10
-1.013437
 20
-0.919933
  0
VERTEX
  8
PLAN_1
 62
     2
  6
CONTINUOUS
 10
-1.014484
 20
-0.922555
  0
VERTEX
  8
PLAN_1
 62
     2
  6
CONTINUOUS
 10
-1.015008
 20
-0.925173
  0
VERTEX
  8
PLAN_1
 62
     2
  6
CONTINUOUS
 10
-1.015535
 20
-0.927268
  0
VERTEX
  8
PLAN_1
 62
     2
  6
CONTINUOUS
 10
-1.015535
 20
-0.929362
  0
VERTEX
  8
PLAN_1
 62
     2
  6
CONTINUOUS
 10
-1.024441
 20
-0.929362
  0
VERTEX
  8
PLAN_1
 62
     2
  6
CONTINUOUS
 10
-1.024441
 20
-0.925697
  0
VERTEX
  8
PLAN_1
 62
     2
  6
CONTINUOUS
 10
-1.023390
 20
-0.921504
  0
VERTEX
  8
PLAN_1
 62
     2
  6
CONTINUOUS
 10
-1.022343
 20
-0.917315
  0
VERTEX
  8
PLAN_1
 62
     2
  6
CONTINUOUS
 10
-1.020248
 20
-0.913646
  0
VERTEX
  8
PLAN_1
 62
     2
  6
CONTINUOUS
 10
-1.018677
 20
-0.912075
  0
VERTEX
  8
PLAN_1
 62
     2
  6
CONTINUOUS
 10
-1.017106
 20
-0.910504
  0
VERTEX
  8
PLAN_1
 62
     2
  6
CONTINUOUS
 10
-1.015008
 20
-0.908933
  0
VERTEX
  8
PLAN_1
 62
     2
  6
CONTINUOUS
 10
-1.012913
 20
-0.907886
  0
VERTEX
  8
PLAN_1
 62
     2
  6
CONTINUOUS
 10
-1.010295
 20
-0.906839
  0
VERTEX
  8
PLAN_1
 62
     2
  6
CONTINUOUS
 10
-1.007677
 20
-0.906315
  0
VERTEX
  8
PLAN_1
 62
     2
  6
CONTINUOUS
 10
-1.004531
 20
-0.905787
  0
VERTEX
  8
PLAN_1
 62
     2
  6
CONTINUOUS
 10
-1.000866
 20
-0.905787
  0
VERTEX
  8
PLAN_1
 62
     2
  6
CONTINUOUS
 10
-0.996150
 20
-0.905787
  0
VERTEX
  8
PLAN_1
 62
     2
  6
CONTINUOUS
 10
-0.991437
 20
-0.907362
  0
VERTEX
  8
PLAN_1
 62
     2
  6
CONTINUOUS
 10
-0.987768
 20
-0.908933
  0
VERTEX
  8
PLAN_1
 62
     2
  6
CONTINUOUS
 10
-0.984626
 20
-0.911028
  0
VERTEX
  8
PLAN_1
 62
     2
  6
CONTINUOUS
 10
-0.982004
 20
-0.914169
  0
VERTEX
  8
PLAN_1
 62
     2
  6
CONTINUOUS
 10
-0.979909
 20
-0.917315
  0
VERTEX
  8
PLAN_1
 62
     2
  6
CONTINUOUS
 10
-0.978862
 20
-0.920980
  0
VERTEX
  8
PLAN_1
 62
     2
  6
CONTINUOUS
 10
-0.978339
 20
-0.924650
  0
VERTEX
  8
PLAN_1
 62
     2
  6
CONTINUOUS
 10
-0.978862
 20
-0.928315
  0
VERTEX
  8
PLAN_1
 62
     2
  6
CONTINUOUS
 10
-0.979386
 20
-0.930937
  0
VERTEX
  8
PLAN_1
 62
     2
  6
CONTINUOUS
 10
-0.980433
 20
-0.933555
  0
VERTEX
  8
PLAN_1
 62
     2
  6
CONTINUOUS
 10
-0.981480
 20
-0.935650
  0
VERTEX
  8
PLAN_1
 62
     2
  6
CONTINUOUS
 10
-0.983055
 20
-0.937220
  0
VERTEX
  8
PLAN_1
 62
     2
  6
CONTINUOUS
 10
-0.984626
 20
-0.938268
  0
VERTEX
  8
PLAN_1
 62
     2
  6
CONTINUOUS
 10
-0.986197
 20
-0.939319
  0
VERTEX
  8
PLAN_1
 62
     2
  6
CONTINUOUS
 10
-0.987768
 20
-0.939843
  0
VERTEX
  8
PLAN_1
 62
     2
  6
CONTINUOUS
 10
-0.987768
 20
-0.940366
  0
VERTEX
  8
PLAN_1
 62
     2
  6
CONTINUOUS
 10
-0.985150
 20
-0.941413
  0
VERTEX
  8
PLAN_1
 62
     2
  6
CONTINUOUS
 10
-0.983055
 20
-0.942461
  0
VERTEX
  8
PLAN_1
 62
     2
  6
CONTINUOUS
 10
-0.980957
 20
-0.944031
  0
VERTEX
  8
PLAN_1
 62
     2
  6
CONTINUOUS
 10
-0.978862
 20
-0.946126
  0
VERTEX
  8
PLAN_1
 62
     2
  6
CONTINUOUS
 10
-0.977815
 20
-0.948224
  0
VERTEX
  8
PLAN_1
 62
     2
  6
CONTINUOUS
 10
-0.976768
 20
-0.950843
  0
VERTEX
  8
PLAN_1
 62
     2
  6
CONTINUOUS
 10
-0.975720
 20
-0.953984
  0
VERTEX
  8
PLAN_1
 62
     2
  6
CONTINUOUS
 10
-0.975720
 20
-0.957130
  0
VERTEX
  8
PLAN_1
 62
     2
  6
CONTINUOUS
 10
-0.976244
 20
-0.961843
  0
VERTEX
  8
PLAN_1
 62
     2
  6
CONTINUOUS
 10
-0.977291
 20
-0.966035
  0
VERTEX
  8
PLAN_1
 62
     2
  6
CONTINUOUS
 10
-0.978862
 20
-0.970224
  0
VERTEX
  8
PLAN_1
 62
     2
  6
CONTINUOUS
 10
-0.982004
 20
-0.973370
  0
VERTEX
  8
PLAN_1
 62
     2
  6
CONTINUOUS
 10
-0.983579
 20
-0.974941
  0
VERTEX
  8
PLAN_1
 62
     2
  6
CONTINUOUS
 10
-0.985673
 20
-0.976512
  0
VERTEX
  8
PLAN_1
 62
     2
  6
CONTINUOUS
 10
-0.987768
 20
-0.977559
  0
VERTEX
  8
PLAN_1
 62
     2
  6
CONTINUOUS
 10
-0.989862
 20
-0.978606
  0
VERTEX
  8
PLAN_1
 62
     2
  6
CONTINUOUS
 10
-0.992484
 20
-0.979657
  0
VERTEX
  8
PLAN_1
 62
     2
  6
CONTINUOUS
 10
-0.995626
 20
-0.980181
  0
VERTEX
  8
PLAN_1
 62
     2
  6
CONTINUOUS
 10
-0.998768
 20
-0.980705
  0
VERTEX
  8
PLAN_1
 62
     2
  6
CONTINUOUS
 10
-1.001913
 20
-0.980705
  0
VERTEX
  8
PLAN_1
 62
     2
  6
CONTINUOUS
 10
-1.004008
 20
-0.980705
  0
VERTEX
  8
PLAN_1
 62
     2
  6
CONTINUOUS
 10
-1.006102
 20
-0.980705
  0
VERTEX
  8
PLAN_1
 62
     2
  6
CONTINUOUS
 10
-1.007677
 20
-0.980181
  0
VERTEX
  8
PLAN_1
 62
     2
  6
CONTINUOUS
 10
-1.009248
 20
-0.979657
  0
VERTEX
  8
PLAN_1
 62
     2
  6
CONTINUOUS
 10
-1.010819
 20
-0.979657
  0
VERTEX
  8
PLAN_1
 62
     2
  6
CONTINUOUS
 10
-1.012390
 20
-0.978606
  0
VERTEX
  8
PLAN_1
 62
     2
  6
CONTINUOUS
 10
-1.013961
 20
-0.978083
  0
VERTEX
  8
PLAN_1
 62
     2
  6
CONTINUOUS
 10
-1.015535
 20
-0.977559
  0
VERTEX
  8
PLAN_1
 62
     2
  6
CONTINUOUS
 10
-1.018154
 20
-0.975988
  0
VERTEX
  8
PLAN_1
 62
     2
  6
CONTINUOUS
 10
-1.020772
 20
-0.973894
  0
VERTEX
  8
PLAN_1
 62
     2
  6
CONTINUOUS
 10
-1.022343
 20
-0.971276
  0
VERTEX
  8
PLAN_1
 62
     2
  6
CONTINUOUS
 10
-1.023917
 20
-0.968654
  0
VERTEX
  8
PLAN_1
 62
     2
  6
CONTINUOUS
 10
-1.024965
 20
-0.965512
  0
VERTEX
  8
PLAN_1
 62
     2
  6
CONTINUOUS
 10
-1.025488
 20
-0.962890
  0
VERTEX
  8
PLAN_1
 62
     2
  6
CONTINUOUS
 10
-1.026012
 20
-0.959748
  0
VERTEX
  8
PLAN_1
 62
     2
  6
CONTINUOUS
 10
-1.026535
 20
-0.956606
  0
VERTEX
  8
PLAN_1
 62
     2
  6
CONTINUOUS
 10
-1.017106
 20
-0.956606
  0
VERTEX
  8
PLAN_1
 62
     2
  6
CONTINUOUS
 10
-1.016583
 20
-0.959224
  0
VERTEX
  8
PLAN_1
 62
     2
  6
CONTINUOUS
 10
-1.016059
 20
-0.961843
  0
VERTEX
  8
PLAN_1
 62
     2
  6
CONTINUOUS
 10
-1.015535
 20
-0.964465
  0
VERTEX
  8
PLAN_1
 62
     2
  6
CONTINUOUS
 10
-1.013961
 20
-0.967083
  0
VERTEX
  8
PLAN_1
 62
     2
  6
CONTINUOUS
 10
-1.012390
 20
-0.969177
  0
VERTEX
  8
PLAN_1
 62
     2
  6
CONTINUOUS
 10
-1.009248
 20
-0.970748
  0
VERTEX
  8
PLAN_1
 62
     2
  6
CONTINUOUS
 10
-1.006102
 20
-0.972323
  0
VERTEX
  8
PLAN_1
 62
     2
  6
CONTINUOUS
 10
-1.001390
 20
-0.972323
  0
VERTEX
  8
PLAN_1
 62
     2
  6
CONTINUOUS
 10
-0.997720
 20
-0.972323
  0
VERTEX
  8
PLAN_1
 62
     2
  6
CONTINUOUS
 10
-0.995102
 20
-0.971276
  0
VERTEX
  8
PLAN_1
 62
     2
  6
CONTINUOUS
 10
-0.991961
 20
-0.970224
  0
VERTEX
  8
PLAN_1
 62
     2
  6
CONTINUOUS
 10
-0.989862
 20
-0.968654
  0
VERTEX
  8
PLAN_1
 62
     2
  6
CONTINUOUS
 10
-0.987768
 20
-0.966559
  0
VERTEX
  8
PLAN_1
 62
     2
  6
CONTINUOUS
 10
-0.986720
 20
-0.963941
  0
VERTEX
  8
PLAN_1
 62
     2
  6
CONTINUOUS
 10
-0.985673
 20
-0.961319
  0
VERTEX
  8
PLAN_1
 62
     2
  6
CONTINUOUS
 10
-0.985150
 20
-0.958177
  0
VERTEX
  8
PLAN_1
 62
     2
  6
CONTINUOUS
 10
-0.985673
 20
-0.954508
  0
VERTEX
  8
PLAN_1
 62
     2
  6
CONTINUOUS
 10
-0.987244
 20
-0.951366
  0
VERTEX
  8
PLAN_1
 62
     2
  6
CONTINUOUS
 10
-0.989339
 20
-0.948748
  0
VERTEX
  8
PLAN_1
 62
     2
  6
CONTINUOUS
 10
-0.991437
 20
-0.947177
  0
VERTEX
  8
PLAN_1
 62
     2
  6
CONTINUOUS
 10
-0.994579
 20
-0.946126
  0
VERTEX
  8
PLAN_1
 62
     2
  6
CONTINUOUS
 10
-0.997197
 20
-0.945602
  0
VERTEX
  8
PLAN_1
 62
     2
  6
CONTINUOUS
 10
-0.999819
 20
-0.945079
  0
VERTEX
  8
PLAN_1
 62
     2
  6
CONTINUOUS
 10
-1.002437
 20
-0.945079
  0
VERTEX
  8
PLAN_1
 62
     2
  6
CONTINUOUS
 10
-1.002961
 20
-0.945079
  0
VERTEX
  8
PLAN_1
 62
     2
  6
CONTINUOUS
 10
-1.003484
 20
-0.945079
  0
VERTEX
  8
PLAN_1
 62
     2
  6
CONTINUOUS
 10
-1.004008
 20
-0.945079
  0
VERTEX
  8
PLAN_1
 62
     2
  6
CONTINUOUS
 10
-1.004531
 20
-0.945079
  0
VERTEX
  8
PLAN_1
 62
     2
  6
CONTINUOUS
 10
-1.005055
 20
-0.945079
  0
VERTEX
  8
PLAN_1
 62
     2
  6
CONTINUOUS
 10
-1.005579
 20
-0.945079
  0
VERTEX
  8
PLAN_1
 62
     2
  6
CONTINUOUS
 10
-1.006102
 20
-0.945079
  0
VERTEX
  8
PLAN_1
 62
     2
  6
CONTINUOUS
 10
-1.006626
 20
-0.945079
  0
VERTEX
  8
PLAN_1
 62
     2
  6
CONTINUOUS
 10
-1.006626
 20
-0.937220
  0
SEQEND
  8
0
  0
POLYLINE
  8
PLAN_1
 62
     2
  6
CONTINUOUS
 66
     1
 40
0.003000
 41
0.003000
  0
VERTEX
  8
PLAN_1
 62
     2
  6
CONTINUOUS
 10
-0.924902
 20
-0.931984
  0
VERTEX
  8
PLAN_1
 62
     2
  6
CONTINUOUS
 10
-0.924902
 20
-0.967606
  0
VERTEX
  8
PLAN_1
 62
     2
  6
CONTINUOUS
 10
-0.924902
 20
-0.968654
  0
VERTEX
  8
PLAN_1
 62
     2
  6
CONTINUOUS
 10
-0.924378
 20
-0.969701
  0
VERTEX
  8
PLAN_1
 62
     2
  6
CONTINUOUS
 10
-0.923854
 20
-0.970748
  0
VERTEX
  8
PLAN_1
 62
     2
  6
CONTINUOUS
 10
-0.922807
 20
-0.971276
  0
VERTEX
  8
PLAN_1
 62
     2
  6
CONTINUOUS
 10
-0.922283
 20
-0.971276
  0
VERTEX
  8
PLAN_1
 62
     2
  6
CONTINUOUS
 10
-0.921236
 20
-0.971799
  0
VERTEX
  8
PLAN_1
 62
     2
  6
CONTINUOUS
 10
-0.920189
 20
-0.971799
  0
VERTEX
  8
PLAN_1
 62
     2
  6
CONTINUOUS
 10
-0.919665
 20
-0.971799
  0
VERTEX
  8
PLAN_1
 62
     2
  6
CONTINUOUS
 10
-0.916520
 20
-0.971799
  0
VERTEX
  8
PLAN_1
 62
     2
  6
CONTINUOUS
 10
-0.916520
 20
-0.978606
  0
VERTEX
  8
PLAN_1
 62
     2
  6
CONTINUOUS
 10
-0.917567
 20
-0.979130
  0
VERTEX
  8
PLAN_1
 62
     2
  6
CONTINUOUS
 10
-0.918618
 20
-0.979130
  0
VERTEX
  8
PLAN_1
 62
     2
  6
CONTINUOUS
 10
-0.919665
 20
-0.979130
  0
VERTEX
  8
PLAN_1
 62
     2
  6
CONTINUOUS
 10
-0.920713
 20
-0.979130
  0
VERTEX
  8
PLAN_1
 62
     2
  6
CONTINUOUS
 10
-0.921760
 20
-0.979130
  0
VERTEX
  8
PLAN_1
 62
     2
  6
CONTINUOUS
 10
-0.922283
 20
-0.979657
  0
VERTEX
  8
PLAN_1
 62
     2
  6
CONTINUOUS
 10
-0.922807
 20
-0.979657
  0
VERTEX
  8
PLAN_1
 62
     2
  6
CONTINUOUS
 10
-0.923331
 20
-0.979657
  0
VERTEX
  8
PLAN_1
 62
     2
  6
CONTINUOUS
 10
-0.926476
 20
-0.979130
  0
VERTEX
  8
PLAN_1
 62
     2
  6
CONTINUOUS
 10
-0.928571
 20
-0.978606
  0
VERTEX
  8
PLAN_1
 62
     2
  6
CONTINUOUS
 10
-0.930665
 20
-0.977559
  0
VERTEX
  8
PLAN_1
 62
     2
  6
CONTINUOUS
 10
-0.932236
 20
-0.975988
  0
VERTEX
  8
PLAN_1
 62
     2
  6
CONTINUOUS
 10
-0.933283
 20
-0.974417
  0
VERTEX
  8
PLAN_1
 62
     2
  6
CONTINUOUS
 10
-0.933807
 20
-0.972323
  0
VERTEX
  8
PLAN_1
 62
     2
  6
CONTINUOUS
 10
-0.934335
 20
-0.970224
  0
VERTEX
  8
PLAN_1
 62
     2
  6
CONTINUOUS
 10
-0.934335
 20
-0.968130
  0
VERTEX
  8
PLAN_1
 62
     2
  6
CONTINUOUS
 10
-0.934335
 20
-0.931984
  0
VERTEX
  8
PLAN_1
 62
     2
  6
CONTINUOUS
 10
-0.941665
 20
-0.931984
  0
VERTEX
  8
PLAN_1
 62
     2
  6
CONTINUOUS
 10
-0.941665
 20
-0.924126
  0
VERTEX
  8
PLAN_1
 62
     2
  6
CONTINUOUS
 10
-0.934335
 20
-0.924126
  0
VERTEX
  8
PLAN_1
 62
     2
  6
CONTINUOUS
 10
-0.934335
 20
-0.908933
  0
VERTEX
  8
PLAN_1
 62
     2
  6
CONTINUOUS
 10
-0.924902
 20
-0.908933
  0
VERTEX
  8
PLAN_1
 62
     2
  6
CONTINUOUS
 10
-0.924902
 20
-0.924126
  0
VERTEX
  8
PLAN_1
 62
     2
  6
CONTINUOUS
 10
-0.916520
 20
-0.924126
  0
VERTEX
  8
PLAN_1
 62
     2
  6
CONTINUOUS
 10
-0.916520
 20
-0.931984
  0
VERTEX
  8
PLAN_1
 62
     2
  6
CONTINUOUS
 10
-0.924902
 20
-0.931984
  0
SEQEND
  8
0
  0
POLYLINE
  8
PLAN_1
 62
     2
  6
CONTINUOUS
 66
     1
 40
0.003000
 41
0.003000
  0
VERTEX
  8
PLAN_1
 62
     2
  6
CONTINUOUS
 10
-0.897138
 20
-0.978606
  0
VERTEX
  8
PLAN_1
 62
     2
  6
CONTINUOUS
 10
-0.906043
 20
-0.978606
  0
VERTEX
  8
PLAN_1
 62
     2
  6
CONTINUOUS
 10
-0.906043
 20
-0.924126
  0
VERTEX
  8
PLAN_1
 62
     2
  6
CONTINUOUS
 10
-0.897661
 20
-0.924126
  0
VERTEX
  8
PLAN_1
 62
     2
  6
CONTINUOUS
 10
-0.897661
 20
-0.933555
  0
VERTEX
  8
PLAN_1
 62
     2
  6
CONTINUOUS
 10
-0.897138
 20
-0.933555
  0
VERTEX
  8
PLAN_1
 62
     2
  6
CONTINUOUS
 10
-0.896091
 20
-0.930937
  0
VERTEX
  8
PLAN_1
 62
     2
  6
CONTINUOUS
 10
-0.894520
 20
-0.928839
  0
VERTEX
  8
PLAN_1
 62
     2
  6
CONTINUOUS
 10
-0.892945
 20
-0.927268
  0
VERTEX
  8
PLAN_1
 62
     2
  6
CONTINUOUS
 10
-0.890850
 20
-0.925697
  0
VERTEX
  8
PLAN_1
 62
     2
  6
CONTINUOUS
 10
-0.888756
 20
-0.924650
  0
VERTEX
  8
PLAN_1
 62
     2
  6
CONTINUOUS
 10
-0.886661
 20
-0.923602
  0
VERTEX
  8
PLAN_1
 62
     2
  6
CONTINUOUS
 10
-0.884563
 20
-0.923079
  0
VERTEX
  8
PLAN_1
 62
     2
  6
CONTINUOUS
 10
-0.881945
 20
-0.923079
  0
VERTEX
  8
PLAN_1
 62
     2
  6
CONTINUOUS
 10
-0.881421
 20
-0.923079
  0
VERTEX
  8
PLAN_1
 62
     2
  6
CONTINUOUS
 10
-0.880898
 20
-0.923079
  0
VERTEX
  8
PLAN_1
 62
     2
  6
CONTINUOUS
 10
-0.880374
 20
-0.923079
  0
VERTEX
  8
PLAN_1
 62
     2
  6
CONTINUOUS
 10
-0.879850
 20
-0.923079
  0
VERTEX
  8
PLAN_1
 62
     2
  6
CONTINUOUS
 10
-0.879850
 20
-0.932508
  0
VERTEX
  8
PLAN_1
 62
     2
  6
CONTINUOUS
 10
-0.882992
 20
-0.932508
  0
VERTEX
  8
PLAN_1
 62
     2
  6
CONTINUOUS
 10
-0.886138
 20
-0.933031
  0
VERTEX
  8
PLAN_1
 62
     2
  6
CONTINUOUS
 10
-0.888756
 20
-0.933555
  0
VERTEX
  8
PLAN_1
 62
     2
  6
CONTINUOUS
 10
-0.891374
 20
-0.935126
  0
VERTEX
  8
PLAN_1
 62
     2
  6
CONTINUOUS
 10
-0.893469
 20
-0.936697
  0
VERTEX
  8
PLAN_1
 62
     2
  6
CONTINUOUS
 10
-0.895043
 20
-0.939319
  0
VERTEX
  8
PLAN_1
 62
     2
  6
CONTINUOUS
 10
-0.896091
 20
-0.941413
  0
VERTEX
  8
PLAN_1
 62
     2
  6
CONTINUOUS
 10
-0.896614
 20
-0.944031
  0
VERTEX
  8
PLAN_1
 62
     2
  6
CONTINUOUS
 10
-0.897138
 20
-0.947177
  0
VERTEX
  8
PLAN_1
 62
     2
  6
CONTINUOUS
 10
-0.897138
 20
-0.978606
  0
SEQEND
  8
0
  0
POLYLINE
  8
PLAN_1
 62
     2
  6
CONTINUOUS
 66
     1
 40
0.003000
 41
0.003000
  0
VERTEX
  8
PLAN_1
 62
     2
  6
CONTINUOUS
 10
-0.850512
 20
-0.923079
  0
VERTEX
  8
PLAN_1
 62
     2
  6
CONTINUOUS
 10
-0.847370
 20
-0.923079
  0
VERTEX
  8
PLAN_1
 62
     2
  6
CONTINUOUS
 10
-0.844748
 20
-0.923602
  0
VERTEX
  8
PLAN_1
 62
     2
  6
CONTINUOUS
 10
-0.841606
 20
-0.924126
  0
VERTEX
  8
PLAN_1
 62
     2
  6
CONTINUOUS
 10
-0.839512
 20
-0.925173
  0
VERTEX
  8
PLAN_1
 62
     2
  6
CONTINUOUS
 10
-0.836894
 20
-0.926744
  0
VERTEX
  8
PLAN_1
 62
     2
  6
CONTINUOUS
 10
-0.834795
 20
-0.928315
  0
VERTEX
  8
PLAN_1
 62
     2
  6
CONTINUOUS
 10
-0.833224
 20
-0.929886
  0
VERTEX
  8
PLAN_1
 62
     2
  6
CONTINUOUS
 10
-0.831654
 20
-0.931984
  0
VERTEX
  8
PLAN_1
 62
     2
  6
CONTINUOUS
 10
-0.828508
 20
-0.936173
  0
VERTEX
  8
PLAN_1
 62
     2
  6
CONTINUOUS
 10
-0.826937
 20
-0.940890
  0
VERTEX
  8
PLAN_1
 62
     2
  6
CONTINUOUS
 10
-0.825890
 20
-0.946126
  0
VERTEX
  8
PLAN_1
 62
     2
  6
CONTINUOUS
 10
-0.825366
 20
-0.951366
  0
VERTEX
  8
PLAN_1
 62
     2
  6
CONTINUOUS
 10
-0.825890
 20
-0.956606
  0
VERTEX
  8
PLAN_1
 62
     2
  6
CONTINUOUS
 10
-0.826937
 20
-0.961843
  0
VERTEX
  8
PLAN_1
 62
     2
  6
CONTINUOUS
 10
-0.828508
 20
-0.966559
  0
VERTEX
  8
PLAN_1
 62
     2
  6
CONTINUOUS
 10
-0.831654
 20
-0.971276
  0
VERTEX
  8
PLAN_1
 62
     2
  6
CONTINUOUS
 10
-0.833224
 20
-0.973370
  0
VERTEX
  8
PLAN_1
 62
     2
  6
CONTINUOUS
 10
-0.834795
 20
-0.974941
  0
VERTEX
  8
PLAN_1
 62
     2
  6
CONTINUOUS
 10
-0.836894
 20
-0.976512
  0
VERTEX
  8
PLAN_1
 62
     2
  6
CONTINUOUS
 10
-0.839512
 20
-0.977559
  0
VERTEX
  8
PLAN_1
 62
     2
  6
CONTINUOUS
 10
-0.841606
 20
-0.978606
  0
VERTEX
  8
PLAN_1
 62
     2
  6
CONTINUOUS
 10
-0.844748
 20
-0.979657
  0
VERTEX
  8
PLAN_1
 62
     2
  6
CONTINUOUS
 10
-0.847370
 20
-0.980181
  0
VERTEX
  8
PLAN_1
 62
     2
  6
CONTINUOUS
 10
-0.850512
 20
-0.980181
  0
VERTEX
  8
PLAN_1
 62
     2
  6
CONTINUOUS
 10
-0.853657
 20
-0.980181
  0
VERTEX
  8
PLAN_1
 62
     2
  6
CONTINUOUS
 10
-0.856799
 20
-0.979657
  0
VERTEX
  8
PLAN_1
 62
     2
  6
CONTINUOUS
 10
-0.859417
 20
-0.978606
  0
VERTEX
  8
PLAN_1
 62
     2
  6
CONTINUOUS
 10
-0.862039
 20
-0.977559
  0
VERTEX
  8
PLAN_1
 62
     2
  6
CONTINUOUS
 10
-0.864134
 20
-0.976512
  0
VERTEX
  8
PLAN_1
 62
     2
  6
CONTINUOUS
 10
-0.866228
 20
-0.974941
  0
VERTEX
  8
PLAN_1
 62
     2
  6
CONTINUOUS
 10
-0.868323
 20
-0.973370
  0
VERTEX
  8
PLAN_1
 62
     2
  6
CONTINUOUS
 10
-0.869898
 20
-0.971276
  0
VERTEX
  8
PLAN_1
 62
     2
  6
CONTINUOUS
 10
-0.872516
 20
-0.966559
  0
VERTEX
  8
PLAN_1
 62
     2
  6
CONTINUOUS
 10
-0.874610
 20
-0.961843
  0
VERTEX
  8
PLAN_1
 62
     2
  6
CONTINUOUS
 10
-0.875657
 20
-0.956606
  0
VERTEX
  8
PLAN_1
 62
     2
  6
CONTINUOUS
 10
-0.875657
 20
-0.951366
  0
VERTEX
  8
PLAN_1
 62
     2
  6
CONTINUOUS
 10
-0.875657
 20
-0.946126
  0
VERTEX
  8
PLAN_1
 62
     2
  6
CONTINUOUS
 10
-0.874610
 20
-0.940890
  0
VERTEX
  8
PLAN_1
 62
     2
  6
CONTINUOUS
 10
-0.872516
 20
-0.936173
  0
VERTEX
  8
PLAN_1
 62
     2
  6
CONTINUOUS
 10
-0.869898
 20
-0.931984
  0
VERTEX
  8
PLAN_1
 62
     2
  6
CONTINUOUS
 10
-0.868323
 20
-0.929886
  0
VERTEX
  8
PLAN_1
 62
     2
  6
CONTINUOUS
 10
-0.866228
 20
-0.928315
  0
VERTEX
  8
PLAN_1
 62
     2
  6
CONTINUOUS
 10
-0.864134
 20
-0.926744
  0
VERTEX
  8
PLAN_1
 62
     2
  6
CONTINUOUS
 10
-0.862039
 20
-0.925173
  0
VERTEX
  8
PLAN_1
 62
     2
  6
CONTINUOUS
 10
-0.859417
 20
-0.924126
  0
VERTEX
  8
PLAN_1
 62
     2
  6
CONTINUOUS
 10
-0.856799
 20
-0.923602
  0
VERTEX
  8
PLAN_1
 62
     2
  6
CONTINUOUS
 10
-0.853657
 20
-0.923079
  0
VERTEX
  8
PLAN_1
 62
     2
  6
CONTINUOUS
 10
-0.850512
 20
-0.923079
  0
SEQEND
  8
0
  0
POLYLINE
  8
PLAN_1
 62
     2
  6
CONTINUOUS
 66
     1
 40
0.003000
 41
0.003000
  0
VERTEX
  8
PLAN_1
 62
     2
  6
CONTINUOUS
 10
-0.850512
 20
-0.972323
  0
VERTEX
  8
PLAN_1
 62
     2
  6
CONTINUOUS
 10
-0.848417
 20
-0.972323
  0
VERTEX
  8
PLAN_1
 62
     2
  6
CONTINUOUS
 10
-0.846323
 20
-0.971799
  0
VERTEX
  8
PLAN_1
 62
     2
  6
CONTINUOUS
 10
-0.844224
 20
-0.971276
  0
VERTEX
  8
PLAN_1
 62
     2
  6
CONTINUOUS
 10
-0.842654
 20
-0.970224
  0
VERTEX
  8
PLAN_1
 62
     2
  6
CONTINUOUS
 10
-0.840035
 20
-0.967606
  0
VERTEX
  8
PLAN_1
 62
     2
  6
CONTINUOUS
 10
-0.837941
 20
-0.964465
  0
VERTEX
  8
PLAN_1
 62
     2
  6
CONTINUOUS
 10
-0.836366
 20
-0.961319
  0
VERTEX
  8
PLAN_1
 62
     2
  6
CONTINUOUS
 10
-0.835319
 20
-0.957654
  0
VERTEX
  8
PLAN_1
 62
     2
  6
CONTINUOUS
 10
-0.834795
 20
-0.954508
  0
VERTEX
  8
PLAN_1
 62
     2
  6
CONTINUOUS
 10
-0.834795
 20
-0.951366
  0
VERTEX
  8
PLAN_1
 62
     2
  6
CONTINUOUS
 10
-0.834795
 20
-0.948748
  0
VERTEX
  8
PLAN_1
 62
     2
  6
CONTINUOUS
 10
-0.835319
 20
-0.945079
  0
VERTEX
  8
PLAN_1
 62
     2
  6
CONTINUOUS
 10
-0.836366
 20
-0.941937
  0
VERTEX
  8
PLAN_1
 62
     2
  6
CONTINUOUS
 10
-0.837941
 20
-0.938268
  0
VERTEX
  8
PLAN_1
 62
     2
  6
CONTINUOUS
 10
-0.840035
 20
-0.935650
  0
VERTEX
  8
PLAN_1
 62
     2
  6
CONTINUOUS
 10
-0.842654
 20
-0.933031
  0
VERTEX
  8
PLAN_1
 62
     2
  6
CONTINUOUS
 10
-0.844224
 20
-0.931984
  0
VERTEX
  8
PLAN_1
 62
     2
  6
CONTINUOUS
 10
-0.846323
 20
-0.931461
  0
VERTEX
  8
PLAN_1
 62
     2
  6
CONTINUOUS
 10
-0.848417
 20
-0.930937
  0
VERTEX
  8
PLAN_1
 62
     2
  6
CONTINUOUS
 10
-0.850512
 20
-0.930937
  0
VERTEX
  8
PLAN_1
 62
     2
  6
CONTINUOUS
 10
-0.853134
 20
-0.930937
  0
VERTEX
  8
PLAN_1
 62
     2
  6
CONTINUOUS
 10
-0.855228
 20
-0.931461
  0
VERTEX
  8
PLAN_1
 62
     2
  6
CONTINUOUS
 10
-0.856799
 20
-0.931984
  0
VERTEX
  8
PLAN_1
 62
     2
  6
CONTINUOUS
 10
-0.858370
 20
-0.933031
  0
VERTEX
  8
PLAN_1
 62
     2
  6
CONTINUOUS
 10
-0.861516
 20
-0.935650
  0
VERTEX
  8
PLAN_1
 62
     2
  6
CONTINUOUS
 10
-0.863610
 20
-0.938268
  0
VERTEX
  8
PLAN_1
 62
     2
  6
CONTINUOUS
 10
-0.864657
 20
-0.941937
  0
VERTEX
  8
PLAN_1
 62
     2
  6
CONTINUOUS
 10
-0.865705
 20
-0.945079
  0
VERTEX
  8
PLAN_1
 62
     2
  6
CONTINUOUS
 10
-0.866228
 20
-0.948748
  0
VERTEX
  8
PLAN_1
 62
     2
  6
CONTINUOUS
 10
-0.866228
 20
-0.951366
  0
VERTEX
  8
PLAN_1
 62
     2
  6
CONTINUOUS
 10
-0.866228
 20
-0.954508
  0
VERTEX
  8
PLAN_1
 62
     2
  6
CONTINUOUS
 10
-0.865705
 20
-0.957654
  0
VERTEX
  8
PLAN_1
 62
     2
  6
CONTINUOUS
 10
-0.864657
 20
-0.961319
  0
VERTEX
  8
PLAN_1
 62
     2
  6
CONTINUOUS
 10
-0.863610
 20
-0.964465
  0
VERTEX
  8
PLAN_1
 62
     2
  6
CONTINUOUS
 10
-0.861516
 20
-0.967606
  0
VERTEX
  8
PLAN_1
 62
     2
  6
CONTINUOUS
 10
-0.858370
 20
-0.970224
  0
VERTEX
  8
PLAN_1
 62
     2
  6
CONTINUOUS
 10
-0.856799
 20
-0.971276
  0
VERTEX
  8
PLAN_1
 62
     2
  6
CONTINUOUS
 10
-0.855228
 20
-0.971799
  0
VERTEX
  8
PLAN_1
 62
     2
  6
CONTINUOUS
 10
-0.853134
 20
-0.972323
  0
VERTEX
  8
PLAN_1
 62
     2
  6
CONTINUOUS
 10
-0.850512
 20
-0.972323
  0
SEQEND
  8
0
  0
POLYLINE
  8
PLAN_1
 62
     2
  6
CONTINUOUS
 66
     1
 40
0.003000
 41
0.003000
  0
VERTEX
  8
PLAN_1
 62
     2
  6
CONTINUOUS
 10
-0.779264
 20
-0.978606
  0
VERTEX
  8
PLAN_1
 62
     2
  6
CONTINUOUS
 10
-0.779264
 20
-0.970748
  0
VERTEX
  8
PLAN_1
 62
     2
  6
CONTINUOUS
 10
-0.779787
 20
-0.970748
  0
VERTEX
  8
PLAN_1
 62
     2
  6
CONTINUOUS
 10
-0.780839
 20
-0.972846
  0
VERTEX
  8
PLAN_1
 62
     2
  6
CONTINUOUS
 10
-0.782933
 20
-0.974941
  0
VERTEX
  8
PLAN_1
 62
     2
  6
CONTINUOUS
 10
-0.784504
 20
-0.976512
  0
VERTEX
  8
PLAN_1
 62
     2
  6
CONTINUOUS
 10
-0.786598
 20
-0.978083
  0
VERTEX
  8
PLAN_1
 62
     2
  6
CONTINUOUS
 10
-0.788697
 20
-0.979130
  0
VERTEX
  8
PLAN_1
 62
     2
  6
CONTINUOUS
 10
-0.790791
 20
-0.979657
  0
VERTEX
  8
PLAN_1
 62
     2
  6
CONTINUOUS
 10
-0.793933
 20
-0.980181
  0
VERTEX
  8
PLAN_1
 62
     2
  6
CONTINUOUS
 10
-0.797079
 20
-0.980181
  0
VERTEX
  8
PLAN_1
 62
     2
  6
CONTINUOUS
 10
-0.799697
 20
-0.980181
  0
VERTEX
  8
PLAN_1
 62
     2
  6
CONTINUOUS
 10
-0.802839
 20
-0.979657
  0
VERTEX
  8
PLAN_1
 62
     2
  6
CONTINUOUS
 10
-0.805984
 20
-0.978606
  0
VERTEX
  8
PLAN_1
 62
     2
  6
CONTINUOUS
 10
-0.808602
 20
-0.977035
  0
VERTEX
  8
PLAN_1
 62
     2
  6
CONTINUOUS
 10
-0.811220
 20
-0.974417
  0
VERTEX
  8
PLAN_1
 62
     2
  6
CONTINUOUS
 10
-0.812795
 20
-0.971799
  0
VERTEX
  8
PLAN_1
 62
     2
  6
CONTINUOUS
 10
-0.814366
 20
-0.968130
  0
VERTEX
  8
PLAN_1
 62
     2
  6
CONTINUOUS
 10
-0.814366
 20
-0.963417
  0
VERTEX
  8
PLAN_1
 62
     2
  6
CONTINUOUS
 10
-0.814366
 20
-0.924126
  0
VERTEX
  8
PLAN_1
 62
     2
  6
CONTINUOUS
 10
-0.805461
 20
-0.924126
  0
VERTEX
  8
PLAN_1
 62
     2
  6
CONTINUOUS
 10
-0.805461
 20
-0.960272
  0
VERTEX
  8
PLAN_1
 62
     2
  6
CONTINUOUS
 10
-0.804937
 20
-0.963417
  0
VERTEX
  8
PLAN_1
 62
     2
  6
CONTINUOUS
 10
-0.804413
 20
-0.966035
  0
VERTEX
  8
PLAN_1
 62
     2
  6
CONTINUOUS
 10
-0.803886
 20
-0.968130
  0
VERTEX
  8
PLAN_1
 62
     2
  6
CONTINUOUS
 10
-0.802315
 20
-0.969701
  0
VERTEX
  8
PLAN_1
 62
     2
  6
CONTINUOUS
 10
-0.800744
 20
-0.971276
  0
VERTEX
  8
PLAN_1
 62
     2
  6
CONTINUOUS
 10
-0.799173
 20
-0.971799
  0
VERTEX
  8
PLAN_1
 62
     2
  6
CONTINUOUS
 10
-0.797079
 20
-0.972323
  0
VERTEX
  8
PLAN_1
 62
     2
  6
CONTINUOUS
 10
-0.794980
 20
-0.972323
  0
VERTEX
  8
PLAN_1
 62
     2
  6
CONTINUOUS
 10
-0.790791
 20
-0.971799
  0
VERTEX
  8
PLAN_1
 62
     2
  6
CONTINUOUS
 10
-0.787646
 20
-0.970748
  0
VERTEX
  8
PLAN_1
 62
     2
  6
CONTINUOUS
 10
-0.785028
 20
-0.968654
  0
VERTEX
  8
PLAN_1
 62
     2
  6
CONTINUOUS
 10
-0.782933
 20
-0.966559
  0
VERTEX
  8
PLAN_1
 62
     2
  6
CONTINUOUS
 10
-0.781362
 20
-0.963417
  0
VERTEX
  8
PLAN_1
 62
     2
  6
CONTINUOUS
 10
-0.780839
 20
-0.960272
  0
VERTEX
  8
PLAN_1
 62
     2
  6
CONTINUOUS
 10
-0.780315
 20
-0.957654
  0
VERTEX
  8
PLAN_1
 62
     2
  6
CONTINUOUS
 10
-0.779787
 20
-0.954508
  0
VERTEX
  8
PLAN_1
 62
     2
  6
CONTINUOUS
 10
-0.779787
 20
-0.924126
  0
VERTEX
  8
PLAN_1
 62
     2
  6
CONTINUOUS
 10
-0.770882
 20
-0.924126
  0
VERTEX
  8
PLAN_1
 62
     2
  6
CONTINUOUS
 10
-0.770882
 20
-0.978606
  0
VERTEX
  8
PLAN_1
 62
     2
  6
CONTINUOUS
 10
-0.779264
 20
-0.978606
  0
SEQEND
  8
0
  0
POLYLINE
  8
PLAN_1
 62
     2
  6
CONTINUOUS
 66
     1
 40
0.003000
 41
0.003000
  0
VERTEX
  8
PLAN_1
 62
     2
  6
CONTINUOUS
 10
-0.725831
 20
-0.939843
  0
VERTEX
  8
PLAN_1
 62
     2
  6
CONTINUOUS
 10
-0.726354
 20
-0.938268
  0
VERTEX
  8
PLAN_1
 62
     2
  6
CONTINUOUS
 10
-0.726354
 20
-0.937220
  0
VERTEX
  8
PLAN_1
 62
     2
  6
CONTINUOUS
 10
-0.727402
 20
-0.935650
  0
VERTEX
  8
PLAN_1
 62
     2
  6
CONTINUOUS
 10
-0.728449
 20
-0.934079
  0
VERTEX
  8
PLAN_1
 62
     2
  6
CONTINUOUS
 10
-0.730020
 20
-0.932508
  0
VERTEX
  8
PLAN_1
 62
     2
  6
CONTINUOUS
 10
-0.732118
 20
-0.931461
  0
VERTEX
  8
PLAN_1
 62
     2
  6
CONTINUOUS
 10
-0.735260
 20
-0.930937
  0
VERTEX
  8
PLAN_1
 62
     2
  6
CONTINUOUS
 10
-0.738925
 20
-0.930937
  0
VERTEX
  8
PLAN_1
 62
     2
  6
CONTINUOUS
 10
-0.739976
 20
-0.930937
  0
VERTEX
  8
PLAN_1
 62
     2
  6
CONTINUOUS
 10
-0.742071
 20
-0.930937
  0
VERTEX
  8
PLAN_1
 62
     2
  6
CONTINUOUS
 10
-0.743642
 20
-0.931461
  0
VERTEX
  8
PLAN_1
 62
     2
  6
CONTINUOUS
 10
-0.745213
 20
-0.931984
  0
VERTEX
  8
PLAN_1
 62
     2
  6
CONTINUOUS
 10
-0.747307
 20
-0.933031
  0
VERTEX
  8
PLAN_1
 62
     2
  6
CONTINUOUS
 10
-0.748358
 20
-0.934602
  0
VERTEX
  8
PLAN_1
 62
     2
  6
CONTINUOUS
 10
-0.749406
 20
-0.936173
  0
VERTEX
  8
PLAN_1
 62
     2
  6
CONTINUOUS
 10
-0.749929
 20
-0.938268
  0
VERTEX
  8
PLAN_1
 62
     2
  6
CONTINUOUS
 10
-0.749406
 20
-0.939843
  0
VERTEX
  8
PLAN_1
 62
     2
  6
CONTINUOUS
 10
-0.749406
 20
-0.941413
  0
VERTEX
  8
PLAN_1
 62
     2
  6
CONTINUOUS
 10
-0.748358
 20
-0.942461
  0
VERTEX
  8
PLAN_1
 62
     2
  6
CONTINUOUS
 10
-0.747307
 20
-0.942984
  0
VERTEX
  8
PLAN_1
 62
     2
  6
CONTINUOUS
 10
-0.746260
 20
-0.944031
  0
VERTEX
  8
PLAN_1
 62
     2
  6
CONTINUOUS
 10
-0.744165
 20
-0.944555
  0
VERTEX
  8
PLAN_1
 62
     2
  6
CONTINUOUS
 10
-0.742594
 20
-0.945079
  0
VERTEX
  8
PLAN_1
 62
     2
  6
CONTINUOUS
 10
-0.739976
 20
-0.945602
  0
VERTEX
  8
PLAN_1
 62
     2
  6
CONTINUOUS
 10
-0.730543
 20
-0.948224
  0
VERTEX
  8
PLAN_1
 62
     2
  6
CONTINUOUS
 10
-0.726878
 20
-0.949272
  0
VERTEX
  8
PLAN_1
 62
     2
  6
CONTINUOUS
 10
-0.723736
 20
-0.950319
  0
VERTEX
  8
PLAN_1
 62
     2
  6
CONTINUOUS
 10
-0.721114
 20
-0.951890
  0
VERTEX
  8
PLAN_1
 62
     2
  6
CONTINUOUS
 10
-0.719020
 20
-0.953461
  0
VERTEX
  8
PLAN_1
 62
     2
  6
CONTINUOUS
 10
-0.717449
 20
-0.955559
  0
VERTEX
  8
PLAN_1
 62
     2
  6
CONTINUOUS
 10
-0.716402
 20
-0.957654
  0
VERTEX
  8
PLAN_1
 62
     2
  6
CONTINUOUS
 10
-0.715878
 20
-0.959748
  0
VERTEX
  8
PLAN_1
 62
     2
  6
CONTINUOUS
 10
-0.715354
 20
-0.962366
  0
VERTEX
  8
PLAN_1
 62
     2
  6
CONTINUOUS
 10
-0.715878
 20
-0.966559
  0
VERTEX
  8
PLAN_1
 62
     2
  6
CONTINUOUS
 10
-0.716925
 20
-0.969701
  0
VERTEX
  8
PLAN_1
 62
     2
  6
CONTINUOUS
 10
-0.719020
 20
-0.972846
  0
VERTEX
  8
PLAN_1
 62
     2
  6
CONTINUOUS
 10
-0.721638
 20
-0.975465
  0
VERTEX
  8
PLAN_1
 62
     2
  6
CONTINUOUS
 10
-0.724783
 20
-0.977559
  0
VERTEX
  8
PLAN_1
 62
     2
  6
CONTINUOUS
 10
-0.728449
 20
-0.979130
  0
VERTEX
  8
PLAN_1
 62
     2
  6
CONTINUOUS
 10
-0.732642
 20
-0.980181
  0
VERTEX
  8
PLAN_1
 62
     2
  6
CONTINUOUS
 10
-0.736831
 20
-0.980181
  0
VERTEX
  8
PLAN_1
 62
     2
  6
CONTINUOUS
 10
-0.741024
 20
-0.980181
  0
VERTEX
  8
PLAN_1
 62
     2
  6
CONTINUOUS
 10
-0.744165
 20
-0.979657
  0
VERTEX
  8
PLAN_1
 62
     2
  6
CONTINUOUS
 10
-0.747307
 20
-0.979130
  0
VERTEX
  8
PLAN_1
 62
     2
  6
CONTINUOUS
 10
-0.749929
 20
-0.978083
  0
VERTEX
  8
PLAN_1
 62
     2
  6
CONTINUOUS
 10
-0.752024
 20
-0.977035
  0
VERTEX
  8
PLAN_1
 62
     2
  6
CONTINUOUS
 10
-0.753594
 20
-0.975988
  0
VERTEX
  8
PLAN_1
 62
     2
  6
CONTINUOUS
 10
-0.755165
 20
-0.974941
  0
VERTEX
  8
PLAN_1
 62
     2
  6
CONTINUOUS
 10
-0.756740
 20
-0.973370
  0
VERTEX
  8
PLAN_1
 62
     2
  6
CONTINUOUS
 10
-0.758311
 20
-0.970224
  0
VERTEX
  8
PLAN_1
 62
     2
  6
CONTINUOUS
 10
-0.759882
 20
-0.967083
  0
VERTEX
  8
PLAN_1
 62
     2
  6
CONTINUOUS
 10
-0.760406
 20
-0.963941
  0
VERTEX
  8
PLAN_1
 62
     2
  6
CONTINUOUS
 10
-0.760406
 20
-0.961319
  0
VERTEX
  8
PLAN_1
 62
     2
  6
CONTINUOUS
 10
-0.751500
 20
-0.961319
  0
VERTEX
  8
PLAN_1
 62
     2
  6
CONTINUOUS
 10
-0.751500
 20
-0.962890
  0
VERTEX
  8
PLAN_1
 62
     2
  6
CONTINUOUS
 10
-0.750976
 20
-0.964988
  0
VERTEX
  8
PLAN_1
 62
     2
  6
CONTINUOUS
 10
-0.750453
 20
-0.966559
  0
VERTEX
  8
PLAN_1
 62
     2
  6
CONTINUOUS
 10
-0.748882
 20
-0.968654
  0
VERTEX
  8
PLAN_1
 62
     2
  6
CONTINUOUS
 10
-0.747307
 20
-0.970224
  0
VERTEX
  8
PLAN_1
 62
     2
  6
CONTINUOUS
 10
-0.744689
 20
-0.971276
  0
VERTEX
  8
PLAN_1
 62
     2
  6
CONTINUOUS
 10
-0.741547
 20
-0.972323
  0
VERTEX
  8
PLAN_1
 62
     2
  6
CONTINUOUS
 10
-0.736831
 20
-0.972323
  0
VERTEX
  8
PLAN_1
 62
     2
  6
CONTINUOUS
 10
-0.734736
 20
-0.972323
  0
VERTEX
  8
PLAN_1
 62
     2
  6
CONTINUOUS
 10
-0.732118
 20
-0.971799
  0
VERTEX
  8
PLAN_1
 62
     2
  6
CONTINUOUS
 10
-0.730020
 20
-0.971276
  0
VERTEX
  8
PLAN_1
 62
     2
  6
CONTINUOUS
 10
-0.728449
 20
-0.970224
  0
VERTEX
  8
PLAN_1
 62
     2
  6
CONTINUOUS
 10
-0.726878
 20
-0.969177
  0
VERTEX
  8
PLAN_1
 62
     2
  6
CONTINUOUS
 10
-0.725831
 20
-0.967606
  0
VERTEX
  8
PLAN_1
 62
     2
  6
CONTINUOUS
 10
-0.724783
 20
-0.966035
  0
VERTEX
  8
PLAN_1
 62
     2
  6
CONTINUOUS
 10
-0.724783
 20
-0.963941
  0
VERTEX
  8
PLAN_1
 62
     2
  6
CONTINUOUS
 10
-0.724783
 20
-0.962366
  0
VERTEX
  8
PLAN_1
 62
     2
  6
CONTINUOUS
 10
-0.725307
 20
-0.960795
  0
VERTEX
  8
PLAN_1
 62
     2
  6
CONTINUOUS
 10
-0.725831
 20
-0.959748
  0
VERTEX
  8
PLAN_1
 62
     2
  6
CONTINUOUS
 10
-0.726878
 20
-0.959224
  0
VERTEX
  8
PLAN_1
 62
     2
  6
CONTINUOUS
 10
-0.728449
 20
-0.958177
  0
VERTEX
  8
PLAN_1
 62
     2
  6
CONTINUOUS
 10
-0.730543
 20
-0.957654
  0
VERTEX
  8
PLAN_1
 62
     2
  6
CONTINUOUS
 10
-0.732642
 20
-0.956606
  0
VERTEX
  8
PLAN_1
 62
     2
  6
CONTINUOUS
 10
-0.735260
 20
-0.956083
  0
VERTEX
  8
PLAN_1
 62
     2
  6
CONTINUOUS
 10
-0.746260
 20
-0.953461
  0
VERTEX
  8
PLAN_1
 62
     2
  6
CONTINUOUS
 10
-0.748882
 20
-0.952413
  0
VERTEX
  8
PLAN_1
 62
     2
  6
CONTINUOUS
 10
-0.750976
 20
-0.951366
  0
VERTEX
  8
PLAN_1
 62
     2
  6
CONTINUOUS
 10
-0.753594
 20
-0.950319
  0
VERTEX
  8
PLAN_1
 62
     2
  6
CONTINUOUS
 10
-0.755165
 20
-0.948748
  0
VERTEX
  8
PLAN_1
 62
     2
  6
CONTINUOUS
 10
-0.756740
 20
-0.947177
  0
VERTEX
  8
PLAN_1
 62
     2
  6
CONTINUOUS
 10
-0.757787
 20
-0.945079
  0
VERTEX
  8
PLAN_1
 62
     2
  6
CONTINUOUS
 10
-0.758311
 20
-0.942984
  0
VERTEX
  8
PLAN_1
 62
     2
  6
CONTINUOUS
 10
-0.758835
 20
-0.940366
  0
VERTEX
  8
PLAN_1
 62
     2
  6
CONTINUOUS
 10
-0.758311
 20
-0.936173
  0
VERTEX
  8
PLAN_1
 62
     2
  6
CONTINUOUS
 10
-0.756740
 20
-0.932508
  0
VERTEX
  8
PLAN_1
 62
     2
  6
CONTINUOUS
 10
-0.755165
 20
-0.929362
  0
VERTEX
  8
PLAN_1
 62
     2
  6
CONTINUOUS
 10
-0.752547
 20
-0.927268
  0
VERTEX
  8
PLAN_1
 62
     2
  6
CONTINUOUS
 10
-0.749406
 20
-0.925173
  0
VERTEX
  8
PLAN_1
 62
     2
  6
CONTINUOUS
 10
-0.745736
 20
-0.923602
  0
VERTEX
  8
PLAN_1
 62
     2
  6
CONTINUOUS
 10
-0.742071
 20
-0.923079
  0
VERTEX
  8
PLAN_1
 62
     2
  6
CONTINUOUS
 10
-0.737878
 20
-0.923079
  0
VERTEX
  8
PLAN_1
 62
     2
  6
CONTINUOUS
 10
-0.734736
 20
-0.923079
  0
VERTEX
  8
PLAN_1
 62
     2
  6
CONTINUOUS
 10
-0.731594
 20
-0.923602
  0
VERTEX
  8
PLAN_1
 62
     2
  6
CONTINUOUS
 10
-0.728972
 20
-0.924126
  0
VERTEX
  8
PLAN_1
 62
     2
  6
CONTINUOUS
 10
-0.726354
 20
-0.925173
  0
VERTEX
  8
PLAN_1
 62
     2
  6
CONTINUOUS
 10
-0.722685
 20
-0.927268
  0
VERTEX
  8
PLAN_1
 62
     2
  6
CONTINUOUS
 10
-0.720067
 20
-0.930409
  0
VERTEX
  8
PLAN_1
 62
     2
  6
CONTINUOUS
 10
-0.718496
 20
-0.933555
  0
VERTEX
  8
PLAN_1
 62
     2
  6
CONTINUOUS
 10
-0.717972
 20
-0.936173
  0
VERTEX
  8
PLAN_1
 62
     2
  6
CONTINUOUS
 10
-0.717449
 20
-0.938268
  0
VERTEX
  8
PLAN_1
 62
     2
  6
CONTINUOUS
 10
-0.717449
 20
-0.939843
  0
VERTEX
  8
PLAN_1
 62
     2
  6
CONTINUOUS
 10
-0.725831
 20
-0.939843
  0
SEQEND
  8
0
  0
POLYLINE
  8
PLAN_1
 62
     2
  6
CONTINUOUS
 66
     1
 40
0.003000
 41
0.003000
  0
VERTEX
  8
PLAN_1
 62
     2
  6
CONTINUOUS
 10
-0.664535
 20
-0.931984
  0
VERTEX
  8
PLAN_1
 62
     2
  6
CONTINUOUS
 10
-0.664535
 20
-0.967606
  0
VERTEX
  8
PLAN_1
 62
     2
  6
CONTINUOUS
 10
-0.664535
 20
-0.968654
  0
VERTEX
  8
PLAN_1
 62
     2
  6
CONTINUOUS
 10
-0.664012
 20
-0.969701
  0
VERTEX
  8
PLAN_1
 62
     2
  6
CONTINUOUS
 10
-0.663488
 20
-0.970748
  0
VERTEX
  8
PLAN_1
 62
     2
  6
CONTINUOUS
 10
-0.662441
 20
-0.971276
  0
VERTEX
  8
PLAN_1
 62
     2
  6
CONTINUOUS
 10
-0.661917
 20
-0.971276
  0
VERTEX
  8
PLAN_1
 62
     2
  6
CONTINUOUS
 10
-0.660870
 20
-0.971799
  0
VERTEX
  8
PLAN_1
 62
     2
  6
CONTINUOUS
 10
-0.659823
 20
-0.971799
  0
VERTEX
  8
PLAN_1
 62
     2
  6
CONTINUOUS
 10
-0.659299
 20
-0.971799
  0
VERTEX
  8
PLAN_1
 62
     2
  6
CONTINUOUS
 10
-0.656154
 20
-0.971799
  0
VERTEX
  8
PLAN_1
 62
     2
  6
CONTINUOUS
 10
-0.656154
 20
-0.978606
  0
VERTEX
  8
PLAN_1
 62
     2
  6
CONTINUOUS
 10
-0.657201
 20
-0.979130
  0
VERTEX
  8
PLAN_1
 62
     2
  6
CONTINUOUS
 10
-0.658252
 20
-0.979130
  0
VERTEX
  8
PLAN_1
 62
     2
  6
CONTINUOUS
 10
-0.659299
 20
-0.979130
  0
VERTEX
  8
PLAN_1
 62
     2
  6
CONTINUOUS
 10
-0.660346
 20
-0.979130
  0
VERTEX
  8
PLAN_1
 62
     2
  6
CONTINUOUS
 10
-0.661394
 20
-0.979130
  0
VERTEX
  8
PLAN_1
 62
     2
  6
CONTINUOUS
 10
-0.661917
 20
-0.979657
  0
VERTEX
  8
PLAN_1
 62
     2
  6
CONTINUOUS
 10
-0.662441
 20
-0.979657
  0
VERTEX
  8
PLAN_1
 62
     2
  6
CONTINUOUS
 10
-0.662965
 20
-0.979657
  0
VERTEX
  8
PLAN_1
 62
     2
  6
CONTINUOUS
 10
-0.666110
 20
-0.979130
  0
VERTEX
  8
PLAN_1
 62
     2
  6
CONTINUOUS
 10
-0.668205
 20
-0.978606
  0
VERTEX
  8
PLAN_1
 62
     2
  6
CONTINUOUS
 10
-0.670299
 20
-0.977559
  0
VERTEX
  8
PLAN_1
 62
     2
  6
CONTINUOUS
 10
-0.671870
 20
-0.975988
  0
VERTEX
  8
PLAN_1
 62
     2
  6
CONTINUOUS
 10
-0.672917
 20
-0.974417
  0
VERTEX
  8
PLAN_1
 62
     2
  6
CONTINUOUS
 10
-0.673441
 20
-0.972323
  0
VERTEX
  8
PLAN_1
 62
     2
  6
CONTINUOUS
 10
-0.673965
 20
-0.970224
  0
VERTEX
  8
PLAN_1
 62
     2
  6
CONTINUOUS
 10
-0.673965
 20
-0.968130
  0
VERTEX
  8
PLAN_1
 62
     2
  6
CONTINUOUS
 10
-0.673965
 20
-0.931984
  0
VERTEX
  8
PLAN_1
 62
     2
  6
CONTINUOUS
 10
-0.681299
 20
-0.931984
  0
VERTEX
  8
PLAN_1
 62
     2
  6
CONTINUOUS
 10
-0.681299
 20
-0.924126
  0
VERTEX
  8
PLAN_1
 62
     2
  6
CONTINUOUS
 10
-0.673965
 20
-0.924126
  0
VERTEX
  8
PLAN_1
 62
     2
  6
CONTINUOUS
 10
-0.673965
 20
-0.908933
  0
VERTEX
  8
PLAN_1
 62
     2
  6
CONTINUOUS
 10
-0.664535
 20
-0.908933
  0
VERTEX
  8
PLAN_1
 62
     2
  6
CONTINUOUS
 10
-0.664535
 20
-0.924126
  0
VERTEX
  8
PLAN_1
 62
     2
  6
CONTINUOUS
 10
-0.656154
 20
-0.924126
  0
VERTEX
  8
PLAN_1
 62
     2
  6
CONTINUOUS
 10
-0.656154
 20
-0.931984
  0
VERTEX
  8
PLAN_1
 62
     2
  6
CONTINUOUS
 10
-0.664535
 20
-0.931984
  0
SEQEND
  8
0
  0
POLYLINE
  8
PLAN_1
 62
     2
  6
CONTINUOUS
 66
     1
 40
0.003000
 41
0.003000
  0
VERTEX
  8
PLAN_1
 62
     2
  6
CONTINUOUS
 10
-0.647248
 20
-0.940890
  0
VERTEX
  8
PLAN_1
 62
     2
  6
CONTINUOUS
 10
-0.646724
 20
-0.936173
  0
VERTEX
  8
PLAN_1
 62
     2
  6
CONTINUOUS
 10
-0.645677
 20
-0.932508
  0
VERTEX
  8
PLAN_1
 62
     2
  6
CONTINUOUS
 10
-0.643583
 20
-0.929362
  0
VERTEX
  8
PLAN_1
 62
     2
  6
CONTINUOUS
 10
-0.640961
 20
-0.926744
  0
VERTEX
  8
PLAN_1
 62
     2
  6
CONTINUOUS
 10
-0.637819
 20
-0.925173
  0
VERTEX
  8
PLAN_1
 62
     2
  6
CONTINUOUS
 10
-0.634154
 20
-0.923602
  0
VERTEX
  8
PLAN_1
 62
     2
  6
CONTINUOUS
 10
-0.629437
 20
-0.923079
  0
VERTEX
  8
PLAN_1
 62
     2
  6
CONTINUOUS
 10
-0.624720
 20
-0.923079
  0
VERTEX
  8
PLAN_1
 62
     2
  6
CONTINUOUS
 10
-0.622626
 20
-0.923079
  0
VERTEX
  8
PLAN_1
 62
     2
  6
CONTINUOUS
 10
-0.620008
 20
-0.923079
  0
VERTEX
  8
PLAN_1
 62
     2
  6
CONTINUOUS
 10
-0.616339
 20
-0.924126
  0
VERTEX
  8
PLAN_1
 62
     2
  6
CONTINUOUS
 10
-0.613197
 20
-0.925173
  0
VERTEX
  8
PLAN_1
 62
     2
  6
CONTINUOUS
 10
-0.610055
 20
-0.927268
  0
VERTEX
  8
PLAN_1
 62
     2
  6
CONTINUOUS
 10
-0.607433
 20
-0.929886
  0
VERTEX
  8
PLAN_1
 62
     2
  6
CONTINUOUS
 10
-0.606386
 20
-0.931461
  0
VERTEX
  8
PLAN_1
 62
     2
  6
CONTINUOUS
 10
-0.605339
 20
-0.933555
  0
VERTEX
  8
PLAN_1
 62
     2
  6
CONTINUOUS
 10
-0.604815
 20
-0.935650
  0
VERTEX
  8
PLAN_1
 62
     2
  6
CONTINUOUS
 10
-0.604815
 20
-0.938268
  0
VERTEX
  8
PLAN_1
 62
     2
  6
CONTINUOUS
 10
-0.604815
 20
-0.969177
  0
VERTEX
  8
PLAN_1
 62
     2
  6
CONTINUOUS
 10
-0.604815
 20
-0.970224
  0
VERTEX
  8
PLAN_1
 62
     2
  6
CONTINUOUS
 10
-0.604291
 20
-0.970748
  0
VERTEX
  8
PLAN_1
 62
     2
  6
CONTINUOUS
 10
-0.604291
 20
-0.971276
  0
VERTEX
  8
PLAN_1
 62
     2
  6
CONTINUOUS
 10
-0.603768
 20
-0.971799
  0
VERTEX
  8
PLAN_1
 62
     2
  6
CONTINUOUS
 10
-0.603244
 20
-0.972323
  0
VERTEX
  8
PLAN_1
 62
     2
  6
CONTINUOUS
 10
-0.602720
 20
-0.972323
  0
VERTEX
  8
PLAN_1
 62
     2
  6
CONTINUOUS
 10
-0.602197
 20
-0.972323
  0
VERTEX
  8
PLAN_1
 62
     2
  6
CONTINUOUS
 10
-0.601673
 20
-0.972323
  0
VERTEX
  8
PLAN_1
 62
     2
  6
CONTINUOUS
 10
-0.601150
 20
-0.972323
  0
VERTEX
  8
PLAN_1
 62
     2
  6
CONTINUOUS
 10
-0.600622
 20
-0.972323
  0
VERTEX
  8
PLAN_1
 62
     2
  6
CONTINUOUS
 10
-0.600098
 20
-0.972323
  0
VERTEX
  8
PLAN_1
 62
     2
  6
CONTINUOUS
 10
-0.599575
 20
-0.972323
  0
VERTEX
  8
PLAN_1
 62
     2
  6
CONTINUOUS
 10
-0.599051
 20
-0.972323
  0
VERTEX
  8
PLAN_1
 62
     2
  6
CONTINUOUS
 10
-0.598528
 20
-0.972323
  0
VERTEX
  8
PLAN_1
 62
     2
  6
CONTINUOUS
 10
-0.598528
 20
-0.978606
  0
VERTEX
  8
PLAN_1
 62
     2
  6
CONTINUOUS
 10
-0.599051
 20
-0.979130
  0
VERTEX
  8
PLAN_1
 62
     2
  6
CONTINUOUS
 10
-0.599575
 20
-0.979130
  0
VERTEX
  8
PLAN_1
 62
     2
  6
CONTINUOUS
 10
-0.600098
 20
-0.979130
  0
VERTEX
  8
PLAN_1
 62
     2
  6
CONTINUOUS
 10
-0.601150
 20
-0.979657
  0
VERTEX
  8
PLAN_1
 62
     2
  6
CONTINUOUS
 10
-0.601673
 20
-0.979657
  0
VERTEX
  8
PLAN_1
 62
     2
  6
CONTINUOUS
 10
-0.602197
 20
-0.979657
  0
VERTEX
  8
PLAN_1
 62
     2
  6
CONTINUOUS
 10
-0.602720
 20
-0.979657
  0
VERTEX
  8
PLAN_1
 62
     2
  6
CONTINUOUS
 10
-0.603768
 20
-0.979657
  0
VERTEX
  8
PLAN_1
 62
     2
  6
CONTINUOUS
 10
-0.606386
 20
-0.979657
  0
VERTEX
  8
PLAN_1
 62
     2
  6
CONTINUOUS
 10
-0.608480
 20
-0.979130
  0
VERTEX
  8
PLAN_1
 62
     2
  6
CONTINUOUS
 10
-0.610055
 20
-0.978083
  0
VERTEX
  8
PLAN_1
 62
     2
  6
CONTINUOUS
 10
-0.611626
 20
-0.977035
  0
VERTEX
  8
PLAN_1
 62
     2
  6
CONTINUOUS
 10
-0.612150
 20
-0.975988
  0
VERTEX
  8
PLAN_1
 62
     2
  6
CONTINUOUS
 10
-0.612673
 20
-0.974417
  0
VERTEX
  8
PLAN_1
 62
     2
  6
CONTINUOUS
 10
-0.613197
 20
-0.972846
  0
VERTEX
  8
PLAN_1
 62
     2
  6
CONTINUOUS
 10
-0.613197
 20
-0.971276
  0
VERTEX
  8
PLAN_1
 62
     2
  6
CONTINUOUS
 10
-0.614768
 20
-0.972846
  0
VERTEX
  8
PLAN_1
 62
     2
  6
CONTINUOUS
 10
-0.616339
 20
-0.974417
  0
VERTEX
  8
PLAN_1
 62
     2
  6
CONTINUOUS
 10
-0.618437
 20
-0.975988
  0
VERTEX
  8
PLAN_1
 62
     2
  6
CONTINUOUS
 10
-0.620531
 20
-0.977559
  0
VERTEX
  8
PLAN_1
 62
     2
  6
CONTINUOUS
 10
-0.623150
 20
-0.978606
  0
VERTEX
  8
PLAN_1
 62
     2
  6
CONTINUOUS
 10
-0.625772
 20
-0.979657
  0
VERTEX
  8
PLAN_1
 62
     2
  6
CONTINUOUS
 10
-0.629437
 20
-0.980181
  0
VERTEX
  8
PLAN_1
 62
     2
  6
CONTINUOUS
 10
-0.633102
 20
-0.980181
  0
VERTEX
  8
PLAN_1
 62
     2
  6
CONTINUOUS
 10
-0.636772
 20
-0.980181
  0
VERTEX
  8
PLAN_1
 62
     2
  6
CONTINUOUS
 10
-0.639913
 20
-0.979130
  0
VERTEX
  8
PLAN_1
 62
     2
  6
CONTINUOUS
 10
-0.642535
 20
-0.978083
  0
VERTEX
  8
PLAN_1
 62
     2
  6
CONTINUOUS
 10
-0.645154
 20
-0.975988
  0
VERTEX
  8
PLAN_1
 62
     2
  6
CONTINUOUS
 10
-0.647248
 20
-0.973894
  0
VERTEX
  8
PLAN_1
 62
     2
  6
CONTINUOUS
 10
-0.648819
 20
-0.971276
  0
VERTEX
  8
PLAN_1
 62
     2
  6
CONTINUOUS
 10
-0.649870
 20
-0.968130
  0
VERTEX
  8
PLAN_1
 62
     2
  6
CONTINUOUS
 10
-0.649870
 20
-0.964465
  0
VERTEX
  8
PLAN_1
 62
     2
  6
CONTINUOUS
 10
-0.649870
 20
-0.962890
  0
VERTEX
  8
PLAN_1
 62
     2
  6
CONTINUOUS
 10
-0.649343
 20
-0.960272
  0
VERTEX
  8
PLAN_1
 62
     2
  6
CONTINUOUS
 10
-0.648819
 20
-0.957654
  0
VERTEX
  8
PLAN_1
 62
     2
  6
CONTINUOUS
 10
-0.647248
 20
-0.955035
  0
VERTEX
  8
PLAN_1
 62
     2
  6
CONTINUOUS
 10
-0.645154
 20
-0.952413
  0
VERTEX
  8
PLAN_1
 62
     2
  6
CONTINUOUS
 10
-0.642535
 20
-0.950319
  0
VERTEX
  8
PLAN_1
 62
     2
  6
CONTINUOUS
 10
-0.638343
 20
-0.948748
  0
VERTEX
  8
PLAN_1
 62
     2
  6
CONTINUOUS
 10
-0.633630
 20
-0.947701
  0
VERTEX
  8
PLAN_1
 62
     2
  6
CONTINUOUS
 10
-0.618437
 20
-0.945602
  0
VERTEX
  8
PLAN_1
 62
     2
  6
CONTINUOUS
 10
-0.617390
 20
-0.945602
  0
VERTEX
  8
PLAN_1
 62
     2
  6
CONTINUOUS
 10
-0.616862
 20
-0.945602
  0
VERTEX
  8
PLAN_1
 62
     2
  6
CONTINUOUS
 10
-0.615815
 20
-0.945079
  0
VERTEX
  8
PLAN_1
 62
     2
  6
CONTINUOUS
 10
-0.615291
 20
-0.944555
  0
VERTEX
  8
PLAN_1
 62
     2
  6
CONTINUOUS
 10
-0.614768
 20
-0.943508
  0
VERTEX
  8
PLAN_1
 62
     2
  6
CONTINUOUS
 10
-0.614244
 20
-0.942461
  0
VERTEX
  8
PLAN_1
 62
     2
  6
CONTINUOUS
 10
-0.613720
 20
-0.940890
  0
VERTEX
  8
PLAN_1
 62
     2
  6
CONTINUOUS
 10
-0.613720
 20
-0.939319
  0
VERTEX
  8
PLAN_1
 62
     2
  6
CONTINUOUS
 10
-0.613720
 20
-0.937220
  0
VERTEX
  8
PLAN_1
 62
     2
  6
CONTINUOUS
 10
-0.614244
 20
-0.935650
  0
VERTEX
  8
PLAN_1
 62
     2
  6
CONTINUOUS
 10
-0.615291
 20
-0.934079
  0
VERTEX
  8
PLAN_1
 62
     2
  6
CONTINUOUS
 10
-0.616862
 20
-0.932508
  0
VERTEX
  8
PLAN_1
 62
     2
  6
CONTINUOUS
 10
-0.618437
 20
-0.931461
  0
VERTEX
  8
PLAN_1
 62
     2
  6
CONTINUOUS
 10
-0.620531
 20
-0.930937
  0
VERTEX
  8
PLAN_1
 62
     2
  6
CONTINUOUS
 10
-0.623150
 20
-0.930409
  0
VERTEX
  8
PLAN_1
 62
     2
  6
CONTINUOUS
 10
-0.626295
 20
-0.930409
  0
VERTEX
  8
PLAN_1
 62
     2
  6
CONTINUOUS
 10
-0.629961
 20
-0.930937
  0
VERTEX
  8
PLAN_1
 62
     2
  6
CONTINUOUS
 10
-0.632579
 20
-0.931461
  0
VERTEX
  8
PLAN_1
 62
     2
  6
CONTINUOUS
 10
-0.634677
 20
-0.932508
  0
VERTEX
  8
PLAN_1
 62
     2
  6
CONTINUOUS
 10
-0.636248
 20
-0.934079
  0
VERTEX
  8
PLAN_1
 62
     2
  6
CONTINUOUS
 10
-0.637295
 20
-0.935650
  0
VERTEX
  8
PLAN_1
 62
     2
  6
CONTINUOUS
 10
-0.638343
 20
-0.937744
  0
VERTEX
  8
PLAN_1
 62
     2
  6
CONTINUOUS
 10
-0.638866
 20
-0.939319
  0
VERTEX
  8
PLAN_1
 62
     2
  6
CONTINUOUS
 10
-0.638866
 20
-0.940890
  0
VERTEX
  8
PLAN_1
 62
     2
  6
CONTINUOUS
 10
-0.647248
 20
-0.940890
  0
SEQEND
  8
0
  0
POLYLINE
  8
PLAN_1
 62
     2
  6
CONTINUOUS
 66
     1
 40
0.003000
 41
0.003000
  0
VERTEX
  8
PLAN_1
 62
     2
  6
CONTINUOUS
 10
-0.613720
 20
-0.950843
  0
VERTEX
  8
PLAN_1
 62
     2
  6
CONTINUOUS
 10
-0.614244
 20
-0.951366
  0
VERTEX
  8
PLAN_1
 62
     2
  6
CONTINUOUS
 10
-0.615291
 20
-0.951890
  0
VERTEX
  8
PLAN_1
 62
     2
  6
CONTINUOUS
 10
-0.616339
 20
-0.952413
  0
VERTEX
  8
PLAN_1
 62
     2
  6
CONTINUOUS
 10
-0.617913
 20
-0.952413
  0
VERTEX
  8
PLAN_1
 62
     2
  6
CONTINUOUS
 10
-0.619484
 20
-0.952937
  0
VERTEX
  8
PLAN_1
 62
     2
  6
CONTINUOUS
 10
-0.622102
 20
-0.953461
  0
VERTEX
  8
PLAN_1
 62
     2
  6
CONTINUOUS
 10
-0.625244
 20
-0.953984
  0
VERTEX
  8
PLAN_1
 62
     2
  6
CONTINUOUS
 10
-0.628913
 20
-0.954508
  0
VERTEX
  8
PLAN_1
 62
     2
  6
CONTINUOUS
 10
-0.630484
 20
-0.954508
  0
VERTEX
  8
PLAN_1
 62
     2
  6
CONTINUOUS
 10
-0.632579
 20
-0.955035
  0
VERTEX
  8
PLAN_1
 62
     2
  6
CONTINUOUS
 10
-0.634677
 20
-0.955559
  0
VERTEX
  8
PLAN_1
 62
     2
  6
CONTINUOUS
 10
-0.636248
 20
-0.956606
  0
VERTEX
  8
PLAN_1
 62
     2
  6
CONTINUOUS
 10
-0.637819
 20
-0.957654
  0
VERTEX
  8
PLAN_1
 62
     2
  6
CONTINUOUS
 10
-0.639390
 20
-0.959224
  0
VERTEX
  8
PLAN_1
 62
     2
  6
CONTINUOUS
 10
-0.640437
 20
-0.960795
  0
VERTEX
  8
PLAN_1
 62
     2
  6
CONTINUOUS
 10
-0.640437
 20
-0.963417
  0
VERTEX
  8
PLAN_1
 62
     2
  6
CONTINUOUS
 10
-0.640437
 20
-0.965512
  0
VERTEX
  8
PLAN_1
 62
     2
  6
CONTINUOUS
 10
-0.639913
 20
-0.967083
  0
VERTEX
  8
PLAN_1
 62
     2
  6
CONTINUOUS
 10
-0.639390
 20
-0.968654
  0
VERTEX
  8
PLAN_1
 62
     2
  6
CONTINUOUS
 10
-0.638343
 20
-0.970224
  0
VERTEX
  8
PLAN_1
 62
     2
  6
CONTINUOUS
 10
-0.636772
 20
-0.971276
  0
VERTEX
  8
PLAN_1
 62
     2
  6
CONTINUOUS
 10
-0.635201
 20
-0.972323
  0
VERTEX
  8
PLAN_1
 62
     2
  6
CONTINUOUS
 10
-0.633102
 20
-0.972846
  0
VERTEX
  8
PLAN_1
 62
     2
  6
CONTINUOUS
 10
-0.630484
 20
-0.972846
  0
VERTEX
  8
PLAN_1
 62
     2
  6
CONTINUOUS
 10
-0.627343
 20
-0.972323
  0
VERTEX
  8
PLAN_1
 62
     2
  6
CONTINUOUS
 10
-0.624197
 20
-0.971799
  0
VERTEX
  8
PLAN_1
 62
     2
  6
CONTINUOUS
 10
-0.621579
 20
-0.970748
  0
VERTEX
  8
PLAN_1
 62
     2
  6
CONTINUOUS
 10
-0.618961
 20
-0.969177
  0
VERTEX
  8
PLAN_1
 62
     2
  6
CONTINUOUS
 10
-0.616862
 20
-0.967083
  0
VERTEX
  8
PLAN_1
 62
     2
  6
CONTINUOUS
 10
-0.615291
 20
-0.964988
  0
VERTEX
  8
PLAN_1
 62
     2
  6
CONTINUOUS
 10
-0.614244
 20
-0.962366
  0
VERTEX
  8
PLAN_1
 62
     2
  6
CONTINUOUS
 10
-0.613720
 20
-0.959748
  0
VERTEX
  8
PLAN_1
 62
     2
  6
CONTINUOUS
 10
-0.613720
 20
-0.950843
  0
SEQEND
  8
0
  0
POLYLINE
  8
PLAN_1
 62
     2
  6
CONTINUOUS
 66
     1
 40
0.003000
 41
0.003000
  0
VERTEX
  8
PLAN_1
 62
     2
  6
CONTINUOUS
 10
-0.578622
 20
-0.978606
  0
VERTEX
  8
PLAN_1
 62
     2
  6
CONTINUOUS
 10
-0.588051
 20
-0.978606
  0
VERTEX
  8
PLAN_1
 62
     2
  6
CONTINUOUS
 10
-0.588051
 20
-0.924126
  0
VERTEX
  8
PLAN_1
 62
     2
  6
CONTINUOUS
 10
-0.579146
 20
-0.924126
  0
VERTEX
  8
PLAN_1
 62
     2
  6
CONTINUOUS
 10
-0.579146
 20
-0.933555
  0
VERTEX
  8
PLAN_1
 62
     2
  6
CONTINUOUS
 10
-0.577575
 20
-0.930937
  0
VERTEX
  8
PLAN_1
 62
     2
  6
CONTINUOUS
 10
-0.576000
 20
-0.928839
  0
VERTEX
  8
PLAN_1
 62
     2
  6
CONTINUOUS
 10
-0.574429
 20
-0.927268
  0
VERTEX
  8
PLAN_1
 62
     2
  6
CONTINUOUS
 10
-0.572335
 20
-0.925697
  0
VERTEX
  8
PLAN_1
 62
     2
  6
CONTINUOUS
 10
-0.570764
 20
-0.924650
  0
VERTEX
  8
PLAN_1
 62
     2
  6
CONTINUOUS
 10
-0.568669
 20
-0.923602
  0
VERTEX
  8
PLAN_1
 62
     2
  6
CONTINUOUS
 10
-0.566047
 20
-0.923079
  0
VERTEX
  8
PLAN_1
 62
     2
  6
CONTINUOUS
 10
-0.563953
 20
-0.923079
  0
VERTEX
  8
PLAN_1
 62
     2
  6
CONTINUOUS
 10
-0.563429
 20
-0.923079
  0
VERTEX
  8
PLAN_1
 62
     2
  6
CONTINUOUS
 10
-0.562906
 20
-0.923079
  0
VERTEX
  8
PLAN_1
 62
     2
  6
CONTINUOUS
 10
-0.562382
 20
-0.923079
  0
VERTEX
  8
PLAN_1
 62
     2
  6
CONTINUOUS
 10
-0.561858
 20
-0.923079
  0
VERTEX
  8
PLAN_1
 62
     2
  6
CONTINUOUS
 10
-0.561335
 20
-0.923079
  0
VERTEX
  8
PLAN_1
 62
     2
  6
CONTINUOUS
 10
-0.561335
 20
-0.932508
  0
VERTEX
  8
PLAN_1
 62
     2
  6
CONTINUOUS
 10
-0.565000
 20
-0.932508
  0
VERTEX
  8
PLAN_1
 62
     2
  6
CONTINUOUS
 10
-0.567618
 20
-0.933031
  0
VERTEX
  8
PLAN_1
 62
     2
  6
CONTINUOUS
 10
-0.570764
 20
-0.933555
  0
VERTEX
  8
PLAN_1
 62
     2
  6
CONTINUOUS
 10
-0.572858
 20
-0.935126
  0
VERTEX
  8
PLAN_1
 62
     2
  6
CONTINUOUS
 10
-0.574953
 20
-0.936697
  0
VERTEX
  8
PLAN_1
 62
     2
  6
CONTINUOUS
 10
-0.576524
 20
-0.939319
  0
VERTEX
  8
PLAN_1
 62
     2
  6
CONTINUOUS
 10
-0.577575
 20
-0.941413
  0
VERTEX
  8
PLAN_1
 62
     2
  6
CONTINUOUS
 10
-0.578622
 20
-0.944031
  0
VERTEX
  8
PLAN_1
 62
     2
  6
CONTINUOUS
 10
-0.578622
 20
-0.947177
  0
VERTEX
  8
PLAN_1
 62
     2
  6
CONTINUOUS
 10
-0.578622
 20
-0.978606
  0
SEQEND
  8
0
  0
POLYLINE
  8
PLAN_1
 62
     2
  6
CONTINUOUS
 66
     1
 40
0.003000
 41
0.003000
  0
VERTEX
  8
PLAN_1
 62
     2
  6
CONTINUOUS
 10
-0.555571
 20
-0.940890
  0
VERTEX
  8
PLAN_1
 62
     2
  6
CONTINUOUS
 10
-0.555047
 20
-0.936173
  0
VERTEX
  8
PLAN_1
 62
     2
  6
CONTINUOUS
 10
-0.554000
 20
-0.932508
  0
VERTEX
  8
PLAN_1
 62
     2
  6
CONTINUOUS
 10
-0.551902
 20
-0.929362
  0
VERTEX
  8
PLAN_1
 62
     2
  6
CONTINUOUS
 10
-0.549283
 20
-0.926744
  0
VERTEX
  8
PLAN_1
 62
     2
  6
CONTINUOUS
 10
-0.546142
 20
-0.925173
  0
VERTEX
  8
PLAN_1
 62
     2
  6
CONTINUOUS
 10
-0.542472
 20
-0.923602
  0
VERTEX
  8
PLAN_1
 62
     2
  6
CONTINUOUS
 10
-0.538283
 20
-0.923079
  0
VERTEX
  8
PLAN_1
 62
     2
  6
CONTINUOUS
 10
-0.533567
 20
-0.923079
  0
VERTEX
  8
PLAN_1
 62
     2
  6
CONTINUOUS
 10
-0.530949
 20
-0.923079
  0
VERTEX
  8
PLAN_1
 62
     2
  6
CONTINUOUS
 10
-0.528331
 20
-0.923079
  0
VERTEX
  8
PLAN_1
 62
     2
  6
CONTINUOUS
 10
-0.525185
 20
-0.924126
  0
VERTEX
  8
PLAN_1
 62
     2
  6
CONTINUOUS
 10
-0.521520
 20
-0.925173
  0
VERTEX
  8
PLAN_1
 62
     2
  6
CONTINUOUS
 10
-0.518374
 20
-0.927268
  0
VERTEX
  8
PLAN_1
 62
     2
  6
CONTINUOUS
 10
-0.515756
 20
-0.929886
  0
VERTEX
  8
PLAN_1
 62
     2
  6
CONTINUOUS
 10
-0.514709
 20
-0.931461
  0
VERTEX
  8
PLAN_1
 62
     2
  6
CONTINUOUS
 10
-0.513661
 20
-0.933555
  0
VERTEX
  8
PLAN_1
 62
     2
  6
CONTINUOUS
 10
-0.513138
 20
-0.935650
  0
VERTEX
  8
PLAN_1
 62
     2
  6
CONTINUOUS
 10
-0.513138
 20
-0.938268
  0
VERTEX
  8
PLAN_1
 62
     2
  6
CONTINUOUS
 10
-0.513138
 20
-0.969177
  0
VERTEX
  8
PLAN_1
 62
     2
  6
CONTINUOUS
 10
-0.513138
 20
-0.970224
  0
VERTEX
  8
PLAN_1
 62
     2
  6
CONTINUOUS
 10
-0.513138
 20
-0.970748
  0
VERTEX
  8
PLAN_1
 62
     2
  6
CONTINUOUS
 10
-0.512614
 20
-0.971276
  0
VERTEX
  8
PLAN_1
 62
     2
  6
CONTINUOUS
 10
-0.512091
 20
-0.971799
  0
VERTEX
  8
PLAN_1
 62
     2
  6
CONTINUOUS
 10
-0.512091
 20
-0.972323
  0
VERTEX
  8
PLAN_1
 62
     2
  6
CONTINUOUS
 10
-0.511563
 20
-0.972323
  0
VERTEX
  8
PLAN_1
 62
     2
  6
CONTINUOUS
 10
-0.511039
 20
-0.972323
  0
VERTEX
  8
PLAN_1
 62
     2
  6
CONTINUOUS
 10
-0.509992
 20
-0.972323
  0
VERTEX
  8
PLAN_1
 62
     2
  6
CONTINUOUS
 10
-0.509469
 20
-0.972323
  0
VERTEX
  8
PLAN_1
 62
     2
  6
CONTINUOUS
 10
-0.508945
 20
-0.972323
  0
VERTEX
  8
PLAN_1
 62
     2
  6
CONTINUOUS
 10
-0.508421
 20
-0.972323
  0
VERTEX
  8
PLAN_1
 62
     2
  6
CONTINUOUS
 10
-0.507898
 20
-0.972323
  0
VERTEX
  8
PLAN_1
 62
     2
  6
CONTINUOUS
 10
-0.507374
 20
-0.972323
  0
VERTEX
  8
PLAN_1
 62
     2
  6
CONTINUOUS
 10
-0.506850
 20
-0.972323
  0
VERTEX
  8
PLAN_1
 62
     2
  6
CONTINUOUS
 10
-0.506850
 20
-0.978606
  0
VERTEX
  8
PLAN_1
 62
     2
  6
CONTINUOUS
 10
-0.507898
 20
-0.979130
  0
VERTEX
  8
PLAN_1
 62
     2
  6
CONTINUOUS
 10
-0.508421
 20
-0.979130
  0
VERTEX
  8
PLAN_1
 62
     2
  6
CONTINUOUS
 10
-0.508945
 20
-0.979130
  0
VERTEX
  8
PLAN_1
 62
     2
  6
CONTINUOUS
 10
-0.509469
 20
-0.979657
  0
VERTEX
  8
PLAN_1
 62
     2
  6
CONTINUOUS
 10
-0.509992
 20
-0.979657
  0
VERTEX
  8
PLAN_1
 62
     2
  6
CONTINUOUS
 10
-0.510516
 20
-0.979657
  0
VERTEX
  8
PLAN_1
 62
     2
  6
CONTINUOUS
 10
-0.511563
 20
-0.979657
  0
VERTEX
  8
PLAN_1
 62
     2
  6
CONTINUOUS
 10
-0.512091
 20
-0.979657
  0
VERTEX
  8
PLAN_1
 62
     2
  6
CONTINUOUS
 10
-0.514709
 20
-0.979657
  0
VERTEX
  8
PLAN_1
 62
     2
  6
CONTINUOUS
 10
-0.516803
 20
-0.979130
  0
VERTEX
  8
PLAN_1
 62
     2
  6
CONTINUOUS
 10
-0.518898
 20
-0.978083
  0
VERTEX
  8
PLAN_1
 62
     2
  6
CONTINUOUS
 10
-0.519949
 20
-0.977035
  0
VERTEX
  8
PLAN_1
 62
     2
  6
CONTINUOUS
 10
-0.520472
 20
-0.975988
  0
VERTEX
  8
PLAN_1
 62
     2
  6
CONTINUOUS
 10
-0.521520
 20
-0.974417
  0
VERTEX
  8
PLAN_1
 62
     2
  6
CONTINUOUS
 10
-0.521520
 20
-0.972846
  0
VERTEX
  8
PLAN_1
 62
     2
  6
CONTINUOUS
 10
-0.521520
 20
-0.971276
  0
VERTEX
  8
PLAN_1
 62
     2
  6
CONTINUOUS
 10
-0.523091
 20
-0.972846
  0
VERTEX
  8
PLAN_1
 62
     2
  6
CONTINUOUS
 10
-0.524661
 20
-0.974417
  0
VERTEX
  8
PLAN_1
 62
     2
  6
CONTINUOUS
 10
-0.526756
 20
-0.975988
  0
VERTEX
  8
PLAN_1
 62
     2
  6
CONTINUOUS
 10
-0.528854
 20
-0.977559
  0
VERTEX
  8
PLAN_1
 62
     2
  6
CONTINUOUS
 10
-0.531472
 20
-0.978606
  0
VERTEX
  8
PLAN_1
 62
     2
  6
CONTINUOUS
 10
-0.534614
 20
-0.979657
  0
VERTEX
  8
PLAN_1
 62
     2
  6
CONTINUOUS
 10
-0.537760
 20
-0.980181
  0
VERTEX
  8
PLAN_1
 62
     2
  6
CONTINUOUS
 10
-0.541425
 20
-0.980181
  0
VERTEX
  8
PLAN_1
 62
     2
  6
CONTINUOUS
 10
-0.545094
 20
-0.980181
  0
VERTEX
  8
PLAN_1
 62
     2
  6
CONTINUOUS
 10
-0.548236
 20
-0.979130
  0
VERTEX
  8
PLAN_1
 62
     2
  6
CONTINUOUS
 10
-0.551378
 20
-0.978083
  0
VERTEX
  8
PLAN_1
 62
     2
  6
CONTINUOUS
 10
-0.553476
 20
-0.975988
  0
VERTEX
  8
PLAN_1
 62
     2
  6
CONTINUOUS
 10
-0.555571
 20
-0.973894
  0
VERTEX
  8
PLAN_1
 62
     2
  6
CONTINUOUS
 10
-0.557142
 20
-0.971276
  0
VERTEX
  8
PLAN_1
 62
     2
  6
CONTINUOUS
 10
-0.558189
 20
-0.968130
  0
VERTEX
  8
PLAN_1
 62
     2
  6
CONTINUOUS
 10
-0.558713
 20
-0.964465
  0
VERTEX
  8
PLAN_1
 62
     2
  6
CONTINUOUS
 10
-0.558189
 20
-0.962890
  0
VERTEX
  8
PLAN_1
 62
     2
  6
CONTINUOUS
 10
-0.558189
 20
-0.960272
  0
VERTEX
  8
PLAN_1
 62
     2
  6
CONTINUOUS
 10
-0.557142
 20
-0.957654
  0
VERTEX
  8
PLAN_1
 62
     2
  6
CONTINUOUS
 10
-0.556094
 20
-0.955035
  0
VERTEX
  8
PLAN_1
 62
     2
  6
CONTINUOUS
 10
-0.554000
 20
-0.952413
  0
VERTEX
  8
PLAN_1
 62
     2
  6
CONTINUOUS
 10
-0.550854
 20
-0.950319
  0
VERTEX
  8
PLAN_1
 62
     2
  6
CONTINUOUS
 10
-0.547189
 20
-0.948748
  0
VERTEX
  8
PLAN_1
 62
     2
  6
CONTINUOUS
 10
-0.541949
 20
-0.947701
  0
VERTEX
  8
PLAN_1
 62
     2
  6
CONTINUOUS
 10
-0.526756
 20
-0.945602
  0
VERTEX
  8
PLAN_1
 62
     2
  6
CONTINUOUS
 10
-0.526232
 20
-0.945602
  0
VERTEX
  8
PLAN_1
 62
     2
  6
CONTINUOUS
 10
-0.525185
 20
-0.945602
  0
VERTEX
  8
PLAN_1
 62
     2
  6
CONTINUOUS
 10
-0.524138
 20
-0.945079
  0
VERTEX
  8
PLAN_1
 62
     2
  6
CONTINUOUS
 10
-0.523614
 20
-0.944555
  0
VERTEX
  8
PLAN_1
 62
     2
  6
CONTINUOUS
 10
-0.523091
 20
-0.943508
  0
VERTEX
  8
PLAN_1
 62
     2
  6
CONTINUOUS
 10
-0.522567
 20
-0.942461
  0
VERTEX
  8
PLAN_1
 62
     2
  6
CONTINUOUS
 10
-0.522043
 20
-0.940890
  0
VERTEX
  8
PLAN_1
 62
     2
  6
CONTINUOUS
 10
-0.522043
 20
-0.939319
  0
VERTEX
  8
PLAN_1
 62
     2
  6
CONTINUOUS
 10
-0.522043
 20
-0.937220
  0
VERTEX
  8
PLAN_1
 62
     2
  6
CONTINUOUS
 10
-0.523091
 20
-0.935650
  0
VERTEX
  8
PLAN_1
 62
     2
  6
CONTINUOUS
 10
-0.523614
 20
-0.934079
  0
VERTEX
  8
PLAN_1
 62
     2
  6
CONTINUOUS
 10
-0.525185
 20
-0.932508
  0
VERTEX
  8
PLAN_1
 62
     2
  6
CONTINUOUS
 10
-0.527280
 20
-0.931461
  0
VERTEX
  8
PLAN_1
 62
     2
  6
CONTINUOUS
 10
-0.529378
 20
-0.930937
  0
VERTEX
  8
PLAN_1
 62
     2
  6
CONTINUOUS
 10
-0.531996
 20
-0.930409
  0
VERTEX
  8
PLAN_1
 62
     2
  6
CONTINUOUS
 10
-0.534614
 20
-0.930409
  0
VERTEX
  8
PLAN_1
 62
     2
  6
CONTINUOUS
 10
-0.538283
 20
-0.930937
  0
VERTEX
  8
PLAN_1
 62
     2
  6
CONTINUOUS
 10
-0.540902
 20
-0.931461
  0
VERTEX
  8
PLAN_1
 62
     2
  6
CONTINUOUS
 10
-0.542996
 20
-0.932508
  0
VERTEX
  8
PLAN_1
 62
     2
  6
CONTINUOUS
 10
-0.544571
 20
-0.934079
  0
VERTEX
  8
PLAN_1
 62
     2
  6
CONTINUOUS
 10
-0.546142
 20
-0.935650
  0
VERTEX
  8
PLAN_1
 62
     2
  6
CONTINUOUS
 10
-0.546665
 20
-0.937744
  0
VERTEX
  8
PLAN_1
 62
     2
  6
CONTINUOUS
 10
-0.547189
 20
-0.939319
  0
VERTEX
  8
PLAN_1
 62
     2
  6
CONTINUOUS
 10
-0.547189
 20
-0.940890
  0
VERTEX
  8
PLAN_1
 62
     2
  6
CONTINUOUS
 10
-0.555571
 20
-0.940890
  0
SEQEND
  8
0
  0
POLYLINE
  8
PLAN_1
 62
     2
  6
CONTINUOUS
 66
     1
 40
0.003000
 41
0.003000
  0
VERTEX
  8
PLAN_1
 62
     2
  6
CONTINUOUS
 10
-0.522043
 20
-0.950843
  0
VERTEX
  8
PLAN_1
 62
     2
  6
CONTINUOUS
 10
-0.523091
 20
-0.951366
  0
VERTEX
  8
PLAN_1
 62
     2
  6
CONTINUOUS
 10
-0.523614
 20
-0.951890
  0
VERTEX
  8
PLAN_1
 62
     2
  6
CONTINUOUS
 10
-0.524661
 20
-0.952413
  0
VERTEX
  8
PLAN_1
 62
     2
  6
CONTINUOUS
 10
-0.526232
 20
-0.952413
  0
VERTEX
  8
PLAN_1
 62
     2
  6
CONTINUOUS
 10
-0.527803
 20
-0.952937
  0
VERTEX
  8
PLAN_1
 62
     2
  6
CONTINUOUS
 10
-0.530425
 20
-0.953461
  0
VERTEX
  8
PLAN_1
 62
     2
  6
CONTINUOUS
 10
-0.533567
 20
-0.953984
  0
VERTEX
  8
PLAN_1
 62
     2
  6
CONTINUOUS
 10
-0.537236
 20
-0.954508
  0
VERTEX
  8
PLAN_1
 62
     2
  6
CONTINUOUS
 10
-0.539331
 20
-0.954508
  0
VERTEX
  8
PLAN_1
 62
     2
  6
CONTINUOUS
 10
-0.540902
 20
-0.955035
  0
VERTEX
  8
PLAN_1
 62
     2
  6
CONTINUOUS
 10
-0.542996
 20
-0.955559
  0
VERTEX
  8
PLAN_1
 62
     2
  6
CONTINUOUS
 10
-0.545094
 20
-0.956606
  0
VERTEX
  8
PLAN_1
 62
     2
  6
CONTINUOUS
 10
-0.546665
 20
-0.957654
  0
VERTEX
  8
PLAN_1
 62
     2
  6
CONTINUOUS
 10
-0.547713
 20
-0.959224
  0
VERTEX
  8
PLAN_1
 62
     2
  6
CONTINUOUS
 10
-0.548760
 20
-0.960795
  0
VERTEX
  8
PLAN_1
 62
     2
  6
CONTINUOUS
 10
-0.548760
 20
-0.963417
  0
VERTEX
  8
PLAN_1
 62
     2
  6
CONTINUOUS
 10
-0.548760
 20
-0.965512
  0
VERTEX
  8
PLAN_1
 62
     2
  6
CONTINUOUS
 10
-0.548236
 20
-0.967083
  0
VERTEX
  8
PLAN_1
 62
     2
  6
CONTINUOUS
 10
-0.547713
 20
-0.968654
  0
VERTEX
  8
PLAN_1
 62
     2
  6
CONTINUOUS
 10
-0.546665
 20
-0.970224
  0
VERTEX
  8
PLAN_1
 62
     2
  6
CONTINUOUS
 10
-0.545094
 20
-0.971276
  0
VERTEX
  8
PLAN_1
 62
     2
  6
CONTINUOUS
 10
-0.543520
 20
-0.972323
  0
VERTEX
  8
PLAN_1
 62
     2
  6
CONTINUOUS
 10
-0.541425
 20
-0.972846
  0
VERTEX
  8
PLAN_1
 62
     2
  6
CONTINUOUS
 10
-0.539331
 20
-0.972846
  0
VERTEX
  8
PLAN_1
 62
     2
  6
CONTINUOUS
 10
-0.536189
 20
-0.972323
  0
VERTEX
  8
PLAN_1
 62
     2
  6
CONTINUOUS
 10
-0.533043
 20
-0.971799
  0
VERTEX
  8
PLAN_1
 62
     2
  6
CONTINUOUS
 10
-0.529902
 20
-0.970748
  0
VERTEX
  8
PLAN_1
 62
     2
  6
CONTINUOUS
 10
-0.527280
 20
-0.969177
  0
VERTEX
  8
PLAN_1
 62
     2
  6
CONTINUOUS
 10
-0.525185
 20
-0.967083
  0
VERTEX
  8
PLAN_1
 62
     2
  6
CONTINUOUS
 10
-0.523614
 20
-0.964988
  0
VERTEX
  8
PLAN_1
 62
     2
  6
CONTINUOUS
 10
-0.522567
 20
-0.962366
  0
VERTEX
  8
PLAN_1
 62
     2
  6
CONTINUOUS
 10
-0.522043
 20
-0.959748
  0
VERTEX
  8
PLAN_1
 62
     2
  6
CONTINUOUS
 10
-0.522043
 20
-0.950843
  0
SEQEND
  8
0
  0
POLYLINE
  8
PLAN_1
 62
     2
  6
CONTINUOUS
 66
     1
 40
0.003000
 41
0.003000
  0
VERTEX
  8
PLAN_1
 62
     2
  6
CONTINUOUS
 10
-0.462319
 20
-0.978606
  0
VERTEX
  8
PLAN_1
 62
     2
  6
CONTINUOUS
 10
-0.462319
 20
-0.970748
  0
VERTEX
  8
PLAN_1
 62
     2
  6
CONTINUOUS
 10
-0.463894
 20
-0.972846
  0
VERTEX
  8
PLAN_1
 62
     2
  6
CONTINUOUS
 10
-0.465465
 20
-0.974941
  0
VERTEX
  8
PLAN_1
 62
     2
  6
CONTINUOUS
 10
-0.467035
 20
-0.976512
  0
VERTEX
  8
PLAN_1
 62
     2
  6
CONTINUOUS
 10
-0.469130
 20
-0.978083
  0
VERTEX
  8
PLAN_1
 62
     2
  6
CONTINUOUS
 10
-0.471228
 20
-0.979130
  0
VERTEX
  8
PLAN_1
 62
     2
  6
CONTINUOUS
 10
-0.473846
 20
-0.979657
  0
VERTEX
  8
PLAN_1
 62
     2
  6
CONTINUOUS
 10
-0.476465
 20
-0.980181
  0
VERTEX
  8
PLAN_1
 62
     2
  6
CONTINUOUS
 10
-0.479610
 20
-0.980181
  0
VERTEX
  8
PLAN_1
 62
     2
  6
CONTINUOUS
 10
-0.482752
 20
-0.980181
  0
VERTEX
  8
PLAN_1
 62
     2
  6
CONTINUOUS
 10
-0.485894
 20
-0.979657
  0
VERTEX
  8
PLAN_1
 62
     2
  6
CONTINUOUS
 10
-0.488516
 20
-0.978606
  0
VERTEX
  8
PLAN_1
 62
     2
  6
CONTINUOUS
 10
-0.491657
 20
-0.977035
  0
VERTEX
  8
PLAN_1
 62
     2
  6
CONTINUOUS
 10
-0.493752
 20
-0.974417
  0
VERTEX
  8
PLAN_1
 62
     2
  6
CONTINUOUS
 10
-0.495850
 20
-0.971799
  0
VERTEX
  8
PLAN_1
 62
     2
  6
CONTINUOUS
 10
-0.496898
 20
-0.968130
  0
VERTEX
  8
PLAN_1
 62
     2
  6
CONTINUOUS
 10
-0.497421
 20
-0.963417
  0
VERTEX
  8
PLAN_1
 62
     2
  6
CONTINUOUS
 10
-0.497421
 20
-0.924126
  0
VERTEX
  8
PLAN_1
 62
     2
  6
CONTINUOUS
 10
-0.487992
 20
-0.924126
  0
VERTEX
  8
PLAN_1
 62
     2
  6
CONTINUOUS
 10
-0.487992
 20
-0.960272
  0
VERTEX
  8
PLAN_1
 62
     2
  6
CONTINUOUS
 10
-0.487992
 20
-0.963417
  0
VERTEX
  8
PLAN_1
 62
     2
  6
CONTINUOUS
 10
-0.487469
 20
-0.966035
  0
VERTEX
  8
PLAN_1
 62
     2
  6
CONTINUOUS
 10
-0.486417
 20
-0.968130
  0
VERTEX
  8
PLAN_1
 62
     2
  6
CONTINUOUS
 10
-0.484846
 20
-0.969701
  0
VERTEX
  8
PLAN_1
 62
     2
  6
CONTINUOUS
 10
-0.483799
 20
-0.971276
  0
VERTEX
  8
PLAN_1
 62
     2
  6
CONTINUOUS
 10
-0.481705
 20
-0.971799
  0
VERTEX
  8
PLAN_1
 62
     2
  6
CONTINUOUS
 10
-0.479610
 20
-0.972323
  0
VERTEX
  8
PLAN_1
 62
     2
  6
CONTINUOUS
 10
-0.477512
 20
-0.972323
  0
VERTEX
  8
PLAN_1
 62
     2
  6
CONTINUOUS
 10
-0.473846
 20
-0.971799
  0
VERTEX
  8
PLAN_1
 62
     2
  6
CONTINUOUS
 10
-0.470177
 20
-0.970748
  0
VERTEX
  8
PLAN_1
 62
     2
  6
CONTINUOUS
 10
-0.467559
 20
-0.968654
  0
VERTEX
  8
PLAN_1
 62
     2
  6
CONTINUOUS
 10
-0.465988
 20
-0.966559
  0
VERTEX
  8
PLAN_1
 62
     2
  6
CONTINUOUS
 10
-0.464417
 20
-0.963417
  0
VERTEX
  8
PLAN_1
 62
     2
  6
CONTINUOUS
 10
-0.463370
 20
-0.960272
  0
VERTEX
  8
PLAN_1
 62
     2
  6
CONTINUOUS
 10
-0.462843
 20
-0.957654
  0
VERTEX
  8
PLAN_1
 62
     2
  6
CONTINUOUS
 10
-0.462843
 20
-0.954508
  0
VERTEX
  8
PLAN_1
 62
     2
  6
CONTINUOUS
 10
-0.462843
 20
-0.924126
  0
VERTEX
  8
PLAN_1
 62
     2
  6
CONTINUOUS
 10
-0.453413
 20
-0.924126
  0
VERTEX
  8
PLAN_1
 62
     2
  6
CONTINUOUS
 10
-0.453413
 20
-0.978606
  0
VERTEX
  8
PLAN_1
 62
     2
  6
CONTINUOUS
 10
-0.462319
 20
-0.978606
  0
SEQEND
  8
0
  0
POLYLINE
  8
PLAN_1
 62
     2
  6
CONTINUOUS
 66
     1
 40
0.003000
 41
0.003000
  0
VERTEX
  8
PLAN_1
 62
     2
  6
CONTINUOUS
 10
-0.394740
 20
-0.978606
  0
VERTEX
  8
PLAN_1
 62
     2
  6
CONTINUOUS
 10
-0.403122
 20
-0.978606
  0
VERTEX
  8
PLAN_1
 62
     2
  6
CONTINUOUS
 10
-0.403122
 20
-0.971276
  0
VERTEX
  8
PLAN_1
 62
     2
  6
CONTINUOUS
 10
-0.405217
 20
-0.973894
  0
VERTEX
  8
PLAN_1
 62
     2
  6
CONTINUOUS
 10
-0.406791
 20
-0.975988
  0
VERTEX
  8
PLAN_1
 62
     2
  6
CONTINUOUS
 10
-0.408886
 20
-0.977559
  0
VERTEX
  8
PLAN_1
 62
     2
  6
CONTINUOUS
 10
-0.410457
 20
-0.978606
  0
VERTEX
  8
PLAN_1
 62
     2
  6
CONTINUOUS
 10
-0.412551
 20
-0.979657
  0
VERTEX
  8
PLAN_1
 62
     2
  6
CONTINUOUS
 10
-0.414650
 20
-0.980181
  0
VERTEX
  8
PLAN_1
 62
     2
  6
CONTINUOUS
 10
-0.416744
 20
-0.980181
  0
VERTEX
  8
PLAN_1
 62
     2
  6
CONTINUOUS
 10
-0.418839
 20
-0.980181
  0
VERTEX
  8
PLAN_1
 62
     2
  6
CONTINUOUS
 10
-0.421980
 20
-0.980181
  0
VERTEX
  8
PLAN_1
 62
     2
  6
CONTINUOUS
 10
-0.425126
 20
-0.979657
  0
VERTEX
  8
PLAN_1
 62
     2
  6
CONTINUOUS
 10
-0.427744
 20
-0.978606
  0
VERTEX
  8
PLAN_1
 62
     2
  6
CONTINUOUS
 10
-0.430362
 20
-0.977559
  0
VERTEX
  8
PLAN_1
 62
     2
  6
CONTINUOUS
 10
-0.432461
 20
-0.975988
  0
VERTEX
  8
PLAN_1
 62
     2
  6
CONTINUOUS
 10
-0.434555
 20
-0.974417
  0
VERTEX
  8
PLAN_1
 62
     2
  6
CONTINUOUS
 10
-0.436126
 20
-0.972323
  0
VERTEX
  8
PLAN_1
 62
     2
  6
CONTINUOUS
 10
-0.437697
 20
-0.970224
  0
VERTEX
  8
PLAN_1
 62
     2
  6
CONTINUOUS
 10
-0.440319
 20
-0.965512
  0
VERTEX
  8
PLAN_1
 62
     2
  6
CONTINUOUS
 10
-0.441890
 20
-0.960272
  0
VERTEX
  8
PLAN_1
 62
     2
  6
CONTINUOUS
 10
-0.442413
 20
-0.955035
  0
VERTEX
  8
PLAN_1
 62
     2
  6
CONTINUOUS
 10
-0.442937
 20
-0.949795
  0
VERTEX
  8
PLAN_1
 62
     2
  6
CONTINUOUS
 10
-0.442413
 20
-0.944555
  0
VERTEX
  8
PLAN_1
 62
     2
  6
CONTINUOUS
 10
-0.441366
 20
-0.939319
  0
VERTEX
  8
PLAN_1
 62
     2
  6
CONTINUOUS
 10
-0.439272
 20
-0.934602
  0
VERTEX
  8
PLAN_1
 62
     2
  6
CONTINUOUS
 10
-0.436650
 20
-0.930409
  0
VERTEX
  8
PLAN_1
 62
     2
  6
CONTINUOUS
 10
-0.435602
 20
-0.928839
  0
VERTEX
  8
PLAN_1
 62
     2
  6
CONTINUOUS
 10
-0.433508
 20
-0.927268
  0
VERTEX
  8
PLAN_1
 62
     2
  6
CONTINUOUS
 10
-0.431937
 20
-0.926220
  0
VERTEX
  8
PLAN_1
 62
     2
  6
CONTINUOUS
 10
-0.429839
 20
-0.925173
  0
VERTEX
  8
PLAN_1
 62
     2
  6
CONTINUOUS
 10
-0.427744
 20
-0.924126
  0
VERTEX
  8
PLAN_1
 62
     2
  6
CONTINUOUS
 10
-0.425126
 20
-0.923602
  0
VERTEX
  8
PLAN_1
 62
     2
  6
CONTINUOUS
 10
-0.422508
 20
-0.923079
  0
VERTEX
  8
PLAN_1
 62
     2
  6
CONTINUOUS
 10
-0.419886
 20
-0.923079
  0
VERTEX
  8
PLAN_1
 62
     2
  6
CONTINUOUS
 10
-0.416744
 20
-0.923079
  0
VERTEX
  8
PLAN_1
 62
     2
  6
CONTINUOUS
 10
-0.413598
 20
-0.923602
  0
VERTEX
  8
PLAN_1
 62
     2
  6
CONTINUOUS
 10
-0.410980
 20
-0.925173
  0
VERTEX
  8
PLAN_1
 62
     2
  6
CONTINUOUS
 10
-0.408886
 20
-0.926220
  0
VERTEX
  8
PLAN_1
 62
     2
  6
CONTINUOUS
 10
-0.407315
 20
-0.927791
  0
VERTEX
  8
PLAN_1
 62
     2
  6
CONTINUOUS
 10
-0.405740
 20
-0.929362
  0
VERTEX
  8
PLAN_1
 62
     2
  6
CONTINUOUS
 10
-0.404693
 20
-0.930937
  0
VERTEX
  8
PLAN_1
 62
     2
  6
CONTINUOUS
 10
-0.403646
 20
-0.931984
  0
VERTEX
  8
PLAN_1
 62
     2
  6
CONTINUOUS
 10
-0.403646
 20
-0.931461
  0
VERTEX
  8
PLAN_1
 62
     2
  6
CONTINUOUS
 10
-0.403646
 20
-0.904217
  0
VERTEX
  8
PLAN_1
 62
     2
  6
CONTINUOUS
 10
-0.394740
 20
-0.904217
  0
VERTEX
  8
PLAN_1
 62
     2
  6
CONTINUOUS
 10
-0.394740
 20
-0.978606
  0
SEQEND
  8
0
  0
POLYLINE
  8
PLAN_1
 62
     2
  6
CONTINUOUS
 66
     1
 40
0.003000
 41
0.003000
  0
VERTEX
  8
PLAN_1
 62
     2
  6
CONTINUOUS
 10
-0.418839
 20
-0.972323
  0
VERTEX
  8
PLAN_1
 62
     2
  6
CONTINUOUS
 10
-0.416220
 20
-0.972323
  0
VERTEX
  8
PLAN_1
 62
     2
  6
CONTINUOUS
 10
-0.414122
 20
-0.971799
  0
VERTEX
  8
PLAN_1
 62
     2
  6
CONTINUOUS
 10
-0.411504
 20
-0.970224
  0
VERTEX
  8
PLAN_1
 62
     2
  6
CONTINUOUS
 10
-0.408886
 20
-0.968654
  0
VERTEX
  8
PLAN_1
 62
     2
  6
CONTINUOUS
 10
-0.406791
 20
-0.966035
  0
VERTEX
  8
PLAN_1
 62
     2
  6
CONTINUOUS
 10
-0.405217
 20
-0.962890
  0
VERTEX
  8
PLAN_1
 62
     2
  6
CONTINUOUS
 10
-0.404169
 20
-0.959224
  0
VERTEX
  8
PLAN_1
 62
     2
  6
CONTINUOUS
 10
-0.403646
 20
-0.953984
  0
VERTEX
  8
PLAN_1
 62
     2
  6
CONTINUOUS
 10
-0.403646
 20
-0.950843
  0
VERTEX
  8
PLAN_1
 62
     2
  6
CONTINUOUS
 10
-0.404169
 20
-0.946650
  0
VERTEX
  8
PLAN_1
 62
     2
  6
CONTINUOUS
 10
-0.404693
 20
-0.942984
  0
VERTEX
  8
PLAN_1
 62
     2
  6
CONTINUOUS
 10
-0.406268
 20
-0.939319
  0
VERTEX
  8
PLAN_1
 62
     2
  6
CONTINUOUS
 10
-0.407839
 20
-0.936173
  0
VERTEX
  8
PLAN_1
 62
     2
  6
CONTINUOUS
 10
-0.410457
 20
-0.933555
  0
VERTEX
  8
PLAN_1
 62
     2
  6
CONTINUOUS
 10
-0.412028
 20
-0.932508
  0
VERTEX
  8
PLAN_1
 62
     2
  6
CONTINUOUS
 10
-0.414122
 20
-0.931461
  0
VERTEX
  8
PLAN_1
 62
     2
  6
CONTINUOUS
 10
-0.416220
 20
-0.931461
  0
VERTEX
  8
PLAN_1
 62
     2
  6
CONTINUOUS
 10
-0.418315
 20
-0.930937
  0
VERTEX
  8
PLAN_1
 62
     2
  6
CONTINUOUS
 10
-0.420933
 20
-0.931461
  0
VERTEX
  8
PLAN_1
 62
     2
  6
CONTINUOUS
 10
-0.423031
 20
-0.931461
  0
VERTEX
  8
PLAN_1
 62
     2
  6
CONTINUOUS
 10
-0.425126
 20
-0.932508
  0
VERTEX
  8
PLAN_1
 62
     2
  6
CONTINUOUS
 10
-0.426697
 20
-0.933031
  0
VERTEX
  8
PLAN_1
 62
     2
  6
CONTINUOUS
 10
-0.429315
 20
-0.935650
  0
VERTEX
  8
PLAN_1
 62
     2
  6
CONTINUOUS
 10
-0.431413
 20
-0.938795
  0
VERTEX
  8
PLAN_1
 62
     2
  6
CONTINUOUS
 10
-0.432461
 20
-0.941937
  0
VERTEX
  8
PLAN_1
 62
     2
  6
CONTINUOUS
 10
-0.432984
 20
-0.945079
  0
VERTEX
  8
PLAN_1
 62
     2
  6
CONTINUOUS
 10
-0.433508
 20
-0.948748
  0
VERTEX
  8
PLAN_1
 62
     2
  6
CONTINUOUS
 10
-0.433508
 20
-0.951366
  0
VERTEX
  8
PLAN_1
 62
     2
  6
CONTINUOUS
 10
-0.432984
 20
-0.955559
  0
VERTEX
  8
PLAN_1
 62
     2
  6
CONTINUOUS
 10
-0.432461
 20
-0.959748
  0
VERTEX
  8
PLAN_1
 62
     2
  6
CONTINUOUS
 10
-0.431413
 20
-0.963417
  0
VERTEX
  8
PLAN_1
 62
     2
  6
CONTINUOUS
 10
-0.429839
 20
-0.966559
  0
VERTEX
  8
PLAN_1
 62
     2
  6
CONTINUOUS
 10
-0.427744
 20
-0.969177
  0
VERTEX
  8
PLAN_1
 62
     2
  6
CONTINUOUS
 10
-0.425126
 20
-0.970748
  0
VERTEX
  8
PLAN_1
 62
     2
  6
CONTINUOUS
 10
-0.421980
 20
-0.971799
  0
VERTEX
  8
PLAN_1
 62
     2
  6
CONTINUOUS
 10
-0.418839
 20
-0.972323
  0
SEQEND
  8
0
  0
SOLID
  8
PLAN_1
 62
     2
 10
-0.357020
 20
-0.917315
 11
-0.364354
 21
-0.917315
 12
-0.343925
 22
-0.902646
 13
-0.354925
 23
-0.902646
  0
POLYLINE
  8
PLAN_1
 62
     2
  6
CONTINUOUS
 66
     1
 40
0.003000
 41
0.003000
  0
VERTEX
  8
PLAN_1
 62
     2
  6
CONTINUOUS
 10
-0.357020
 20
-0.917315
  0
VERTEX
  8
PLAN_1
 62
     2
  6
CONTINUOUS
 10
-0.364354
 20
-0.917315
  0
VERTEX
  8
PLAN_1
 62
     2
  6
CONTINUOUS
 10
-0.354925
 20
-0.902646
  0
VERTEX
  8
PLAN_1
 62
     2
  6
CONTINUOUS
 10
-0.343925
 20
-0.902646
  0
VERTEX
  8
PLAN_1
 62
     2
  6
CONTINUOUS
 10
-0.357020
 20
-0.917315
  0
SEQEND
  8
0
  0
POLYLINE
  8
PLAN_1
 62
     2
  6
CONTINUOUS
 66
     1
 40
0.003000
 41
0.003000
  0
VERTEX
  8
PLAN_1
 62
     2
  6
CONTINUOUS
 10
-0.335543
 20
-0.961843
  0
VERTEX
  8
PLAN_1
 62
     2
  6
CONTINUOUS
 10
-0.336067
 20
-0.962890
  0
VERTEX
  8
PLAN_1
 62
     2
  6
CONTINUOUS
 10
-0.336067
 20
-0.964465
  0
VERTEX
  8
PLAN_1
 62
     2
  6
CONTINUOUS
 10
-0.337114
 20
-0.966559
  0
VERTEX
  8
PLAN_1
 62
     2
  6
CONTINUOUS
 10
-0.338161
 20
-0.968654
  0
VERTEX
  8
PLAN_1
 62
     2
  6
CONTINUOUS
 10
-0.339209
 20
-0.970748
  0
VERTEX
  8
PLAN_1
 62
     2
  6
CONTINUOUS
 10
-0.340780
 20
-0.972846
  0
VERTEX
  8
PLAN_1
 62
     2
  6
CONTINUOUS
 10
-0.342878
 20
-0.974941
  0
VERTEX
  8
PLAN_1
 62
     2
  6
CONTINUOUS
 10
-0.345496
 20
-0.976512
  0
VERTEX
  8
PLAN_1
 62
     2
  6
CONTINUOUS
 10
-0.346020
 20
-0.977035
  0
VERTEX
  8
PLAN_1
 62
     2
  6
CONTINUOUS
 10
-0.347591
 20
-0.978083
  0
VERTEX
  8
PLAN_1
 62
     2
  6
CONTINUOUS
 10
-0.348638
 20
-0.978606
  0
VERTEX
  8
PLAN_1
 62
     2
  6
CONTINUOUS
 10
-0.350213
 20
-0.979130
  0
VERTEX
  8
PLAN_1
 62
     2
  6
CONTINUOUS
 10
-0.352307
 20
-0.979657
  0
VERTEX
  8
PLAN_1
 62
     2
  6
CONTINUOUS
 10
-0.354402
 20
-0.980181
  0
VERTEX
  8
PLAN_1
 62
     2
  6
CONTINUOUS
 10
-0.357020
 20
-0.980181
  0
VERTEX
  8
PLAN_1
 62
     2
  6
CONTINUOUS
 10
-0.360165
 20
-0.980181
  0
VERTEX
  8
PLAN_1
 62
     2
  6
CONTINUOUS
 10
-0.362783
 20
-0.980181
  0
VERTEX
  8
PLAN_1
 62
     2
  6
CONTINUOUS
 10
-0.365402
 20
-0.979657
  0
VERTEX
  8
PLAN_1
 62
     2
  6
CONTINUOUS
 10
-0.368024
 20
-0.979130
  0
VERTEX
  8
PLAN_1
 62
     2
  6
CONTINUOUS
 10
-0.370118
 20
-0.978083
  0
VERTEX
  8
PLAN_1
 62
     2
  6
CONTINUOUS
 10
-0.372213
 20
-0.977035
  0
VERTEX
  8
PLAN_1
 62
     2
  6
CONTINUOUS
 10
-0.374311
 20
-0.975988
  0
VERTEX
  8
PLAN_1
 62
     2
  6
CONTINUOUS
 10
-0.376406
 20
-0.974417
  0
VERTEX
  8
PLAN_1
 62
     2
  6
CONTINUOUS
 10
-0.377976
 20
-0.972846
  0
VERTEX
  8
PLAN_1
 62
     2
  6
CONTINUOUS
 10
-0.380594
 20
-0.968654
  0
VERTEX
  8
PLAN_1
 62
     2
  6
CONTINUOUS
 10
-0.382693
 20
-0.963941
  0
VERTEX
  8
PLAN_1
 62
     2
  6
CONTINUOUS
 10
-0.383740
 20
-0.958701
  0
VERTEX
  8
PLAN_1
 62
     2
  6
CONTINUOUS
 10
-0.384264
 20
-0.952937
  0
VERTEX
  8
PLAN_1
 62
     2
  6
CONTINUOUS
 10
-0.384264
 20
-0.947177
  0
VERTEX
  8
PLAN_1
 62
     2
  6
CONTINUOUS
 10
-0.382693
 20
-0.941413
  0
VERTEX
  8
PLAN_1
 62
     2
  6
CONTINUOUS
 10
-0.381118
 20
-0.936173
  0
VERTEX
  8
PLAN_1
 62
     2
  6
CONTINUOUS
 10
-0.377976
 20
-0.931461
  0
VERTEX
  8
PLAN_1
 62
     2
  6
CONTINUOUS
 10
-0.376406
 20
-0.929886
  0
VERTEX
  8
PLAN_1
 62
     2
  6
CONTINUOUS
 10
-0.374311
 20
-0.927791
  0
VERTEX
  8
PLAN_1
 62
     2
  6
CONTINUOUS
 10
-0.372213
 20
-0.926220
  0
VERTEX
  8
PLAN_1
 62
     2
  6
CONTINUOUS
 10
-0.370118
 20
-0.925173
  0
VERTEX
  8
PLAN_1
 62
     2
  6
CONTINUOUS
 10
-0.367500
 20
-0.924126
  0
VERTEX
  8
PLAN_1
 62
     2
  6
CONTINUOUS
 10
-0.364354
 20
-0.923602
  0
VERTEX
  8
PLAN_1
 62
     2
  6
CONTINUOUS
 10
-0.361736
 20
-0.923079
  0
VERTEX
  8
PLAN_1
 62
     2
  6
CONTINUOUS
 10
-0.358071
 20
-0.923079
  0
VERTEX
  8
PLAN_1
 62
     2
  6
CONTINUOUS
 10
-0.355449
 20
-0.923079
  0
VERTEX
  8
PLAN_1
 62
     2
  6
CONTINUOUS
 10
-0.352831
 20
-0.923602
  0
VERTEX
  8
PLAN_1
 62
     2
  6
CONTINUOUS
 10
-0.350213
 20
-0.924126
  0
VERTEX
  8
PLAN_1
 62
     2
  6
CONTINUOUS
 10
-0.348114
 20
-0.925173
  0
VERTEX
  8
PLAN_1
 62
     2
  6
CONTINUOUS
 10
-0.346020
 20
-0.926220
  0
VERTEX
  8
PLAN_1
 62
     2
  6
CONTINUOUS
 10
-0.343925
 20
-0.927791
  0
VERTEX
  8
PLAN_1
 62
     2
  6
CONTINUOUS
 10
-0.342354
 20
-0.929362
  0
VERTEX
  8
PLAN_1
 62
     2
  6
CONTINUOUS
 10
-0.340780
 20
-0.931461
  0
VERTEX
  8
PLAN_1
 62
     2
  6
CONTINUOUS
 10
-0.338161
 20
-0.936173
  0
VERTEX
  8
PLAN_1
 62
     2
  6
CONTINUOUS
 10
-0.336067
 20
-0.941413
  0
VERTEX
  8
PLAN_1
 62
     2
  6
CONTINUOUS
 10
-0.335020
 20
-0.947701
  0
VERTEX
  8
PLAN_1
 62
     2
  6
CONTINUOUS
 10
-0.335020
 20
-0.954508
  0
VERTEX
  8
PLAN_1
 62
     2
  6
CONTINUOUS
 10
-0.374835
 20
-0.954508
  0
VERTEX
  8
PLAN_1
 62
     2
  6
CONTINUOUS
 10
-0.374311
 20
-0.958701
  0
VERTEX
  8
PLAN_1
 62
     2
  6
CONTINUOUS
 10
-0.373787
 20
-0.962366
  0
VERTEX
  8
PLAN_1
 62
     2
  6
CONTINUOUS
 10
-0.372213
 20
-0.964988
  0
VERTEX
  8
PLAN_1
 62
     2
  6
CONTINUOUS
 10
-0.370642
 20
-0.967606
  0
VERTEX
  8
PLAN_1
 62
     2
  6
CONTINUOUS
 10
-0.368547
 20
-0.969701
  0
VERTEX
  8
PLAN_1
 62
     2
  6
CONTINUOUS
 10
-0.365929
 20
-0.971276
  0
VERTEX
  8
PLAN_1
 62
     2
  6
CONTINUOUS
 10
-0.362260
 20
-0.972323
  0
VERTEX
  8
PLAN_1
 62
     2
  6
CONTINUOUS
 10
-0.358594
 20
-0.972323
  0
VERTEX
  8
PLAN_1
 62
     2
  6
CONTINUOUS
 10
-0.355972
 20
-0.972323
  0
VERTEX
  8
PLAN_1
 62
     2
  6
CONTINUOUS
 10
-0.352831
 20
-0.971276
  0
VERTEX
  8
PLAN_1
 62
     2
  6
CONTINUOUS
 10
-0.350736
 20
-0.970224
  0
VERTEX
  8
PLAN_1
 62
     2
  6
CONTINUOUS
 10
-0.348638
 20
-0.968654
  0
VERTEX
  8
PLAN_1
 62
     2
  6
CONTINUOUS
 10
-0.347067
 20
-0.967083
  0
VERTEX
  8
PLAN_1
 62
     2
  6
CONTINUOUS
 10
-0.346020
 20
-0.964988
  0
VERTEX
  8
PLAN_1
 62
     2
  6
CONTINUOUS
 10
-0.344972
 20
-0.963417
  0
VERTEX
  8
PLAN_1
 62
     2
  6
CONTINUOUS
 10
-0.344972
 20
-0.961843
  0
VERTEX
  8
PLAN_1
 62
     2
  6
CONTINUOUS
 10
-0.335543
 20
-0.961843
  0
SEQEND
  8
0
  0
POLYLINE
  8
PLAN_1
 62
     2
  6
CONTINUOUS
 66
     1
 40
0.003000
 41
0.003000
  0
VERTEX
  8
PLAN_1
 62
     2
  6
CONTINUOUS
 10
-0.344449
 20
-0.947177
  0
VERTEX
  8
PLAN_1
 62
     2
  6
CONTINUOUS
 10
-0.344449
 20
-0.944031
  0
VERTEX
  8
PLAN_1
 62
     2
  6
CONTINUOUS
 10
-0.345496
 20
-0.941413
  0
VERTEX
  8
PLAN_1
 62
     2
  6
CONTINUOUS
 10
-0.346543
 20
-0.938268
  0
VERTEX
  8
PLAN_1
 62
     2
  6
CONTINUOUS
 10
-0.348114
 20
-0.936173
  0
VERTEX
  8
PLAN_1
 62
     2
  6
CONTINUOUS
 10
-0.350213
 20
-0.934079
  0
VERTEX
  8
PLAN_1
 62
     2
  6
CONTINUOUS
 10
-0.352307
 20
-0.932508
  0
VERTEX
  8
PLAN_1
 62
     2
  6
CONTINUOUS
 10
-0.355449
 20
-0.931461
  0
VERTEX
  8
PLAN_1
 62
     2
  6
CONTINUOUS
 10
-0.359642
 20
-0.930937
  0
VERTEX
  8
PLAN_1
 62
     2
  6
CONTINUOUS
 10
-0.362783
 20
-0.931461
  0
VERTEX
  8
PLAN_1
 62
     2
  6
CONTINUOUS
 10
-0.365402
 20
-0.932508
  0
VERTEX
  8
PLAN_1
 62
     2
  6
CONTINUOUS
 10
-0.368024
 20
-0.934079
  0
VERTEX
  8
PLAN_1
 62
     2
  6
CONTINUOUS
 10
-0.370118
 20
-0.936173
  0
VERTEX
  8
PLAN_1
 62
     2
  6
CONTINUOUS
 10
-0.372213
 20
-0.938268
  0
VERTEX
  8
PLAN_1
 62
     2
  6
CONTINUOUS
 10
-0.373260
 20
-0.941413
  0
VERTEX
  8
PLAN_1
 62
     2
  6
CONTINUOUS
 10
-0.374311
 20
-0.944031
  0
VERTEX
  8
PLAN_1
 62
     2
  6
CONTINUOUS
 10
-0.374835
 20
-0.947177
  0
VERTEX
  8
PLAN_1
 62
     2
  6
CONTINUOUS
 10
-0.344449
 20
-0.947177
  0
SEQEND
  8
0
  0
POLYLINE
  8
PLAN_1
 62
     2
  6
CONTINUOUS
 66
     1
 40
0.003000
 41
0.003000
  0
VERTEX
  8
PLAN_1
 62
     2
  6
CONTINUOUS
 10
-0.293110
 20
-0.939843
  0
VERTEX
  8
PLAN_1
 62
     2
  6
CONTINUOUS
 10
-0.293110
 20
-0.938268
  0
VERTEX
  8
PLAN_1
 62
     2
  6
CONTINUOUS
 10
-0.293634
 20
-0.937220
  0
VERTEX
  8
PLAN_1
 62
     2
  6
CONTINUOUS
 10
-0.294157
 20
-0.935650
  0
VERTEX
  8
PLAN_1
 62
     2
  6
CONTINUOUS
 10
-0.295205
 20
-0.934079
  0
VERTEX
  8
PLAN_1
 62
     2
  6
CONTINUOUS
 10
-0.296776
 20
-0.932508
  0
VERTEX
  8
PLAN_1
 62
     2
  6
CONTINUOUS
 10
-0.298870
 20
-0.931461
  0
VERTEX
  8
PLAN_1
 62
     2
  6
CONTINUOUS
 10
-0.302016
 20
-0.930937
  0
VERTEX
  8
PLAN_1
 62
     2
  6
CONTINUOUS
 10
-0.305681
 20
-0.930937
  0
VERTEX
  8
PLAN_1
 62
     2
  6
CONTINUOUS
 10
-0.307252
 20
-0.930937
  0
VERTEX
  8
PLAN_1
 62
     2
  6
CONTINUOUS
 10
-0.308827
 20
-0.930937
  0
VERTEX
  8
PLAN_1
 62
     2
  6
CONTINUOUS
 10
-0.310398
 20
-0.931461
  0
VERTEX
  8
PLAN_1
 62
     2
  6
CONTINUOUS
 10
-0.312492
 20
-0.931984
  0
VERTEX
  8
PLAN_1
 62
     2
  6
CONTINUOUS
 10
-0.314063
 20
-0.933031
  0
VERTEX
  8
PLAN_1
 62
     2
  6
CONTINUOUS
 10
-0.315634
 20
-0.934602
  0
VERTEX
  8
PLAN_1
 62
     2
  6
CONTINUOUS
 10
-0.316157
 20
-0.936173
  0
VERTEX
  8
PLAN_1
 62
     2
  6
CONTINUOUS
 10
-0.316681
 20
-0.938268
  0
VERTEX
  8
PLAN_1
 62
     2
  6
CONTINUOUS
 10
-0.316681
 20
-0.939843
  0
VERTEX
  8
PLAN_1
 62
     2
  6
CONTINUOUS
 10
-0.316157
 20
-0.941413
  0
VERTEX
  8
PLAN_1
 62
     2
  6
CONTINUOUS
 10
-0.315634
 20
-0.942461
  0
VERTEX
  8
PLAN_1
 62
     2
  6
CONTINUOUS
 10
-0.314587
 20
-0.942984
  0
VERTEX
  8
PLAN_1
 62
     2
  6
CONTINUOUS
 10
-0.313016
 20
-0.944031
  0
VERTEX
  8
PLAN_1
 62
     2
  6
CONTINUOUS
 10
-0.311445
 20
-0.944555
  0
VERTEX
  8
PLAN_1
 62
     2
  6
CONTINUOUS
 10
-0.309350
 20
-0.945079
  0
VERTEX
  8
PLAN_1
 62
     2
  6
CONTINUOUS
 10
-0.306728
 20
-0.945602
  0
VERTEX
  8
PLAN_1
 62
     2
  6
CONTINUOUS
 10
-0.297823
 20
-0.948224
  0
VERTEX
  8
PLAN_1
 62
     2
  6
CONTINUOUS
 10
-0.293634
 20
-0.949272
  0
VERTEX
  8
PLAN_1
 62
     2
  6
CONTINUOUS
 10
-0.290488
 20
-0.950319
  0
VERTEX
  8
PLAN_1
 62
     2
  6
CONTINUOUS
 10
-0.287870
 20
-0.951890
  0
VERTEX
  8
PLAN_1
 62
     2
  6
CONTINUOUS
 10
-0.285776
 20
-0.953461
  0
VERTEX
  8
PLAN_1
 62
     2
  6
CONTINUOUS
 10
-0.284201
 20
-0.955559
  0
VERTEX
  8
PLAN_1
 62
     2
  6
CONTINUOUS
 10
-0.283154
 20
-0.957654
  0
VERTEX
  8
PLAN_1
 62
     2
  6
CONTINUOUS
 10
-0.282630
 20
-0.959748
  0
VERTEX
  8
PLAN_1
 62
     2
  6
CONTINUOUS
 10
-0.282630
 20
-0.962366
  0
VERTEX
  8
PLAN_1
 62
     2
  6
CONTINUOUS
 10
-0.282630
 20
-0.966559
  0
VERTEX
  8
PLAN_1
 62
     2
  6
CONTINUOUS
 10
-0.284201
 20
-0.969701
  0
VERTEX
  8
PLAN_1
 62
     2
  6
CONTINUOUS
 10
-0.285776
 20
-0.972846
  0
VERTEX
  8
PLAN_1
 62
     2
  6
CONTINUOUS
 10
-0.288394
 20
-0.975465
  0
VERTEX
  8
PLAN_1
 62
     2
  6
CONTINUOUS
 10
-0.291535
 20
-0.977559
  0
VERTEX
  8
PLAN_1
 62
     2
  6
CONTINUOUS
 10
-0.295205
 20
-0.979130
  0
VERTEX
  8
PLAN_1
 62
     2
  6
CONTINUOUS
 10
-0.299394
 20
-0.980181
  0
VERTEX
  8
PLAN_1
 62
     2
  6
CONTINUOUS
 10
-0.304110
 20
-0.980181
  0
VERTEX
  8
PLAN_1
 62
     2
  6
CONTINUOUS
 10
-0.307776
 20
-0.980181
  0
VERTEX
  8
PLAN_1
 62
     2
  6
CONTINUOUS
 10
-0.310921
 20
-0.979657
  0
VERTEX
  8
PLAN_1
 62
     2
  6
CONTINUOUS
 10
-0.314063
 20
-0.979130
  0
VERTEX
  8
PLAN_1
 62
     2
  6
CONTINUOUS
 10
-0.316681
 20
-0.978083
  0
VERTEX
  8
PLAN_1
 62
     2
  6
CONTINUOUS
 10
-0.318780
 20
-0.977035
  0
VERTEX
  8
PLAN_1
 62
     2
  6
CONTINUOUS
 10
-0.320874
 20
-0.975988
  0
VERTEX
  8
PLAN_1
 62
     2
  6
CONTINUOUS
 10
-0.322445
 20
-0.974941
  0
VERTEX
  8
PLAN_1
 62
     2
  6
CONTINUOUS
 10
-0.323492
 20
-0.973370
  0
VERTEX
  8
PLAN_1
 62
     2
  6
CONTINUOUS
 10
-0.325591
 20
-0.970224
  0
VERTEX
  8
PLAN_1
 62
     2
  6
CONTINUOUS
 10
-0.326638
 20
-0.967083
  0
VERTEX
  8
PLAN_1
 62
     2
  6
CONTINUOUS
 10
-0.327161
 20
-0.963941
  0
VERTEX
  8
PLAN_1
 62
     2
  6
CONTINUOUS
 10
-0.327161
 20
-0.961319
  0
VERTEX
  8
PLAN_1
 62
     2
  6
CONTINUOUS
 10
-0.318256
 20
-0.961319
  0
VERTEX
  8
PLAN_1
 62
     2
  6
CONTINUOUS
 10
-0.318256
 20
-0.962890
  0
VERTEX
  8
PLAN_1
 62
     2
  6
CONTINUOUS
 10
-0.317732
 20
-0.964988
  0
VERTEX
  8
PLAN_1
 62
     2
  6
CONTINUOUS
 10
-0.317209
 20
-0.966559
  0
VERTEX
  8
PLAN_1
 62
     2
  6
CONTINUOUS
 10
-0.316157
 20
-0.968654
  0
VERTEX
  8
PLAN_1
 62
     2
  6
CONTINUOUS
 10
-0.314063
 20
-0.970224
  0
VERTEX
  8
PLAN_1
 62
     2
  6
CONTINUOUS
 10
-0.311445
 20
-0.971276
  0
VERTEX
  8
PLAN_1
 62
     2
  6
CONTINUOUS
 10
-0.308299
 20
-0.972323
  0
VERTEX
  8
PLAN_1
 62
     2
  6
CONTINUOUS
 10
-0.304110
 20
-0.972323
  0
VERTEX
  8
PLAN_1
 62
     2
  6
CONTINUOUS
 10
-0.301492
 20
-0.972323
  0
VERTEX
  8
PLAN_1
 62
     2
  6
CONTINUOUS
 10
-0.299394
 20
-0.971799
  0
VERTEX
  8
PLAN_1
 62
     2
  6
CONTINUOUS
 10
-0.297299
 20
-0.971276
  0
VERTEX
  8
PLAN_1
 62
     2
  6
CONTINUOUS
 10
-0.295205
 20
-0.970224
  0
VERTEX
  8
PLAN_1
 62
     2
  6
CONTINUOUS
 10
-0.293634
 20
-0.969177
  0
VERTEX
  8
PLAN_1
 62
     2
  6
CONTINUOUS
 10
-0.292587
 20
-0.967606
  0
VERTEX
  8
PLAN_1
 62
     2
  6
CONTINUOUS
 10
-0.292059
 20
-0.966035
  0
VERTEX
  8
PLAN_1
 62
     2
  6
CONTINUOUS
 10
-0.291535
 20
-0.963941
  0
VERTEX
  8
PLAN_1
 62
     2
  6
CONTINUOUS
 10
-0.291535
 20
-0.962366
  0
VERTEX
  8
PLAN_1
 62
     2
  6
CONTINUOUS
 10
-0.292059
 20
-0.960795
  0
VERTEX
  8
PLAN_1
 62
     2
  6
CONTINUOUS
 10
-0.293110
 20
-0.959748
  0
VERTEX
  8
PLAN_1
 62
     2
  6
CONTINUOUS
 10
-0.294157
 20
-0.959224
  0
VERTEX
  8
PLAN_1
 62
     2
  6
CONTINUOUS
 10
-0.295728
 20
-0.958177
  0
VERTEX
  8
PLAN_1
 62
     2
  6
CONTINUOUS
 10
-0.297299
 20
-0.957654
  0
VERTEX
  8
PLAN_1
 62
     2
  6
CONTINUOUS
 10
-0.299394
 20
-0.956606
  0
VERTEX
  8
PLAN_1
 62
     2
  6
CONTINUOUS
 10
-0.302539
 20
-0.956083
  0
VERTEX
  8
PLAN_1
 62
     2
  6
CONTINUOUS
 10
-0.313016
 20
-0.953461
  0
VERTEX
  8
PLAN_1
 62
     2
  6
CONTINUOUS
 10
-0.315634
 20
-0.952413
  0
VERTEX
  8
PLAN_1
 62
     2
  6
CONTINUOUS
 10
-0.318256
 20
-0.951366
  0
VERTEX
  8
PLAN_1
 62
     2
  6
CONTINUOUS
 10
-0.320350
 20
-0.950319
  0
VERTEX
  8
PLAN_1
 62
     2
  6
CONTINUOUS
 10
-0.321921
 20
-0.948748
  0
VERTEX
  8
PLAN_1
 62
     2
  6
CONTINUOUS
 10
-0.323492
 20
-0.947177
  0
VERTEX
  8
PLAN_1
 62
     2
  6
CONTINUOUS
 10
-0.324539
 20
-0.945079
  0
VERTEX
  8
PLAN_1
 62
     2
  6
CONTINUOUS
 10
-0.325591
 20
-0.942984
  0
VERTEX
  8
PLAN_1
 62
     2
  6
CONTINUOUS
 10
-0.325591
 20
-0.940366
  0
VERTEX
  8
PLAN_1
 62
     2
  6
CONTINUOUS
 10
-0.325067
 20
-0.936173
  0
VERTEX
  8
PLAN_1
 62
     2
  6
CONTINUOUS
 10
-0.324016
 20
-0.932508
  0
VERTEX
  8
PLAN_1
 62
     2
  6
CONTINUOUS
 10
-0.321921
 20
-0.929362
  0
VERTEX
  8
PLAN_1
 62
     2
  6
CONTINUOUS
 10
-0.319303
 20
-0.927268
  0
VERTEX
  8
PLAN_1
 62
     2
  6
CONTINUOUS
 10
-0.316157
 20
-0.925173
  0
VERTEX
  8
PLAN_1
 62
     2
  6
CONTINUOUS
 10
-0.312492
 20
-0.923602
  0
VERTEX
  8
PLAN_1
 62
     2
  6
CONTINUOUS
 10
-0.308827
 20
-0.923079
  0
VERTEX
  8
PLAN_1
 62
     2
  6
CONTINUOUS
 10
-0.305157
 20
-0.923079
  0
VERTEX
  8
PLAN_1
 62
     2
  6
CONTINUOUS
 10
-0.301492
 20
-0.923079
  0
VERTEX
  8
PLAN_1
 62
     2
  6
CONTINUOUS
 10
-0.298346
 20
-0.923602
  0
VERTEX
  8
PLAN_1
 62
     2
  6
CONTINUOUS
 10
-0.295728
 20
-0.924126
  0
VERTEX
  8
PLAN_1
 62
     2
  6
CONTINUOUS
 10
-0.293634
 20
-0.925173
  0
VERTEX
  8
PLAN_1
 62
     2
  6
CONTINUOUS
 10
-0.289965
 20
-0.927268
  0
VERTEX
  8
PLAN_1
 62
     2
  6
CONTINUOUS
 10
-0.287346
 20
-0.930409
  0
VERTEX
  8
PLAN_1
 62
     2
  6
CONTINUOUS
 10
-0.285776
 20
-0.933555
  0
VERTEX
  8
PLAN_1
 62
     2
  6
CONTINUOUS
 10
-0.284728
 20
-0.936173
  0
VERTEX
  8
PLAN_1
 62
     2
  6
CONTINUOUS
 10
-0.284201
 20
-0.938268
  0
VERTEX
  8
PLAN_1
 62
     2
  6
CONTINUOUS
 10
-0.284201
 20
-0.939843
  0
VERTEX
  8
PLAN_1
 62
     2
  6
CONTINUOUS
 10
-0.293110
 20
-0.939843
  0
SEQEND
  8
0
  0
POLYLINE
  8
PLAN_1
 62
     2
  6
CONTINUOUS
 66
     1
 40
0.003000
 41
0.003000
  0
VERTEX
  8
PLAN_1
 62
     2
  6
CONTINUOUS
 10
-0.243866
 20
-0.924126
  0
VERTEX
  8
PLAN_1
 62
     2
  6
CONTINUOUS
 10
-0.234957
 20
-0.924126
  0
VERTEX
  8
PLAN_1
 62
     2
  6
CONTINUOUS
 10
-0.234957
 20
-0.931984
  0
VERTEX
  8
PLAN_1
 62
     2
  6
CONTINUOUS
 10
-0.233909
 20
-0.930937
  0
VERTEX
  8
PLAN_1
 62
     2
  6
CONTINUOUS
 10
-0.232862
 20
-0.929362
  0
VERTEX
  8
PLAN_1
 62
     2
  6
CONTINUOUS
 10
-0.231291
 20
-0.927791
  0
VERTEX
  8
PLAN_1
 62
     2
  6
CONTINUOUS
 10
-0.229720
 20
-0.926220
  0
VERTEX
  8
PLAN_1
 62
     2
  6
CONTINUOUS
 10
-0.227626
 20
-0.925173
  0
VERTEX
  8
PLAN_1
 62
     2
  6
CONTINUOUS
 10
-0.225004
 20
-0.923602
  0
VERTEX
  8
PLAN_1
 62
     2
  6
CONTINUOUS
 10
-0.221862
 20
-0.923079
  0
VERTEX
  8
PLAN_1
 62
     2
  6
CONTINUOUS
 10
-0.218717
 20
-0.923079
  0
VERTEX
  8
PLAN_1
 62
     2
  6
CONTINUOUS
 10
-0.216098
 20
-0.923079
  0
VERTEX
  8
PLAN_1
 62
     2
  6
CONTINUOUS
 10
-0.213480
 20
-0.923602
  0
VERTEX
  8
PLAN_1
 62
     2
  6
CONTINUOUS
 10
-0.210858
 20
-0.924126
  0
VERTEX
  8
PLAN_1
 62
     2
  6
CONTINUOUS
 10
-0.208764
 20
-0.925173
  0
VERTEX
  8
PLAN_1
 62
     2
  6
CONTINUOUS
 10
-0.205098
 20
-0.927268
  0
VERTEX
  8
PLAN_1
 62
     2
  6
CONTINUOUS
 10
-0.201953
 20
-0.930409
  0
VERTEX
  8
PLAN_1
 62
     2
  6
CONTINUOUS
 10
-0.199335
 20
-0.934602
  0
VERTEX
  8
PLAN_1
 62
     2
  6
CONTINUOUS
 10
-0.197240
 20
-0.939319
  0
VERTEX
  8
PLAN_1
 62
     2
  6
CONTINUOUS
 10
-0.196193
 20
-0.944555
  0
VERTEX
  8
PLAN_1
 62
     2
  6
CONTINUOUS
 10
-0.195669
 20
-0.949795
  0
VERTEX
  8
PLAN_1
 62
     2
  6
CONTINUOUS
 10
-0.196193
 20
-0.955035
  0
VERTEX
  8
PLAN_1
 62
     2
  6
CONTINUOUS
 10
-0.197240
 20
-0.960272
  0
VERTEX
  8
PLAN_1
 62
     2
  6
CONTINUOUS
 10
-0.198287
 20
-0.965512
  0
VERTEX
  8
PLAN_1
 62
     2
  6
CONTINUOUS
 10
-0.200906
 20
-0.970224
  0
VERTEX
  8
PLAN_1
 62
     2
  6
CONTINUOUS
 10
-0.202476
 20
-0.972323
  0
VERTEX
  8
PLAN_1
 62
     2
  6
CONTINUOUS
 10
-0.204051
 20
-0.974417
  0
VERTEX
  8
PLAN_1
 62
     2
  6
CONTINUOUS
 10
-0.206146
 20
-0.975988
  0
VERTEX
  8
PLAN_1
 62
     2
  6
CONTINUOUS
 10
-0.208240
 20
-0.977559
  0
VERTEX
  8
PLAN_1
 62
     2
  6
CONTINUOUS
 10
-0.210858
 20
-0.978606
  0
VERTEX
  8
PLAN_1
 62
     2
  6
CONTINUOUS
 10
-0.213480
 20
-0.979657
  0
VERTEX
  8
PLAN_1
 62
     2
  6
CONTINUOUS
 10
-0.216622
 20
-0.980181
  0
VERTEX
  8
PLAN_1
 62
     2
  6
CONTINUOUS
 10
-0.219768
 20
-0.980181
  0
VERTEX
  8
PLAN_1
 62
     2
  6
CONTINUOUS
 10
-0.222386
 20
-0.980181
  0
VERTEX
  8
PLAN_1
 62
     2
  6
CONTINUOUS
 10
-0.225004
 20
-0.979657
  0
VERTEX
  8
PLAN_1
 62
     2
  6
CONTINUOUS
 10
-0.227098
 20
-0.979130
  0
VERTEX
  8
PLAN_1
 62
     2
  6
CONTINUOUS
 10
-0.228673
 20
-0.978083
  0
VERTEX
  8
PLAN_1
 62
     2
  6
CONTINUOUS
 10
-0.230768
 20
-0.977035
  0
VERTEX
  8
PLAN_1
 62
     2
  6
CONTINUOUS
 10
-0.231815
 20
-0.975988
  0
VERTEX
  8
PLAN_1
 62
     2
  6
CONTINUOUS
 10
-0.233386
 20
-0.974417
  0
VERTEX
  8
PLAN_1
 62
     2
  6
CONTINUOUS
 10
-0.234433
 20
-0.972846
  0
VERTEX
  8
PLAN_1
 62
     2
  6
CONTINUOUS
 10
-0.234433
 20
-1.000087
  0
VERTEX
  8
PLAN_1
 62
     2
  6
CONTINUOUS
 10
-0.243866
 20
-1.000087
  0
VERTEX
  8
PLAN_1
 62
     2
  6
CONTINUOUS
 10
-0.243866
 20
-0.924126
  0
SEQEND
  8
0
  0
POLYLINE
  8
PLAN_1
 62
     2
  6
CONTINUOUS
 66
     1
 40
0.003000
 41
0.003000
  0
VERTEX
  8
PLAN_1
 62
     2
  6
CONTINUOUS
 10
-0.219768
 20
-0.972323
  0
VERTEX
  8
PLAN_1
 62
     2
  6
CONTINUOUS
 10
-0.216622
 20
-0.971799
  0
VERTEX
  8
PLAN_1
 62
     2
  6
CONTINUOUS
 10
-0.213480
 20
-0.970748
  0
VERTEX
  8
PLAN_1
 62
     2
  6
CONTINUOUS
 10
-0.210858
 20
-0.969177
  0
VERTEX
  8
PLAN_1
 62
     2
  6
CONTINUOUS
 10
-0.208764
 20
-0.966559
  0
VERTEX
  8
PLAN_1
 62
     2
  6
CONTINUOUS
 10
-0.207193
 20
-0.963417
  0
VERTEX
  8
PLAN_1
 62
     2
  6
CONTINUOUS
 10
-0.206146
 20
-0.959748
  0
VERTEX
  8
PLAN_1
 62
     2
  6
CONTINUOUS
 10
-0.205622
 20
-0.955559
  0
VERTEX
  8
PLAN_1
 62
     2
  6
CONTINUOUS
 10
-0.205098
 20
-0.951366
  0
VERTEX
  8
PLAN_1
 62
     2
  6
CONTINUOUS
 10
-0.205622
 20
-0.948748
  0
VERTEX
  8
PLAN_1
 62
     2
  6
CONTINUOUS
 10
-0.205622
 20
-0.945079
  0
VERTEX
  8
PLAN_1
 62
     2
  6
CONTINUOUS
 10
-0.206146
 20
-0.941937
  0
VERTEX
  8
PLAN_1
 62
     2
  6
CONTINUOUS
 10
-0.207717
 20
-0.938795
  0
VERTEX
  8
PLAN_1
 62
     2
  6
CONTINUOUS
 10
-0.209287
 20
-0.935650
  0
VERTEX
  8
PLAN_1
 62
     2
  6
CONTINUOUS
 10
-0.211909
 20
-0.933031
  0
VERTEX
  8
PLAN_1
 62
     2
  6
CONTINUOUS
 10
-0.213480
 20
-0.932508
  0
VERTEX
  8
PLAN_1
 62
     2
  6
CONTINUOUS
 10
-0.215575
 20
-0.931461
  0
VERTEX
  8
PLAN_1
 62
     2
  6
CONTINUOUS
 10
-0.217669
 20
-0.931461
  0
VERTEX
  8
PLAN_1
 62
     2
  6
CONTINUOUS
 10
-0.220291
 20
-0.930937
  0
VERTEX
  8
PLAN_1
 62
     2
  6
CONTINUOUS
 10
-0.222386
 20
-0.931461
  0
VERTEX
  8
PLAN_1
 62
     2
  6
CONTINUOUS
 10
-0.224480
 20
-0.931461
  0
VERTEX
  8
PLAN_1
 62
     2
  6
CONTINUOUS
 10
-0.226575
 20
-0.932508
  0
VERTEX
  8
PLAN_1
 62
     2
  6
CONTINUOUS
 10
-0.228150
 20
-0.933555
  0
VERTEX
  8
PLAN_1
 62
     2
  6
CONTINUOUS
 10
-0.230768
 20
-0.936173
  0
VERTEX
  8
PLAN_1
 62
     2
  6
CONTINUOUS
 10
-0.232339
 20
-0.939319
  0
VERTEX
  8
PLAN_1
 62
     2
  6
CONTINUOUS
 10
-0.233909
 20
-0.942984
  0
VERTEX
  8
PLAN_1
 62
     2
  6
CONTINUOUS
 10
-0.234433
 20
-0.946650
  0
VERTEX
  8
PLAN_1
 62
     2
  6
CONTINUOUS
 10
-0.234957
 20
-0.950843
  0
VERTEX
  8
PLAN_1
 62
     2
  6
CONTINUOUS
 10
-0.234957
 20
-0.953984
  0
VERTEX
  8
PLAN_1
 62
     2
  6
CONTINUOUS
 10
-0.234433
 20
-0.959224
  0
VERTEX
  8
PLAN_1
 62
     2
  6
CONTINUOUS
 10
-0.233386
 20
-0.962890
  0
VERTEX
  8
PLAN_1
 62
     2
  6
CONTINUOUS
 10
-0.231815
 20
-0.966035
  0
VERTEX
  8
PLAN_1
 62
     2
  6
CONTINUOUS
 10
-0.229720
 20
-0.968654
  0
VERTEX
  8
PLAN_1
 62
     2
  6
CONTINUOUS
 10
-0.227098
 20
-0.970224
  0
VERTEX
  8
PLAN_1
 62
     2
  6
CONTINUOUS
 10
-0.225004
 20
-0.971799
  0
VERTEX
  8
PLAN_1
 62
     2
  6
CONTINUOUS
 10
-0.222386
 20
-0.972323
  0
VERTEX
  8
PLAN_1
 62
     2
  6
CONTINUOUS
 10
-0.219768
 20
-0.972323
  0
SEQEND
  8
0
  0
POLYLINE
  8
PLAN_1
 62
     2
  6
CONTINUOUS
 66
     1
 40
0.003000
 41
0.003000
  0
VERTEX
  8
PLAN_1
 62
     2
  6
CONTINUOUS
 10
-0.162665
 20
-0.923079
  0
VERTEX
  8
PLAN_1
 62
     2
  6
CONTINUOUS
 10
-0.159520
 20
-0.923079
  0
VERTEX
  8
PLAN_1
 62
     2
  6
CONTINUOUS
 10
-0.156902
 20
-0.923602
  0
VERTEX
  8
PLAN_1
 62
     2
  6
CONTINUOUS
 10
-0.154280
 20
-0.924126
  0
VERTEX
  8
PLAN_1
 62
     2
  6
CONTINUOUS
 10
-0.151661
 20
-0.925173
  0
VERTEX
  8
PLAN_1
 62
     2
  6
CONTINUOUS
 10
-0.149043
 20
-0.926744
  0
VERTEX
  8
PLAN_1
 62
     2
  6
CONTINUOUS
 10
-0.146949
 20
-0.928315
  0
VERTEX
  8
PLAN_1
 62
     2
  6
CONTINUOUS
 10
-0.145374
 20
-0.929886
  0
VERTEX
  8
PLAN_1
 62
     2
  6
CONTINUOUS
 10
-0.143803
 20
-0.931984
  0
VERTEX
  8
PLAN_1
 62
     2
  6
CONTINUOUS
 10
-0.141185
 20
-0.936173
  0
VERTEX
  8
PLAN_1
 62
     2
  6
CONTINUOUS
 10
-0.139091
 20
-0.940890
  0
VERTEX
  8
PLAN_1
 62
     2
  6
CONTINUOUS
 10
-0.138039
 20
-0.946126
  0
VERTEX
  8
PLAN_1
 62
     2
  6
CONTINUOUS
 10
-0.137516
 20
-0.951366
  0
VERTEX
  8
PLAN_1
 62
     2
  6
CONTINUOUS
 10
-0.138039
 20
-0.956606
  0
VERTEX
  8
PLAN_1
 62
     2
  6
CONTINUOUS
 10
-0.139091
 20
-0.961843
  0
VERTEX
  8
PLAN_1
 62
     2
  6
CONTINUOUS
 10
-0.141185
 20
-0.966559
  0
VERTEX
  8
PLAN_1
 62
     2
  6
CONTINUOUS
 10
-0.143803
 20
-0.971276
  0
VERTEX
  8
PLAN_1
 62
     2
  6
CONTINUOUS
 10
-0.145374
 20
-0.973370
  0
VERTEX
  8
PLAN_1
 62
     2
  6
CONTINUOUS
 10
-0.146949
 20
-0.974941
  0
VERTEX
  8
PLAN_1
 62
     2
  6
CONTINUOUS
 10
-0.149043
 20
-0.976512
  0
VERTEX
  8
PLAN_1
 62
     2
  6
CONTINUOUS
 10
-0.151661
 20
-0.977559
  0
VERTEX
  8
PLAN_1
 62
     2
  6
CONTINUOUS
 10
-0.154280
 20
-0.978606
  0
VERTEX
  8
PLAN_1
 62
     2
  6
CONTINUOUS
 10
-0.156902
 20
-0.979657
  0
VERTEX
  8
PLAN_1
 62
     2
  6
CONTINUOUS
 10
-0.159520
 20
-0.980181
  0
VERTEX
  8
PLAN_1
 62
     2
  6
CONTINUOUS
 10
-0.162665
 20
-0.980181
  0
VERTEX
  8
PLAN_1
 62
     2
  6
CONTINUOUS
 10
-0.165807
 20
-0.980181
  0
VERTEX
  8
PLAN_1
 62
     2
  6
CONTINUOUS
 10
-0.168949
 20
-0.979657
  0
VERTEX
  8
PLAN_1
 62
     2
  6
CONTINUOUS
 10
-0.171571
 20
-0.978606
  0
VERTEX
  8
PLAN_1
 62
     2
  6
CONTINUOUS
 10
-0.174189
 20
-0.977559
  0
VERTEX
  8
PLAN_1
 62
     2
  6
CONTINUOUS
 10
-0.176283
 20
-0.976512
  0
VERTEX
  8
PLAN_1
 62
     2
  6
CONTINUOUS
 10
-0.178378
 20
-0.974941
  0
VERTEX
  8
PLAN_1
 62
     2
  6
CONTINUOUS
 10
-0.180476
 20
-0.973370
  0
VERTEX
  8
PLAN_1
 62
     2
  6
CONTINUOUS
 10
-0.182047
 20
-0.971276
  0
VERTEX
  8
PLAN_1
 62
     2
  6
CONTINUOUS
 10
-0.184665
 20
-0.966559
  0
VERTEX
  8
PLAN_1
 62
     2
  6
CONTINUOUS
 10
-0.186760
 20
-0.961843
  0
VERTEX
  8
PLAN_1
 62
     2
  6
CONTINUOUS
 10
-0.187811
 20
-0.956606
  0
VERTEX
  8
PLAN_1
 62
     2
  6
CONTINUOUS
 10
-0.188335
 20
-0.951366
  0
VERTEX
  8
PLAN_1
 62
     2
  6
CONTINUOUS
 10
-0.187811
 20
-0.946126
  0
VERTEX
  8
PLAN_1
 62
     2
  6
CONTINUOUS
 10
-0.186760
 20
-0.940890
  0
VERTEX
  8
PLAN_1
 62
     2
  6
CONTINUOUS
 10
-0.184665
 20
-0.936173
  0
VERTEX
  8
PLAN_1
 62
     2
  6
CONTINUOUS
 10
-0.182047
 20
-0.931984
  0
VERTEX
  8
PLAN_1
 62
     2
  6
CONTINUOUS
 10
-0.180476
 20
-0.929886
  0
VERTEX
  8
PLAN_1
 62
     2
  6
CONTINUOUS
 10
-0.178378
 20
-0.928315
  0
VERTEX
  8
PLAN_1
 62
     2
  6
CONTINUOUS
 10
-0.176283
 20
-0.926744
  0
VERTEX
  8
PLAN_1
 62
     2
  6
CONTINUOUS
 10
-0.174189
 20
-0.925173
  0
VERTEX
  8
PLAN_1
 62
     2
  6
CONTINUOUS
 10
-0.171571
 20
-0.924126
  0
VERTEX
  8
PLAN_1
 62
     2
  6
CONTINUOUS
 10
-0.168949
 20
-0.923602
  0
VERTEX
  8
PLAN_1
 62
     2
  6
CONTINUOUS
 10
-0.165807
 20
-0.923079
  0
VERTEX
  8
PLAN_1
 62
     2
  6
CONTINUOUS
 10
-0.162665
 20
-0.923079
  0
SEQEND
  8
0
  0
POLYLINE
  8
PLAN_1
 62
     2
  6
CONTINUOUS
 66
     1
 40
0.003000
 41
0.003000
  0
VERTEX
  8
PLAN_1
 62
     2
  6
CONTINUOUS
 10
-0.162665
 20
-0.972323
  0
VERTEX
  8
PLAN_1
 62
     2
  6
CONTINUOUS
 10
-0.160567
 20
-0.972323
  0
VERTEX
  8
PLAN_1
 62
     2
  6
CONTINUOUS
 10
-0.158472
 20
-0.971799
  0
VERTEX
  8
PLAN_1
 62
     2
  6
CONTINUOUS
 10
-0.156378
 20
-0.971276
  0
VERTEX
  8
PLAN_1
 62
     2
  6
CONTINUOUS
 10
-0.154807
 20
-0.970224
  0
VERTEX
  8
PLAN_1
 62
     2
  6
CONTINUOUS
 10
-0.152185
 20
-0.967606
  0
VERTEX
  8
PLAN_1
 62
     2
  6
CONTINUOUS
 10
-0.150091
 20
-0.964465
  0
VERTEX
  8
PLAN_1
 62
     2
  6
CONTINUOUS
 10
-0.148520
 20
-0.961319
  0
VERTEX
  8
PLAN_1
 62
     2
  6
CONTINUOUS
 10
-0.147472
 20
-0.957654
  0
VERTEX
  8
PLAN_1
 62
     2
  6
CONTINUOUS
 10
-0.146949
 20
-0.954508
  0
VERTEX
  8
PLAN_1
 62
     2
  6
CONTINUOUS
 10
-0.146949
 20
-0.951366
  0
VERTEX
  8
PLAN_1
 62
     2
  6
CONTINUOUS
 10
-0.146949
 20
-0.948748
  0
VERTEX
  8
PLAN_1
 62
     2
  6
CONTINUOUS
 10
-0.147472
 20
-0.945079
  0
VERTEX
  8
PLAN_1
 62
     2
  6
CONTINUOUS
 10
-0.148520
 20
-0.941937
  0
VERTEX
  8
PLAN_1
 62
     2
  6
CONTINUOUS
 10
-0.150091
 20
-0.938268
  0
VERTEX
  8
PLAN_1
 62
     2
  6
CONTINUOUS
 10
-0.152185
 20
-0.935650
  0
VERTEX
  8
PLAN_1
 62
     2
  6
CONTINUOUS
 10
-0.154807
 20
-0.933031
  0
VERTEX
  8
PLAN_1
 62
     2
  6
CONTINUOUS
 10
-0.156378
 20
-0.931984
  0
VERTEX
  8
PLAN_1
 62
     2
  6
CONTINUOUS
 10
-0.158472
 20
-0.931461
  0
VERTEX
  8
PLAN_1
 62
     2
  6
CONTINUOUS
 10
-0.160567
 20
-0.930937
  0
VERTEX
  8
PLAN_1
 62
     2
  6
CONTINUOUS
 10
-0.162665
 20
-0.930937
  0
VERTEX
  8
PLAN_1
 62
     2
  6
CONTINUOUS
 10
-0.165283
 20
-0.930937
  0
VERTEX
  8
PLAN_1
 62
     2
  6
CONTINUOUS
 10
-0.167378
 20
-0.931461
  0
VERTEX
  8
PLAN_1
 62
     2
  6
CONTINUOUS
 10
-0.168949
 20
-0.931984
  0
VERTEX
  8
PLAN_1
 62
     2
  6
CONTINUOUS
 10
-0.171047
 20
-0.933031
  0
VERTEX
  8
PLAN_1
 62
     2
  6
CONTINUOUS
 10
-0.173665
 20
-0.935650
  0
VERTEX
  8
PLAN_1
 62
     2
  6
CONTINUOUS
 10
-0.175760
 20
-0.938268
  0
VERTEX
  8
PLAN_1
 62
     2
  6
CONTINUOUS
 10
-0.177331
 20
-0.941937
  0
VERTEX
  8
PLAN_1
 62
     2
  6
CONTINUOUS
 10
-0.177854
 20
-0.945079
  0
VERTEX
  8
PLAN_1
 62
     2
  6
CONTINUOUS
 10
-0.178378
 20
-0.948748
  0
VERTEX
  8
PLAN_1
 62
     2
  6
CONTINUOUS
 10
-0.178378
 20
-0.951366
  0
VERTEX
  8
PLAN_1
 62
     2
  6
CONTINUOUS
 10
-0.178378
 20
-0.954508
  0
VERTEX
  8
PLAN_1
 62
     2
  6
CONTINUOUS
 10
-0.177854
 20
-0.957654
  0
VERTEX
  8
PLAN_1
 62
     2
  6
CONTINUOUS
 10
-0.177331
 20
-0.961319
  0
VERTEX
  8
PLAN_1
 62
     2
  6
CONTINUOUS
 10
-0.175760
 20
-0.964465
  0
VERTEX
  8
PLAN_1
 62
     2
  6
CONTINUOUS
 10
-0.173665
 20
-0.967606
  0
VERTEX
  8
PLAN_1
 62
     2
  6
CONTINUOUS
 10
-0.171047
 20
-0.970224
  0
VERTEX
  8
PLAN_1
 62
     2
  6
CONTINUOUS
 10
-0.168949
 20
-0.971276
  0
VERTEX
  8
PLAN_1
 62
     2
  6
CONTINUOUS
 10
-0.167378
 20
-0.971799
  0
VERTEX
  8
PLAN_1
 62
     2
  6
CONTINUOUS
 10
-0.165283
 20
-0.972323
  0
VERTEX
  8
PLAN_1
 62
     2
  6
CONTINUOUS
 10
-0.162665
 20
-0.972323
  0
SEQEND
  8
0
  0
POLYLINE
  8
PLAN_1
 62
     2
  6
CONTINUOUS
 66
     1
 40
0.003000
 41
0.003000
  0
VERTEX
  8
PLAN_1
 62
     2
  6
CONTINUOUS
 10
-0.091417
 20
-0.978606
  0
VERTEX
  8
PLAN_1
 62
     2
  6
CONTINUOUS
 10
-0.091417
 20
-0.970748
  0
VERTEX
  8
PLAN_1
 62
     2
  6
CONTINUOUS
 10
-0.091941
 20
-0.970748
  0
VERTEX
  8
PLAN_1
 62
     2
  6
CONTINUOUS
 10
-0.093512
 20
-0.972846
  0
VERTEX
  8
PLAN_1
 62
     2
  6
CONTINUOUS
 10
-0.095083
 20
-0.974941
  0
VERTEX
  8
PLAN_1
 62
     2
  6
CONTINUOUS
 10
-0.096654
 20
-0.976512
  0
VERTEX
  8
PLAN_1
 62
     2
  6
CONTINUOUS
 10
-0.098752
 20
-0.978083
  0
VERTEX
  8
PLAN_1
 62
     2
  6
CONTINUOUS
 10
-0.100846
 20
-0.979130
  0
VERTEX
  8
PLAN_1
 62
     2
  6
CONTINUOUS
 10
-0.103465
 20
-0.979657
  0
VERTEX
  8
PLAN_1
 62
     2
  6
CONTINUOUS
 10
-0.106087
 20
-0.980181
  0
VERTEX
  8
PLAN_1
 62
     2
  6
CONTINUOUS
 10
-0.109228
 20
-0.980181
  0
VERTEX
  8
PLAN_1
 62
     2
  6
CONTINUOUS
 10
-0.112370
 20
-0.980181
  0
VERTEX
  8
PLAN_1
 62
     2
  6
CONTINUOUS
 10
-0.114992
 20
-0.979657
  0
VERTEX
  8
PLAN_1
 62
     2
  6
CONTINUOUS
 10
-0.118134
 20
-0.978606
  0
VERTEX
  8
PLAN_1
 62
     2
  6
CONTINUOUS
 10
-0.120752
 20
-0.977035
  0
VERTEX
  8
PLAN_1
 62
     2
  6
CONTINUOUS
 10
-0.123374
 20
-0.974417
  0
VERTEX
  8
PLAN_1
 62
     2
  6
CONTINUOUS
 10
-0.124945
 20
-0.971799
  0
VERTEX
  8
PLAN_1
 62
     2
  6
CONTINUOUS
 10
-0.126516
 20
-0.968130
  0
VERTEX
  8
PLAN_1
 62
     2
  6
CONTINUOUS
 10
-0.126516
 20
-0.963417
  0
VERTEX
  8
PLAN_1
 62
     2
  6
CONTINUOUS
 10
-0.126516
 20
-0.924126
  0
VERTEX
  8
PLAN_1
 62
     2
  6
CONTINUOUS
 10
-0.117610
 20
-0.924126
  0
VERTEX
  8
PLAN_1
 62
     2
  6
CONTINUOUS
 10
-0.117610
 20
-0.960272
  0
VERTEX
  8
PLAN_1
 62
     2
  6
CONTINUOUS
 10
-0.117610
 20
-0.963417
  0
VERTEX
  8
PLAN_1
 62
     2
  6
CONTINUOUS
 10
-0.116563
 20
-0.966035
  0
VERTEX
  8
PLAN_1
 62
     2
  6
CONTINUOUS
 10
-0.116039
 20
-0.968130
  0
VERTEX
  8
PLAN_1
 62
     2
  6
CONTINUOUS
 10
-0.114469
 20
-0.969701
  0
VERTEX
  8
PLAN_1
 62
     2
  6
CONTINUOUS
 10
-0.112894
 20
-0.971276
  0
VERTEX
  8
PLAN_1
 62
     2
  6
CONTINUOUS
 10
-0.111323
 20
-0.971799
  0
VERTEX
  8
PLAN_1
 62
     2
  6
CONTINUOUS
 10
-0.109228
 20
-0.972323
  0
VERTEX
  8
PLAN_1
 62
     2
  6
CONTINUOUS
 10
-0.107134
 20
-0.972323
  0
VERTEX
  8
PLAN_1
 62
     2
  6
CONTINUOUS
 10
-0.102941
 20
-0.971799
  0
VERTEX
  8
PLAN_1
 62
     2
  6
CONTINUOUS
 10
-0.099799
 20
-0.970748
  0
VERTEX
  8
PLAN_1
 62
     2
  6
CONTINUOUS
 10
-0.097177
 20
-0.968654
  0
VERTEX
  8
PLAN_1
 62
     2
  6
CONTINUOUS
 10
-0.095083
 20
-0.966559
  0
VERTEX
  8
PLAN_1
 62
     2
  6
CONTINUOUS
 10
-0.094035
 20
-0.963417
  0
VERTEX
  8
PLAN_1
 62
     2
  6
CONTINUOUS
 10
-0.092988
 20
-0.960272
  0
VERTEX
  8
PLAN_1
 62
     2
  6
CONTINUOUS
 10
-0.092465
 20
-0.957654
  0
VERTEX
  8
PLAN_1
 62
     2
  6
CONTINUOUS
 10
-0.091941
 20
-0.954508
  0
VERTEX
  8
PLAN_1
 62
     2
  6
CONTINUOUS
 10
-0.091941
 20
-0.924126
  0
VERTEX
  8
PLAN_1
 62
     2
  6
CONTINUOUS
 10
-0.083035
 20
-0.924126
  0
VERTEX
  8
PLAN_1
 62
     2
  6
CONTINUOUS
 10
-0.083035
 20
-0.978606
  0
VERTEX
  8
PLAN_1
 62
     2
  6
CONTINUOUS
 10
-0.091417
 20
-0.978606
  0
SEQEND
  8
0
  0
POLYLINE
  8
PLAN_1
 62
     2
  6
CONTINUOUS
 66
     1
 40
0.003000
 41
0.003000
  0
VERTEX
  8
PLAN_1
 62
     2
  6
CONTINUOUS
 10
-0.058937
 20
-0.978606
  0
VERTEX
  8
PLAN_1
 62
     2
  6
CONTINUOUS
 10
-0.067843
 20
-0.978606
  0
VERTEX
  8
PLAN_1
 62
     2
  6
CONTINUOUS
 10
-0.067843
 20
-0.924126
  0
VERTEX
  8
PLAN_1
 62
     2
  6
CONTINUOUS
 10
-0.059461
 20
-0.924126
  0
VERTEX
  8
PLAN_1
 62
     2
  6
CONTINUOUS
 10
-0.059461
 20
-0.933555
  0
VERTEX
  8
PLAN_1
 62
     2
  6
CONTINUOUS
 10
-0.058937
 20
-0.933555
  0
VERTEX
  8
PLAN_1
 62
     2
  6
CONTINUOUS
 10
-0.057890
 20
-0.930937
  0
VERTEX
  8
PLAN_1
 62
     2
  6
CONTINUOUS
 10
-0.056315
 20
-0.928839
  0
VERTEX
  8
PLAN_1
 62
     2
  6
CONTINUOUS
 10
-0.054220
 20
-0.927268
  0
VERTEX
  8
PLAN_1
 62
     2
  6
CONTINUOUS
 10
-0.052650
 20
-0.925697
  0
VERTEX
  8
PLAN_1
 62
     2
  6
CONTINUOUS
 10
-0.050555
 20
-0.924650
  0
VERTEX
  8
PLAN_1
 62
     2
  6
CONTINUOUS
 10
-0.048457
 20
-0.923602
  0
VERTEX
  8
PLAN_1
 62
     2
  6
CONTINUOUS
 10
-0.046362
 20
-0.923079
  0
VERTEX
  8
PLAN_1
 62
     2
  6
CONTINUOUS
 10
-0.043744
 20
-0.923079
  0
VERTEX
  8
PLAN_1
 62
     2
  6
CONTINUOUS
 10
-0.043220
 20
-0.923079
  0
VERTEX
  8
PLAN_1
 62
     2
  6
CONTINUOUS
 10
-0.042697
 20
-0.923079
  0
VERTEX
  8
PLAN_1
 62
     2
  6
CONTINUOUS
 10
-0.042173
 20
-0.923079
  0
VERTEX
  8
PLAN_1
 62
     2
  6
CONTINUOUS
 10
-0.041650
 20
-0.923079
  0
VERTEX
  8
PLAN_1
 62
     2
  6
CONTINUOUS
 10
-0.041650
 20
-0.932508
  0
VERTEX
  8
PLAN_1
 62
     2
  6
CONTINUOUS
 10
-0.044791
 20
-0.932508
  0
VERTEX
  8
PLAN_1
 62
     2
  6
CONTINUOUS
 10
-0.047933
 20
-0.933031
  0
VERTEX
  8
PLAN_1
 62
     2
  6
CONTINUOUS
 10
-0.050555
 20
-0.933555
  0
VERTEX
  8
PLAN_1
 62
     2
  6
CONTINUOUS
 10
-0.053173
 20
-0.935126
  0
VERTEX
  8
PLAN_1
 62
     2
  6
CONTINUOUS
 10
-0.055268
 20
-0.936697
  0
VERTEX
  8
PLAN_1
 62
     2
  6
CONTINUOUS
 10
-0.056839
 20
-0.939319
  0
VERTEX
  8
PLAN_1
 62
     2
  6
CONTINUOUS
 10
-0.057890
 20
-0.941413
  0
VERTEX
  8
PLAN_1
 62
     2
  6
CONTINUOUS
 10
-0.058413
 20
-0.944031
  0
VERTEX
  8
PLAN_1
 62
     2
  6
CONTINUOUS
 10
-0.058937
 20
-0.947177
  0
VERTEX
  8
PLAN_1
 62
     2
  6
CONTINUOUS
 10
-0.058937
 20
-0.978606
  0
SEQEND
  8
0
  0
POLYLINE
  8
PLAN_1
 62
     2
  6
CONTINUOUS
 66
     1
 40
0.003000
 41
0.003000
  0
VERTEX
  8
PLAN_1
 62
     2
  6
CONTINUOUS
 10
-1.023917
 20
-1.049331
  0
VERTEX
  8
PLAN_1
 62
     2
  6
CONTINUOUS
 10
-1.015008
 20
-1.049331
  0
VERTEX
  8
PLAN_1
 62
     2
  6
CONTINUOUS
 10
-1.015008
 20
-1.057189
  0
VERTEX
  8
PLAN_1
 62
     2
  6
CONTINUOUS
 10
-1.013961
 20
-1.055618
  0
VERTEX
  8
PLAN_1
 62
     2
  6
CONTINUOUS
 10
-1.012913
 20
-1.054047
  0
VERTEX
  8
PLAN_1
 62
     2
  6
CONTINUOUS
 10
-1.011343
 20
-1.053000
  0
VERTEX
  8
PLAN_1
 62
     2
  6
CONTINUOUS
 10
-1.009772
 20
-1.051425
  0
VERTEX
  8
PLAN_1
 62
     2
  6
CONTINUOUS
 10
-1.007677
 20
-1.049854
  0
VERTEX
  8
PLAN_1
 62
     2
  6
CONTINUOUS
 10
-1.005055
 20
-1.048807
  0
VERTEX
  8
PLAN_1
 62
     2
  6
CONTINUOUS
 10
-1.002437
 20
-1.048283
  0
VERTEX
  8
PLAN_1
 62
     2
  6
CONTINUOUS
 10
-0.998768
 20
-1.047760
  0
VERTEX
  8
PLAN_1
 62
     2
  6
CONTINUOUS
 10
-0.996150
 20
-1.047760
  0
VERTEX
  8
PLAN_1
 62
     2
  6
CONTINUOUS
 10
-0.993531
 20
-1.048283
  0
VERTEX
  8
PLAN_1
 62
     2
  6
CONTINUOUS
 10
-0.991437
 20
-1.048807
  0
VERTEX
  8
PLAN_1
 62
     2
  6
CONTINUOUS
 10
-0.989339
 20
-1.049854
  0
VERTEX
  8
PLAN_1
 62
     2
  6
CONTINUOUS
 10
-0.985150
 20
-1.052472
  0
VERTEX
  8
PLAN_1
 62
     2
  6
CONTINUOUS
 10
-0.982004
 20
-1.055618
  0
VERTEX
  8
PLAN_1
 62
     2
  6
CONTINUOUS
 10
-0.979386
 20
-1.059807
  0
VERTEX
  8
PLAN_1
 62
     2
  6
CONTINUOUS
 10
-0.977815
 20
-1.064000
  0
VERTEX
  8
PLAN_1
 62
     2
  6
CONTINUOUS
 10
-0.976768
 20
-1.069240
  0
VERTEX
  8
PLAN_1
 62
     2
  6
CONTINUOUS
 10
-0.976244
 20
-1.075000
  0
VERTEX
  8
PLAN_1
 62
     2
  6
CONTINUOUS
 10
-0.976244
 20
-1.080240
  0
VERTEX
  8
PLAN_1
 62
     2
  6
CONTINUOUS
 10
-0.977291
 20
-1.084953
  0
VERTEX
  8
PLAN_1
 62
     2
  6
CONTINUOUS
 10
-0.978862
 20
-1.090193
  0
VERTEX
  8
PLAN_1
 62
     2
  6
CONTINUOUS
 10
-0.980957
 20
-1.094909
  0
VERTEX
  8
PLAN_1
 62
     2
  6
CONTINUOUS
 10
-0.982528
 20
-1.097004
  0
VERTEX
  8
PLAN_1
 62
     2
  6
CONTINUOUS
 10
-0.984626
 20
-1.099098
  0
VERTEX
  8
PLAN_1
 62
     2
  6
CONTINUOUS
 10
-0.986197
 20
-1.100669
  0
VERTEX
  8
PLAN_1
 62
     2
  6
CONTINUOUS
 10
-0.988291
 20
-1.102244
  0
VERTEX
  8
PLAN_1
 62
     2
  6
CONTINUOUS
 10
-0.990909
 20
-1.103815
  0
VERTEX
  8
PLAN_1
 62
     2
  6
CONTINUOUS
 10
-0.993531
 20
-1.104339
  0
VERTEX
  8
PLAN_1
 62
     2
  6
CONTINUOUS
 10
-0.996673
 20
-1.105386
  0
VERTEX
  8
PLAN_1
 62
     2
  6
CONTINUOUS
 10
-0.999819
 20
-1.105386
  0
VERTEX
  8
PLAN_1
 62
     2
  6
CONTINUOUS
 10
-1.002437
 20
-1.105386
  0
VERTEX
  8
PLAN_1
 62
     2
  6
CONTINUOUS
 10
-1.005055
 20
-1.104862
  0
VERTEX
  8
PLAN_1
 62
     2
  6
CONTINUOUS
 10
-1.007150
 20
-1.103815
  0
VERTEX
  8
PLAN_1
 62
     2
  6
CONTINUOUS
 10
-1.009248
 20
-1.103291
  0
VERTEX
  8
PLAN_1
 62
     2
  6
CONTINUOUS
 10
-1.010819
 20
-1.102244
  0
VERTEX
  8
PLAN_1
 62
     2
  6
CONTINUOUS
 10
-1.012390
 20
-1.100669
  0
VERTEX
  8
PLAN_1
 62
     2
  6
CONTINUOUS
 10
-1.013437
 20
-1.099622
  0
VERTEX
  8
PLAN_1
 62
     2
  6
CONTINUOUS
 10
-1.014484
 20
-1.098051
  0
VERTEX
  8
PLAN_1
 62
     2
  6
CONTINUOUS
 10
-1.014484
 20
-1.125291
  0
VERTEX
  8
PLAN_1
 62
     2
  6
CONTINUOUS
 10
-1.023917
 20
-1.125291
  0
VERTEX
  8
PLAN_1
 62
     2
  6
CONTINUOUS
 10
-1.023917
 20
-1.049331
  0
SEQEND
  8
0
  0
POLYLINE
  8
PLAN_1
 62
     2
  6
CONTINUOUS
 66
     1
 40
0.003000
 41
0.003000
  0
VERTEX
  8
PLAN_1
 62
     2
  6
CONTINUOUS
 10
-1.000343
 20
-1.097528
  0
VERTEX
  8
PLAN_1
 62
     2
  6
CONTINUOUS
 10
-0.996673
 20
-1.097004
  0
VERTEX
  8
PLAN_1
 62
     2
  6
CONTINUOUS
 10
-0.993531
 20
-1.095957
  0
VERTEX
  8
PLAN_1
 62
     2
  6
CONTINUOUS
 10
-0.991437
 20
-1.093862
  0
VERTEX
  8
PLAN_1
 62
     2
  6
CONTINUOUS
 10
-0.989339
 20
-1.091240
  0
VERTEX
  8
PLAN_1
 62
     2
  6
CONTINUOUS
 10
-0.987768
 20
-1.088098
  0
VERTEX
  8
PLAN_1
 62
     2
  6
CONTINUOUS
 10
-0.986720
 20
-1.084953
  0
VERTEX
  8
PLAN_1
 62
     2
  6
CONTINUOUS
 10
-0.985673
 20
-1.080764
  0
VERTEX
  8
PLAN_1
 62
     2
  6
CONTINUOUS
 10
-0.985673
 20
-1.076571
  0
VERTEX
  8
PLAN_1
 62
     2
  6
CONTINUOUS
 10
-0.985673
 20
-1.073429
  0
VERTEX
  8
PLAN_1
 62
     2
  6
CONTINUOUS
 10
-0.986197
 20
-1.070287
  0
VERTEX
  8
PLAN_1
 62
     2
  6
CONTINUOUS
 10
-0.986720
 20
-1.067142
  0
VERTEX
  8
PLAN_1
 62
     2
  6
CONTINUOUS
 10
-0.987768
 20
-1.063476
  0
VERTEX
  8
PLAN_1
 62
     2
  6
CONTINUOUS
 10
-0.989339
 20
-1.060858
  0
VERTEX
  8
PLAN_1
 62
     2
  6
CONTINUOUS
 10
-0.991961
 20
-1.058236
  0
VERTEX
  8
PLAN_1
 62
     2
  6
CONTINUOUS
 10
-0.994055
 20
-1.057189
  0
VERTEX
  8
PLAN_1
 62
     2
  6
CONTINUOUS
 10
-0.995626
 20
-1.056665
  0
VERTEX
  8
PLAN_1
 62
     2
  6
CONTINUOUS
 10
-0.998244
 20
-1.056142
  0
VERTEX
  8
PLAN_1
 62
     2
  6
CONTINUOUS
 10
-1.000343
 20
-1.056142
  0
VERTEX
  8
PLAN_1
 62
     2
  6
CONTINUOUS
 10
-1.002961
 20
-1.056142
  0
VERTEX
  8
PLAN_1
 62
     2
  6
CONTINUOUS
 10
-1.005055
 20
-1.056665
  0
VERTEX
  8
PLAN_1
 62
     2
  6
CONTINUOUS
 10
-1.006626
 20
-1.057189
  0
VERTEX
  8
PLAN_1
 62
     2
  6
CONTINUOUS
 10
-1.008201
 20
-1.058236
  0
VERTEX
  8
PLAN_1
 62
     2
  6
CONTINUOUS
 10
-1.010819
 20
-1.060858
  0
VERTEX
  8
PLAN_1
 62
     2
  6
CONTINUOUS
 10
-1.012913
 20
-1.064000
  0
VERTEX
  8
PLAN_1
 62
     2
  6
CONTINUOUS
 10
-1.013961
 20
-1.067665
  0
VERTEX
  8
PLAN_1
 62
     2
  6
CONTINUOUS
 10
-1.014484
 20
-1.071858
  0
VERTEX
  8
PLAN_1
 62
     2
  6
CONTINUOUS
 10
-1.015008
 20
-1.075524
  0
VERTEX
  8
PLAN_1
 62
     2
  6
CONTINUOUS
 10
-1.015008
 20
-1.079193
  0
VERTEX
  8
PLAN_1
 62
     2
  6
CONTINUOUS
 10
-1.015008
 20
-1.083906
  0
VERTEX
  8
PLAN_1
 62
     2
  6
CONTINUOUS
 10
-1.013437
 20
-1.088098
  0
VERTEX
  8
PLAN_1
 62
     2
  6
CONTINUOUS
 10
-1.011866
 20
-1.091240
  0
VERTEX
  8
PLAN_1
 62
     2
  6
CONTINUOUS
 10
-1.009772
 20
-1.093862
  0
VERTEX
  8
PLAN_1
 62
     2
  6
CONTINUOUS
 10
-1.007677
 20
-1.095433
  0
VERTEX
  8
PLAN_1
 62
     2
  6
CONTINUOUS
 10
-1.005055
 20
-1.096480
  0
VERTEX
  8
PLAN_1
 62
     2
  6
CONTINUOUS
 10
-1.002437
 20
-1.097004
  0
VERTEX
  8
PLAN_1
 62
     2
  6
CONTINUOUS
 10
-1.000343
 20
-1.097528
  0
SEQEND
  8
0
  0
POLYLINE
  8
PLAN_1
 62
     2
  6
CONTINUOUS
 66
     1
 40
0.003000
 41
0.003000
  0
VERTEX
  8
PLAN_1
 62
     2
  6
CONTINUOUS
 10
-0.954764
 20
-1.103815
  0
VERTEX
  8
PLAN_1
 62
     2
  6
CONTINUOUS
 10
-0.964193
 20
-1.103815
  0
VERTEX
  8
PLAN_1
 62
     2
  6
CONTINUOUS
 10
-0.964193
 20
-1.049331
  0
VERTEX
  8
PLAN_1
 62
     2
  6
CONTINUOUS
 10
-0.955287
 20
-1.049331
  0
VERTEX
  8
PLAN_1
 62
     2
  6
CONTINUOUS
 10
-0.955287
 20
-1.058236
  0
VERTEX
  8
PLAN_1
 62
     2
  6
CONTINUOUS
 10
-0.953717
 20
-1.056142
  0
VERTEX
  8
PLAN_1
 62
     2
  6
CONTINUOUS
 10
-0.952146
 20
-1.054047
  0
VERTEX
  8
PLAN_1
 62
     2
  6
CONTINUOUS
 10
-0.950575
 20
-1.052472
  0
VERTEX
  8
PLAN_1
 62
     2
  6
CONTINUOUS
 10
-0.949000
 20
-1.050902
  0
VERTEX
  8
PLAN_1
 62
     2
  6
CONTINUOUS
 10
-0.946906
 20
-1.049331
  0
VERTEX
  8
PLAN_1
 62
     2
  6
CONTINUOUS
 10
-0.944811
 20
-1.048807
  0
VERTEX
  8
PLAN_1
 62
     2
  6
CONTINUOUS
 10
-0.942189
 20
-1.047760
  0
VERTEX
  8
PLAN_1
 62
     2
  6
CONTINUOUS
 10
-0.940094
 20
-1.047760
  0
VERTEX
  8
PLAN_1
 62
     2
  6
CONTINUOUS
 10
-0.939571
 20
-1.047760
  0
VERTEX
  8
PLAN_1
 62
     2
  6
CONTINUOUS
 10
-0.939047
 20
-1.047760
  0
VERTEX
  8
PLAN_1
 62
     2
  6
CONTINUOUS
 10
-0.938524
 20
-1.047760
  0
VERTEX
  8
PLAN_1
 62
     2
  6
CONTINUOUS
 10
-0.938000
 20
-1.047760
  0
VERTEX
  8
PLAN_1
 62
     2
  6
CONTINUOUS
 10
-0.938000
 20
-1.048283
  0
VERTEX
  8
PLAN_1
 62
     2
  6
CONTINUOUS
 10
-0.937476
 20
-1.048283
  0
VERTEX
  8
PLAN_1
 62
     2
  6
CONTINUOUS
 10
-0.937476
 20
-1.057713
  0
VERTEX
  8
PLAN_1
 62
     2
  6
CONTINUOUS
 10
-0.941142
 20
-1.057713
  0
VERTEX
  8
PLAN_1
 62
     2
  6
CONTINUOUS
 10
-0.943764
 20
-1.057713
  0
VERTEX
  8
PLAN_1
 62
     2
  6
CONTINUOUS
 10
-0.946906
 20
-1.058760
  0
VERTEX
  8
PLAN_1
 62
     2
  6
CONTINUOUS
 10
-0.949000
 20
-1.060331
  0
VERTEX
  8
PLAN_1
 62
     2
  6
CONTINUOUS
 10
-0.951098
 20
-1.061906
  0
VERTEX
  8
PLAN_1
 62
     2
  6
CONTINUOUS
 10
-0.952669
 20
-1.064000
  0
VERTEX
  8
PLAN_1
 62
     2
  6
CONTINUOUS
 10
-0.953717
 20
-1.066618
  0
VERTEX
  8
PLAN_1
 62
     2
  6
CONTINUOUS
 10
-0.954764
 20
-1.069240
  0
VERTEX
  8
PLAN_1
 62
     2
  6
CONTINUOUS
 10
-0.954764
 20
-1.072382
  0
VERTEX
  8
PLAN_1
 62
     2
  6
CONTINUOUS
 10
-0.954764
 20
-1.103815
  0
SEQEND
  8
0
  0
POLYLINE
  8
PLAN_1
 62
     2
  6
CONTINUOUS
 66
     1
 40
0.003000
 41
0.003000
  0
VERTEX
  8
PLAN_1
 62
     2
  6
CONTINUOUS
 10
-0.884563
 20
-1.086528
  0
VERTEX
  8
PLAN_1
 62
     2
  6
CONTINUOUS
 10
-0.884563
 20
-1.088098
  0
VERTEX
  8
PLAN_1
 62
     2
  6
CONTINUOUS
 10
-0.885087
 20
-1.089669
  0
VERTEX
  8
PLAN_1
 62
     2
  6
CONTINUOUS
 10
-0.885614
 20
-1.091240
  0
VERTEX
  8
PLAN_1
 62
     2
  6
CONTINUOUS
 10
-0.886661
 20
-1.093339
  0
VERTEX
  8
PLAN_1
 62
     2
  6
CONTINUOUS
 10
-0.888232
 20
-1.095433
  0
VERTEX
  8
PLAN_1
 62
     2
  6
CONTINUOUS
 10
-0.889803
 20
-1.097528
  0
VERTEX
  8
PLAN_1
 62
     2
  6
CONTINUOUS
 10
-0.891898
 20
-1.099622
  0
VERTEX
  8
PLAN_1
 62
     2
  6
CONTINUOUS
 10
-0.893996
 20
-1.101720
  0
VERTEX
  8
PLAN_1
 62
     2
  6
CONTINUOUS
 10
-0.895043
 20
-1.102244
  0
VERTEX
  8
PLAN_1
 62
     2
  6
CONTINUOUS
 10
-0.896091
 20
-1.102768
  0
VERTEX
  8
PLAN_1
 62
     2
  6
CONTINUOUS
 10
-0.897661
 20
-1.103291
  0
VERTEX
  8
PLAN_1
 62
     2
  6
CONTINUOUS
 10
-0.899232
 20
-1.104339
  0
VERTEX
  8
PLAN_1
 62
     2
  6
CONTINUOUS
 10
-0.900803
 20
-1.104339
  0
VERTEX
  8
PLAN_1
 62
     2
  6
CONTINUOUS
 10
-0.903425
 20
-1.104862
  0
VERTEX
  8
PLAN_1
 62
     2
  6
CONTINUOUS
 10
-0.906043
 20
-1.105386
  0
VERTEX
  8
PLAN_1
 62
     2
  6
CONTINUOUS
 10
-0.908661
 20
-1.105386
  0
VERTEX
  8
PLAN_1
 62
     2
  6
CONTINUOUS
 10
-0.911807
 20
-1.105386
  0
VERTEX
  8
PLAN_1
 62
     2
  6
CONTINUOUS
 10
-0.914425
 20
-1.104862
  0
VERTEX
  8
PLAN_1
 62
     2
  6
CONTINUOUS
 10
-0.917043
 20
-1.104339
  0
VERTEX
  8
PLAN_1
 62
     2
  6
CONTINUOUS
 10
-0.919142
 20
-1.103291
  0
VERTEX
  8
PLAN_1
 62
     2
  6
CONTINUOUS
 10
-0.921236
 20
-1.102244
  0
VERTEX
  8
PLAN_1
 62
     2
  6
CONTINUOUS
 10
-0.923331
 20
-1.100669
  0
VERTEX
  8
PLAN_1
 62
     2
  6
CONTINUOUS
 10
-0.924902
 20
-1.099098
  0
VERTEX
  8
PLAN_1
 62
     2
  6
CONTINUOUS
 10
-0.927000
 20
-1.097528
  0
VERTEX
  8
PLAN_1
 62
     2
  6
CONTINUOUS
 10
-0.929618
 20
-1.093862
  0
VERTEX
  8
PLAN_1
 62
     2
  6
CONTINUOUS
 10
-0.931713
 20
-1.089146
  0
VERTEX
  8
PLAN_1
 62
     2
  6
CONTINUOUS
 10
-0.932760
 20
-1.083906
  0
VERTEX
  8
PLAN_1
 62
     2
  6
CONTINUOUS
 10
-0.933283
 20
-1.078146
  0
VERTEX
  8
PLAN_1
 62
     2
  6
CONTINUOUS
 10
-0.932760
 20
-1.071858
  0
VERTEX
  8
PLAN_1
 62
     2
  6
CONTINUOUS
 10
-0.931713
 20
-1.066094
  0
VERTEX
  8
PLAN_1
 62
     2
  6
CONTINUOUS
 10
-0.929618
 20
-1.060858
  0
VERTEX
  8
PLAN_1
 62
     2
  6
CONTINUOUS
 10
-0.927000
 20
-1.056665
  0
VERTEX
  8
PLAN_1
 62
     2
  6
CONTINUOUS
 10
-0.925425
 20
-1.054571
  0
VERTEX
  8
PLAN_1
 62
     2
  6
CONTINUOUS
 10
-0.923331
 20
-1.053000
  0
VERTEX
  8
PLAN_1
 62
     2
  6
CONTINUOUS
 10
-0.921236
 20
-1.051425
  0
VERTEX
  8
PLAN_1
 62
     2
  6
CONTINUOUS
 10
-0.918618
 20
-1.050378
  0
VERTEX
  8
PLAN_1
 62
     2
  6
CONTINUOUS
 10
-0.915996
 20
-1.049331
  0
VERTEX
  8
PLAN_1
 62
     2
  6
CONTINUOUS
 10
-0.913378
 20
-1.048283
  0
VERTEX
  8
PLAN_1
 62
     2
  6
CONTINUOUS
 10
-0.910236
 20
-1.047760
  0
VERTEX
  8
PLAN_1
 62
     2
  6
CONTINUOUS
 10
-0.907091
 20
-1.047760
  0
VERTEX
  8
PLAN_1
 62
     2
  6
CONTINUOUS
 10
-0.904472
 20
-1.047760
  0
VERTEX
  8
PLAN_1
 62
     2
  6
CONTINUOUS
 10
-0.901854
 20
-1.048283
  0
VERTEX
  8
PLAN_1
 62
     2
  6
CONTINUOUS
 10
-0.899232
 20
-1.049331
  0
VERTEX
  8
PLAN_1
 62
     2
  6
CONTINUOUS
 10
-0.896614
 20
-1.049854
  0
VERTEX
  8
PLAN_1
 62
     2
  6
CONTINUOUS
 10
-0.894520
 20
-1.051425
  0
VERTEX
  8
PLAN_1
 62
     2
  6
CONTINUOUS
 10
-0.892945
 20
-1.053000
  0
VERTEX
  8
PLAN_1
 62
     2
  6
CONTINUOUS
 10
-0.890850
 20
-1.054571
  0
VERTEX
  8
PLAN_1
 62
     2
  6
CONTINUOUS
 10
-0.889280
 20
-1.056665
  0
VERTEX
  8
PLAN_1
 62
     2
  6
CONTINUOUS
 10
-0.887185
 20
-1.060858
  0
VERTEX
  8
PLAN_1
 62
     2
  6
CONTINUOUS
 10
-0.885087
 20
-1.066618
  0
VERTEX
  8
PLAN_1
 62
     2
  6
CONTINUOUS
 10
-0.884039
 20
-1.072382
  0
VERTEX
  8
PLAN_1
 62
     2
  6
CONTINUOUS
 10
-0.883516
 20
-1.079717
  0
VERTEX
  8
PLAN_1
 62
     2
  6
CONTINUOUS
 10
-0.923331
 20
-1.079717
  0
VERTEX
  8
PLAN_1
 62
     2
  6
CONTINUOUS
 10
-0.923331
 20
-1.083382
  0
VERTEX
  8
PLAN_1
 62
     2
  6
CONTINUOUS
 10
-0.922283
 20
-1.087051
  0
VERTEX
  8
PLAN_1
 62
     2
  6
CONTINUOUS
 10
-0.921236
 20
-1.090193
  0
VERTEX
  8
PLAN_1
 62
     2
  6
CONTINUOUS
 10
-0.919665
 20
-1.092811
  0
VERTEX
  8
PLAN_1
 62
     2
  6
CONTINUOUS
 10
-0.917043
 20
-1.094909
  0
VERTEX
  8
PLAN_1
 62
     2
  6
CONTINUOUS
 10
-0.914425
 20
-1.096480
  0
VERTEX
  8
PLAN_1
 62
     2
  6
CONTINUOUS
 10
-0.911283
 20
-1.097004
  0
VERTEX
  8
PLAN_1
 62
     2
  6
CONTINUOUS
 10
-0.907614
 20
-1.097528
  0
VERTEX
  8
PLAN_1
 62
     2
  6
CONTINUOUS
 10
-0.904472
 20
-1.097004
  0
VERTEX
  8
PLAN_1
 62
     2
  6
CONTINUOUS
 10
-0.901854
 20
-1.096480
  0
VERTEX
  8
PLAN_1
 62
     2
  6
CONTINUOUS
 10
-0.899232
 20
-1.094909
  0
VERTEX
  8
PLAN_1
 62
     2
  6
CONTINUOUS
 10
-0.897661
 20
-1.093339
  0
VERTEX
  8
PLAN_1
 62
     2
  6
CONTINUOUS
 10
-0.896091
 20
-1.091764
  0
VERTEX
  8
PLAN_1
 62
     2
  6
CONTINUOUS
 10
-0.894520
 20
-1.090193
  0
VERTEX
  8
PLAN_1
 62
     2
  6
CONTINUOUS
 10
-0.893996
 20
-1.088098
  0
VERTEX
  8
PLAN_1
 62
     2
  6
CONTINUOUS
 10
-0.893469
 20
-1.086528
  0
VERTEX
  8
PLAN_1
 62
     2
  6
CONTINUOUS
 10
-0.884563
 20
-1.086528
  0
SEQEND
  8
0
  0
POLYLINE
  8
PLAN_1
 62
     2
  6
CONTINUOUS
 66
     1
 40
0.003000
 41
0.003000
  0
VERTEX
  8
PLAN_1
 62
     2
  6
CONTINUOUS
 10
-0.892945
 20
-1.072382
  0
VERTEX
  8
PLAN_1
 62
     2
  6
CONTINUOUS
 10
-0.893469
 20
-1.069240
  0
VERTEX
  8
PLAN_1
 62
     2
  6
CONTINUOUS
 10
-0.893996
 20
-1.066094
  0
VERTEX
  8
PLAN_1
 62
     2
  6
CONTINUOUS
 10
-0.895043
 20
-1.063476
  0
VERTEX
  8
PLAN_1
 62
     2
  6
CONTINUOUS
 10
-0.896614
 20
-1.060858
  0
VERTEX
  8
PLAN_1
 62
     2
  6
CONTINUOUS
 10
-0.898709
 20
-1.058760
  0
VERTEX
  8
PLAN_1
 62
     2
  6
CONTINUOUS
 10
-0.901327
 20
-1.057189
  0
VERTEX
  8
PLAN_1
 62
     2
  6
CONTINUOUS
 10
-0.904472
 20
-1.056142
  0
VERTEX
  8
PLAN_1
 62
     2
  6
CONTINUOUS
 10
-0.908138
 20
-1.056142
  0
VERTEX
  8
PLAN_1
 62
     2
  6
CONTINUOUS
 10
-0.911283
 20
-1.056142
  0
VERTEX
  8
PLAN_1
 62
     2
  6
CONTINUOUS
 10
-0.914425
 20
-1.057189
  0
VERTEX
  8
PLAN_1
 62
     2
  6
CONTINUOUS
 10
-0.917043
 20
-1.058760
  0
VERTEX
  8
PLAN_1
 62
     2
  6
CONTINUOUS
 10
-0.919142
 20
-1.060858
  0
VERTEX
  8
PLAN_1
 62
     2
  6
CONTINUOUS
 10
-0.920713
 20
-1.063476
  0
VERTEX
  8
PLAN_1
 62
     2
  6
CONTINUOUS
 10
-0.922283
 20
-1.066094
  0
VERTEX
  8
PLAN_1
 62
     2
  6
CONTINUOUS
 10
-0.923331
 20
-1.069240
  0
VERTEX
  8
PLAN_1
 62
     2
  6
CONTINUOUS
 10
-0.923331
 20
-1.072382
  0
VERTEX
  8
PLAN_1
 62
     2
  6
CONTINUOUS
 10
-0.892945
 20
-1.072382
  0
SEQEND
  8
0
  0
POLYLINE
  8
PLAN_1
 62
     2
  6
CONTINUOUS
 66
     1
 40
0.003000
 41
0.003000
  0
VERTEX
  8
PLAN_1
 62
     2
  6
CONTINUOUS
 10
-0.841606
 20
-1.065047
  0
VERTEX
  8
PLAN_1
 62
     2
  6
CONTINUOUS
 10
-0.842130
 20
-1.063476
  0
VERTEX
  8
PLAN_1
 62
     2
  6
CONTINUOUS
 10
-0.842130
 20
-1.061906
  0
VERTEX
  8
PLAN_1
 62
     2
  6
CONTINUOUS
 10
-0.842654
 20
-1.060331
  0
VERTEX
  8
PLAN_1
 62
     2
  6
CONTINUOUS
 10
-0.844224
 20
-1.058760
  0
VERTEX
  8
PLAN_1
 62
     2
  6
CONTINUOUS
 10
-0.845799
 20
-1.057713
  0
VERTEX
  8
PLAN_1
 62
     2
  6
CONTINUOUS
 10
-0.847894
 20
-1.056665
  0
VERTEX
  8
PLAN_1
 62
     2
  6
CONTINUOUS
 10
-0.851035
 20
-1.056142
  0
VERTEX
  8
PLAN_1
 62
     2
  6
CONTINUOUS
 10
-0.854705
 20
-1.055618
  0
VERTEX
  8
PLAN_1
 62
     2
  6
CONTINUOUS
 10
-0.855752
 20
-1.055618
  0
VERTEX
  8
PLAN_1
 62
     2
  6
CONTINUOUS
 10
-0.857846
 20
-1.056142
  0
VERTEX
  8
PLAN_1
 62
     2
  6
CONTINUOUS
 10
-0.859417
 20
-1.056142
  0
VERTEX
  8
PLAN_1
 62
     2
  6
CONTINUOUS
 10
-0.860988
 20
-1.057189
  0
VERTEX
  8
PLAN_1
 62
     2
  6
CONTINUOUS
 10
-0.863087
 20
-1.058236
  0
VERTEX
  8
PLAN_1
 62
     2
  6
CONTINUOUS
 10
-0.864134
 20
-1.059283
  0
VERTEX
  8
PLAN_1
 62
     2
  6
CONTINUOUS
 10
-0.865181
 20
-1.061382
  0
VERTEX
  8
PLAN_1
 62
     2
  6
CONTINUOUS
 10
-0.865705
 20
-1.063476
  0
VERTEX
  8
PLAN_1
 62
     2
  6
CONTINUOUS
 10
-0.865181
 20
-1.065047
  0
VERTEX
  8
PLAN_1
 62
     2
  6
CONTINUOUS
 10
-0.865181
 20
-1.066094
  0
VERTEX
  8
PLAN_1
 62
     2
  6
CONTINUOUS
 10
-0.864134
 20
-1.067142
  0
VERTEX
  8
PLAN_1
 62
     2
  6
CONTINUOUS
 10
-0.863087
 20
-1.068189
  0
VERTEX
  8
PLAN_1
 62
     2
  6
CONTINUOUS
 10
-0.862039
 20
-1.068713
  0
VERTEX
  8
PLAN_1
 62
     2
  6
CONTINUOUS
 10
-0.859941
 20
-1.069240
  0
VERTEX
  8
PLAN_1
 62
     2
  6
CONTINUOUS
 10
-0.858370
 20
-1.070287
  0
VERTEX
  8
PLAN_1
 62
     2
  6
CONTINUOUS
 10
-0.855752
 20
-1.070811
  0
VERTEX
  8
PLAN_1
 62
     2
  6
CONTINUOUS
 10
-0.846323
 20
-1.072906
  0
VERTEX
  8
PLAN_1
 62
     2
  6
CONTINUOUS
 10
-0.842654
 20
-1.073953
  0
VERTEX
  8
PLAN_1
 62
     2
  6
CONTINUOUS
 10
-0.839512
 20
-1.075524
  0
VERTEX
  8
PLAN_1
 62
     2
  6
CONTINUOUS
 10
-0.836894
 20
-1.076571
  0
VERTEX
  8
PLAN_1
 62
     2
  6
CONTINUOUS
 10
-0.834795
 20
-1.078669
  0
VERTEX
  8
PLAN_1
 62
     2
  6
CONTINUOUS
 10
-0.833224
 20
-1.080240
  0
VERTEX
  8
PLAN_1
 62
     2
  6
CONTINUOUS
 10
-0.832177
 20
-1.082335
  0
VERTEX
  8
PLAN_1
 62
     2
  6
CONTINUOUS
 10
-0.831654
 20
-1.084953
  0
VERTEX
  8
PLAN_1
 62
     2
  6
CONTINUOUS
 10
-0.831130
 20
-1.087575
  0
VERTEX
  8
PLAN_1
 62
     2
  6
CONTINUOUS
 10
-0.831654
 20
-1.091240
  0
VERTEX
  8
PLAN_1
 62
     2
  6
CONTINUOUS
 10
-0.832701
 20
-1.094909
  0
VERTEX
  8
PLAN_1
 62
     2
  6
CONTINUOUS
 10
-0.834795
 20
-1.098051
  0
VERTEX
  8
PLAN_1
 62
     2
  6
CONTINUOUS
 10
-0.837417
 20
-1.100669
  0
VERTEX
  8
PLAN_1
 62
     2
  6
CONTINUOUS
 10
-0.840559
 20
-1.102768
  0
VERTEX
  8
PLAN_1
 62
     2
  6
CONTINUOUS
 10
-0.844224
 20
-1.104339
  0
VERTEX
  8
PLAN_1
 62
     2
  6
CONTINUOUS
 10
-0.848417
 20
-1.104862
  0
VERTEX
  8
PLAN_1
 62
     2
  6
CONTINUOUS
 10
-0.852606
 20
-1.105386
  0
VERTEX
  8
PLAN_1
 62
     2
  6
CONTINUOUS
 10
-0.856799
 20
-1.105386
  0
VERTEX
  8
PLAN_1
 62
     2
  6
CONTINUOUS
 10
-0.859941
 20
-1.104862
  0
VERTEX
  8
PLAN_1
 62
     2
  6
CONTINUOUS
 10
-0.863087
 20
-1.104339
  0
VERTEX
  8
PLAN_1
 62
     2
  6
CONTINUOUS
 10
-0.865705
 20
-1.103291
  0
VERTEX
  8
PLAN_1
 62
     2
  6
CONTINUOUS
 10
-0.867799
 20
-1.102244
  0
VERTEX
  8
PLAN_1
 62
     2
  6
CONTINUOUS
 10
-0.869374
 20
-1.101193
  0
VERTEX
  8
PLAN_1
 62
     2
  6
CONTINUOUS
 10
-0.870945
 20
-1.099622
  0
VERTEX
  8
PLAN_1
 62
     2
  6
CONTINUOUS
 10
-0.872516
 20
-1.098051
  0
VERTEX
  8
PLAN_1
 62
     2
  6
CONTINUOUS
 10
-0.874087
 20
-1.095433
  0
VERTEX
  8
PLAN_1
 62
     2
  6
CONTINUOUS
 10
-0.875134
 20
-1.092287
  0
VERTEX
  8
PLAN_1
 62
     2
  6
CONTINUOUS
 10
-0.876181
 20
-1.089146
  0
VERTEX
  8
PLAN_1
 62
     2
  6
CONTINUOUS
 10
-0.876181
 20
-1.086528
  0
VERTEX
  8
PLAN_1
 62
     2
  6
CONTINUOUS
 10
-0.867276
 20
-1.086528
  0
VERTEX
  8
PLAN_1
 62
     2
  6
CONTINUOUS
 10
-0.867276
 20
-1.088098
  0
VERTEX
  8
PLAN_1
 62
     2
  6
CONTINUOUS
 10
-0.866752
 20
-1.089669
  0
VERTEX
  8
PLAN_1
 62
     2
  6
CONTINUOUS
 10
-0.866228
 20
-1.091764
  0
VERTEX
  8
PLAN_1
 62
     2
  6
CONTINUOUS
 10
-0.864657
 20
-1.093339
  0
VERTEX
  8
PLAN_1
 62
     2
  6
CONTINUOUS
 10
-0.863087
 20
-1.094909
  0
VERTEX
  8
PLAN_1
 62
     2
  6
CONTINUOUS
 10
-0.860465
 20
-1.096480
  0
VERTEX
  8
PLAN_1
 62
     2
  6
CONTINUOUS
 10
-0.857323
 20
-1.097004
  0
VERTEX
  8
PLAN_1
 62
     2
  6
CONTINUOUS
 10
-0.852606
 20
-1.097528
  0
VERTEX
  8
PLAN_1
 62
     2
  6
CONTINUOUS
 10
-0.850512
 20
-1.097528
  0
VERTEX
  8
PLAN_1
 62
     2
  6
CONTINUOUS
 10
-0.847894
 20
-1.097004
  0
VERTEX
  8
PLAN_1
 62
     2
  6
CONTINUOUS
 10
-0.845799
 20
-1.096480
  0
VERTEX
  8
PLAN_1
 62
     2
  6
CONTINUOUS
 10
-0.844224
 20
-1.095433
  0
VERTEX
  8
PLAN_1
 62
     2
  6
CONTINUOUS
 10
-0.842654
 20
-1.094386
  0
VERTEX
  8
PLAN_1
 62
     2
  6
CONTINUOUS
 10
-0.841606
 20
-1.092811
  0
VERTEX
  8
PLAN_1
 62
     2
  6
CONTINUOUS
 10
-0.840559
 20
-1.090717
  0
VERTEX
  8
PLAN_1
 62
     2
  6
CONTINUOUS
 10
-0.840559
 20
-1.088622
  0
VERTEX
  8
PLAN_1
 62
     2
  6
CONTINUOUS
 10
-0.840559
 20
-1.087051
  0
VERTEX
  8
PLAN_1
 62
     2
  6
CONTINUOUS
 10
-0.841083
 20
-1.086004
  0
VERTEX
  8
PLAN_1
 62
     2
  6
CONTINUOUS
 10
-0.841606
 20
-1.084953
  0
VERTEX
  8
PLAN_1
 62
     2
  6
CONTINUOUS
 10
-0.842654
 20
-1.083906
  0
VERTEX
  8
PLAN_1
 62
     2
  6
CONTINUOUS
 10
-0.844224
 20
-1.083382
  0
VERTEX
  8
PLAN_1
 62
     2
  6
CONTINUOUS
 10
-0.846323
 20
-1.082335
  0
VERTEX
  8
PLAN_1
 62
     2
  6
CONTINUOUS
 10
-0.848417
 20
-1.081811
  0
VERTEX
  8
PLAN_1
 62
     2
  6
CONTINUOUS
 10
-0.851035
 20
-1.080764
  0
VERTEX
  8
PLAN_1
 62
     2
  6
CONTINUOUS
 10
-0.862039
 20
-1.078146
  0
VERTEX
  8
PLAN_1
 62
     2
  6
CONTINUOUS
 10
-0.864657
 20
-1.077622
  0
VERTEX
  8
PLAN_1
 62
     2
  6
CONTINUOUS
 10
-0.866752
 20
-1.076571
  0
VERTEX
  8
PLAN_1
 62
     2
  6
CONTINUOUS
 10
-0.869374
 20
-1.075524
  0
VERTEX
  8
PLAN_1
 62
     2
  6
CONTINUOUS
 10
-0.870945
 20
-1.073953
  0
VERTEX
  8
PLAN_1
 62
     2
  6
CONTINUOUS
 10
-0.872516
 20
-1.072382
  0
VERTEX
  8
PLAN_1
 62
     2
  6
CONTINUOUS
 10
-0.873563
 20
-1.070287
  0
VERTEX
  8
PLAN_1
 62
     2
  6
CONTINUOUS
 10
-0.874087
 20
-1.067665
  0
VERTEX
  8
PLAN_1
 62
     2
  6
CONTINUOUS
 10
-0.874610
 20
-1.065047
  0
VERTEX
  8
PLAN_1
 62
     2
  6
CONTINUOUS
 10
-0.874087
 20
-1.060858
  0
VERTEX
  8
PLAN_1
 62
     2
  6
CONTINUOUS
 10
-0.872516
 20
-1.057189
  0
VERTEX
  8
PLAN_1
 62
     2
  6
CONTINUOUS
 10
-0.870945
 20
-1.054571
  0
VERTEX
  8
PLAN_1
 62
     2
  6
CONTINUOUS
 10
-0.868323
 20
-1.051949
  0
VERTEX
  8
PLAN_1
 62
     2
  6
CONTINUOUS
 10
-0.865181
 20
-1.050378
  0
VERTEX
  8
PLAN_1
 62
     2
  6
CONTINUOUS
 10
-0.861516
 20
-1.048807
  0
VERTEX
  8
PLAN_1
 62
     2
  6
CONTINUOUS
 10
-0.857846
 20
-1.048283
  0
VERTEX
  8
PLAN_1
 62
     2
  6
CONTINUOUS
 10
-0.853657
 20
-1.047760
  0
VERTEX
  8
PLAN_1
 62
     2
  6
CONTINUOUS
 10
-0.850512
 20
-1.047760
  0
VERTEX
  8
PLAN_1
 62
     2
  6
CONTINUOUS
 10
-0.847370
 20
-1.048283
  0
VERTEX
  8
PLAN_1
 62
     2
  6
CONTINUOUS
 10
-0.844748
 20
-1.049331
  0
VERTEX
  8
PLAN_1
 62
     2
  6
CONTINUOUS
 10
-0.842130
 20
-1.049854
  0
VERTEX
  8
PLAN_1
 62
     2
  6
CONTINUOUS
 10
-0.838465
 20
-1.052472
  0
VERTEX
  8
PLAN_1
 62
     2
  6
CONTINUOUS
 10
-0.835843
 20
-1.055094
  0
VERTEX
  8
PLAN_1
 62
     2
  6
CONTINUOUS
 10
-0.834272
 20
-1.058236
  0
VERTEX
  8
PLAN_1
 62
     2
  6
CONTINUOUS
 10
-0.833748
 20
-1.060858
  0
VERTEX
  8
PLAN_1
 62
     2
  6
CONTINUOUS
 10
-0.833224
 20
-1.063476
  0
VERTEX
  8
PLAN_1
 62
     2
  6
CONTINUOUS
 10
-0.833224
 20
-1.065047
  0
VERTEX
  8
PLAN_1
 62
     2
  6
CONTINUOUS
 10
-0.841606
 20
-1.065047
  0
SEQEND
  8
0
  0
POLYLINE
  8
PLAN_1
 62
     2
  6
CONTINUOUS
 66
     1
 40
0.003000
 41
0.003000
  0
VERTEX
  8
PLAN_1
 62
     2
  6
CONTINUOUS
 10
-0.789744
 20
-1.065047
  0
VERTEX
  8
PLAN_1
 62
     2
  6
CONTINUOUS
 10
-0.789744
 20
-1.063476
  0
VERTEX
  8
PLAN_1
 62
     2
  6
CONTINUOUS
 10
-0.790268
 20
-1.061906
  0
VERTEX
  8
PLAN_1
 62
     2
  6
CONTINUOUS
 10
-0.790791
 20
-1.060331
  0
VERTEX
  8
PLAN_1
 62
     2
  6
CONTINUOUS
 10
-0.791839
 20
-1.058760
  0
VERTEX
  8
PLAN_1
 62
     2
  6
CONTINUOUS
 10
-0.793409
 20
-1.057713
  0
VERTEX
  8
PLAN_1
 62
     2
  6
CONTINUOUS
 10
-0.796028
 20
-1.056665
  0
VERTEX
  8
PLAN_1
 62
     2
  6
CONTINUOUS
 10
-0.798650
 20
-1.056142
  0
VERTEX
  8
PLAN_1
 62
     2
  6
CONTINUOUS
 10
-0.802839
 20
-1.055618
  0
VERTEX
  8
PLAN_1
 62
     2
  6
CONTINUOUS
 10
-0.803886
 20
-1.055618
  0
VERTEX
  8
PLAN_1
 62
     2
  6
CONTINUOUS
 10
-0.805461
 20
-1.056142
  0
VERTEX
  8
PLAN_1
 62
     2
  6
CONTINUOUS
 10
-0.807555
 20
-1.056142
  0
VERTEX
  8
PLAN_1
 62
     2
  6
CONTINUOUS
 10
-0.809126
 20
-1.057189
  0
VERTEX
  8
PLAN_1
 62
     2
  6
CONTINUOUS
 10
-0.810697
 20
-1.058236
  0
VERTEX
  8
PLAN_1
 62
     2
  6
CONTINUOUS
 10
-0.812268
 20
-1.059283
  0
VERTEX
  8
PLAN_1
 62
     2
  6
CONTINUOUS
 10
-0.813319
 20
-1.061382
  0
VERTEX
  8
PLAN_1
 62
     2
  6
CONTINUOUS
 10
-0.813319
 20
-1.063476
  0
VERTEX
  8
PLAN_1
 62
     2
  6
CONTINUOUS
 10
-0.813319
 20
-1.065047
  0
VERTEX
  8
PLAN_1
 62
     2
  6
CONTINUOUS
 10
-0.812795
 20
-1.066094
  0
VERTEX
  8
PLAN_1
 62
     2
  6
CONTINUOUS
 10
-0.812268
 20
-1.067142
  0
VERTEX
  8
PLAN_1
 62
     2
  6
CONTINUOUS
 10
-0.811220
 20
-1.068189
  0
VERTEX
  8
PLAN_1
 62
     2
  6
CONTINUOUS
 10
-0.809650
 20
-1.068713
  0
VERTEX
  8
PLAN_1
 62
     2
  6
CONTINUOUS
 10
-0.808079
 20
-1.069240
  0
VERTEX
  8
PLAN_1
 62
     2
  6
CONTINUOUS
 10
-0.805984
 20
-1.070287
  0
VERTEX
  8
PLAN_1
 62
     2
  6
CONTINUOUS
 10
-0.803362
 20
-1.070811
  0
VERTEX
  8
PLAN_1
 62
     2
  6
CONTINUOUS
 10
-0.794457
 20
-1.072906
  0
VERTEX
  8
PLAN_1
 62
     2
  6
CONTINUOUS
 10
-0.790268
 20
-1.073953
  0
VERTEX
  8
PLAN_1
 62
     2
  6
CONTINUOUS
 10
-0.787122
 20
-1.075524
  0
VERTEX
  8
PLAN_1
 62
     2
  6
CONTINUOUS
 10
-0.784504
 20
-1.076571
  0
VERTEX
  8
PLAN_1
 62
     2
  6
CONTINUOUS
 10
-0.782409
 20
-1.078669
  0
VERTEX
  8
PLAN_1
 62
     2
  6
CONTINUOUS
 10
-0.780839
 20
-1.080240
  0
VERTEX
  8
PLAN_1
 62
     2
  6
CONTINUOUS
 10
-0.779787
 20
-1.082335
  0
VERTEX
  8
PLAN_1
 62
     2
  6
CONTINUOUS
 10
-0.779264
 20
-1.084953
  0
VERTEX
  8
PLAN_1
 62
     2
  6
CONTINUOUS
 10
-0.779264
 20
-1.087575
  0
VERTEX
  8
PLAN_1
 62
     2
  6
CONTINUOUS
 10
-0.779787
 20
-1.091240
  0
VERTEX
  8
PLAN_1
 62
     2
  6
CONTINUOUS
 10
-0.780839
 20
-1.094909
  0
VERTEX
  8
PLAN_1
 62
     2
  6
CONTINUOUS
 10
-0.782933
 20
-1.098051
  0
VERTEX
  8
PLAN_1
 62
     2
  6
CONTINUOUS
 10
-0.785551
 20
-1.100669
  0
VERTEX
  8
PLAN_1
 62
     2
  6
CONTINUOUS
 10
-0.788697
 20
-1.102768
  0
VERTEX
  8
PLAN_1
 62
     2
  6
CONTINUOUS
 10
-0.792362
 20
-1.104339
  0
VERTEX
  8
PLAN_1
 62
     2
  6
CONTINUOUS
 10
-0.796028
 20
-1.104862
  0
VERTEX
  8
PLAN_1
 62
     2
  6
CONTINUOUS
 10
-0.800744
 20
-1.105386
  0
VERTEX
  8
PLAN_1
 62
     2
  6
CONTINUOUS
 10
-0.804413
 20
-1.105386
  0
VERTEX
  8
PLAN_1
 62
     2
  6
CONTINUOUS
 10
-0.808079
 20
-1.104862
  0
VERTEX
  8
PLAN_1
 62
     2
  6
CONTINUOUS
 10
-0.810697
 20
-1.104339
  0
VERTEX
  8
PLAN_1
 62
     2
  6
CONTINUOUS
 10
-0.813319
 20
-1.103291
  0
VERTEX
  8
PLAN_1
 62
     2
  6
CONTINUOUS
 10
-0.815413
 20
-1.102244
  0
VERTEX
  8
PLAN_1
 62
     2
  6
CONTINUOUS
 10
-0.817508
 20
-1.101193
  0
VERTEX
  8
PLAN_1
 62
     2
  6
CONTINUOUS
 10
-0.819079
 20
-1.099622
  0
VERTEX
  8
PLAN_1
 62
     2
  6
CONTINUOUS
 10
-0.820126
 20
-1.098051
  0
VERTEX
  8
PLAN_1
 62
     2
  6
CONTINUOUS
 10
-0.822224
 20
-1.095433
  0
VERTEX
  8
PLAN_1
 62
     2
  6
CONTINUOUS
 10
-0.823272
 20
-1.092287
  0
VERTEX
  8
PLAN_1
 62
     2
  6
CONTINUOUS
 10
-0.823795
 20
-1.089146
  0
VERTEX
  8
PLAN_1
 62
     2
  6
CONTINUOUS
 10
-0.824319
 20
-1.086528
  0
VERTEX
  8
PLAN_1
 62
     2
  6
CONTINUOUS
 10
-0.815413
 20
-1.086528
  0
VERTEX
  8
PLAN_1
 62
     2
  6
CONTINUOUS
 10
-0.814890
 20
-1.088098
  0
VERTEX
  8
PLAN_1
 62
     2
  6
CONTINUOUS
 10
-0.814890
 20
-1.089669
  0
VERTEX
  8
PLAN_1
 62
     2
  6
CONTINUOUS
 10
-0.813843
 20
-1.091764
  0
VERTEX
  8
PLAN_1
 62
     2
  6
CONTINUOUS
 10
-0.812795
 20
-1.093339
  0
VERTEX
  8
PLAN_1
 62
     2
  6
CONTINUOUS
 10
-0.810697
 20
-1.094909
  0
VERTEX
  8
PLAN_1
 62
     2
  6
CONTINUOUS
 10
-0.808602
 20
-1.096480
  0
VERTEX
  8
PLAN_1
 62
     2
  6
CONTINUOUS
 10
-0.804937
 20
-1.097004
  0
VERTEX
  8
PLAN_1
 62
     2
  6
CONTINUOUS
 10
-0.800744
 20
-1.097528
  0
VERTEX
  8
PLAN_1
 62
     2
  6
CONTINUOUS
 10
-0.798126
 20
-1.097528
  0
VERTEX
  8
PLAN_1
 62
     2
  6
CONTINUOUS
 10
-0.796028
 20
-1.097004
  0
VERTEX
  8
PLAN_1
 62
     2
  6
CONTINUOUS
 10
-0.793933
 20
-1.096480
  0
VERTEX
  8
PLAN_1
 62
     2
  6
CONTINUOUS
 10
-0.791839
 20
-1.095433
  0
VERTEX
  8
PLAN_1
 62
     2
  6
CONTINUOUS
 10
-0.790268
 20
-1.094386
  0
VERTEX
  8
PLAN_1
 62
     2
  6
CONTINUOUS
 10
-0.789220
 20
-1.092811
  0
VERTEX
  8
PLAN_1
 62
     2
  6
CONTINUOUS
 10
-0.788697
 20
-1.090717
  0
VERTEX
  8
PLAN_1
 62
     2
  6
CONTINUOUS
 10
-0.788173
 20
-1.088622
  0
VERTEX
  8
PLAN_1
 62
     2
  6
CONTINUOUS
 10
-0.788697
 20
-1.087051
  0
VERTEX
  8
PLAN_1
 62
     2
  6
CONTINUOUS
 10
-0.788697
 20
-1.086004
  0
VERTEX
  8
PLAN_1
 62
     2
  6
CONTINUOUS
 10
-0.789744
 20
-1.084953
  0
VERTEX
  8
PLAN_1
 62
     2
  6
CONTINUOUS
 10
-0.790791
 20
-1.083906
  0
VERTEX
  8
PLAN_1
 62
     2
  6
CONTINUOUS
 10
-0.792362
 20
-1.083382
  0
VERTEX
  8
PLAN_1
 62
     2
  6
CONTINUOUS
 10
-0.793933
 20
-1.082335
  0
VERTEX
  8
PLAN_1
 62
     2
  6
CONTINUOUS
 10
-0.796555
 20
-1.081811
  0
VERTEX
  8
PLAN_1
 62
     2
  6
CONTINUOUS
 10
-0.799173
 20
-1.080764
  0
VERTEX
  8
PLAN_1
 62
     2
  6
CONTINUOUS
 10
-0.809650
 20
-1.078146
  0
VERTEX
  8
PLAN_1
 62
     2
  6
CONTINUOUS
 10
-0.812268
 20
-1.077622
  0
VERTEX
  8
PLAN_1
 62
     2
  6
CONTINUOUS
 10
-0.814890
 20
-1.076571
  0
VERTEX
  8
PLAN_1
 62
     2
  6
CONTINUOUS
 10
-0.816984
 20
-1.075524
  0
VERTEX
  8
PLAN_1
 62
     2
  6
CONTINUOUS
 10
-0.819079
 20
-1.073953
  0
VERTEX
  8
PLAN_1
 62
     2
  6
CONTINUOUS
 10
-0.820126
 20
-1.072382
  0
VERTEX
  8
PLAN_1
 62
     2
  6
CONTINUOUS
 10
-0.821177
 20
-1.070287
  0
VERTEX
  8
PLAN_1
 62
     2
  6
CONTINUOUS
 10
-0.822224
 20
-1.067665
  0
VERTEX
  8
PLAN_1
 62
     2
  6
CONTINUOUS
 10
-0.822224
 20
-1.065047
  0
VERTEX
  8
PLAN_1
 62
     2
  6
CONTINUOUS
 10
-0.821701
 20
-1.060858
  0
VERTEX
  8
PLAN_1
 62
     2
  6
CONTINUOUS
 10
-0.820654
 20
-1.057189
  0
VERTEX
  8
PLAN_1
 62
     2
  6
CONTINUOUS
 10
-0.818555
 20
-1.054571
  0
VERTEX
  8
PLAN_1
 62
     2
  6
CONTINUOUS
 10
-0.815937
 20
-1.051949
  0
VERTEX
  8
PLAN_1
 62
     2
  6
CONTINUOUS
 10
-0.812795
 20
-1.050378
  0
VERTEX
  8
PLAN_1
 62
     2
  6
CONTINUOUS
 10
-0.809650
 20
-1.048807
  0
VERTEX
  8
PLAN_1
 62
     2
  6
CONTINUOUS
 10
-0.805461
 20
-1.048283
  0
VERTEX
  8
PLAN_1
 62
     2
  6
CONTINUOUS
 10
-0.801791
 20
-1.047760
  0
VERTEX
  8
PLAN_1
 62
     2
  6
CONTINUOUS
 10
-0.798126
 20
-1.047760
  0
VERTEX
  8
PLAN_1
 62
     2
  6
CONTINUOUS
 10
-0.794980
 20
-1.048283
  0
VERTEX
  8
PLAN_1
 62
     2
  6
CONTINUOUS
 10
-0.792362
 20
-1.049331
  0
VERTEX
  8
PLAN_1
 62
     2
  6
CONTINUOUS
 10
-0.790268
 20
-1.049854
  0
VERTEX
  8
PLAN_1
 62
     2
  6
CONTINUOUS
 10
-0.786598
 20
-1.052472
  0
VERTEX
  8
PLAN_1
 62
     2
  6
CONTINUOUS
 10
-0.783980
 20
-1.055094
  0
VERTEX
  8
PLAN_1
 62
     2
  6
CONTINUOUS
 10
-0.782409
 20
-1.058236
  0
VERTEX
  8
PLAN_1
 62
     2
  6
CONTINUOUS
 10
-0.781362
 20
-1.060858
  0
VERTEX
  8
PLAN_1
 62
     2
  6
CONTINUOUS
 10
-0.780839
 20
-1.063476
  0
VERTEX
  8
PLAN_1
 62
     2
  6
CONTINUOUS
 10
-0.780839
 20
-1.065047
  0
VERTEX
  8
PLAN_1
 62
     2
  6
CONTINUOUS
 10
-0.789744
 20
-1.065047
  0
SEQEND
  8
0
  0
POLYLINE
  8
PLAN_1
 62
     2
  6
CONTINUOUS
 66
     1
 40
0.003000
 41
0.003000
  0
VERTEX
  8
PLAN_1
 62
     2
  6
CONTINUOUS
 10
-0.722161
 20
-1.086528
  0
VERTEX
  8
PLAN_1
 62
     2
  6
CONTINUOUS
 10
-0.722685
 20
-1.088098
  0
VERTEX
  8
PLAN_1
 62
     2
  6
CONTINUOUS
 10
-0.723213
 20
-1.089669
  0
VERTEX
  8
PLAN_1
 62
     2
  6
CONTINUOUS
 10
-0.723736
 20
-1.091240
  0
VERTEX
  8
PLAN_1
 62
     2
  6
CONTINUOUS
 10
-0.724783
 20
-1.093339
  0
VERTEX
  8
PLAN_1
 62
     2
  6
CONTINUOUS
 10
-0.725831
 20
-1.095433
  0
VERTEX
  8
PLAN_1
 62
     2
  6
CONTINUOUS
 10
-0.727925
 20
-1.097528
  0
VERTEX
  8
PLAN_1
 62
     2
  6
CONTINUOUS
 10
-0.729496
 20
-1.099622
  0
VERTEX
  8
PLAN_1
 62
     2
  6
CONTINUOUS
 10
-0.732118
 20
-1.101720
  0
VERTEX
  8
PLAN_1
 62
     2
  6
CONTINUOUS
 10
-0.733165
 20
-1.102244
  0
VERTEX
  8
PLAN_1
 62
     2
  6
CONTINUOUS
 10
-0.734213
 20
-1.102768
  0
VERTEX
  8
PLAN_1
 62
     2
  6
CONTINUOUS
 10
-0.735783
 20
-1.103291
  0
VERTEX
  8
PLAN_1
 62
     2
  6
CONTINUOUS
 10
-0.737354
 20
-1.104339
  0
VERTEX
  8
PLAN_1
 62
     2
  6
CONTINUOUS
 10
-0.738925
 20
-1.104339
  0
VERTEX
  8
PLAN_1
 62
     2
  6
CONTINUOUS
 10
-0.741024
 20
-1.104862
  0
VERTEX
  8
PLAN_1
 62
     2
  6
CONTINUOUS
 10
-0.743642
 20
-1.105386
  0
VERTEX
  8
PLAN_1
 62
     2
  6
CONTINUOUS
 10
-0.746783
 20
-1.105386
  0
VERTEX
  8
PLAN_1
 62
     2
  6
CONTINUOUS
 10
-0.749406
 20
-1.105386
  0
VERTEX
  8
PLAN_1
 62
     2
  6
CONTINUOUS
 10
-0.752024
 20
-1.104862
  0
VERTEX
  8
PLAN_1
 62
     2
  6
CONTINUOUS
 10
-0.754642
 20
-1.104339
  0
VERTEX
  8
PLAN_1
 62
     2
  6
CONTINUOUS
 10
-0.757264
 20
-1.103291
  0
VERTEX
  8
PLAN_1
 62
     2
  6
CONTINUOUS
 10
-0.759358
 20
-1.102244
  0
VERTEX
  8
PLAN_1
 62
     2
  6
CONTINUOUS
 10
-0.761453
 20
-1.100669
  0
VERTEX
  8
PLAN_1
 62
     2
  6
CONTINUOUS
 10
-0.763024
 20
-1.099098
  0
VERTEX
  8
PLAN_1
 62
     2
  6
CONTINUOUS
 10
-0.764598
 20
-1.097528
  0
VERTEX
  8
PLAN_1
 62
     2
  6
CONTINUOUS
 10
-0.767740
 20
-1.093862
  0
VERTEX
  8
PLAN_1
 62
     2
  6
CONTINUOUS
 10
-0.769311
 20
-1.089146
  0
VERTEX
  8
PLAN_1
 62
     2
  6
CONTINUOUS
 10
-0.770882
 20
-1.083906
  0
VERTEX
  8
PLAN_1
 62
     2
  6
CONTINUOUS
 10
-0.771406
 20
-1.078146
  0
VERTEX
  8
PLAN_1
 62
     2
  6
CONTINUOUS
 10
-0.770882
 20
-1.071858
  0
VERTEX
  8
PLAN_1
 62
     2
  6
CONTINUOUS
 10
-0.769835
 20
-1.066094
  0
VERTEX
  8
PLAN_1
 62
     2
  6
CONTINUOUS
 10
-0.767740
 20
-1.060858
  0
VERTEX
  8
PLAN_1
 62
     2
  6
CONTINUOUS
 10
-0.765122
 20
-1.056665
  0
VERTEX
  8
PLAN_1
 62
     2
  6
CONTINUOUS
 10
-0.763024
 20
-1.054571
  0
VERTEX
  8
PLAN_1
 62
     2
  6
CONTINUOUS
 10
-0.761453
 20
-1.053000
  0
VERTEX
  8
PLAN_1
 62
     2
  6
CONTINUOUS
 10
-0.759358
 20
-1.051425
  0
VERTEX
  8
PLAN_1
 62
     2
  6
CONTINUOUS
 10
-0.756740
 20
-1.050378
  0
VERTEX
  8
PLAN_1
 62
     2
  6
CONTINUOUS
 10
-0.754118
 20
-1.049331
  0
VERTEX
  8
PLAN_1
 62
     2
  6
CONTINUOUS
 10
-0.751500
 20
-1.048283
  0
VERTEX
  8
PLAN_1
 62
     2
  6
CONTINUOUS
 10
-0.748358
 20
-1.047760
  0
VERTEX
  8
PLAN_1
 62
     2
  6
CONTINUOUS
 10
-0.745213
 20
-1.047760
  0
VERTEX
  8
PLAN_1
 62
     2
  6
CONTINUOUS
 10
-0.742071
 20
-1.047760
  0
VERTEX
  8
PLAN_1
 62
     2
  6
CONTINUOUS
 10
-0.739453
 20
-1.048283
  0
VERTEX
  8
PLAN_1
 62
     2
  6
CONTINUOUS
 10
-0.736831
 20
-1.049331
  0
VERTEX
  8
PLAN_1
 62
     2
  6
CONTINUOUS
 10
-0.734736
 20
-1.049854
  0
VERTEX
  8
PLAN_1
 62
     2
  6
CONTINUOUS
 10
-0.732642
 20
-1.051425
  0
VERTEX
  8
PLAN_1
 62
     2
  6
CONTINUOUS
 10
-0.730543
 20
-1.053000
  0
VERTEX
  8
PLAN_1
 62
     2
  6
CONTINUOUS
 10
-0.728972
 20
-1.054571
  0
VERTEX
  8
PLAN_1
 62
     2
  6
CONTINUOUS
 10
-0.727402
 20
-1.056665
  0
VERTEX
  8
PLAN_1
 62
     2
  6
CONTINUOUS
 10
-0.724783
 20
-1.060858
  0
VERTEX
  8
PLAN_1
 62
     2
  6
CONTINUOUS
 10
-0.723213
 20
-1.066618
  0
VERTEX
  8
PLAN_1
 62
     2
  6
CONTINUOUS
 10
-0.722161
 20
-1.072382
  0
VERTEX
  8
PLAN_1
 62
     2
  6
CONTINUOUS
 10
-0.721638
 20
-1.079717
  0
VERTEX
  8
PLAN_1
 62
     2
  6
CONTINUOUS
 10
-0.761453
 20
-1.079717
  0
VERTEX
  8
PLAN_1
 62
     2
  6
CONTINUOUS
 10
-0.760929
 20
-1.083382
  0
VERTEX
  8
PLAN_1
 62
     2
  6
CONTINUOUS
 10
-0.760406
 20
-1.087051
  0
VERTEX
  8
PLAN_1
 62
     2
  6
CONTINUOUS
 10
-0.759358
 20
-1.090193
  0
VERTEX
  8
PLAN_1
 62
     2
  6
CONTINUOUS
 10
-0.757264
 20
-1.092811
  0
VERTEX
  8
PLAN_1
 62
     2
  6
CONTINUOUS
 10
-0.755165
 20
-1.094909
  0
VERTEX
  8
PLAN_1
 62
     2
  6
CONTINUOUS
 10
-0.752547
 20
-1.096480
  0
VERTEX
  8
PLAN_1
 62
     2
  6
CONTINUOUS
 10
-0.749406
 20
-1.097004
  0
VERTEX
  8
PLAN_1
 62
     2
  6
CONTINUOUS
 10
-0.745736
 20
-1.097528
  0
VERTEX
  8
PLAN_1
 62
     2
  6
CONTINUOUS
 10
-0.742594
 20
-1.097004
  0
VERTEX
  8
PLAN_1
 62
     2
  6
CONTINUOUS
 10
-0.739976
 20
-1.096480
  0
VERTEX
  8
PLAN_1
 62
     2
  6
CONTINUOUS
 10
-0.737354
 20
-1.094909
  0
VERTEX
  8
PLAN_1
 62
     2
  6
CONTINUOUS
 10
-0.735260
 20
-1.093339
  0
VERTEX
  8
PLAN_1
 62
     2
  6
CONTINUOUS
 10
-0.733689
 20
-1.091764
  0
VERTEX
  8
PLAN_1
 62
     2
  6
CONTINUOUS
 10
-0.732642
 20
-1.090193
  0
VERTEX
  8
PLAN_1
 62
     2
  6
CONTINUOUS
 10
-0.732118
 20
-1.088098
  0
VERTEX
  8
PLAN_1
 62
     2
  6
CONTINUOUS
 10
-0.731594
 20
-1.086528
  0
VERTEX
  8
PLAN_1
 62
     2
  6
CONTINUOUS
 10
-0.722161
 20
-1.086528
  0
SEQEND
  8
0
  0
POLYLINE
  8
PLAN_1
 62
     2
  6
CONTINUOUS
 66
     1
 40
0.003000
 41
0.003000
  0
VERTEX
  8
PLAN_1
 62
     2
  6
CONTINUOUS
 10
-0.731067
 20
-1.072382
  0
VERTEX
  8
PLAN_1
 62
     2
  6
CONTINUOUS
 10
-0.731594
 20
-1.069240
  0
VERTEX
  8
PLAN_1
 62
     2
  6
CONTINUOUS
 10
-0.732118
 20
-1.066094
  0
VERTEX
  8
PLAN_1
 62
     2
  6
CONTINUOUS
 10
-0.733165
 20
-1.063476
  0
VERTEX
  8
PLAN_1
 62
     2
  6
CONTINUOUS
 10
-0.734736
 20
-1.060858
  0
VERTEX
  8
PLAN_1
 62
     2
  6
CONTINUOUS
 10
-0.736831
 20
-1.058760
  0
VERTEX
  8
PLAN_1
 62
     2
  6
CONTINUOUS
 10
-0.739453
 20
-1.057189
  0
VERTEX
  8
PLAN_1
 62
     2
  6
CONTINUOUS
 10
-0.742594
 20
-1.056142
  0
VERTEX
  8
PLAN_1
 62
     2
  6
CONTINUOUS
 10
-0.746260
 20
-1.056142
  0
VERTEX
  8
PLAN_1
 62
     2
  6
CONTINUOUS
 10
-0.749406
 20
-1.056142
  0
VERTEX
  8
PLAN_1
 62
     2
  6
CONTINUOUS
 10
-0.752024
 20
-1.057189
  0
VERTEX
  8
PLAN_1
 62
     2
  6
CONTINUOUS
 10
-0.754642
 20
-1.058760
  0
VERTEX
  8
PLAN_1
 62
     2
  6
CONTINUOUS
 10
-0.757264
 20
-1.060858
  0
VERTEX
  8
PLAN_1
 62
     2
  6
CONTINUOUS
 10
-0.758835
 20
-1.063476
  0
VERTEX
  8
PLAN_1
 62
     2
  6
CONTINUOUS
 10
-0.760406
 20
-1.066094
  0
VERTEX
  8
PLAN_1
 62
     2
  6
CONTINUOUS
 10
-0.760929
 20
-1.069240
  0
VERTEX
  8
PLAN_1
 62
     2
  6
CONTINUOUS
 10
-0.761453
 20
-1.072382
  0
VERTEX
  8
PLAN_1
 62
     2
  6
CONTINUOUS
 10
-0.731067
 20
-1.072382
  0
SEQEND
  8
0
  0
SOLID
  8
PLAN_1
 62
     2
 10
-0.687587
 20
-1.079717
 11
-0.712732
 21
-1.079717
 12
-0.687587
 22
-1.070287
 13
-0.712732
 23
-1.070287
  0
POLYLINE
  8
PLAN_1
 62
     2
  6
CONTINUOUS
 66
     1
 40
0.003000
 41
0.003000
  0
VERTEX
  8
PLAN_1
 62
     2
  6
CONTINUOUS
 10
-0.687587
 20
-1.079717
  0
VERTEX
  8
PLAN_1
 62
     2
  6
CONTINUOUS
 10
-0.712732
 20
-1.079717
  0
VERTEX
  8
PLAN_1
 62
     2
  6
CONTINUOUS
 10
-0.712732
 20
-1.070287
  0
VERTEX
  8
PLAN_1
 62
     2
  6
CONTINUOUS
 10
-0.687587
 20
-1.070287
  0
VERTEX
  8
PLAN_1
 62
     2
  6
CONTINUOUS
 10
-0.687587
 20
-1.079717
  0
SEQEND
  8
0
  0
SOLID
  8
PLAN_1
 62
     2
 10
-0.651441
 20
-1.041996
 11
-0.658252
 21
-1.041996
 12
-0.637819
 22
-1.027327
 13
-0.649343
 23
-1.027327
  0
POLYLINE
  8
PLAN_1
 62
     2
  6
CONTINUOUS
 66
     1
 40
0.003000
 41
0.003000
  0
VERTEX
  8
PLAN_1
 62
     2
  6
CONTINUOUS
 10
-0.651441
 20
-1.041996
  0
VERTEX
  8
PLAN_1
 62
     2
  6
CONTINUOUS
 10
-0.658252
 20
-1.041996
  0
VERTEX
  8
PLAN_1
 62
     2
  6
CONTINUOUS
 10
-0.649343
 20
-1.027327
  0
VERTEX
  8
PLAN_1
 62
     2
  6
CONTINUOUS
 10
-0.637819
 20
-1.027327
  0
VERTEX
  8
PLAN_1
 62
     2
  6
CONTINUOUS
 10
-0.651441
 20
-1.041996
  0
SEQEND
  8
0
  0
POLYLINE
  8
PLAN_1
 62
     2
  6
CONTINUOUS
 66
     1
 40
0.003000
 41
0.003000
  0
VERTEX
  8
PLAN_1
 62
     2
  6
CONTINUOUS
 10
-0.629961
 20
-1.086528
  0
VERTEX
  8
PLAN_1
 62
     2
  6
CONTINUOUS
 10
-0.629961
 20
-1.088098
  0
VERTEX
  8
PLAN_1
 62
     2
  6
CONTINUOUS
 10
-0.630484
 20
-1.089669
  0
VERTEX
  8
PLAN_1
 62
     2
  6
CONTINUOUS
 10
-0.631008
 20
-1.091240
  0
VERTEX
  8
PLAN_1
 62
     2
  6
CONTINUOUS
 10
-0.632055
 20
-1.093339
  0
VERTEX
  8
PLAN_1
 62
     2
  6
CONTINUOUS
 10
-0.633630
 20
-1.095433
  0
VERTEX
  8
PLAN_1
 62
     2
  6
CONTINUOUS
 10
-0.635201
 20
-1.097528
  0
VERTEX
  8
PLAN_1
 62
     2
  6
CONTINUOUS
 10
-0.637295
 20
-1.099622
  0
VERTEX
  8
PLAN_1
 62
     2
  6
CONTINUOUS
 10
-0.639390
 20
-1.101720
  0
VERTEX
  8
PLAN_1
 62
     2
  6
CONTINUOUS
 10
-0.640437
 20
-1.102244
  0
VERTEX
  8
PLAN_1
 62
     2
  6
CONTINUOUS
 10
-0.641484
 20
-1.102768
  0
VERTEX
  8
PLAN_1
 62
     2
  6
CONTINUOUS
 10
-0.643059
 20
-1.103291
  0
VERTEX
  8
PLAN_1
 62
     2
  6
CONTINUOUS
 10
-0.644630
 20
-1.104339
  0
VERTEX
  8
PLAN_1
 62
     2
  6
CONTINUOUS
 10
-0.646201
 20
-1.104339
  0
VERTEX
  8
PLAN_1
 62
     2
  6
CONTINUOUS
 10
-0.648819
 20
-1.104862
  0
VERTEX
  8
PLAN_1
 62
     2
  6
CONTINUOUS
 10
-0.651441
 20
-1.105386
  0
VERTEX
  8
PLAN_1
 62
     2
  6
CONTINUOUS
 10
-0.654059
 20
-1.105386
  0
VERTEX
  8
PLAN_1
 62
     2
  6
CONTINUOUS
 10
-0.657201
 20
-1.105386
  0
VERTEX
  8
PLAN_1
 62
     2
  6
CONTINUOUS
 10
-0.659823
 20
-1.104862
  0
VERTEX
  8
PLAN_1
 62
     2
  6
CONTINUOUS
 10
-0.662441
 20
-1.104339
  0
VERTEX
  8
PLAN_1
 62
     2
  6
CONTINUOUS
 10
-0.664535
 20
-1.103291
  0
VERTEX
  8
PLAN_1
 62
     2
  6
CONTINUOUS
 10
-0.666634
 20
-1.102244
  0
VERTEX
  8
PLAN_1
 62
     2
  6
CONTINUOUS
 10
-0.668728
 20
-1.100669
  0
VERTEX
  8
PLAN_1
 62
     2
  6
CONTINUOUS
 10
-0.670299
 20
-1.099098
  0
VERTEX
  8
PLAN_1
 62
     2
  6
CONTINUOUS
 10
-0.672394
 20
-1.097528
  0
VERTEX
  8
PLAN_1
 62
     2
  6
CONTINUOUS
 10
-0.675016
 20
-1.093862
  0
VERTEX
  8
PLAN_1
 62
     2
  6
CONTINUOUS
 10
-0.677110
 20
-1.089146
  0
VERTEX
  8
PLAN_1
 62
     2
  6
CONTINUOUS
 10
-0.678157
 20
-1.083906
  0
VERTEX
  8
PLAN_1
 62
     2
  6
CONTINUOUS
 10
-0.678681
 20
-1.078146
  0
VERTEX
  8
PLAN_1
 62
     2
  6
CONTINUOUS
 10
-0.678157
 20
-1.071858
  0
VERTEX
  8
PLAN_1
 62
     2
  6
CONTINUOUS
 10
-0.677110
 20
-1.066094
  0
VERTEX
  8
PLAN_1
 62
     2
  6
CONTINUOUS
 10
-0.675016
 20
-1.060858
  0
VERTEX
  8
PLAN_1
 62
     2
  6
CONTINUOUS
 10
-0.672394
 20
-1.056665
  0
VERTEX
  8
PLAN_1
 62
     2
  6
CONTINUOUS
 10
-0.670823
 20
-1.054571
  0
VERTEX
  8
PLAN_1
 62
     2
  6
CONTINUOUS
 10
-0.668728
 20
-1.053000
  0
VERTEX
  8
PLAN_1
 62
     2
  6
CONTINUOUS
 10
-0.666634
 20
-1.051425
  0
VERTEX
  8
PLAN_1
 62
     2
  6
CONTINUOUS
 10
-0.664012
 20
-1.050378
  0
VERTEX
  8
PLAN_1
 62
     2
  6
CONTINUOUS
 10
-0.661394
 20
-1.049331
  0
VERTEX
  8
PLAN_1
 62
     2
  6
CONTINUOUS
 10
-0.658776
 20
-1.048283
  0
VERTEX
  8
PLAN_1
 62
     2
  6
CONTINUOUS
 10
-0.655630
 20
-1.047760
  0
VERTEX
  8
PLAN_1
 62
     2
  6
CONTINUOUS
 10
-0.652488
 20
-1.047760
  0
VERTEX
  8
PLAN_1
 62
     2
  6
CONTINUOUS
 10
-0.649870
 20
-1.047760
  0
VERTEX
  8
PLAN_1
 62
     2
  6
CONTINUOUS
 10
-0.647248
 20
-1.048283
  0
VERTEX
  8
PLAN_1
 62
     2
  6
CONTINUOUS
 10
-0.644630
 20
-1.049331
  0
VERTEX
  8
PLAN_1
 62
     2
  6
CONTINUOUS
 10
-0.642012
 20
-1.049854
  0
VERTEX
  8
PLAN_1
 62
     2
  6
CONTINUOUS
 10
-0.639913
 20
-1.051425
  0
VERTEX
  8
PLAN_1
 62
     2
  6
CONTINUOUS
 10
-0.638343
 20
-1.053000
  0
VERTEX
  8
PLAN_1
 62
     2
  6
CONTINUOUS
 10
-0.636248
 20
-1.054571
  0
VERTEX
  8
PLAN_1
 62
     2
  6
CONTINUOUS
 10
-0.634677
 20
-1.056665
  0
VERTEX
  8
PLAN_1
 62
     2
  6
CONTINUOUS
 10
-0.632579
 20
-1.060858
  0
VERTEX
  8
PLAN_1
 62
     2
  6
CONTINUOUS
 10
-0.630484
 20
-1.066618
  0
VERTEX
  8
PLAN_1
 62
     2
  6
CONTINUOUS
 10
-0.629437
 20
-1.072382
  0
VERTEX
  8
PLAN_1
 62
     2
  6
CONTINUOUS
 10
-0.628913
 20
-1.079717
  0
VERTEX
  8
PLAN_1
 62
     2
  6
CONTINUOUS
 10
-0.668728
 20
-1.079717
  0
VERTEX
  8
PLAN_1
 62
     2
  6
CONTINUOUS
 10
-0.668728
 20
-1.083382
  0
VERTEX
  8
PLAN_1
 62
     2
  6
CONTINUOUS
 10
-0.667681
 20
-1.087051
  0
VERTEX
  8
PLAN_1
 62
     2
  6
CONTINUOUS
 10
-0.666634
 20
-1.090193
  0
VERTEX
  8
PLAN_1
 62
     2
  6
CONTINUOUS
 10
-0.665059
 20
-1.092811
  0
VERTEX
  8
PLAN_1
 62
     2
  6
CONTINUOUS
 10
-0.662441
 20
-1.094909
  0
VERTEX
  8
PLAN_1
 62
     2
  6
CONTINUOUS
 10
-0.659823
 20
-1.096480
  0
VERTEX
  8
PLAN_1
 62
     2
  6
CONTINUOUS
 10
-0.656677
 20
-1.097004
  0
VERTEX
  8
PLAN_1
 62
     2
  6
CONTINUOUS
 10
-0.653012
 20
-1.097528
  0
VERTEX
  8
PLAN_1
 62
     2
  6
CONTINUOUS
 10
-0.649870
 20
-1.097004
  0
VERTEX
  8
PLAN_1
 62
     2
  6
CONTINUOUS
 10
-0.647248
 20
-1.096480
  0
VERTEX
  8
PLAN_1
 62
     2
  6
CONTINUOUS
 10
-0.644630
 20
-1.094909
  0
VERTEX
  8
PLAN_1
 62
     2
  6
CONTINUOUS
 10
-0.643059
 20
-1.093339
  0
VERTEX
  8
PLAN_1
 62
     2
  6
CONTINUOUS
 10
-0.641484
 20
-1.091764
  0
VERTEX
  8
PLAN_1
 62
     2
  6
CONTINUOUS
 10
-0.639913
 20
-1.090193
  0
VERTEX
  8
PLAN_1
 62
     2
  6
CONTINUOUS
 10
-0.639390
 20
-1.088098
  0
VERTEX
  8
PLAN_1
 62
     2
  6
CONTINUOUS
 10
-0.638866
 20
-1.086528
  0
VERTEX
  8
PLAN_1
 62
     2
  6
CONTINUOUS
 10
-0.629961
 20
-1.086528
  0
SEQEND
  8
0
  0
POLYLINE
  8
PLAN_1
 62
     2
  6
CONTINUOUS
 66
     1
 40
0.003000
 41
0.003000
  0
VERTEX
  8
PLAN_1
 62
     2
  6
CONTINUOUS
 10
-0.638343
 20
-1.072382
  0
VERTEX
  8
PLAN_1
 62
     2
  6
CONTINUOUS
 10
-0.638866
 20
-1.069240
  0
VERTEX
  8
PLAN_1
 62
     2
  6
CONTINUOUS
 10
-0.639390
 20
-1.066094
  0
VERTEX
  8
PLAN_1
 62
     2
  6
CONTINUOUS
 10
-0.640437
 20
-1.063476
  0
VERTEX
  8
PLAN_1
 62
     2
  6
CONTINUOUS
 10
-0.642012
 20
-1.060858
  0
VERTEX
  8
PLAN_1
 62
     2
  6
CONTINUOUS
 10
-0.644106
 20
-1.058760
  0
VERTEX
  8
PLAN_1
 62
     2
  6
CONTINUOUS
 10
-0.646724
 20
-1.057189
  0
VERTEX
  8
PLAN_1
 62
     2
  6
CONTINUOUS
 10
-0.649870
 20
-1.056142
  0
VERTEX
  8
PLAN_1
 62
     2
  6
CONTINUOUS
 10
-0.653535
 20
-1.056142
  0
VERTEX
  8
PLAN_1
 62
     2
  6
CONTINUOUS
 10
-0.656677
 20
-1.056142
  0
VERTEX
  8
PLAN_1
 62
     2
  6
CONTINUOUS
 10
-0.659823
 20
-1.057189
  0
VERTEX
  8
PLAN_1
 62
     2
  6
CONTINUOUS
 10
-0.662441
 20
-1.058760
  0
VERTEX
  8
PLAN_1
 62
     2
  6
CONTINUOUS
 10
-0.664535
 20
-1.060858
  0
VERTEX
  8
PLAN_1
 62
     2
  6
CONTINUOUS
 10
-0.666110
 20
-1.063476
  0
VERTEX
  8
PLAN_1
 62
     2
  6
CONTINUOUS
 10
-0.667681
 20
-1.066094
  0
VERTEX
  8
PLAN_1
 62
     2
  6
CONTINUOUS
 10
-0.668728
 20
-1.069240
  0
VERTEX
  8
PLAN_1
 62
     2
  6
CONTINUOUS
 10
-0.668728
 20
-1.072382
  0
VERTEX
  8
PLAN_1
 62
     2
  6
CONTINUOUS
 10
-0.638343
 20
-1.072382
  0
SEQEND
  8
0
  0
POLYLINE
  8
PLAN_1
 62
     2
  6
CONTINUOUS
 66
     1
 40
0.003000
 41
0.003000
  0
VERTEX
  8
PLAN_1
 62
     2
  6
CONTINUOUS
 10
-0.606909
 20
-1.057189
  0
VERTEX
  8
PLAN_1
 62
     2
  6
CONTINUOUS
 10
-0.606909
 20
-1.092287
  0
VERTEX
  8
PLAN_1
 62
     2
  6
CONTINUOUS
 10
-0.606909
 20
-1.093862
  0
VERTEX
  8
PLAN_1
 62
     2
  6
CONTINUOUS
 10
-0.606386
 20
-1.094909
  0
VERTEX
  8
PLAN_1
 62
     2
  6
CONTINUOUS
 10
-0.605862
 20
-1.095433
  0
VERTEX
  8
PLAN_1
 62
     2
  6
CONTINUOUS
 10
-0.604815
 20
-1.095957
  0
VERTEX
  8
PLAN_1
 62
     2
  6
CONTINUOUS
 10
-0.603768
 20
-1.096480
  0
VERTEX
  8
PLAN_1
 62
     2
  6
CONTINUOUS
 10
-0.603244
 20
-1.096480
  0
VERTEX
  8
PLAN_1
 62
     2
  6
CONTINUOUS
 10
-0.602197
 20
-1.096480
  0
VERTEX
  8
PLAN_1
 62
     2
  6
CONTINUOUS
 10
-0.601150
 20
-1.096480
  0
VERTEX
  8
PLAN_1
 62
     2
  6
CONTINUOUS
 10
-0.598004
 20
-1.096480
  0
VERTEX
  8
PLAN_1
 62
     2
  6
CONTINUOUS
 10
-0.598004
 20
-1.103815
  0
VERTEX
  8
PLAN_1
 62
     2
  6
CONTINUOUS
 10
-0.599575
 20
-1.103815
  0
VERTEX
  8
PLAN_1
 62
     2
  6
CONTINUOUS
 10
-0.600622
 20
-1.103815
  0
VERTEX
  8
PLAN_1
 62
     2
  6
CONTINUOUS
 10
-0.601673
 20
-1.104339
  0
VERTEX
  8
PLAN_1
 62
     2
  6
CONTINUOUS
 10
-0.602720
 20
-1.104339
  0
VERTEX
  8
PLAN_1
 62
     2
  6
CONTINUOUS
 10
-0.603244
 20
-1.104339
  0
VERTEX
  8
PLAN_1
 62
     2
  6
CONTINUOUS
 10
-0.603768
 20
-1.104339
  0
VERTEX
  8
PLAN_1
 62
     2
  6
CONTINUOUS
 10
-0.604815
 20
-1.104339
  0
VERTEX
  8
PLAN_1
 62
     2
  6
CONTINUOUS
 10
-0.607957
 20
-1.104339
  0
VERTEX
  8
PLAN_1
 62
     2
  6
CONTINUOUS
 10
-0.610579
 20
-1.103815
  0
VERTEX
  8
PLAN_1
 62
     2
  6
CONTINUOUS
 10
-0.612673
 20
-1.102768
  0
VERTEX
  8
PLAN_1
 62
     2
  6
CONTINUOUS
 10
-0.613720
 20
-1.101193
  0
VERTEX
  8
PLAN_1
 62
     2
  6
CONTINUOUS
 10
-0.614768
 20
-1.099622
  0
VERTEX
  8
PLAN_1
 62
     2
  6
CONTINUOUS
 10
-0.615815
 20
-1.097528
  0
VERTEX
  8
PLAN_1
 62
     2
  6
CONTINUOUS
 10
-0.615815
 20
-1.095433
  0
VERTEX
  8
PLAN_1
 62
     2
  6
CONTINUOUS
 10
-0.615815
 20
-1.092811
  0
VERTEX
  8
PLAN_1
 62
     2
  6
CONTINUOUS
 10
-0.615815
 20
-1.057189
  0
VERTEX
  8
PLAN_1
 62
     2
  6
CONTINUOUS
 10
-0.623673
 20
-1.057189
  0
VERTEX
  8
PLAN_1
 62
     2
  6
CONTINUOUS
 10
-0.623673
 20
-1.049331
  0
VERTEX
  8
PLAN_1
 62
     2
  6
CONTINUOUS
 10
-0.615815
 20
-1.049331
  0
VERTEX
  8
PLAN_1
 62
     2
  6
CONTINUOUS
 10
-0.615815
 20
-1.034138
  0
VERTEX
  8
PLAN_1
 62
     2
  6
CONTINUOUS
 10
-0.606909
 20
-1.034138
  0
VERTEX
  8
PLAN_1
 62
     2
  6
CONTINUOUS
 10
-0.606909
 20
-1.049331
  0
VERTEX
  8
PLAN_1
 62
     2
  6
CONTINUOUS
 10
-0.598004
 20
-1.049331
  0
VERTEX
  8
PLAN_1
 62
     2
  6
CONTINUOUS
 10
-0.598004
 20
-1.057189
  0
VERTEX
  8
PLAN_1
 62
     2
  6
CONTINUOUS
 10
-0.606909
 20
-1.057189
  0
SEQEND
  8
0
  0
POLYLINE
  8
PLAN_1
 62
     2
  6
CONTINUOUS
 66
     1
 40
0.003000
 41
0.003000
  0
VERTEX
  8
PLAN_1
 62
     2
  6
CONTINUOUS
 10
-0.567094
 20
-1.047760
  0
VERTEX
  8
PLAN_1
 62
     2
  6
CONTINUOUS
 10
-0.563953
 20
-1.047760
  0
VERTEX
  8
PLAN_1
 62
     2
  6
CONTINUOUS
 10
-0.560811
 20
-1.048283
  0
VERTEX
  8
PLAN_1
 62
     2
  6
CONTINUOUS
 10
-0.558189
 20
-1.049331
  0
VERTEX
  8
PLAN_1
 62
     2
  6
CONTINUOUS
 10
-0.555571
 20
-1.050378
  0
VERTEX
  8
PLAN_1
 62
     2
  6
CONTINUOUS
 10
-0.553476
 20
-1.051425
  0
VERTEX
  8
PLAN_1
 62
     2
  6
CONTINUOUS
 10
-0.551378
 20
-1.053000
  0
VERTEX
  8
PLAN_1
 62
     2
  6
CONTINUOUS
 10
-0.549283
 20
-1.055094
  0
VERTEX
  8
PLAN_1
 62
     2
  6
CONTINUOUS
 10
-0.547713
 20
-1.056665
  0
VERTEX
  8
PLAN_1
 62
     2
  6
CONTINUOUS
 10
-0.545094
 20
-1.061382
  0
VERTEX
  8
PLAN_1
 62
     2
  6
CONTINUOUS
 10
-0.542996
 20
-1.066094
  0
VERTEX
  8
PLAN_1
 62
     2
  6
CONTINUOUS
 10
-0.541949
 20
-1.071335
  0
VERTEX
  8
PLAN_1
 62
     2
  6
CONTINUOUS
 10
-0.541949
 20
-1.076571
  0
VERTEX
  8
PLAN_1
 62
     2
  6
CONTINUOUS
 10
-0.541949
 20
-1.081811
  0
VERTEX
  8
PLAN_1
 62
     2
  6
CONTINUOUS
 10
-0.542996
 20
-1.087051
  0
VERTEX
  8
PLAN_1
 62
     2
  6
CONTINUOUS
 10
-0.545094
 20
-1.091764
  0
VERTEX
  8
PLAN_1
 62
     2
  6
CONTINUOUS
 10
-0.547713
 20
-1.095957
  0
VERTEX
  8
PLAN_1
 62
     2
  6
CONTINUOUS
 10
-0.549283
 20
-1.098051
  0
VERTEX
  8
PLAN_1
 62
     2
  6
CONTINUOUS
 10
-0.551378
 20
-1.099622
  0
VERTEX
  8
PLAN_1
 62
     2
  6
CONTINUOUS
 10
-0.553476
 20
-1.101193
  0
VERTEX
  8
PLAN_1
 62
     2
  6
CONTINUOUS
 10
-0.555571
 20
-1.102768
  0
VERTEX
  8
PLAN_1
 62
     2
  6
CONTINUOUS
 10
-0.558189
 20
-1.103815
  0
VERTEX
  8
PLAN_1
 62
     2
  6
CONTINUOUS
 10
-0.560811
 20
-1.104339
  0
VERTEX
  8
PLAN_1
 62
     2
  6
CONTINUOUS
 10
-0.563953
 20
-1.104862
  0
VERTEX
  8
PLAN_1
 62
     2
  6
CONTINUOUS
 10
-0.567094
 20
-1.105386
  0
VERTEX
  8
PLAN_1
 62
     2
  6
CONTINUOUS
 10
-0.570240
 20
-1.104862
  0
VERTEX
  8
PLAN_1
 62
     2
  6
CONTINUOUS
 10
-0.572858
 20
-1.104339
  0
VERTEX
  8
PLAN_1
 62
     2
  6
CONTINUOUS
 10
-0.576000
 20
-1.103815
  0
VERTEX
  8
PLAN_1
 62
     2
  6
CONTINUOUS
 10
-0.578098
 20
-1.102768
  0
VERTEX
  8
PLAN_1
 62
     2
  6
CONTINUOUS
 10
-0.580717
 20
-1.101193
  0
VERTEX
  8
PLAN_1
 62
     2
  6
CONTINUOUS
 10
-0.582811
 20
-1.099622
  0
VERTEX
  8
PLAN_1
 62
     2
  6
CONTINUOUS
 10
-0.584382
 20
-1.098051
  0
VERTEX
  8
PLAN_1
 62
     2
  6
CONTINUOUS
 10
-0.585957
 20
-1.095957
  0
VERTEX
  8
PLAN_1
 62
     2
  6
CONTINUOUS
 10
-0.589098
 20
-1.091764
  0
VERTEX
  8
PLAN_1
 62
     2
  6
CONTINUOUS
 10
-0.590669
 20
-1.087051
  0
VERTEX
  8
PLAN_1
 62
     2
  6
CONTINUOUS
 10
-0.591717
 20
-1.081811
  0
VERTEX
  8
PLAN_1
 62
     2
  6
CONTINUOUS
 10
-0.592240
 20
-1.076571
  0
VERTEX
  8
PLAN_1
 62
     2
  6
CONTINUOUS
 10
-0.591717
 20
-1.071335
  0
VERTEX
  8
PLAN_1
 62
     2
  6
CONTINUOUS
 10
-0.590669
 20
-1.066094
  0
VERTEX
  8
PLAN_1
 62
     2
  6
CONTINUOUS
 10
-0.589098
 20
-1.061382
  0
VERTEX
  8
PLAN_1
 62
     2
  6
CONTINUOUS
 10
-0.585957
 20
-1.056665
  0
VERTEX
  8
PLAN_1
 62
     2
  6
CONTINUOUS
 10
-0.584382
 20
-1.055094
  0
VERTEX
  8
PLAN_1
 62
     2
  6
CONTINUOUS
 10
-0.582811
 20
-1.053000
  0
VERTEX
  8
PLAN_1
 62
     2
  6
CONTINUOUS
 10
-0.580717
 20
-1.051425
  0
VERTEX
  8
PLAN_1
 62
     2
  6
CONTINUOUS
 10
-0.578098
 20
-1.050378
  0
VERTEX
  8
PLAN_1
 62
     2
  6
CONTINUOUS
 10
-0.576000
 20
-1.049331
  0
VERTEX
  8
PLAN_1
 62
     2
  6
CONTINUOUS
 10
-0.572858
 20
-1.048283
  0
VERTEX
  8
PLAN_1
 62
     2
  6
CONTINUOUS
 10
-0.570240
 20
-1.047760
  0
VERTEX
  8
PLAN_1
 62
     2
  6
CONTINUOUS
 10
-0.567094
 20
-1.047760
  0
SEQEND
  8
0
  0
POLYLINE
  8
PLAN_1
 62
     2
  6
CONTINUOUS
 66
     1
 40
0.003000
 41
0.003000
  0
VERTEX
  8
PLAN_1
 62
     2
  6
CONTINUOUS
 10
-0.567094
 20
-1.097528
  0
VERTEX
  8
PLAN_1
 62
     2
  6
CONTINUOUS
 10
-0.564476
 20
-1.097004
  0
VERTEX
  8
PLAN_1
 62
     2
  6
CONTINUOUS
 10
-0.562382
 20
-1.096480
  0
VERTEX
  8
PLAN_1
 62
     2
  6
CONTINUOUS
 10
-0.560811
 20
-1.095957
  0
VERTEX
  8
PLAN_1
 62
     2
  6
CONTINUOUS
 10
-0.559236
 20
-1.094909
  0
VERTEX
  8
PLAN_1
 62
     2
  6
CONTINUOUS
 10
-0.556094
 20
-1.092811
  0
VERTEX
  8
PLAN_1
 62
     2
  6
CONTINUOUS
 10
-0.554000
 20
-1.089669
  0
VERTEX
  8
PLAN_1
 62
     2
  6
CONTINUOUS
 10
-0.552953
 20
-1.086528
  0
VERTEX
  8
PLAN_1
 62
     2
  6
CONTINUOUS
 10
-0.551902
 20
-1.082858
  0
VERTEX
  8
PLAN_1
 62
     2
  6
CONTINUOUS
 10
-0.551378
 20
-1.079717
  0
VERTEX
  8
PLAN_1
 62
     2
  6
CONTINUOUS
 10
-0.551378
 20
-1.076571
  0
VERTEX
  8
PLAN_1
 62
     2
  6
CONTINUOUS
 10
-0.551378
 20
-1.073429
  0
VERTEX
  8
PLAN_1
 62
     2
  6
CONTINUOUS
 10
-0.551902
 20
-1.070287
  0
VERTEX
  8
PLAN_1
 62
     2
  6
CONTINUOUS
 10
-0.552953
 20
-1.066618
  0
VERTEX
  8
PLAN_1
 62
     2
  6
CONTINUOUS
 10
-0.554000
 20
-1.063476
  0
VERTEX
  8
PLAN_1
 62
     2
  6
CONTINUOUS
 10
-0.556094
 20
-1.060331
  0
VERTEX
  8
PLAN_1
 62
     2
  6
CONTINUOUS
 10
-0.559236
 20
-1.057713
  0
VERTEX
  8
PLAN_1
 62
     2
  6
CONTINUOUS
 10
-0.560811
 20
-1.057189
  0
VERTEX
  8
PLAN_1
 62
     2
  6
CONTINUOUS
 10
-0.562382
 20
-1.056142
  0
VERTEX
  8
PLAN_1
 62
     2
  6
CONTINUOUS
 10
-0.564476
 20
-1.055618
  0
VERTEX
  8
PLAN_1
 62
     2
  6
CONTINUOUS
 10
-0.567094
 20
-1.055618
  0
VERTEX
  8
PLAN_1
 62
     2
  6
CONTINUOUS
 10
-0.569193
 20
-1.055618
  0
VERTEX
  8
PLAN_1
 62
     2
  6
CONTINUOUS
 10
-0.571287
 20
-1.056142
  0
VERTEX
  8
PLAN_1
 62
     2
  6
CONTINUOUS
 10
-0.573382
 20
-1.057189
  0
VERTEX
  8
PLAN_1
 62
     2
  6
CONTINUOUS
 10
-0.574953
 20
-1.057713
  0
VERTEX
  8
PLAN_1
 62
     2
  6
CONTINUOUS
 10
-0.577575
 20
-1.060331
  0
VERTEX
  8
PLAN_1
 62
     2
  6
CONTINUOUS
 10
-0.579669
 20
-1.063476
  0
VERTEX
  8
PLAN_1
 62
     2
  6
CONTINUOUS
 10
-0.581240
 20
-1.066618
  0
VERTEX
  8
PLAN_1
 62
     2
  6
CONTINUOUS
 10
-0.582287
 20
-1.070287
  0
VERTEX
  8
PLAN_1
 62
     2
  6
CONTINUOUS
 10
-0.582811
 20
-1.073429
  0
VERTEX
  8
PLAN_1
 62
     2
  6
CONTINUOUS
 10
-0.582811
 20
-1.076571
  0
VERTEX
  8
PLAN_1
 62
     2
  6
CONTINUOUS
 10
-0.582811
 20
-1.079717
  0
VERTEX
  8
PLAN_1
 62
     2
  6
CONTINUOUS
 10
-0.582287
 20
-1.082858
  0
VERTEX
  8
PLAN_1
 62
     2
  6
CONTINUOUS
 10
-0.581240
 20
-1.086528
  0
VERTEX
  8
PLAN_1
 62
     2
  6
CONTINUOUS
 10
-0.579669
 20
-1.089669
  0
VERTEX
  8
PLAN_1
 62
     2
  6
CONTINUOUS
 10
-0.577575
 20
-1.092811
  0
VERTEX
  8
PLAN_1
 62
     2
  6
CONTINUOUS
 10
-0.574953
 20
-1.094909
  0
VERTEX
  8
PLAN_1
 62
     2
  6
CONTINUOUS
 10
-0.573382
 20
-1.095957
  0
VERTEX
  8
PLAN_1
 62
     2
  6
CONTINUOUS
 10
-0.571287
 20
-1.096480
  0
VERTEX
  8
PLAN_1
 62
     2
  6
CONTINUOUS
 10
-0.569193
 20
-1.097004
  0
VERTEX
  8
PLAN_1
 62
     2
  6
CONTINUOUS
 10
-0.567094
 20
-1.097528
  0
SEQEND
  8
0
  0
POLYLINE
  8
PLAN_1
 62
     2
  6
CONTINUOUS
 66
     1
 40
0.003000
 41
0.003000
  0
VERTEX
  8
PLAN_1
 62
     2
  6
CONTINUOUS
 10
-0.495850
 20
-1.103815
  0
VERTEX
  8
PLAN_1
 62
     2
  6
CONTINUOUS
 10
-0.495850
 20
-1.095957
  0
VERTEX
  8
PLAN_1
 62
     2
  6
CONTINUOUS
 10
-0.495850
 20
-1.095433
  0
VERTEX
  8
PLAN_1
 62
     2
  6
CONTINUOUS
 10
-0.497421
 20
-1.098051
  0
VERTEX
  8
PLAN_1
 62
     2
  6
CONTINUOUS
 10
-0.498992
 20
-1.099622
  0
VERTEX
  8
PLAN_1
 62
     2
  6
CONTINUOUS
 10
-0.501087
 20
-1.101720
  0
VERTEX
  8
PLAN_1
 62
     2
  6
CONTINUOUS
 10
-0.502657
 20
-1.102768
  0
VERTEX
  8
PLAN_1
 62
     2
  6
CONTINUOUS
 10
-0.504756
 20
-1.103815
  0
VERTEX
  8
PLAN_1
 62
     2
  6
CONTINUOUS
 10
-0.507374
 20
-1.104862
  0
VERTEX
  8
PLAN_1
 62
     2
  6
CONTINUOUS
 10
-0.509992
 20
-1.105386
  0
VERTEX
  8
PLAN_1
 62
     2
  6
CONTINUOUS
 10
-0.513138
 20
-1.105386
  0
VERTEX
  8
PLAN_1
 62
     2
  6
CONTINUOUS
 10
-0.516280
 20
-1.105386
  0
VERTEX
  8
PLAN_1
 62
     2
  6
CONTINUOUS
 10
-0.519421
 20
-1.104339
  0
VERTEX
  8
PLAN_1
 62
     2
  6
CONTINUOUS
 10
-0.522567
 20
-1.103291
  0
VERTEX
  8
PLAN_1
 62
     2
  6
CONTINUOUS
 10
-0.525185
 20
-1.101720
  0
VERTEX
  8
PLAN_1
 62
     2
  6
CONTINUOUS
 10
-0.527280
 20
-1.099622
  0
VERTEX
  8
PLAN_1
 62
     2
  6
CONTINUOUS
 10
-0.529378
 20
-1.096480
  0
VERTEX
  8
PLAN_1
 62
     2
  6
CONTINUOUS
 10
-0.530425
 20
-1.092811
  0
VERTEX
  8
PLAN_1
 62
     2
  6
CONTINUOUS
 10
-0.530949
 20
-1.088622
  0
VERTEX
  8
PLAN_1
 62
     2
  6
CONTINUOUS
 10
-0.530949
 20
-1.049331
  0
VERTEX
  8
PLAN_1
 62
     2
  6
CONTINUOUS
 10
-0.522043
 20
-1.049331
  0
VERTEX
  8
PLAN_1
 62
     2
  6
CONTINUOUS
 10
-0.522043
 20
-1.085480
  0
VERTEX
  8
PLAN_1
 62
     2
  6
CONTINUOUS
 10
-0.521520
 20
-1.088622
  0
VERTEX
  8
PLAN_1
 62
     2
  6
CONTINUOUS
 10
-0.520996
 20
-1.091240
  0
VERTEX
  8
PLAN_1
 62
     2
  6
CONTINUOUS
 10
-0.519949
 20
-1.093339
  0
VERTEX
  8
PLAN_1
 62
     2
  6
CONTINUOUS
 10
-0.518898
 20
-1.094909
  0
VERTEX
  8
PLAN_1
 62
     2
  6
CONTINUOUS
 10
-0.517327
 20
-1.095957
  0
VERTEX
  8
PLAN_1
 62
     2
  6
CONTINUOUS
 10
-0.515232
 20
-1.097004
  0
VERTEX
  8
PLAN_1
 62
     2
  6
CONTINUOUS
 10
-0.513661
 20
-1.097528
  0
VERTEX
  8
PLAN_1
 62
     2
  6
CONTINUOUS
 10
-0.511563
 20
-1.097528
  0
VERTEX
  8
PLAN_1
 62
     2
  6
CONTINUOUS
 10
-0.507374
 20
-1.097004
  0
VERTEX
  8
PLAN_1
 62
     2
  6
CONTINUOUS
 10
-0.504232
 20
-1.095957
  0
VERTEX
  8
PLAN_1
 62
     2
  6
CONTINUOUS
 10
-0.501610
 20
-1.093862
  0
VERTEX
  8
PLAN_1
 62
     2
  6
CONTINUOUS
 10
-0.499516
 20
-1.091240
  0
VERTEX
  8
PLAN_1
 62
     2
  6
CONTINUOUS
 10
-0.497945
 20
-1.088622
  0
VERTEX
  8
PLAN_1
 62
     2
  6
CONTINUOUS
 10
-0.496898
 20
-1.085480
  0
VERTEX
  8
PLAN_1
 62
     2
  6
CONTINUOUS
 10
-0.496374
 20
-1.082335
  0
VERTEX
  8
PLAN_1
 62
     2
  6
CONTINUOUS
 10
-0.496374
 20
-1.079193
  0
VERTEX
  8
PLAN_1
 62
     2
  6
CONTINUOUS
 10
-0.496374
 20
-1.049331
  0
VERTEX
  8
PLAN_1
 62
     2
  6
CONTINUOUS
 10
-0.486941
 20
-1.049331
  0
VERTEX
  8
PLAN_1
 62
     2
  6
CONTINUOUS
 10
-0.486941
 20
-1.103815
  0
VERTEX
  8
PLAN_1
 62
     2
  6
CONTINUOUS
 10
-0.495850
 20
-1.103815
  0
SEQEND
  8
0
  0
POLYLINE
  8
PLAN_1
 62
     2
  6
CONTINUOUS
 66
     1
 40
0.003000
 41
0.003000
  0
VERTEX
  8
PLAN_1
 62
     2
  6
CONTINUOUS
 10
-0.474370
 20
-1.049331
  0
VERTEX
  8
PLAN_1
 62
     2
  6
CONTINUOUS
 10
-0.465465
 20
-1.049331
  0
VERTEX
  8
PLAN_1
 62
     2
  6
CONTINUOUS
 10
-0.465465
 20
-1.057189
  0
VERTEX
  8
PLAN_1
 62
     2
  6
CONTINUOUS
 10
-0.464417
 20
-1.055618
  0
VERTEX
  8
PLAN_1
 62
     2
  6
CONTINUOUS
 10
-0.463370
 20
-1.054047
  0
VERTEX
  8
PLAN_1
 62
     2
  6
CONTINUOUS
 10
-0.461795
 20
-1.053000
  0
VERTEX
  8
PLAN_1
 62
     2
  6
CONTINUOUS
 10
-0.460224
 20
-1.051425
  0
VERTEX
  8
PLAN_1
 62
     2
  6
CONTINUOUS
 10
-0.458130
 20
-1.049854
  0
VERTEX
  8
PLAN_1
 62
     2
  6
CONTINUOUS
 10
-0.455512
 20
-1.048807
  0
VERTEX
  8
PLAN_1
 62
     2
  6
CONTINUOUS
 10
-0.452366
 20
-1.048283
  0
VERTEX
  8
PLAN_1
 62
     2
  6
CONTINUOUS
 10
-0.449224
 20
-1.047760
  0
VERTEX
  8
PLAN_1
 62
     2
  6
CONTINUOUS
 10
-0.446602
 20
-1.047760
  0
VERTEX
  8
PLAN_1
 62
     2
  6
CONTINUOUS
 10
-0.443984
 20
-1.048283
  0
VERTEX
  8
PLAN_1
 62
     2
  6
CONTINUOUS
 10
-0.441366
 20
-1.048807
  0
VERTEX
  8
PLAN_1
 62
     2
  6
CONTINUOUS
 10
-0.439272
 20
-1.049854
  0
VERTEX
  8
PLAN_1
 62
     2
  6
CONTINUOUS
 10
-0.435602
 20
-1.052472
  0
VERTEX
  8
PLAN_1
 62
     2
  6
CONTINUOUS
 10
-0.432461
 20
-1.055618
  0
VERTEX
  8
PLAN_1
 62
     2
  6
CONTINUOUS
 10
-0.429839
 20
-1.059807
  0
VERTEX
  8
PLAN_1
 62
     2
  6
CONTINUOUS
 10
-0.427744
 20
-1.064000
  0
VERTEX
  8
PLAN_1
 62
     2
  6
CONTINUOUS
 10
-0.426697
 20
-1.069240
  0
VERTEX
  8
PLAN_1
 62
     2
  6
CONTINUOUS
 10
-0.426173
 20
-1.075000
  0
VERTEX
  8
PLAN_1
 62
     2
  6
CONTINUOUS
 10
-0.426697
 20
-1.080240
  0
VERTEX
  8
PLAN_1
 62
     2
  6
CONTINUOUS
 10
-0.427744
 20
-1.084953
  0
VERTEX
  8
PLAN_1
 62
     2
  6
CONTINUOUS
 10
-0.429315
 20
-1.090193
  0
VERTEX
  8
PLAN_1
 62
     2
  6
CONTINUOUS
 10
-0.431413
 20
-1.094909
  0
VERTEX
  8
PLAN_1
 62
     2
  6
CONTINUOUS
 10
-0.432984
 20
-1.097004
  0
VERTEX
  8
PLAN_1
 62
     2
  6
CONTINUOUS
 10
-0.434555
 20
-1.099098
  0
VERTEX
  8
PLAN_1
 62
     2
  6
CONTINUOUS
 10
-0.436650
 20
-1.100669
  0
VERTEX
  8
PLAN_1
 62
     2
  6
CONTINUOUS
 10
-0.438748
 20
-1.102244
  0
VERTEX
  8
PLAN_1
 62
     2
  6
CONTINUOUS
 10
-0.441366
 20
-1.103815
  0
VERTEX
  8
PLAN_1
 62
     2
  6
CONTINUOUS
 10
-0.443984
 20
-1.104339
  0
VERTEX
  8
PLAN_1
 62
     2
  6
CONTINUOUS
 10
-0.447130
 20
-1.105386
  0
VERTEX
  8
PLAN_1
 62
     2
  6
CONTINUOUS
 10
-0.450272
 20
-1.105386
  0
VERTEX
  8
PLAN_1
 62
     2
  6
CONTINUOUS
 10
-0.452890
 20
-1.105386
  0
VERTEX
  8
PLAN_1
 62
     2
  6
CONTINUOUS
 10
-0.455512
 20
-1.104862
  0
VERTEX
  8
PLAN_1
 62
     2
  6
CONTINUOUS
 10
-0.457606
 20
-1.103815
  0
VERTEX
  8
PLAN_1
 62
     2
  6
CONTINUOUS
 10
-0.459177
 20
-1.103291
  0
VERTEX
  8
PLAN_1
 62
     2
  6
CONTINUOUS
 10
-0.461272
 20
-1.102244
  0
VERTEX
  8
PLAN_1
 62
     2
  6
CONTINUOUS
 10
-0.462319
 20
-1.100669
  0
VERTEX
  8
PLAN_1
 62
     2
  6
CONTINUOUS
 10
-0.463894
 20
-1.099622
  0
VERTEX
  8
PLAN_1
 62
     2
  6
CONTINUOUS
 10
-0.464941
 20
-1.098051
  0
VERTEX
  8
PLAN_1
 62
     2
  6
CONTINUOUS
 10
-0.464941
 20
-1.125291
  0
VERTEX
  8
PLAN_1
 62
     2
  6
CONTINUOUS
 10
-0.474370
 20
-1.125291
  0
VERTEX
  8
PLAN_1
 62
     2
  6
CONTINUOUS
 10
-0.474370
 20
-1.049331
  0
SEQEND
  8
0
  0
POLYLINE
  8
PLAN_1
 62
     2
  6
CONTINUOUS
 66
     1
 40
0.003000
 41
0.003000
  0
VERTEX
  8
PLAN_1
 62
     2
  6
CONTINUOUS
 10
-0.450272
 20
-1.097528
  0
VERTEX
  8
PLAN_1
 62
     2
  6
CONTINUOUS
 10
-0.447130
 20
-1.097004
  0
VERTEX
  8
PLAN_1
 62
     2
  6
CONTINUOUS
 10
-0.443984
 20
-1.095957
  0
VERTEX
  8
PLAN_1
 62
     2
  6
CONTINUOUS
 10
-0.441366
 20
-1.093862
  0
VERTEX
  8
PLAN_1
 62
     2
  6
CONTINUOUS
 10
-0.439272
 20
-1.091240
  0
VERTEX
  8
PLAN_1
 62
     2
  6
CONTINUOUS
 10
-0.437697
 20
-1.088098
  0
VERTEX
  8
PLAN_1
 62
     2
  6
CONTINUOUS
 10
-0.436650
 20
-1.084953
  0
VERTEX
  8
PLAN_1
 62
     2
  6
CONTINUOUS
 10
-0.436126
 20
-1.080764
  0
VERTEX
  8
PLAN_1
 62
     2
  6
CONTINUOUS
 10
-0.435602
 20
-1.076571
  0
VERTEX
  8
PLAN_1
 62
     2
  6
CONTINUOUS
 10
-0.436126
 20
-1.073429
  0
VERTEX
  8
PLAN_1
 62
     2
  6
CONTINUOUS
 10
-0.436126
 20
-1.070287
  0
VERTEX
  8
PLAN_1
 62
     2
  6
CONTINUOUS
 10
-0.436650
 20
-1.067142
  0
VERTEX
  8
PLAN_1
 62
     2
  6
CONTINUOUS
 10
-0.438220
 20
-1.063476
  0
VERTEX
  8
PLAN_1
 62
     2
  6
CONTINUOUS
 10
-0.439795
 20
-1.060858
  0
VERTEX
  8
PLAN_1
 62
     2
  6
CONTINUOUS
 10
-0.442413
 20
-1.058236
  0
VERTEX
  8
PLAN_1
 62
     2
  6
CONTINUOUS
 10
-0.443984
 20
-1.057189
  0
VERTEX
  8
PLAN_1
 62
     2
  6
CONTINUOUS
 10
-0.446079
 20
-1.056665
  0
VERTEX
  8
PLAN_1
 62
     2
  6
CONTINUOUS
 10
-0.448177
 20
-1.056142
  0
VERTEX
  8
PLAN_1
 62
     2
  6
CONTINUOUS
 10
-0.450795
 20
-1.056142
  0
VERTEX
  8
PLAN_1
 62
     2
  6
CONTINUOUS
 10
-0.452890
 20
-1.056142
  0
VERTEX
  8
PLAN_1
 62
     2
  6
CONTINUOUS
 10
-0.454988
 20
-1.056665
  0
VERTEX
  8
PLAN_1
 62
     2
  6
CONTINUOUS
 10
-0.457083
 20
-1.057189
  0
VERTEX
  8
PLAN_1
 62
     2
  6
CONTINUOUS
 10
-0.458654
 20
-1.058236
  0
VERTEX
  8
PLAN_1
 62
     2
  6
CONTINUOUS
 10
-0.461272
 20
-1.060858
  0
VERTEX
  8
PLAN_1
 62
     2
  6
CONTINUOUS
 10
-0.462843
 20
-1.064000
  0
VERTEX
  8
PLAN_1
 62
     2
  6
CONTINUOUS
 10
-0.464417
 20
-1.067665
  0
VERTEX
  8
PLAN_1
 62
     2
  6
CONTINUOUS
 10
-0.464941
 20
-1.071858
  0
VERTEX
  8
PLAN_1
 62
     2
  6
CONTINUOUS
 10
-0.465465
 20
-1.075524
  0
VERTEX
  8
PLAN_1
 62
     2
  6
CONTINUOUS
 10
-0.465465
 20
-1.079193
  0
VERTEX
  8
PLAN_1
 62
     2
  6
CONTINUOUS
 10
-0.464941
 20
-1.083906
  0
VERTEX
  8
PLAN_1
 62
     2
  6
CONTINUOUS
 10
-0.463894
 20
-1.088098
  0
VERTEX
  8
PLAN_1
 62
     2
  6
CONTINUOUS
 10
-0.462319
 20
-1.091240
  0
VERTEX
  8
PLAN_1
 62
     2
  6
CONTINUOUS
 10
-0.460224
 20
-1.093862
  0
VERTEX
  8
PLAN_1
 62
     2
  6
CONTINUOUS
 10
-0.457606
 20
-1.095433
  0
VERTEX
  8
PLAN_1
 62
     2
  6
CONTINUOUS
 10
-0.455512
 20
-1.096480
  0
VERTEX
  8
PLAN_1
 62
     2
  6
CONTINUOUS
 10
-0.452890
 20
-1.097004
  0
VERTEX
  8
PLAN_1
 62
     2
  6
CONTINUOUS
 10
-0.450272
 20
-1.097528
  0
SEQEND
  8
0
  0
POLYLINE
  8
PLAN_1
 62
     2
  6
CONTINUOUS
 66
     1
 40
0.003000
 41
0.003000
  0
VERTEX
  8
PLAN_1
 62
     2
  6
CONTINUOUS
 10
-0.369071
 20
-1.086528
  0
VERTEX
  8
PLAN_1
 62
     2
  6
CONTINUOUS
 10
-0.369594
 20
-1.088098
  0
VERTEX
  8
PLAN_1
 62
     2
  6
CONTINUOUS
 10
-0.370118
 20
-1.089669
  0
VERTEX
  8
PLAN_1
 62
     2
  6
CONTINUOUS
 10
-0.370642
 20
-1.091240
  0
VERTEX
  8
PLAN_1
 62
     2
  6
CONTINUOUS
 10
-0.371689
 20
-1.093339
  0
VERTEX
  8
PLAN_1
 62
     2
  6
CONTINUOUS
 10
-0.372736
 20
-1.095433
  0
VERTEX
  8
PLAN_1
 62
     2
  6
CONTINUOUS
 10
-0.374835
 20
-1.097528
  0
VERTEX
  8
PLAN_1
 62
     2
  6
CONTINUOUS
 10
-0.376406
 20
-1.099622
  0
VERTEX
  8
PLAN_1
 62
     2
  6
CONTINUOUS
 10
-0.379024
 20
-1.101720
  0
VERTEX
  8
PLAN_1
 62
     2
  6
CONTINUOUS
 10
-0.380071
 20
-1.102244
  0
VERTEX
  8
PLAN_1
 62
     2
  6
CONTINUOUS
 10
-0.381118
 20
-1.102768
  0
VERTEX
  8
PLAN_1
 62
     2
  6
CONTINUOUS
 10
-0.382693
 20
-1.103291
  0
VERTEX
  8
PLAN_1
 62
     2
  6
CONTINUOUS
 10
-0.384264
 20
-1.104339
  0
VERTEX
  8
PLAN_1
 62
     2
  6
CONTINUOUS
 10
-0.385835
 20
-1.104339
  0
VERTEX
  8
PLAN_1
 62
     2
  6
CONTINUOUS
 10
-0.387929
 20
-1.104862
  0
VERTEX
  8
PLAN_1
 62
     2
  6
CONTINUOUS
 10
-0.390551
 20
-1.105386
  0
VERTEX
  8
PLAN_1
 62
     2
  6
CONTINUOUS
 10
-0.393693
 20
-1.105386
  0
VERTEX
  8
PLAN_1
 62
     2
  6
CONTINUOUS
 10
-0.396311
 20
-1.105386
  0
VERTEX
  8
PLAN_1
 62
     2
  6
CONTINUOUS
 10
-0.399457
 20
-1.104862
  0
VERTEX
  8
PLAN_1
 62
     2
  6
CONTINUOUS
 10
-0.401551
 20
-1.104339
  0
VERTEX
  8
PLAN_1
 62
     2
  6
CONTINUOUS
 10
-0.404169
 20
-1.103291
  0
VERTEX
  8
PLAN_1
 62
     2
  6
CONTINUOUS
 10
-0.406268
 20
-1.102244
  0
VERTEX
  8
PLAN_1
 62
     2
  6
CONTINUOUS
 10
-0.408362
 20
-1.100669
  0
VERTEX
  8
PLAN_1
 62
     2
  6
CONTINUOUS
 10
-0.409933
 20
-1.099098
  0
VERTEX
  8
PLAN_1
 62
     2
  6
CONTINUOUS
 10
-0.411504
 20
-1.097528
  0
VERTEX
  8
PLAN_1
 62
     2
  6
CONTINUOUS
 10
-0.414650
 20
-1.093862
  0
VERTEX
  8
PLAN_1
 62
     2
  6
CONTINUOUS
 10
-0.416220
 20
-1.089146
  0
VERTEX
  8
PLAN_1
 62
     2
  6
CONTINUOUS
 10
-0.417791
 20
-1.083906
  0
VERTEX
  8
PLAN_1
 62
     2
  6
CONTINUOUS
 10
-0.418315
 20
-1.078146
  0
VERTEX
  8
PLAN_1
 62
     2
  6
CONTINUOUS
 10
-0.417791
 20
-1.071858
  0
VERTEX
  8
PLAN_1
 62
     2
  6
CONTINUOUS
 10
-0.416744
 20
-1.066094
  0
VERTEX
  8
PLAN_1
 62
     2
  6
CONTINUOUS
 10
-0.414650
 20
-1.060858
  0
VERTEX
  8
PLAN_1
 62
     2
  6
CONTINUOUS
 10
-0.412028
 20
-1.056665
  0
VERTEX
  8
PLAN_1
 62
     2
  6
CONTINUOUS
 10
-0.409933
 20
-1.054571
  0
VERTEX
  8
PLAN_1
 62
     2
  6
CONTINUOUS
 10
-0.408362
 20
-1.053000
  0
VERTEX
  8
PLAN_1
 62
     2
  6
CONTINUOUS
 10
-0.406268
 20
-1.051425
  0
VERTEX
  8
PLAN_1
 62
     2
  6
CONTINUOUS
 10
-0.403646
 20
-1.050378
  0
VERTEX
  8
PLAN_1
 62
     2
  6
CONTINUOUS
 10
-0.401028
 20
-1.049331
  0
VERTEX
  8
PLAN_1
 62
     2
  6
CONTINUOUS
 10
-0.398409
 20
-1.048283
  0
VERTEX
  8
PLAN_1
 62
     2
  6
CONTINUOUS
 10
-0.395264
 20
-1.047760
  0
VERTEX
  8
PLAN_1
 62
     2
  6
CONTINUOUS
 10
-0.392122
 20
-1.047760
  0
VERTEX
  8
PLAN_1
 62
     2
  6
CONTINUOUS
 10
-0.388976
 20
-1.047760
  0
VERTEX
  8
PLAN_1
 62
     2
  6
CONTINUOUS
 10
-0.386358
 20
-1.048283
  0
VERTEX
  8
PLAN_1
 62
     2
  6
CONTINUOUS
 10
-0.384264
 20
-1.049331
  0
VERTEX
  8
PLAN_1
 62
     2
  6
CONTINUOUS
 10
-0.381642
 20
-1.049854
  0
VERTEX
  8
PLAN_1
 62
     2
  6
CONTINUOUS
 10
-0.379547
 20
-1.051425
  0
VERTEX
  8
PLAN_1
 62
     2
  6
CONTINUOUS
 10
-0.377453
 20
-1.053000
  0
VERTEX
  8
PLAN_1
 62
     2
  6
CONTINUOUS
 10
-0.375882
 20
-1.054571
  0
VERTEX
  8
PLAN_1
 62
     2
  6
CONTINUOUS
 10
-0.374311
 20
-1.056665
  0
VERTEX
  8
PLAN_1
 62
     2
  6
CONTINUOUS
 10
-0.371689
 20
-1.060858
  0
VERTEX
  8
PLAN_1
 62
     2
  6
CONTINUOUS
 10
-0.370118
 20
-1.066618
  0
VERTEX
  8
PLAN_1
 62
     2
  6
CONTINUOUS
 10
-0.369071
 20
-1.072382
  0
VERTEX
  8
PLAN_1
 62
     2
  6
CONTINUOUS
 10
-0.368547
 20
-1.079717
  0
VERTEX
  8
PLAN_1
 62
     2
  6
CONTINUOUS
 10
-0.408362
 20
-1.079717
  0
VERTEX
  8
PLAN_1
 62
     2
  6
CONTINUOUS
 10
-0.407839
 20
-1.083382
  0
VERTEX
  8
PLAN_1
 62
     2
  6
CONTINUOUS
 10
-0.407315
 20
-1.087051
  0
VERTEX
  8
PLAN_1
 62
     2
  6
CONTINUOUS
 10
-0.406268
 20
-1.090193
  0
VERTEX
  8
PLAN_1
 62
     2
  6
CONTINUOUS
 10
-0.404169
 20
-1.092811
  0
VERTEX
  8
PLAN_1
 62
     2
  6
CONTINUOUS
 10
-0.402075
 20
-1.094909
  0
VERTEX
  8
PLAN_1
 62
     2
  6
CONTINUOUS
 10
-0.399457
 20
-1.096480
  0
VERTEX
  8
PLAN_1
 62
     2
  6
CONTINUOUS
 10
-0.396311
 20
-1.097004
  0
VERTEX
  8
PLAN_1
 62
     2
  6
CONTINUOUS
 10
-0.392646
 20
-1.097528
  0
VERTEX
  8
PLAN_1
 62
     2
  6
CONTINUOUS
 10
-0.389500
 20
-1.097004
  0
VERTEX
  8
PLAN_1
 62
     2
  6
CONTINUOUS
 10
-0.386882
 20
-1.096480
  0
VERTEX
  8
PLAN_1
 62
     2
  6
CONTINUOUS
 10
-0.384264
 20
-1.094909
  0
VERTEX
  8
PLAN_1
 62
     2
  6
CONTINUOUS
 10
-0.382169
 20
-1.093339
  0
VERTEX
  8
PLAN_1
 62
     2
  6
CONTINUOUS
 10
-0.380594
 20
-1.091764
  0
VERTEX
  8
PLAN_1
 62
     2
  6
CONTINUOUS
 10
-0.379547
 20
-1.090193
  0
VERTEX
  8
PLAN_1
 62
     2
  6
CONTINUOUS
 10
-0.379024
 20
-1.088098
  0
VERTEX
  8
PLAN_1
 62
     2
  6
CONTINUOUS
 10
-0.378500
 20
-1.086528
  0
VERTEX
  8
PLAN_1
 62
     2
  6
CONTINUOUS
 10
-0.369071
 20
-1.086528
  0
SEQEND
  8
0
  0
POLYLINE
  8
PLAN_1
 62
     2
  6
CONTINUOUS
 66
     1
 40
0.003000
 41
0.003000
  0
VERTEX
  8
PLAN_1
 62
     2
  6
CONTINUOUS
 10
-0.377976
 20
-1.072382
  0
VERTEX
  8
PLAN_1
 62
     2
  6
CONTINUOUS
 10
-0.378500
 20
-1.069240
  0
VERTEX
  8
PLAN_1
 62
     2
  6
CONTINUOUS
 10
-0.379024
 20
-1.066094
  0
VERTEX
  8
PLAN_1
 62
     2
  6
CONTINUOUS
 10
-0.380071
 20
-1.063476
  0
VERTEX
  8
PLAN_1
 62
     2
  6
CONTINUOUS
 10
-0.381642
 20
-1.060858
  0
VERTEX
  8
PLAN_1
 62
     2
  6
CONTINUOUS
 10
-0.383740
 20
-1.058760
  0
VERTEX
  8
PLAN_1
 62
     2
  6
CONTINUOUS
 10
-0.386358
 20
-1.057189
  0
VERTEX
  8
PLAN_1
 62
     2
  6
CONTINUOUS
 10
-0.389500
 20
-1.056142
  0
VERTEX
  8
PLAN_1
 62
     2
  6
CONTINUOUS
 10
-0.393169
 20
-1.056142
  0
VERTEX
  8
PLAN_1
 62
     2
  6
CONTINUOUS
 10
-0.396311
 20
-1.056142
  0
VERTEX
  8
PLAN_1
 62
     2
  6
CONTINUOUS
 10
-0.398933
 20
-1.057189
  0
VERTEX
  8
PLAN_1
 62
     2
  6
CONTINUOUS
 10
-0.401551
 20
-1.058760
  0
VERTEX
  8
PLAN_1
 62
     2
  6
CONTINUOUS
 10
-0.404169
 20
-1.060858
  0
VERTEX
  8
PLAN_1
 62
     2
  6
CONTINUOUS
 10
-0.405740
 20
-1.063476
  0
VERTEX
  8
PLAN_1
 62
     2
  6
CONTINUOUS
 10
-0.407315
 20
-1.066094
  0
VERTEX
  8
PLAN_1
 62
     2
  6
CONTINUOUS
 10
-0.407839
 20
-1.069240
  0
VERTEX
  8
PLAN_1
 62
     2
  6
CONTINUOUS
 10
-0.408362
 20
-1.072382
  0
VERTEX
  8
PLAN_1
 62
     2
  6
CONTINUOUS
 10
-0.377976
 20
-1.072382
  0
SEQEND
  8
0
  0
POLYLINE
  8
PLAN_1
 62
     2
  6
CONTINUOUS
 66
     1
 40
0.003000
 41
0.003000
  0
VERTEX
  8
PLAN_1
 62
     2
  6
CONTINUOUS
 10
-0.297823
 20
-1.103815
  0
VERTEX
  8
PLAN_1
 62
     2
  6
CONTINUOUS
 10
-0.307776
 20
-1.103815
  0
VERTEX
  8
PLAN_1
 62
     2
  6
CONTINUOUS
 10
-0.307776
 20
-1.051949
  0
VERTEX
  8
PLAN_1
 62
     2
  6
CONTINUOUS
 10
-0.325067
 20
-1.051949
  0
VERTEX
  8
PLAN_1
 62
     2
  6
CONTINUOUS
 10
-0.325067
 20
-1.044618
  0
VERTEX
  8
PLAN_1
 62
     2
  6
CONTINUOUS
 10
-0.320874
 20
-1.044091
  0
VERTEX
  8
PLAN_1
 62
     2
  6
CONTINUOUS
 10
-0.317209
 20
-1.043567
  0
VERTEX
  8
PLAN_1
 62
     2
  6
CONTINUOUS
 10
-0.314063
 20
-1.043043
  0
VERTEX
  8
PLAN_1
 62
     2
  6
CONTINUOUS
 10
-0.311969
 20
-1.041996
  0
VERTEX
  8
PLAN_1
 62
     2
  6
CONTINUOUS
 10
-0.309874
 20
-1.039902
  0
VERTEX
  8
PLAN_1
 62
     2
  6
CONTINUOUS
 10
-0.307776
 20
-1.037807
  0
VERTEX
  8
PLAN_1
 62
     2
  6
CONTINUOUS
 10
-0.306205
 20
-1.034661
  0
VERTEX
  8
PLAN_1
 62
     2
  6
CONTINUOUS
 10
-0.305157
 20
-1.030472
  0
VERTEX
  8
PLAN_1
 62
     2
  6
CONTINUOUS
 10
-0.297823
 20
-1.030472
  0
VERTEX
  8
PLAN_1
 62
     2
  6
CONTINUOUS
 10
-0.297823
 20
-1.103815
  0
SEQEND
  8
0
  0
POLYLINE
  8
PLAN_1
 62
     2
  6
CONTINUOUS
 66
     1
 40
0.003000
 41
0.003000
  0
VERTEX
  8
PLAN_1
 62
     2
  6
CONTINUOUS
 10
-0.240197
 20
-1.103815
  0
VERTEX
  8
PLAN_1
 62
     2
  6
CONTINUOUS
 10
-0.250150
 20
-1.103815
  0
VERTEX
  8
PLAN_1
 62
     2
  6
CONTINUOUS
 10
-0.250150
 20
-1.051949
  0
VERTEX
  8
PLAN_1
 62
     2
  6
CONTINUOUS
 10
-0.266913
 20
-1.051949
  0
VERTEX
  8
PLAN_1
 62
     2
  6
CONTINUOUS
 10
-0.266913
 20
-1.044618
  0
VERTEX
  8
PLAN_1
 62
     2
  6
CONTINUOUS
 10
-0.262724
 20
-1.044091
  0
VERTEX
  8
PLAN_1
 62
     2
  6
CONTINUOUS
 10
-0.259579
 20
-1.043567
  0
VERTEX
  8
PLAN_1
 62
     2
  6
CONTINUOUS
 10
-0.256437
 20
-1.043043
  0
VERTEX
  8
PLAN_1
 62
     2
  6
CONTINUOUS
 10
-0.253819
 20
-1.041996
  0
VERTEX
  8
PLAN_1
 62
     2
  6
CONTINUOUS
 10
-0.251720
 20
-1.039902
  0
VERTEX
  8
PLAN_1
 62
     2
  6
CONTINUOUS
 10
-0.250150
 20
-1.037807
  0
VERTEX
  8
PLAN_1
 62
     2
  6
CONTINUOUS
 10
-0.248579
 20
-1.034661
  0
VERTEX
  8
PLAN_1
 62
     2
  6
CONTINUOUS
 10
-0.247531
 20
-1.030472
  0
VERTEX
  8
PLAN_1
 62
     2
  6
CONTINUOUS
 10
-0.240197
 20
-1.030472
  0
VERTEX
  8
PLAN_1
 62
     2
  6
CONTINUOUS
 10
-0.240197
 20
-1.103815
  0
SEQEND
  8
0
  0
SOLID
  8
PLAN_1
 62
     2
 10
-1.756819
 20
-0.831398
 11
-1.703382
 21
-0.860213
 12
-1.756819
 22
-0.831398
 13
-1.696047
 23
-0.829827
  0
POLYLINE
  8
PLAN_1
 62
     2
  6
CONTINUOUS
 66
     1
 40
0.003000
 41
0.003000
  0
VERTEX
  8
PLAN_1
 62
     2
  6
CONTINUOUS
 10
-1.756819
 20
-0.831398
  0
VERTEX
  8
PLAN_1
 62
     2
  6
CONTINUOUS
 10
-1.703382
 20
-0.860213
  0
VERTEX
  8
PLAN_1
 62
     2
  6
CONTINUOUS
 10
-1.696047
 20
-0.829827
  0
VERTEX
  8
PLAN_1
 62
     2
  6
CONTINUOUS
 10
-1.756819
 20
-0.831398
  0
SEQEND
  8
0
  0
POLYLINE
  8
PLAN_1
 62
     2
  6
CONTINUOUS
 66
     1
 40
0.004189
 41
0.004189
  0
VERTEX
  8
PLAN_1
 62
     2
  6
CONTINUOUS
 10
-1.720669
 20
-0.839780
  0
VERTEX
  8
PLAN_1
 62
     2
  6
CONTINUOUS
 10
-1.081020
 20
-1.002181
  0
VERTEX
  8
PLAN_1
 62
     2
  6
CONTINUOUS
 10
-0.039551
 20
-1.002181
  0
SEQEND
  8
0
  0
POLYLINE
  8
PLAN_1
 62
     2
  6
CONTINUOUS
 66
     1
 40
0.004189
 41
0.004189
  0
VERTEX
  8
PLAN_1
 62
     2
  6
CONTINUOUS
 10
-1.292665
 20
-0.827209
  0
VERTEX
  8
PLAN_1
 62
     2
  6
CONTINUOUS
 10
-1.279567
 20
-0.827209
  0
SEQEND
  8
0
  0
POLYLINE
  8
PLAN_1
 62
     2
  6
CONTINUOUS
 66
     1
 40
0.004189
 41
0.004189
  0
VERTEX
  8
PLAN_1
 62
     2
  6
CONTINUOUS
 10
-1.232417
 20
-0.827209
  0
VERTEX
  8
PLAN_1
 62
     2
  6
CONTINUOUS
 10
-1.073685
 20
-0.827209
  0
SEQEND
  8
0
  0
POLYLINE
  8
PLAN_1
 62
     2
  6
CONTINUOUS
 66
     1
 40
0.004189
 41
0.004189
  0
VERTEX
  8
PLAN_1
 62
     2
  6
CONTINUOUS
 10
-1.254945
 20
-0.789488
  0
VERTEX
  8
PLAN_1
 62
     2
  6
CONTINUOUS
 10
-1.254945
 20
-0.934079
  0
SEQEND
  8
0
  0
POLYLINE
  8
PLAN_1
 62
     2
  6
CONTINUOUS
 66
     1
 40
0.004189
 41
0.004189
  0
VERTEX
  8
PLAN_1
 62
     2
  6
CONTINUOUS
 10
-1.254945
 20
-0.981228
  0
VERTEX
  8
PLAN_1
 62
     2
  6
CONTINUOUS
 10
-1.254945
 20
-1.139961
  0
SEQEND
  8
0
  0
POLYLINE
  8
PLAN_1
 62
     2
  6
CONTINUOUS
 66
     1
 40
0.004189
 41
0.004189
  0
VERTEX
  8
PLAN_1
 62
     2
  6
CONTINUOUS
 10
-2.433142
 20
1.023122
  0
VERTEX
  8
PLAN_1
 62
     2
  6
CONTINUOUS
 10
-2.433142
 20
-1.139961
  0
SEQEND
  8
0
  0
POLYLINE
  8
PLAN_1
 62
     2
  6
CONTINUOUS
 66
     1
 40
0.004189
 41
0.004189
  0
VERTEX
  8
PLAN_1
 62
     2
  6
CONTINUOUS
 10
-1.097260
 20
-0.797870
  0
VERTEX
  8
PLAN_1
 62
     2
  6
CONTINUOUS
 10
-1.097260
 20
3.750421
  0
SEQEND
  8
0
  0
SOLID
  8
PLAN_1
 62
     2
 10
-1.097260
 20
3.779756
 11
-1.112976
 21
3.721083
 12
-1.097260
 22
3.779756
 13
-1.081543
 23
3.721083
  0
POLYLINE
  8
PLAN_1
 62
     2
  6
CONTINUOUS
 66
     1
 40
0.003000
 41
0.003000
  0
VERTEX
  8
PLAN_1
 62
     2
  6
CONTINUOUS
 10
-1.097260
 20
3.779756
  0
VERTEX
  8
PLAN_1
 62
     2
  6
CONTINUOUS
 10
-1.112976
 20
3.721083
  0
VERTEX
  8
PLAN_1
 62
     2
  6
CONTINUOUS
 10
-1.081543
 20
3.721083
  0
VERTEX
  8
PLAN_1
 62
     2
  6
CONTINUOUS
 10
-1.097260
 20
3.779756
  0
SEQEND
  8
0
  0
SOLID
  8
PLAN_1
 62
     2
 10
-1.097260
 20
-0.827209
 11
-1.112976
 21
-0.768535
 12
-1.097260
 22
-0.827209
 13
-1.081543
 23
-0.768535
  0
POLYLINE
  8
PLAN_1
 62
     2
  6
CONTINUOUS
 66
     1
 40
0.003000
 41
0.003000
  0
VERTEX
  8
PLAN_1
 62
     2
  6
CONTINUOUS
 10
-1.097260
 20
-0.827209
  0
VERTEX
  8
PLAN_1
 62
     2
  6
CONTINUOUS
 10
-1.112976
 20
-0.768535
  0
VERTEX
  8
PLAN_1
 62
     2
  6
CONTINUOUS
 10
-1.081543
 20
-0.768535
  0
VERTEX
  8
PLAN_1
 62
     2
  6
CONTINUOUS
 10
-1.097260
 20
-0.827209
  0
SEQEND
  8
0
  0
POLYLINE
  8
PLAN_1
 62
     2
  6
CONTINUOUS
 66
     1
 40
0.004189
 41
0.004189
  0
VERTEX
  8
PLAN_1
 62
     2
  6
CONTINUOUS
 10
-1.806063
 20
3.718465
  0
VERTEX
  8
PLAN_1
 62
     2
  6
CONTINUOUS
 10
-1.806063
 20
3.913346
  0
SEQEND
  8
0
  0
POLYLINE
  8
PLAN_1
 62
     2
  6
CONTINUOUS
 66
     1
 40
0.003000
 41
0.003000
  0
VERTEX
  8
PLAN_1
 62
     2
  6
CONTINUOUS
 10
-1.120831
 20
1.383547
  0
VERTEX
  8
PLAN_1
 62
     2
  6
CONTINUOUS
 10
-1.120831
 20
1.373594
  0
VERTEX
  8
PLAN_1
 62
     2
  6
CONTINUOUS
 10
-1.172697
 20
1.373594
  0
VERTEX
  8
PLAN_1
 62
     2
  6
CONTINUOUS
 10
-1.172697
 20
1.356307
  0
VERTEX
  8
PLAN_1
 62
     2
  6
CONTINUOUS
 10
-1.180031
 20
1.356307
  0
VERTEX
  8
PLAN_1
 62
     2
  6
CONTINUOUS
 10
-1.180555
 20
1.360500
  0
VERTEX
  8
PLAN_1
 62
     2
  6
CONTINUOUS
 10
-1.181079
 20
1.364165
  0
VERTEX
  8
PLAN_1
 62
     2
  6
CONTINUOUS
 10
-1.181602
 20
1.367307
  0
VERTEX
  8
PLAN_1
 62
     2
  6
CONTINUOUS
 10
-1.183173
 20
1.369929
  0
VERTEX
  8
PLAN_1
 62
     2
  6
CONTINUOUS
 10
-1.184744
 20
1.372024
  0
VERTEX
  8
PLAN_1
 62
     2
  6
CONTINUOUS
 10
-1.186843
 20
1.373594
  0
VERTEX
  8
PLAN_1
 62
     2
  6
CONTINUOUS
 10
-1.189984
 20
1.375165
  0
VERTEX
  8
PLAN_1
 62
     2
  6
CONTINUOUS
 10
-1.194177
 20
1.376213
  0
VERTEX
  8
PLAN_1
 62
     2
  6
CONTINUOUS
 10
-1.194177
 20
1.383547
  0
VERTEX
  8
PLAN_1
 62
     2
  6
CONTINUOUS
 10
-1.120831
 20
1.383547
  0
SEQEND
  8
0
  0
POLYLINE
  8
PLAN_1
 62
     2
  6
CONTINUOUS
 66
     1
 40
0.003000
 41
0.003000
  0
VERTEX
  8
PLAN_1
 62
     2
  6
CONTINUOUS
 10
-1.120831
 20
1.441173
  0
VERTEX
  8
PLAN_1
 62
     2
  6
CONTINUOUS
 10
-1.120831
 20
1.431744
  0
VERTEX
  8
PLAN_1
 62
     2
  6
CONTINUOUS
 10
-1.172697
 20
1.431744
  0
VERTEX
  8
PLAN_1
 62
     2
  6
CONTINUOUS
 10
-1.172697
 20
1.414457
  0
VERTEX
  8
PLAN_1
 62
     2
  6
CONTINUOUS
 10
-1.180031
 20
1.414457
  0
VERTEX
  8
PLAN_1
 62
     2
  6
CONTINUOUS
 10
-1.180555
 20
1.418650
  0
VERTEX
  8
PLAN_1
 62
     2
  6
CONTINUOUS
 10
-1.181079
 20
1.422315
  0
VERTEX
  8
PLAN_1
 62
     2
  6
CONTINUOUS
 10
-1.181602
 20
1.424933
  0
VERTEX
  8
PLAN_1
 62
     2
  6
CONTINUOUS
 10
-1.183173
 20
1.427555
  0
VERTEX
  8
PLAN_1
 62
     2
  6
CONTINUOUS
 10
-1.184744
 20
1.429650
  0
VERTEX
  8
PLAN_1
 62
     2
  6
CONTINUOUS
 10
-1.186843
 20
1.431220
  0
VERTEX
  8
PLAN_1
 62
     2
  6
CONTINUOUS
 10
-1.189984
 20
1.432791
  0
VERTEX
  8
PLAN_1
 62
     2
  6
CONTINUOUS
 10
-1.194177
 20
1.434366
  0
VERTEX
  8
PLAN_1
 62
     2
  6
CONTINUOUS
 10
-1.194177
 20
1.441173
  0
VERTEX
  8
PLAN_1
 62
     2
  6
CONTINUOUS
 10
-1.120831
 20
1.441173
  0
SEQEND
  8
0
  0
POLYLINE
  8
PLAN_1
 62
     2
  6
CONTINUOUS
 66
     1
 40
0.003000
 41
0.003000
  0
VERTEX
  8
PLAN_1
 62
     2
  6
CONTINUOUS
 10
-1.167980
 20
1.466323
  0
VERTEX
  8
PLAN_1
 62
     2
  6
CONTINUOUS
 10
-1.172173
 20
1.466846
  0
VERTEX
  8
PLAN_1
 62
     2
  6
CONTINUOUS
 10
-1.175839
 20
1.467370
  0
VERTEX
  8
PLAN_1
 62
     2
  6
CONTINUOUS
 10
-1.178984
 20
1.467894
  0
VERTEX
  8
PLAN_1
 62
     2
  6
CONTINUOUS
 10
-1.182126
 20
1.469465
  0
VERTEX
  8
PLAN_1
 62
     2
  6
CONTINUOUS
 10
-1.184744
 20
1.470512
  0
VERTEX
  8
PLAN_1
 62
     2
  6
CONTINUOUS
 10
-1.186843
 20
1.472083
  0
VERTEX
  8
PLAN_1
 62
     2
  6
CONTINUOUS
 10
-1.188413
 20
1.474181
  0
VERTEX
  8
PLAN_1
 62
     2
  6
CONTINUOUS
 10
-1.189984
 20
1.476276
  0
VERTEX
  8
PLAN_1
 62
     2
  6
CONTINUOUS
 10
-1.192079
 20
1.480465
  0
VERTEX
  8
PLAN_1
 62
     2
  6
CONTINUOUS
 10
-1.193650
 20
1.484657
  0
VERTEX
  8
PLAN_1
 62
     2
  6
CONTINUOUS
 10
-1.194177
 20
1.488323
  0
VERTEX
  8
PLAN_1
 62
     2
  6
CONTINUOUS
 10
-1.194177
 20
1.491469
  0
VERTEX
  8
PLAN_1
 62
     2
  6
CONTINUOUS
 10
-1.193650
 20
1.496181
  0
VERTEX
  8
PLAN_1
 62
     2
  6
CONTINUOUS
 10
-1.192602
 20
1.500374
  0
VERTEX
  8
PLAN_1
 62
     2
  6
CONTINUOUS
 10
-1.191031
 20
1.504563
  0
VERTEX
  8
PLAN_1
 62
     2
  6
CONTINUOUS
 10
-1.188413
 20
1.507709
  0
VERTEX
  8
PLAN_1
 62
     2
  6
CONTINUOUS
 10
-1.185268
 20
1.510850
  0
VERTEX
  8
PLAN_1
 62
     2
  6
CONTINUOUS
 10
-1.181602
 20
1.512945
  0
VERTEX
  8
PLAN_1
 62
     2
  6
CONTINUOUS
 10
-1.177409
 20
1.513992
  0
VERTEX
  8
PLAN_1
 62
     2
  6
CONTINUOUS
 10
-1.172173
 20
1.514520
  0
VERTEX
  8
PLAN_1
 62
     2
  6
CONTINUOUS
 10
-1.167980
 20
1.513992
  0
VERTEX
  8
PLAN_1
 62
     2
  6
CONTINUOUS
 10
-1.163791
 20
1.512945
  0
VERTEX
  8
PLAN_1
 62
     2
  6
CONTINUOUS
 10
-1.160122
 20
1.511374
  0
VERTEX
  8
PLAN_1
 62
     2
  6
CONTINUOUS
 10
-1.157504
 20
1.508756
  0
VERTEX
  8
PLAN_1
 62
     2
  6
CONTINUOUS
 10
-1.154886
 20
1.506134
  0
VERTEX
  8
PLAN_1
 62
     2
  6
CONTINUOUS
 10
-1.152264
 20
1.502469
  0
VERTEX
  8
PLAN_1
 62
     2
  6
CONTINUOUS
 10
-1.150169
 20
1.498803
  0
VERTEX
  8
PLAN_1
 62
     2
  6
CONTINUOUS
 10
-1.148075
 20
1.495134
  0
VERTEX
  8
PLAN_1
 62
     2
  6
CONTINUOUS
 10
-1.143882
 20
1.487276
  0
VERTEX
  8
PLAN_1
 62
     2
  6
CONTINUOUS
 10
-1.141787
 20
1.484134
  0
VERTEX
  8
PLAN_1
 62
     2
  6
CONTINUOUS
 10
-1.139693
 20
1.481512
  0
VERTEX
  8
PLAN_1
 62
     2
  6
CONTINUOUS
 10
-1.137598
 20
1.479417
  0
VERTEX
  8
PLAN_1
 62
     2
  6
CONTINUOUS
 10
-1.135500
 20
1.477323
  0
VERTEX
  8
PLAN_1
 62
     2
  6
CONTINUOUS
 10
-1.133929
 20
1.476276
  0
VERTEX
  8
PLAN_1
 62
     2
  6
CONTINUOUS
 10
-1.132358
 20
1.475752
  0
VERTEX
  8
PLAN_1
 62
     2
  6
CONTINUOUS
 10
-1.130787
 20
1.475228
  0
VERTEX
  8
PLAN_1
 62
     2
  6
CONTINUOUS
 10
-1.129740
 20
1.474705
  0
VERTEX
  8
PLAN_1
 62
     2
  6
CONTINUOUS
 10
-1.129740
 20
1.514520
  0
VERTEX
  8
PLAN_1
 62
     2
  6
CONTINUOUS
 10
-1.120831
 20
1.514520
  0
VERTEX
  8
PLAN_1
 62
     2
  6
CONTINUOUS
 10
-1.120831
 20
1.464748
  0
VERTEX
  8
PLAN_1
 62
     2
  6
CONTINUOUS
 10
-1.126594
 20
1.465272
  0
VERTEX
  8
PLAN_1
 62
     2
  6
CONTINUOUS
 10
-1.131311
 20
1.466323
  0
VERTEX
  8
PLAN_1
 62
     2
  6
CONTINUOUS
 10
-1.135500
 20
1.467370
  0
VERTEX
  8
PLAN_1
 62
     2
  6
CONTINUOUS
 10
-1.139169
 20
1.469465
  0
VERTEX
  8
PLAN_1
 62
     2
  6
CONTINUOUS
 10
-1.142311
 20
1.472083
  0
VERTEX
  8
PLAN_1
 62
     2
  6
CONTINUOUS
 10
-1.145457
 20
1.475228
  0
VERTEX
  8
PLAN_1
 62
     2
  6
CONTINUOUS
 10
-1.147551
 20
1.478370
  0
VERTEX
  8
PLAN_1
 62
     2
  6
CONTINUOUS
 10
-1.150169
 20
1.481512
  0
VERTEX
  8
PLAN_1
 62
     2
  6
CONTINUOUS
 10
-1.155933
 20
1.491469
  0
VERTEX
  8
PLAN_1
 62
     2
  6
CONTINUOUS
 10
-1.157504
 20
1.494087
  0
VERTEX
  8
PLAN_1
 62
     2
  6
CONTINUOUS
 10
-1.159075
 20
1.496705
  0
VERTEX
  8
PLAN_1
 62
     2
  6
CONTINUOUS
 10
-1.160646
 20
1.498803
  0
VERTEX
  8
PLAN_1
 62
     2
  6
CONTINUOUS
 10
-1.162220
 20
1.500898
  0
VERTEX
  8
PLAN_1
 62
     2
  6
CONTINUOUS
 10
-1.164315
 20
1.502469
  0
VERTEX
  8
PLAN_1
 62
     2
  6
CONTINUOUS
 10
-1.166409
 20
1.504039
  0
VERTEX
  8
PLAN_1
 62
     2
  6
CONTINUOUS
 10
-1.169551
 20
1.504563
  0
VERTEX
  8
PLAN_1
 62
     2
  6
CONTINUOUS
 10
-1.172697
 20
1.504563
  0
VERTEX
  8
PLAN_1
 62
     2
  6
CONTINUOUS
 10
-1.174791
 20
1.504563
  0
VERTEX
  8
PLAN_1
 62
     2
  6
CONTINUOUS
 10
-1.177409
 20
1.504039
  0
VERTEX
  8
PLAN_1
 62
     2
  6
CONTINUOUS
 10
-1.179508
 20
1.502992
  0
VERTEX
  8
PLAN_1
 62
     2
  6
CONTINUOUS
 10
-1.181602
 20
1.501421
  0
VERTEX
  8
PLAN_1
 62
     2
  6
CONTINUOUS
 10
-1.183173
 20
1.499850
  0
VERTEX
  8
PLAN_1
 62
     2
  6
CONTINUOUS
 10
-1.184744
 20
1.497228
  0
VERTEX
  8
PLAN_1
 62
     2
  6
CONTINUOUS
 10
-1.185791
 20
1.494087
  0
VERTEX
  8
PLAN_1
 62
     2
  6
CONTINUOUS
 10
-1.185791
 20
1.490421
  0
VERTEX
  8
PLAN_1
 62
     2
  6
CONTINUOUS
 10
-1.185791
 20
1.487799
  0
VERTEX
  8
PLAN_1
 62
     2
  6
CONTINUOUS
 10
-1.185268
 20
1.485705
  0
VERTEX
  8
PLAN_1
 62
     2
  6
CONTINUOUS
 10
-1.184744
 20
1.483610
  0
VERTEX
  8
PLAN_1
 62
     2
  6
CONTINUOUS
 10
-1.183697
 20
1.482039
  0
VERTEX
  8
PLAN_1
 62
     2
  6
CONTINUOUS
 10
-1.181602
 20
1.479417
  0
VERTEX
  8
PLAN_1
 62
     2
  6
CONTINUOUS
 10
-1.178984
 20
1.477846
  0
VERTEX
  8
PLAN_1
 62
     2
  6
CONTINUOUS
 10
-1.175839
 20
1.476799
  0
VERTEX
  8
PLAN_1
 62
     2
  6
CONTINUOUS
 10
-1.172697
 20
1.476276
  0
VERTEX
  8
PLAN_1
 62
     2
  6
CONTINUOUS
 10
-1.170079
 20
1.475752
  0
VERTEX
  8
PLAN_1
 62
     2
  6
CONTINUOUS
 10
-1.167980
 20
1.475752
  0
VERTEX
  8
PLAN_1
 62
     2
  6
CONTINUOUS
 10
-1.167980
 20
1.466323
  0
SEQEND
  8
0
  0
POLYLINE
  8
PLAN_1
 62
     2
  6
CONTINUOUS
 66
     1
 40
0.003000
 41
0.003000
  0
VERTEX
  8
PLAN_1
 62
     2
  6
CONTINUOUS
 10
-1.131835
 20
1.528661
  0
VERTEX
  8
PLAN_1
 62
     2
  6
CONTINUOUS
 10
-1.131835
 20
1.539665
  0
VERTEX
  8
PLAN_1
 62
     2
  6
CONTINUOUS
 10
-1.121882
 20
1.539665
  0
VERTEX
  8
PLAN_1
 62
     2
  6
CONTINUOUS
 10
-1.117165
 20
1.539142
  0
VERTEX
  8
PLAN_1
 62
     2
  6
CONTINUOUS
 10
-1.113500
 20
1.538091
  0
VERTEX
  8
PLAN_1
 62
     2
  6
CONTINUOUS
 10
-1.110878
 20
1.536520
  0
VERTEX
  8
PLAN_1
 62
     2
  6
CONTINUOUS
 10
-1.108783
 20
1.534949
  0
VERTEX
  8
PLAN_1
 62
     2
  6
CONTINUOUS
 10
-1.107213
 20
1.533378
  0
VERTEX
  8
PLAN_1
 62
     2
  6
CONTINUOUS
 10
-1.106165
 20
1.531283
  0
VERTEX
  8
PLAN_1
 62
     2
  6
CONTINUOUS
 10
-1.106165
 20
1.529709
  0
VERTEX
  8
PLAN_1
 62
     2
  6
CONTINUOUS
 10
-1.105642
 20
1.528661
  0
VERTEX
  8
PLAN_1
 62
     2
  6
CONTINUOUS
 10
-1.110354
 20
1.528661
  0
VERTEX
  8
PLAN_1
 62
     2
  6
CONTINUOUS
 10
-1.110878
 20
1.530232
  0
VERTEX
  8
PLAN_1
 62
     2
  6
CONTINUOUS
 10
-1.111402
 20
1.531283
  0
VERTEX
  8
PLAN_1
 62
     2
  6
CONTINUOUS
 10
-1.112976
 20
1.532331
  0
VERTEX
  8
PLAN_1
 62
     2
  6
CONTINUOUS
 10
-1.114024
 20
1.533378
  0
VERTEX
  8
PLAN_1
 62
     2
  6
CONTINUOUS
 10
-1.115594
 20
1.533902
  0
VERTEX
  8
PLAN_1
 62
     2
  6
CONTINUOUS
 10
-1.117165
 20
1.533902
  0
VERTEX
  8
PLAN_1
 62
     2
  6
CONTINUOUS
 10
-1.119260
 20
1.534425
  0
VERTEX
  8
PLAN_1
 62
     2
  6
CONTINUOUS
 10
-1.120831
 20
1.534425
  0
VERTEX
  8
PLAN_1
 62
     2
  6
CONTINUOUS
 10
-1.120831
 20
1.528661
  0
VERTEX
  8
PLAN_1
 62
     2
  6
CONTINUOUS
 10
-1.131835
 20
1.528661
  0
SEQEND
  8
0
  0
POLYLINE
  8
PLAN_1
 62
     2
  6
CONTINUOUS
 66
     1
 40
0.003000
 41
0.003000
  0
VERTEX
  8
PLAN_1
 62
     2
  6
CONTINUOUS
 10
-1.163791
 20
1.563764
  0
VERTEX
  8
PLAN_1
 62
     2
  6
CONTINUOUS
 10
-1.164315
 20
1.565335
  0
VERTEX
  8
PLAN_1
 62
     2
  6
CONTINUOUS
 10
-1.165362
 20
1.566382
  0
VERTEX
  8
PLAN_1
 62
     2
  6
CONTINUOUS
 10
-1.165886
 20
1.567953
  0
VERTEX
  8
PLAN_1
 62
     2
  6
CONTINUOUS
 10
-1.166933
 20
1.569524
  0
VERTEX
  8
PLAN_1
 62
     2
  6
CONTINUOUS
 10
-1.167457
 20
1.571622
  0
VERTEX
  8
PLAN_1
 62
     2
  6
CONTINUOUS
 10
-1.167980
 20
1.573717
  0
VERTEX
  8
PLAN_1
 62
     2
  6
CONTINUOUS
 10
-1.167980
 20
1.575811
  0
VERTEX
  8
PLAN_1
 62
     2
  6
CONTINUOUS
 10
-1.167980
 20
1.577906
  0
VERTEX
  8
PLAN_1
 62
     2
  6
CONTINUOUS
 10
-1.167980
 20
1.582622
  0
VERTEX
  8
PLAN_1
 62
     2
  6
CONTINUOUS
 10
-1.166409
 20
1.586811
  0
VERTEX
  8
PLAN_1
 62
     2
  6
CONTINUOUS
 10
-1.164839
 20
1.591004
  0
VERTEX
  8
PLAN_1
 62
     2
  6
CONTINUOUS
 10
-1.162220
 20
1.594669
  0
VERTEX
  8
PLAN_1
 62
     2
  6
CONTINUOUS
 10
-1.158551
 20
1.597815
  0
VERTEX
  8
PLAN_1
 62
     2
  6
CONTINUOUS
 10
-1.154886
 20
1.599909
  0
VERTEX
  8
PLAN_1
 62
     2
  6
CONTINUOUS
 10
-1.152264
 20
1.600957
  0
VERTEX
  8
PLAN_1
 62
     2
  6
CONTINUOUS
 10
-1.150169
 20
1.601480
  0
VERTEX
  8
PLAN_1
 62
     2
  6
CONTINUOUS
 10
-1.147551
 20
1.602004
  0
VERTEX
  8
PLAN_1
 62
     2
  6
CONTINUOUS
 10
-1.144929
 20
1.602004
  0
VERTEX
  8
PLAN_1
 62
     2
  6
CONTINUOUS
 10
-1.141264
 20
1.602004
  0
VERTEX
  8
PLAN_1
 62
     2
  6
CONTINUOUS
 10
-1.137071
 20
1.601480
  0
VERTEX
  8
PLAN_1
 62
     2
  6
CONTINUOUS
 10
-1.132882
 20
1.599909
  0
VERTEX
  8
PLAN_1
 62
     2
  6
CONTINUOUS
 10
-1.128689
 20
1.597291
  0
VERTEX
  8
PLAN_1
 62
     2
  6
CONTINUOUS
 10
-1.127118
 20
1.595720
  0
VERTEX
  8
PLAN_1
 62
     2
  6
CONTINUOUS
 10
-1.125024
 20
1.594146
  0
VERTEX
  8
PLAN_1
 62
     2
  6
CONTINUOUS
 10
-1.123453
 20
1.592051
  0
VERTEX
  8
PLAN_1
 62
     2
  6
CONTINUOUS
 10
-1.121882
 20
1.589433
  0
VERTEX
  8
PLAN_1
 62
     2
  6
CONTINUOUS
 10
-1.120831
 20
1.586811
  0
VERTEX
  8
PLAN_1
 62
     2
  6
CONTINUOUS
 10
-1.119783
 20
1.583146
  0
VERTEX
  8
PLAN_1
 62
     2
  6
CONTINUOUS
 10
-1.119260
 20
1.579480
  0
VERTEX
  8
PLAN_1
 62
     2
  6
CONTINUOUS
 10
-1.119260
 20
1.575811
  0
VERTEX
  8
PLAN_1
 62
     2
  6
CONTINUOUS
 10
-1.119260
 20
1.572146
  0
VERTEX
  8
PLAN_1
 62
     2
  6
CONTINUOUS
 10
-1.119783
 20
1.567953
  0
VERTEX
  8
PLAN_1
 62
     2
  6
CONTINUOUS
 10
-1.121358
 20
1.564287
  0
VERTEX
  8
PLAN_1
 62
     2
  6
CONTINUOUS
 10
-1.122929
 20
1.561142
  0
VERTEX
  8
PLAN_1
 62
     2
  6
CONTINUOUS
 10
-1.125547
 20
1.557476
  0
VERTEX
  8
PLAN_1
 62
     2
  6
CONTINUOUS
 10
-1.129217
 20
1.554854
  0
VERTEX
  8
PLAN_1
 62
     2
  6
CONTINUOUS
 10
-1.131311
 20
1.553807
  0
VERTEX
  8
PLAN_1
 62
     2
  6
CONTINUOUS
 10
-1.133929
 20
1.553283
  0
VERTEX
  8
PLAN_1
 62
     2
  6
CONTINUOUS
 10
-1.136547
 20
1.552236
  0
VERTEX
  8
PLAN_1
 62
     2
  6
CONTINUOUS
 10
-1.139169
 20
1.552236
  0
VERTEX
  8
PLAN_1
 62
     2
  6
CONTINUOUS
 10
-1.139169
 20
1.561665
  0
VERTEX
  8
PLAN_1
 62
     2
  6
CONTINUOUS
 10
-1.136024
 20
1.562189
  0
VERTEX
  8
PLAN_1
 62
     2
  6
CONTINUOUS
 10
-1.133929
 20
1.563240
  0
VERTEX
  8
PLAN_1
 62
     2
  6
CONTINUOUS
 10
-1.131835
 20
1.564811
  0
VERTEX
  8
PLAN_1
 62
     2
  6
CONTINUOUS
 10
-1.129740
 20
1.566382
  0
VERTEX
  8
PLAN_1
 62
     2
  6
CONTINUOUS
 10
-1.128689
 20
1.568476
  0
VERTEX
  8
PLAN_1
 62
     2
  6
CONTINUOUS
 10
-1.127642
 20
1.571094
  0
VERTEX
  8
PLAN_1
 62
     2
  6
CONTINUOUS
 10
-1.127118
 20
1.574240
  0
VERTEX
  8
PLAN_1
 62
     2
  6
CONTINUOUS
 10
-1.127118
 20
1.576858
  0
VERTEX
  8
PLAN_1
 62
     2
  6
CONTINUOUS
 10
-1.127118
 20
1.580528
  0
VERTEX
  8
PLAN_1
 62
     2
  6
CONTINUOUS
 10
-1.128165
 20
1.583146
  0
VERTEX
  8
PLAN_1
 62
     2
  6
CONTINUOUS
 10
-1.129740
 20
1.585764
  0
VERTEX
  8
PLAN_1
 62
     2
  6
CONTINUOUS
 10
-1.131835
 20
1.588386
  0
VERTEX
  8
PLAN_1
 62
     2
  6
CONTINUOUS
 10
-1.134453
 20
1.589957
  0
VERTEX
  8
PLAN_1
 62
     2
  6
CONTINUOUS
 10
-1.137071
 20
1.591528
  0
VERTEX
  8
PLAN_1
 62
     2
  6
CONTINUOUS
 10
-1.140217
 20
1.592051
  0
VERTEX
  8
PLAN_1
 62
     2
  6
CONTINUOUS
 10
-1.143882
 20
1.592575
  0
VERTEX
  8
PLAN_1
 62
     2
  6
CONTINUOUS
 10
-1.147551
 20
1.592051
  0
VERTEX
  8
PLAN_1
 62
     2
  6
CONTINUOUS
 10
-1.150693
 20
1.591004
  0
VERTEX
  8
PLAN_1
 62
     2
  6
CONTINUOUS
 10
-1.153311
 20
1.589433
  0
VERTEX
  8
PLAN_1
 62
     2
  6
CONTINUOUS
 10
-1.155933
 20
1.587862
  0
VERTEX
  8
PLAN_1
 62
     2
  6
CONTINUOUS
 10
-1.157504
 20
1.585240
  0
VERTEX
  8
PLAN_1
 62
     2
  6
CONTINUOUS
 10
-1.159075
 20
1.582622
  0
VERTEX
  8
PLAN_1
 62
     2
  6
CONTINUOUS
 10
-1.159598
 20
1.579480
  0
VERTEX
  8
PLAN_1
 62
     2
  6
CONTINUOUS
 10
-1.160122
 20
1.576335
  0
VERTEX
  8
PLAN_1
 62
     2
  6
CONTINUOUS
 10
-1.159598
 20
1.574240
  0
VERTEX
  8
PLAN_1
 62
     2
  6
CONTINUOUS
 10
-1.159598
 20
1.572146
  0
VERTEX
  8
PLAN_1
 62
     2
  6
CONTINUOUS
 10
-1.159075
 20
1.570571
  0
VERTEX
  8
PLAN_1
 62
     2
  6
CONTINUOUS
 10
-1.158028
 20
1.568476
  0
VERTEX
  8
PLAN_1
 62
     2
  6
CONTINUOUS
 10
-1.156980
 20
1.566906
  0
VERTEX
  8
PLAN_1
 62
     2
  6
CONTINUOUS
 10
-1.155933
 20
1.565335
  0
VERTEX
  8
PLAN_1
 62
     2
  6
CONTINUOUS
 10
-1.154362
 20
1.563764
  0
VERTEX
  8
PLAN_1
 62
     2
  6
CONTINUOUS
 10
-1.152787
 20
1.562713
  0
VERTEX
  8
PLAN_1
 62
     2
  6
CONTINUOUS
 10
-1.153311
 20
1.554854
  0
VERTEX
  8
PLAN_1
 62
     2
  6
CONTINUOUS
 10
-1.192602
 20
1.560094
  0
VERTEX
  8
PLAN_1
 62
     2
  6
CONTINUOUS
 10
-1.192602
 20
1.598339
  0
VERTEX
  8
PLAN_1
 62
     2
  6
CONTINUOUS
 10
-1.183697
 20
1.598339
  0
VERTEX
  8
PLAN_1
 62
     2
  6
CONTINUOUS
 10
-1.183697
 20
1.566906
  0
VERTEX
  8
PLAN_1
 62
     2
  6
CONTINUOUS
 10
-1.163791
 20
1.563764
  0
SEQEND
  8
0
  0
POLYLINE
  8
PLAN_1
 62
     2
  6
CONTINUOUS
 66
     1
 40
0.004189
 41
0.004189
  0
VERTEX
  8
PLAN_1
 62
     2
  6
CONTINUOUS
 10
-1.638945
 20
3.780807
  0
VERTEX
  8
PLAN_1
 62
     2
  6
CONTINUOUS
 10
-1.073685
 20
3.780807
  0
SEQEND
  8
0
  0
POLYLINE
  8
PLAN_1
 62
     2
  6
CONTINUOUS
 66
     1
 40
0.004189
 41
0.004189
  0
VERTEX
  8
PLAN_1
 62
     2
  6
CONTINUOUS
 10
-1.805539
 20
3.962591
  0
VERTEX
  8
PLAN_1
 62
     2
  6
CONTINUOUS
 10
-1.805539
 20
4.117657
  0
SEQEND
  8
0
  0
POLYLINE
  8
PLAN_1
 62
     2
  6
CONTINUOUS
 66
     1
 40
0.004189
 41
0.004189
  0
VERTEX
  8
PLAN_1
 62
     2
  6
CONTINUOUS
 10
-1.398488
 20
3.804378
  0
VERTEX
  8
PLAN_1
 62
     2
  6
CONTINUOUS
 10
-1.398488
 20
4.117657
  0
SEQEND
  8
0
  0
POLYLINE
  8
PLAN_1
 62
     2
  6
CONTINUOUS
 66
     1
 40
0.004189
 41
0.004189
  0
VERTEX
  8
PLAN_1
 62
     2
  6
CONTINUOUS
 10
-1.398488
 20
3.069906
  0
VERTEX
  8
PLAN_1
 62
     2
  6
CONTINUOUS
 10
-1.398488
 20
3.756181
  0
SEQEND
  8
0
  0
POLYLINE
  8
PLAN_1
 62
     2
  6
CONTINUOUS
 66
     1
 40
0.004189
 41
0.004189
  0
VERTEX
  8
PLAN_1
 62
     2
  6
CONTINUOUS
 10
-1.949079
 20
3.803854
  0
VERTEX
  8
PLAN_1
 62
     2
  6
CONTINUOUS
 10
-1.949079
 20
3.996642
  0
SEQEND
  8
0
  0
POLYLINE
  8
PLAN_1
 62
     2
  6
CONTINUOUS
 66
     1
 40
0.004189
 41
0.004189
  0
VERTEX
  8
PLAN_1
 62
     2
  6
CONTINUOUS
 10
-1.663567
 20
3.803854
  0
VERTEX
  8
PLAN_1
 62
     2
  6
CONTINUOUS
 10
-1.663567
 20
3.996642
  0
SEQEND
  8
0
  0
POLYLINE
  8
PLAN_1
 62
     2
  6
CONTINUOUS
 66
     1
 40
0.004189
 41
0.004189
  0
VERTEX
  8
PLAN_1
 62
     2
  6
CONTINUOUS
 10
-2.085287
 20
3.937969
  0
VERTEX
  8
PLAN_1
 62
     2
  6
CONTINUOUS
 10
-1.633709
 20
3.937969
  0
SEQEND
  8
0
  0
SOLID
  8
PLAN_1
 62
     2
 10
-1.949606
 20
3.937969
 11
-2.008803
 21
3.953685
 12
-1.949606
 22
3.937969
 13
-2.008803
 23
3.922252
  0
POLYLINE
  8
PLAN_1
 62
     2
  6
CONTINUOUS
 66
     1
 40
0.003000
 41
0.003000
  0
VERTEX
  8
PLAN_1
 62
     2
  6
CONTINUOUS
 10
-1.949606
 20
3.937969
  0
VERTEX
  8
PLAN_1
 62
     2
  6
CONTINUOUS
 10
-2.008803
 20
3.953685
  0
VERTEX
  8
PLAN_1
 62
     2
  6
CONTINUOUS
 10
-2.008803
 20
3.922252
  0
VERTEX
  8
PLAN_1
 62
     2
  6
CONTINUOUS
 10
-1.949606
 20
3.937969
  0
SEQEND
  8
0
  0
SOLID
  8
PLAN_1
 62
     2
 10
-1.663043
 20
3.937969
 11
-1.603846
 21
3.953685
 12
-1.663043
 22
3.937969
 13
-1.603846
 23
3.922252
  0
POLYLINE
  8
PLAN_1
 62
     2
  6
CONTINUOUS
 66
     1
 40
0.003000
 41
0.003000
  0
VERTEX
  8
PLAN_1
 62
     2
  6
CONTINUOUS
 10
-1.663043
 20
3.937969
  0
VERTEX
  8
PLAN_1
 62
     2
  6
CONTINUOUS
 10
-1.603846
 20
3.953685
  0
VERTEX
  8
PLAN_1
 62
     2
  6
CONTINUOUS
 10
-1.603846
 20
3.922252
  0
VERTEX
  8
PLAN_1
 62
     2
  6
CONTINUOUS
 10
-1.663043
 20
3.937969
  0
SEQEND
  8
0
  0
POLYLINE
  8
PLAN_1
 62
     2
  6
CONTINUOUS
 66
     1
 40
0.003000
 41
0.003000
  0
VERTEX
  8
PLAN_1
 62
     2
  6
CONTINUOUS
 10
-2.042331
 20
4.000311
  0
VERTEX
  8
PLAN_1
 62
     2
  6
CONTINUOUS
 10
-2.038661
 20
3.998736
  0
VERTEX
  8
PLAN_1
 62
     2
  6
CONTINUOUS
 10
-2.036043
 20
3.996642
  0
VERTEX
  8
PLAN_1
 62
     2
  6
CONTINUOUS
 10
-2.033949
 20
3.994547
  0
VERTEX
  8
PLAN_1
 62
     2
  6
CONTINUOUS
 10
-2.032378
 20
3.991925
  0
VERTEX
  8
PLAN_1
 62
     2
  6
CONTINUOUS
 10
-2.031331
 20
3.989307
  0
VERTEX
  8
PLAN_1
 62
     2
  6
CONTINUOUS
 10
-2.030807
 20
3.987213
  0
VERTEX
  8
PLAN_1
 62
     2
  6
CONTINUOUS
 10
-2.030280
 20
3.984594
  0
VERTEX
  8
PLAN_1
 62
     2
  6
CONTINUOUS
 10
-2.030280
 20
3.982496
  0
VERTEX
  8
PLAN_1
 62
     2
  6
CONTINUOUS
 10
-2.030807
 20
3.978307
  0
VERTEX
  8
PLAN_1
 62
     2
  6
CONTINUOUS
 10
-2.031854
 20
3.974114
  0
VERTEX
  8
PLAN_1
 62
     2
  6
CONTINUOUS
 10
-2.033425
 20
3.969925
  0
VERTEX
  8
PLAN_1
 62
     2
  6
CONTINUOUS
 10
-2.036043
 20
3.966780
  0
VERTEX
  8
PLAN_1
 62
     2
  6
CONTINUOUS
 10
-2.039713
 20
3.963638
  0
VERTEX
  8
PLAN_1
 62
     2
  6
CONTINUOUS
 10
-2.043902
 20
3.961543
  0
VERTEX
  8
PLAN_1
 62
     2
  6
CONTINUOUS
 10
-2.046520
 20
3.960496
  0
VERTEX
  8
PLAN_1
 62
     2
  6
CONTINUOUS
 10
-2.049142
 20
3.959972
  0
VERTEX
  8
PLAN_1
 62
     2
  6
CONTINUOUS
 10
-2.051760
 20
3.959445
  0
VERTEX
  8
PLAN_1
 62
     2
  6
CONTINUOUS
 10
-2.054902
 20
3.959445
  0
VERTEX
  8
PLAN_1
 62
     2
  6
CONTINUOUS
 10
-2.056476
 20
3.959445
  0
VERTEX
  8
PLAN_1
 62
     2
  6
CONTINUOUS
 10
-2.058571
 20
3.959445
  0
VERTEX
  8
PLAN_1
 62
     2
  6
CONTINUOUS
 10
-2.060665
 20
3.959972
  0
VERTEX
  8
PLAN_1
 62
     2
  6
CONTINUOUS
 10
-2.063287
 20
3.960496
  0
VERTEX
  8
PLAN_1
 62
     2
  6
CONTINUOUS
 10
-2.065382
 20
3.961543
  0
VERTEX
  8
PLAN_1
 62
     2
  6
CONTINUOUS
 10
-2.068000
 20
3.962067
  0
VERTEX
  8
PLAN_1
 62
     2
  6
CONTINUOUS
 10
-2.070618
 20
3.963638
  0
VERTEX
  8
PLAN_1
 62
     2
  6
CONTINUOUS
 10
-2.072717
 20
3.965209
  0
VERTEX
  8
PLAN_1
 62
     2
  6
CONTINUOUS
 10
-2.075335
 20
3.967303
  0
VERTEX
  8
PLAN_1
 62
     2
  6
CONTINUOUS
 10
-2.076906
 20
3.969925
  0
VERTEX
  8
PLAN_1
 62
     2
  6
CONTINUOUS
 10
-2.078476
 20
3.972020
  0
VERTEX
  8
PLAN_1
 62
     2
  6
CONTINUOUS
 10
-2.079000
 20
3.974638
  0
VERTEX
  8
PLAN_1
 62
     2
  6
CONTINUOUS
 10
-2.079528
 20
3.976736
  0
VERTEX
  8
PLAN_1
 62
     2
  6
CONTINUOUS
 10
-2.080051
 20
3.978831
  0
VERTEX
  8
PLAN_1
 62
     2
  6
CONTINUOUS
 10
-2.080051
 20
3.980925
  0
VERTEX
  8
PLAN_1
 62
     2
  6
CONTINUOUS
 10
-2.080051
 20
3.982496
  0
VERTEX
  8
PLAN_1
 62
     2
  6
CONTINUOUS
 10
-2.080051
 20
3.985642
  0
VERTEX
  8
PLAN_1
 62
     2
  6
CONTINUOUS
 10
-2.079528
 20
3.988783
  0
VERTEX
  8
PLAN_1
 62
     2
  6
CONTINUOUS
 10
-2.078476
 20
3.991402
  0
VERTEX
  8
PLAN_1
 62
     2
  6
CONTINUOUS
 10
-2.076906
 20
3.993500
  0
VERTEX
  8
PLAN_1
 62
     2
  6
CONTINUOUS
 10
-2.074811
 20
3.995594
  0
VERTEX
  8
PLAN_1
 62
     2
  6
CONTINUOUS
 10
-2.072717
 20
3.997165
  0
VERTEX
  8
PLAN_1
 62
     2
  6
CONTINUOUS
 10
-2.070618
 20
3.998736
  0
VERTEX
  8
PLAN_1
 62
     2
  6
CONTINUOUS
 10
-2.068000
 20
4.000311
  0
VERTEX
  8
PLAN_1
 62
     2
  6
CONTINUOUS
 10
-2.070094
 20
4.001358
  0
VERTEX
  8
PLAN_1
 62
     2
  6
CONTINUOUS
 10
-2.071669
 20
4.002406
  0
VERTEX
  8
PLAN_1
 62
     2
  6
CONTINUOUS
 10
-2.073764
 20
4.003976
  0
VERTEX
  8
PLAN_1
 62
     2
  6
CONTINUOUS
 10
-2.074811
 20
4.005547
  0
VERTEX
  8
PLAN_1
 62
     2
  6
CONTINUOUS
 10
-2.076382
 20
4.007642
  0
VERTEX
  8
PLAN_1
 62
     2
  6
CONTINUOUS
 10
-2.076906
 20
4.009740
  0
VERTEX
  8
PLAN_1
 62
     2
  6
CONTINUOUS
 10
-2.077429
 20
4.011835
  0
VERTEX
  8
PLAN_1
 62
     2
  6
CONTINUOUS
 10
-2.077429
 20
4.014453
  0
VERTEX
  8
PLAN_1
 62
     2
  6
CONTINUOUS
 10
-2.077429
 20
4.017598
  0
VERTEX
  8
PLAN_1
 62
     2
  6
CONTINUOUS
 10
-2.076382
 20
4.020740
  0
VERTEX
  8
PLAN_1
 62
     2
  6
CONTINUOUS
 10
-2.075335
 20
4.024406
  0
VERTEX
  8
PLAN_1
 62
     2
  6
CONTINUOUS
 10
-2.073240
 20
4.027551
  0
VERTEX
  8
PLAN_1
 62
     2
  6
CONTINUOUS
 10
-2.070094
 20
4.030169
  0
VERTEX
  8
PLAN_1
 62
     2
  6
CONTINUOUS
 10
-2.066429
 20
4.032264
  0
VERTEX
  8
PLAN_1
 62
     2
  6
CONTINUOUS
 10
-2.063811
 20
4.033315
  0
VERTEX
  8
PLAN_1
 62
     2
  6
CONTINUOUS
 10
-2.061189
 20
4.033839
  0
VERTEX
  8
PLAN_1
 62
     2
  6
CONTINUOUS
 10
-2.058571
 20
4.034362
  0
VERTEX
  8
PLAN_1
 62
     2
  6
CONTINUOUS
 10
-2.055429
 20
4.034362
  0
VERTEX
  8
PLAN_1
 62
     2
  6
CONTINUOUS
 10
-2.049665
 20
4.034362
  0
VERTEX
  8
PLAN_1
 62
     2
  6
CONTINUOUS
 10
-2.044949
 20
4.032791
  0
VERTEX
  8
PLAN_1
 62
     2
  6
CONTINUOUS
 10
-2.041283
 20
4.030693
  0
VERTEX
  8
PLAN_1
 62
     2
  6
CONTINUOUS
 10
-2.038138
 20
4.028598
  0
VERTEX
  8
PLAN_1
 62
     2
  6
CONTINUOUS
 10
-2.035520
 20
4.025457
  0
VERTEX
  8
PLAN_1
 62
     2
  6
CONTINUOUS
 10
-2.033949
 20
4.022311
  0
VERTEX
  8
PLAN_1
 62
     2
  6
CONTINUOUS
 10
-2.033425
 20
4.019169
  0
VERTEX
  8
PLAN_1
 62
     2
  6
CONTINUOUS
 10
-2.032902
 20
4.015500
  0
VERTEX
  8
PLAN_1
 62
     2
  6
CONTINUOUS
 10
-2.033425
 20
4.012358
  0
VERTEX
  8
PLAN_1
 62
     2
  6
CONTINUOUS
 10
-2.033949
 20
4.009217
  0
VERTEX
  8
PLAN_1
 62
     2
  6
CONTINUOUS
 10
-2.034996
 20
4.006594
  0
VERTEX
  8
PLAN_1
 62
     2
  6
CONTINUOUS
 10
-2.036567
 20
4.004500
  0
VERTEX
  8
PLAN_1
 62
     2
  6
CONTINUOUS
 10
-2.038138
 20
4.002929
  0
VERTEX
  8
PLAN_1
 62
     2
  6
CONTINUOUS
 10
-2.039189
 20
4.001882
  0
VERTEX
  8
PLAN_1
 62
     2
  6
CONTINUOUS
 10
-2.040760
 20
4.000835
  0
VERTEX
  8
PLAN_1
 62
     2
  6
CONTINUOUS
 10
-2.042331
 20
4.000311
  0
SEQEND
  8
0
  0
POLYLINE
  8
PLAN_1
 62
     2
  6
CONTINUOUS
 66
     1
 40
0.003000
 41
0.003000
  0
VERTEX
  8
PLAN_1
 62
     2
  6
CONTINUOUS
 10
-2.070094
 20
3.982496
  0
VERTEX
  8
PLAN_1
 62
     2
  6
CONTINUOUS
 10
-2.070094
 20
3.979878
  0
VERTEX
  8
PLAN_1
 62
     2
  6
CONTINUOUS
 10
-2.069571
 20
3.977260
  0
VERTEX
  8
PLAN_1
 62
     2
  6
CONTINUOUS
 10
-2.068524
 20
3.975161
  0
VERTEX
  8
PLAN_1
 62
     2
  6
CONTINUOUS
 10
-2.067476
 20
3.972543
  0
VERTEX
  8
PLAN_1
 62
     2
  6
CONTINUOUS
 10
-2.065382
 20
3.970972
  0
VERTEX
  8
PLAN_1
 62
     2
  6
CONTINUOUS
 10
-2.062760
 20
3.968878
  0
VERTEX
  8
PLAN_1
 62
     2
  6
CONTINUOUS
 10
-2.059094
 20
3.967831
  0
VERTEX
  8
PLAN_1
 62
     2
  6
CONTINUOUS
 10
-2.054902
 20
3.967831
  0
VERTEX
  8
PLAN_1
 62
     2
  6
CONTINUOUS
 10
-2.052283
 20
3.967831
  0
VERTEX
  8
PLAN_1
 62
     2
  6
CONTINUOUS
 10
-2.049665
 20
3.968354
  0
VERTEX
  8
PLAN_1
 62
     2
  6
CONTINUOUS
 10
-2.047047
 20
3.968878
  0
VERTEX
  8
PLAN_1
 62
     2
  6
CONTINUOUS
 10
-2.044949
 20
3.970449
  0
VERTEX
  8
PLAN_1
 62
     2
  6
CONTINUOUS
 10
-2.042854
 20
3.972020
  0
VERTEX
  8
PLAN_1
 62
     2
  6
CONTINUOUS
 10
-2.041283
 20
3.974638
  0
VERTEX
  8
PLAN_1
 62
     2
  6
CONTINUOUS
 10
-2.040236
 20
3.977783
  0
VERTEX
  8
PLAN_1
 62
     2
  6
CONTINUOUS
 10
-2.040236
 20
3.981449
  0
VERTEX
  8
PLAN_1
 62
     2
  6
CONTINUOUS
 10
-2.040236
 20
3.985118
  0
VERTEX
  8
PLAN_1
 62
     2
  6
CONTINUOUS
 10
-2.041283
 20
3.987736
  0
VERTEX
  8
PLAN_1
 62
     2
  6
CONTINUOUS
 10
-2.042854
 20
3.990354
  0
VERTEX
  8
PLAN_1
 62
     2
  6
CONTINUOUS
 10
-2.044425
 20
3.992453
  0
VERTEX
  8
PLAN_1
 62
     2
  6
CONTINUOUS
 10
-2.047047
 20
3.994024
  0
VERTEX
  8
PLAN_1
 62
     2
  6
CONTINUOUS
 10
-2.049142
 20
3.995071
  0
VERTEX
  8
PLAN_1
 62
     2
  6
CONTINUOUS
 10
-2.052283
 20
3.995594
  0
VERTEX
  8
PLAN_1
 62
     2
  6
CONTINUOUS
 10
-2.055429
 20
3.995594
  0
VERTEX
  8
PLAN_1
 62
     2
  6
CONTINUOUS
 10
-2.059094
 20
3.995594
  0
VERTEX
  8
PLAN_1
 62
     2
  6
CONTINUOUS
 10
-2.061713
 20
3.994547
  0
VERTEX
  8
PLAN_1
 62
     2
  6
CONTINUOUS
 10
-2.064335
 20
3.993500
  0
VERTEX
  8
PLAN_1
 62
     2
  6
CONTINUOUS
 10
-2.066429
 20
3.991402
  0
VERTEX
  8
PLAN_1
 62
     2
  6
CONTINUOUS
 10
-2.068524
 20
3.989307
  0
VERTEX
  8
PLAN_1
 62
     2
  6
CONTINUOUS
 10
-2.069571
 20
3.987213
  0
VERTEX
  8
PLAN_1
 62
     2
  6
CONTINUOUS
 10
-2.070094
 20
3.984594
  0
VERTEX
  8
PLAN_1
 62
     2
  6
CONTINUOUS
 10
-2.070094
 20
3.982496
  0
SEQEND
  8
0
  0
POLYLINE
  8
PLAN_1
 62
     2
  6
CONTINUOUS
 66
     1
 40
0.003000
 41
0.003000
  0
VERTEX
  8
PLAN_1
 62
     2
  6
CONTINUOUS
 10
-2.042331
 20
4.015500
  0
VERTEX
  8
PLAN_1
 62
     2
  6
CONTINUOUS
 10
-2.042331
 20
4.017075
  0
VERTEX
  8
PLAN_1
 62
     2
  6
CONTINUOUS
 10
-2.042854
 20
4.019169
  0
VERTEX
  8
PLAN_1
 62
     2
  6
CONTINUOUS
 10
-2.043902
 20
4.020740
  0
VERTEX
  8
PLAN_1
 62
     2
  6
CONTINUOUS
 10
-2.044949
 20
4.022835
  0
VERTEX
  8
PLAN_1
 62
     2
  6
CONTINUOUS
 10
-2.047047
 20
4.023882
  0
VERTEX
  8
PLAN_1
 62
     2
  6
CONTINUOUS
 10
-2.049142
 20
4.025457
  0
VERTEX
  8
PLAN_1
 62
     2
  6
CONTINUOUS
 10
-2.052283
 20
4.025980
  0
VERTEX
  8
PLAN_1
 62
     2
  6
CONTINUOUS
 10
-2.055953
 20
4.026504
  0
VERTEX
  8
PLAN_1
 62
     2
  6
CONTINUOUS
 10
-2.059094
 20
4.025980
  0
VERTEX
  8
PLAN_1
 62
     2
  6
CONTINUOUS
 10
-2.062236
 20
4.025457
  0
VERTEX
  8
PLAN_1
 62
     2
  6
CONTINUOUS
 10
-2.064335
 20
4.023882
  0
VERTEX
  8
PLAN_1
 62
     2
  6
CONTINUOUS
 10
-2.065906
 20
4.022311
  0
VERTEX
  8
PLAN_1
 62
     2
  6
CONTINUOUS
 10
-2.066953
 20
4.020740
  0
VERTEX
  8
PLAN_1
 62
     2
  6
CONTINUOUS
 10
-2.067476
 20
4.018646
  0
VERTEX
  8
PLAN_1
 62
     2
  6
CONTINUOUS
 10
-2.068000
 20
4.016551
  0
VERTEX
  8
PLAN_1
 62
     2
  6
CONTINUOUS
 10
-2.068000
 20
4.014976
  0
VERTEX
  8
PLAN_1
 62
     2
  6
CONTINUOUS
 10
-2.068000
 20
4.012358
  0
VERTEX
  8
PLAN_1
 62
     2
  6
CONTINUOUS
 10
-2.066953
 20
4.010264
  0
VERTEX
  8
PLAN_1
 62
     2
  6
CONTINUOUS
 10
-2.065906
 20
4.008165
  0
VERTEX
  8
PLAN_1
 62
     2
  6
CONTINUOUS
 10
-2.064335
 20
4.006594
  0
VERTEX
  8
PLAN_1
 62
     2
  6
CONTINUOUS
 10
-2.062236
 20
4.005547
  0
VERTEX
  8
PLAN_1
 62
     2
  6
CONTINUOUS
 10
-2.060142
 20
4.004500
  0
VERTEX
  8
PLAN_1
 62
     2
  6
CONTINUOUS
 10
-2.058047
 20
4.003976
  0
VERTEX
  8
PLAN_1
 62
     2
  6
CONTINUOUS
 10
-2.055429
 20
4.003453
  0
VERTEX
  8
PLAN_1
 62
     2
  6
CONTINUOUS
 10
-2.052283
 20
4.003976
  0
VERTEX
  8
PLAN_1
 62
     2
  6
CONTINUOUS
 10
-2.050189
 20
4.004500
  0
VERTEX
  8
PLAN_1
 62
     2
  6
CONTINUOUS
 10
-2.047571
 20
4.005547
  0
VERTEX
  8
PLAN_1
 62
     2
  6
CONTINUOUS
 10
-2.045996
 20
4.007118
  0
VERTEX
  8
PLAN_1
 62
     2
  6
CONTINUOUS
 10
-2.044425
 20
4.008693
  0
VERTEX
  8
PLAN_1
 62
     2
  6
CONTINUOUS
 10
-2.043378
 20
4.010787
  0
VERTEX
  8
PLAN_1
 62
     2
  6
CONTINUOUS
 10
-2.042854
 20
4.012882
  0
VERTEX
  8
PLAN_1
 62
     2
  6
CONTINUOUS
 10
-2.042331
 20
4.015500
  0
SEQEND
  8
0
  0
ENDSEC
  0
EOF
