999
DXF file: C:\Users\sesa63760\Dev\_Creo\CAD\MCADPD0004368_3D-CAD\drw0001_1.dxf
999
Pro/ENGINEER 2019471 by Parametric Technology Corporation
  0
SECTION
  2
HEADER
  9
$ACADVER
  1
AC1024
  9
$DWGCODEPAGE
  3
ANSI_1252
  9
$EXTMAX
 10
72.2892372764
 20
102.2376355766
 30
0.0
  9
$EXTMIN
 10
0.0
 20
0.0
 30
0.0
  9
$LIMMIN
 10
0.0
 20
0.0
  9
$LIMMAX
 10
72.2892372764
 20
102.2376355766
  9
$VIEWCTR
 10
36.1446186382
 20
51.1188177883
  9
$VIEWSIZE
 40
102.2376355766
  9
$CLAYER
  8
0
  9
$LTSCALE
 40
6.664379208
  9
$CELTYPE
  6
BYLAYER
  9
$DIMSCALE
 40
1.0
  9
$DIMASZ
 40
0.8605861581
  9
$DIMEXO
 40
1.0
  9
$DIMDLI
 40
4.60448018
  9
$DIMEXE
 40
1.0
  9
$DIMCEN
 40
1.0905347795
  9
$DIMLFAC
 40
1.0
  9
$DIMBLK
  1
_FILLED
  9
$DIMALT
 70
0
  9
$DIMALTF
 40
0.0393700787
  9
$DIMTXT
 40
1.2048206213
  9
$DIMTOL
 70
1
  9
$DIMLIM
 70
0
  9
$DIMTFAC
 40
1.0
  9
$DIMTP
 40
0.01
  9
$DIMTM
 40
0.01
  9
$DIMGAP
 40
0.625
  9
$DIMDSEP
 70
46
  9
$AUNITS
 70
0
  9
$PDMODE
 70
3
  9
$PDSIZE
 40
0.3125
  9
$HANDSEED
  5
330
  9
$TILEMODE
 70
1
  9
$MEASUREMENT
 70
1
  9
$INSUNITS
 70
4
  0
ENDSEC
  0
SECTION
  2
CLASSES
  0
CLASS
  1
ACDBDICTIONARYWDFLT
  2
AcDbDictionaryWithDefault
  3
AutoCAD 2000
 90
0
 91
1
280
0
281
0
  0
CLASS
  1
ACDBPLACEHOLDER
  2
AcDbPlaceHolder
  3
AutoCAD 2000
 90
0
 91
1
280
0
281
0
  0
CLASS
  1
LAYOUT
  2
AcDbLayout
  3
AutoCAD 2000
 90
0
 91
0
280
0
281
0
  0
ENDSEC
  0
SECTION
  2
TABLES
  0
TABLE
  2
VPORT
  5
8
100
AcDbSymbolTable
 70
2
  0
VPORT
  5
1F4
100
AcDbSymbolTableRecord
100
AcDbViewportTableRecord
  2
*ACTIVE
 70
0
 10
0.0
 20
0.0
 11
1.0
 21
1.0
 12
36.1446186382
 22
51.1188177883
 13
0.0
 23
0.0
 14
1.0
 24
1.0
 15
0.0
 25
0.0
 16
0.0
 26
0.0
 36
1.0
 17
0.0
 27
0.0
 37
0.0
 40
102.2376355766
 41
0.7070707071
 42
50.0
 43
0.0
 44
0.0
 50
0.0
 51
0.0
 71
0
 72
100
 73
1
 74
1
 75
0
 76
0
 77
0
 78
0
  0
ENDTAB
  0
TABLE
  2
LTYPE
  5
5
100
AcDbSymbolTable
 70
6
  0
LTYPE
  5
14
100
AcDbSymbolTableRecord
100
AcDbLinetypeTableRecord
  2
BYBLOCK
 70
0
  3

 72
65
 73
0
 40
0.0
  0
LTYPE
  5
15
100
AcDbSymbolTableRecord
100
AcDbLinetypeTableRecord
  2
BYLAYER
 70
0
  3

 72
65
 73
0
 40
0.0
  0
LTYPE
  5
16
100
AcDbSymbolTableRecord
100
AcDbLinetypeTableRecord
  2
CONTINUOUS
 70
64
  3
Solid line
 72
65
 73
0
 40
0.0
  0
LTYPE
  5
1F5
100
AcDbSymbolTableRecord
100
AcDbLinetypeTableRecord
  2
CENTER
 70
64
  3
____ _ ____ _ ____ _ ____ _ ____ _ ____ _ ____
 72
65
 73
4
 40
0.6
 49
0.375
 74
0
 49
-0.075
 74
0
 49
0.075
 74
0
 49
-0.075
 74
0
  0
LTYPE
  5
1F6
100
AcDbSymbolTableRecord
100
AcDbLinetypeTableRecord
  2
HIDDEN
 70
64
  3
- - - - - - - - - - - - - - - - - - - -
 72
65
 73
2
 40
0.2
 49
0.1
 74
0
 49
-0.1
 74
0
  0
LTYPE
  5
1F7
100
AcDbSymbolTableRecord
100
AcDbLinetypeTableRecord
  2
PHANTOM
 70
64
  3
_____ _ _ _____ _ _ _____ _ _ _____
 72
65
 73
6
 40
0.8
 49
0.45
 74
0
 49
-0.05
 74
0
 49
0.1
 74
0
 49
-0.05
 74
0
 49
0.1
 74
0
 49
-0.05
 74
0
  0
LTYPE
  5
1F8
100
AcDbSymbolTableRecord
100
AcDbLinetypeTableRecord
  2
DOT
 70
64
  3
. . . . . . . . . . . . . . . . . . . .
 72
65
 73
2
 40
0.2
 49
0.1
 74
0
 49
-0.1
 74
0
  0
LTYPE
  5
1F9
100
AcDbSymbolTableRecord
100
AcDbLinetypeTableRecord
  2
DASHED
 70
64
  3
- - - - - - - - - - - - - - - - - - - -
 72
65
 73
2
 40
0.2
 49
0.1
 74
0
 49
-0.1
 74
0
  0
ENDTAB
  0
TABLE
  2
LAYER
  5
2
100
AcDbSymbolTable
 70
36
  0
LAYER
  5
10
100
AcDbSymbolTableRecord
100
AcDbLayerTableRecord
  2
0
 70
0
 62
7
  6
CONTINUOUS
370
-3
390
F
  0
LAYER
  5
1FA
100
AcDbSymbolTableRecord
100
AcDbLayerTableRecord
  2
DEFAULT_1
 70
0
 62
7
  6
CENTER
370
-3
390
F
  0
LAYER
  5
1FB
100
AcDbSymbolTableRecord
100
AcDbLayerTableRecord
  2
DEFAULT_2
 70
0
 62
7
  6
HIDDEN
370
-3
390
F
  0
LAYER
  5
1FC
100
AcDbSymbolTableRecord
100
AcDbLayerTableRecord
  2
DEFAULT_3
 70
0
 62
7
  6
PHANTOM
370
-3
390
F
  0
LAYER
  5
1FD
100
AcDbSymbolTableRecord
100
AcDbLayerTableRecord
  2
00_COMPONENTS
 70
0
 62
7
  6
CONTINUOUS
370
-3
390
F
  0
LAYER
  5
1FE
100
AcDbSymbolTableRecord
100
AcDbLayerTableRecord
  2
00_COMPONENTS_1
 70
0
 62
7
  6
CONTINUOUS
370
-3
390
F
  0
LAYER
  5
1FF
100
AcDbSymbolTableRecord
100
AcDbLayerTableRecord
  2
01_1_DEFAULT_DATUMS
 70
0
 62
7
  6
CONTINUOUS
370
-3
390
F
  0
LAYER
  5
200
100
AcDbSymbolTableRecord
100
AcDbLayerTableRecord
  2
01_PLANES
 70
0
 62
7
  6
CONTINUOUS
370
-3
390
F
  0
LAYER
  5
201
100
AcDbSymbolTableRecord
100
AcDbLayerTableRecord
  2
02_COORD_SYS
 70
0
 62
7
  6
CONTINUOUS
370
-3
390
F
  0
LAYER
  5
202
100
AcDbSymbolTableRecord
100
AcDbLayerTableRecord
  2
03_AXES
 70
0
 62
7
  6
CONTINUOUS
370
-3
390
F
  0
LAYER
  5
203
100
AcDbSymbolTableRecord
100
AcDbLayerTableRecord
  2
03_AXES_1
 70
0
 62
7
  6
CONTINUOUS
370
-3
390
F
  0
LAYER
  5
204
100
AcDbSymbolTableRecord
100
AcDbLayerTableRecord
  2
04_POINTS
 70
0
 62
7
  6
CONTINUOUS
370
-3
390
F
  0
LAYER
  5
205
100
AcDbSymbolTableRecord
100
AcDbLayerTableRecord
  2
05_CURVES
 70
0
 62
7
  6
CONTINUOUS
370
-3
390
F
  0
LAYER
  5
206
100
AcDbSymbolTableRecord
100
AcDbLayerTableRecord
  2
06_SURFS
 70
0
 62
7
  6
CONTINUOUS
370
-3
390
F
  0
LAYER
  5
207
100
AcDbSymbolTableRecord
100
AcDbLayerTableRecord
  2
07_COSMETICS
 70
0
 62
7
  6
CONTINUOUS
370
-3
390
F
  0
LAYER
  5
208
100
AcDbSymbolTableRecord
100
AcDbLayerTableRecord
  2
10_NOTES
 70
0
 62
7
  6
CONTINUOUS
370
-3
390
F
  0
LAYER
  5
209
100
AcDbSymbolTableRecord
100
AcDbLayerTableRecord
  2
11_NOTES_PUB
 70
0
 62
7
  6
CONTINUOUS
370
-3
390
F
  0
LAYER
  5
20A
100
AcDbSymbolTableRecord
100
AcDbLayerTableRecord
  2
13_REF_GTOL
 70
0
 62
7
  6
CONTINUOUS
370
-3
390
F
  0
LAYER
  5
20B
100
AcDbSymbolTableRecord
100
AcDbLayerTableRecord
  2
16_MISC
 70
0
 62
7
  6
CONTINUOUS
370
-3
390
F
  0
LAYER
  5
20C
100
AcDbSymbolTableRecord
100
AcDbLayerTableRecord
  2
17_NO_PRINT
 70
0
 62
7
  6
CONTINUOUS
370
-3
390
F
  0
LAYER
  5
20D
100
AcDbSymbolTableRecord
100
AcDbLayerTableRecord
  2
18_DATUM_CAMS_JOINTS
 70
0
 62
7
  6
CONTINUOUS
370
-3
390
F
  0
LAYER
  5
20E
100
AcDbSymbolTableRecord
100
AcDbLayerTableRecord
  2
19_DATUM_FUNCTIONAL
 70
0
 62
7
  6
CONTINUOUS
370
-3
390
F
  0
LAYER
  5
20F
100
AcDbSymbolTableRecord
100
AcDbLayerTableRecord
  2
20_DATUM_KINEMATIC_SCHEME
 70
0
 62
7
  6
CONTINUOUS
370
-3
390
F
  0
LAYER
  5
210
100
AcDbSymbolTableRecord
100
AcDbLayerTableRecord
  2
INTFCLR_31
 70
0
 62
7
  6
CONTINUOUS
370
-3
390
F
  0
LAYER
  5
211
100
AcDbSymbolTableRecord
100
AcDbLayerTableRecord
  2
INTFCLR_71
 70
0
 62
7
  6
CONTINUOUS
370
-3
390
F
  0
LAYER
  5
212
100
AcDbSymbolTableRecord
100
AcDbLayerTableRecord
  2
INTF_BLANK
 70
0
 62
7
  6
CONTINUOUS
370
-3
390
F
  0
LAYER
  5
213
100
AcDbSymbolTableRecord
100
AcDbLayerTableRecord
  2
_BLACK_HOLE
 70
0
 62
7
  6
CONTINUOUS
370
-3
390
F
  0
ENDTAB
  0
TABLE
  2
STYLE
  5
3
100
AcDbSymbolTable
 70
1
  0
STYLE
  5
11
100
AcDbSymbolTableRecord
100
AcDbTextStyleTableRecord
  2
STANDARD
 70
0
 40
0.0
 41
1.0
 50
0.0
 71
0
 42
0.2
  3
ARIAL.TTF
  4

  0
STYLE
  5
214
100
AcDbSymbolTableRecord
100
AcDbTextStyleTableRecord
  2
TEXTSTYLE_1
 70
0
 40
0.0
 41
0.8
 50
0.0
 71
0
 42
0.2
  3
gdt
  4

  0
ENDTAB
  0
TABLE
  2
VIEW
  5
6
100
AcDbSymbolTable
 70
0
  0
ENDTAB
  0
TABLE
  2
UCS
  5
7
100
AcDbSymbolTable
 70
0
  0
ENDTAB
  0
TABLE
  2
APPID
  5
9
100
AcDbSymbolTable
 70
1
  0
APPID
  5
215
100
AcDbSymbolTableRecord
100
AcDbRegAppTableRecord
  2
ACAD
 70
0
  0
ENDTAB
  0
TABLE
  2
BLOCK_RECORD
  5
1
100
AcDbSymbolTable
 70
0
  0
BLOCK_RECORD
  5
216
100
AcDbSymbolTableRecord
100
AcDbBlockTableRecord
  2
*Model_Space
  0
BLOCK_RECORD
  5
217
100
AcDbSymbolTableRecord
100
AcDbBlockTableRecord
  2
*Paper_Space
  0
BLOCK_RECORD
  5
218
100
AcDbSymbolTableRecord
100
AcDbBlockTableRecord
  2
_FILLED
  0
ENDTAB
  0
TABLE
  2
DIMSTYLE
  5
A
100
AcDbSymbolTable
 70
1
100
AcDbDimStyleTable
 71
0
  0
DIMSTYLE
105
219
100
AcDbSymbolTableRecord
100
AcDbDimStyleTableRecord
  2
STANDARD
 70
0
  3

  4

 40
1.0
 41
0.8605861581
 42
1.0
 43
0.38
 44
1.0
 45
0.0
 46
0.0
 47
0.01
 48
0.01
140
1.2048206213
141
0.09
142
0.0
143
25.4
144
1.0
145
0.0
146
1.0
147
0.625
 71
1
 72
0
 73
0
 74
0
 75
0
 76
0
 77
1
 78
8
 79
2
170
0
171
1
172
0
173
0
174
0
175
0
176
0
177
0
178
0
270
2
179
2
271
2
272
2
273
2
274
2
275
0
280
0
281
0
282
0
283
1
284
8
285
0
286
0
287
3
288
0
340
11
278
46
341
218
342
218
343
218
344
218
  0
ENDTAB
  0
ENDSEC
  0
SECTION
  2
BLOCKS
  0
BLOCK
  5
20
100
AcDbEntity
  8
0
100
AcDbBlockBegin
  2
*Model_Space
 70
0
 10
0.0
 20
0.0
 30
0.0
  3
*Model_Space
  1

  0
ENDBLK
  5
21
100
AcDbEntity
  8
0
100
AcDbBlockEnd
  0
BLOCK
  5
1C
100
AcDbEntity
  8
0
100
AcDbBlockBegin
  2
*Paper_Space
 70
0
 10
0.0
 20
0.0
 30
0.0
  3
*Paper_Space
  1

  0
ENDBLK
  5
1D
100
AcDbEntity
  8
0
100
AcDbBlockEnd
  0
BLOCK
  5
21A
100
AcDbEntity
  8
0
100
AcDbBlockBegin
  2
_FILLED
 70
64
 10
0.0
 20
0.0
  3
_FILLED
  1

  0
SOLID
  5
21B
100
AcDbEntity
  8
0
  6
BYBLOCK
 62
0
100
AcDbTrace
 10
0.0
 20
0.0
 11
-1.0
 21
0.25
 12
-1.0
 22
-0.25
 13
-1.0
 23
-0.25
  0
ENDBLK
  5
21C
100
AcDbEntity
  8
0
  6
BYBLOCK
 62
0
100
AcDbBlockEnd
  0
ENDSEC
  0
SECTION
  2
ENTITIES
  0
LINE
  5
21D
100
AcDbEntity
  8
00_COMPONENTS_1
100
AcDbLine
 62
7
  6
BYLAYER
 10
9.2349078361
 20
73.6156104895
 11
29.2459464293
 21
85.168920044
  0
LINE
  5
21E
100
AcDbEntity
  8
00_COMPONENTS_1
100
AcDbLine
 62
7
  6
BYLAYER
 10
22.0688521966
 20
79.6780417834
 11
10.4016388826
 21
72.9420132445
  0
LINE
  5
21F
100
AcDbEntity
  8
00_COMPONENTS_1
100
AcDbLine
 62
7
  6
BYLAYER
 10
27.301420592
 20
82.699048522
 11
30.4126774758
 21
84.4953227991
  0
LINE
  5
220
100
AcDbEntity
  8
00_COMPONENTS_1
100
AcDbLine
 62
7
  6
BYLAYER
 10
22.4678295566
 20
79.4476973083
 11
27.7003979519
 21
82.468704047
  0
LINE
  5
221
100
AcDbEntity
  8
00_COMPONENTS_1
100
AcDbLine
 62
7
  6
BYLAYER
 10
9.2349078361
 20
70.8803273921
 11
8.3863832315
 21
70.3904344074
  0
LINE
  5
222
100
AcDbEntity
  8
00_COMPONENTS_1
100
AcDbLine
 62
7
  6
BYLAYER
 10
10.4016388826
 20
70.259633588
 11
19.700054342
 21
75.6280442114
  0
LINE
  5
223
100
AcDbEntity
  8
00_COMPONENTS_1
100
AcDbLine
 62
7
  6
BYLAYER
 10
21.4930587378
 20
76.6632296028
 11
22.0688521966
 21
76.9956621269
  0
LINE
  5
224
100
AcDbEntity
  8
00_COMPONENTS_1
100
AcDbLine
 62
7
  6
BYLAYER
 10
8.3863832315
 20
37.4853869971
 11
8.3863832315
 21
70.3904344074
  0
LINE
  5
225
100
AcDbEntity
  8
00_COMPONENTS_1
100
AcDbLine
 62
7
  6
BYLAYER
 10
9.2349078361
 20
35.2399968844
 11
9.2349078361
 21
36.8596780436
  0
LINE
  5
226
100
AcDbEntity
  8
00_COMPONENTS_1
100
AcDbLine
 62
7
  6
BYLAYER
 10
9.2349078361
 20
70.8803273921
 11
9.2349078361
 21
73.6156104895
  0
LINE
  5
227
100
AcDbEntity
  8
00_COMPONENTS_1
100
AcDbLine
 62
7
  6
BYLAYER
 10
10.4016388826
 20
35.9993210685
 11
10.4016388826
 21
34.5663996394
  0
LINE
  5
228
100
AcDbEntity
  8
00_COMPONENTS_1
100
AcDbLine
 62
7
  6
BYLAYER
 10
10.4016388826
 20
70.259633588
 11
10.4016388826
 21
72.9420132445
  0
LINE
  5
229
100
AcDbEntity
  8
00_COMPONENTS_1
100
AcDbLine
 62
7
  6
BYLAYER
 10
22.8333411853
 20
76.7113304163
 11
28.0659095807
 21
79.7323371549
  0
LINE
  5
22A
100
AcDbEntity
  8
00_COMPONENTS_1
100
AcDbLine
 62
7
  6
BYLAYER
 10
30.4126774758
 20
79.7187603784
 11
33.9835421386
 21
81.7803877465
  0
LINE
  5
22B
100
AcDbEntity
  8
00_COMPONENTS_1
100
AcDbLine
 62
7
  6
BYLAYER
 10
28.9271738996
 20
77.5139039005
 11
30.4126774758
 21
78.3715546706
  0
LINE
  5
22C
100
AcDbEntity
  8
00_COMPONENTS_1
100
AcDbLine
 62
7
  6
BYLAYER
 10
27.7699398157
 20
76.3865917744
 11
33.0025082111
 21
79.407598513
  0
LINE
  5
22D
100
AcDbEntity
  8
00_COMPONENTS_1
100
AcDbLine
 62
7
  6
BYLAYER
 10
40.2770247701
 20
17.3182277609
 11
39.1102937236
 21
17.9918250059
  0
LINE
  5
22E
100
AcDbEntity
  8
00_COMPONENTS_1
100
AcDbLine
 62
7
  6
BYLAYER
 10
32.8877281423
 20
21.5843436457
 11
31.614930637
 21
22.3191770038
  0
LINE
  5
22F
100
AcDbEntity
  8
00_COMPONENTS_1
100
AcDbLine
 62
7
  6
BYLAYER
 10
25.3923650557
 20
25.9116956436
 11
24.1195675505
 21
26.6465290017
  0
LINE
  5
230
100
AcDbEntity
  8
00_COMPONENTS_1
100
AcDbLine
 62
7
  6
BYLAYER
 10
17.8970019692
 20
30.2390476415
 11
16.6242044639
 21
30.9738809996
  0
LINE
  5
231
100
AcDbEntity
  8
00_COMPONENTS_1
100
AcDbLine
 62
7
  6
BYLAYER
 10
10.4016388826
 20
34.5663996394
 11
9.2349078361
 21
35.2399968844
  0
LINE
  5
232
100
AcDbEntity
  8
00_COMPONENTS_1
100
AcDbLine
 62
7
  6
BYLAYER
 10
28.2914177779
 20
76.0855231436
 11
16.6242044639
 21
69.3494946047
  0
LINE
  5
233
100
AcDbEntity
  8
00_COMPONENTS_1
100
AcDbLine
 62
7
  6
BYLAYER
 10
33.5239861733
 20
79.1065298822
 11
36.6352430571
 21
80.9028041593
  0
LINE
  5
234
100
AcDbEntity
  8
00_COMPONENTS_1
100
AcDbLine
 62
7
  6
BYLAYER
 10
29.5642152832
 20
75.3506897855
 11
17.8970019692
 21
68.6146612466
  0
LINE
  5
235
100
AcDbEntity
  8
00_COMPONENTS_1
100
AcDbLine
 62
7
  6
BYLAYER
 10
34.7967836786
 20
78.3716965241
 11
37.9080405623
 21
80.1679708011
  0
LINE
  5
236
100
AcDbEntity
  8
00_COMPONENTS_1
100
AcDbLine
 62
7
  6
BYLAYER
 10
30.0065824205
 20
75.0952947774
 11
35.2391508159
 21
78.1163015161
  0
LINE
  5
237
100
AcDbEntity
  8
00_COMPONENTS_1
100
AcDbLine
 62
7
  6
BYLAYER
 10
15.7756945791
 20
44.364572878
 11
15.7756945791
 21
50.8965922151
  0
LINE
  5
238
100
AcDbEntity
  8
00_COMPONENTS_1
100
AcDbLine
 62
7
  6
BYLAYER
 10
16.2019040998
 20
51.4284352464
 11
16.2019040998
 21
51.1426629277
  0
LINE
  5
239
100
AcDbEntity
  8
00_COMPONENTS_1
100
AcDbLine
 62
7
  6
BYLAYER
 10
17.8970019692
 20
65.9322815901
 11
27.1954174285
 21
71.3006922135
  0
LINE
  5
23A
100
AcDbEntity
  8
00_COMPONENTS_1
100
AcDbLine
 62
7
  6
BYLAYER
 10
28.9884218243
 20
72.3358776049
 11
29.5642152832
 21
72.668310129
  0
LINE
  5
23B
100
AcDbEntity
  8
00_COMPONENTS_1
100
AcDbLine
 62
7
420
15788975
  6
BYLAYER
 10
13.3880040225
 20
62.9086089445
 11
11.7172923084
 21
61.9440288444
  0
LINE
  5
23C
100
AcDbEntity
  8
00_COMPONENTS_1
100
AcDbLine
 62
7
  6
BYLAYER
 10
30.3209632468
 20
72.4453526894
 11
35.5535316422
 21
75.4663594281
  0
LINE
  5
23D
100
AcDbEntity
  8
00_COMPONENTS_1
100
AcDbLine
 62
7
  6
BYLAYER
 10
16.6242044639
 20
31.4107505346
 11
16.6242044639
 21
30.9738809996
  0
LINE
  5
23E
100
AcDbEntity
  8
00_COMPONENTS_1
100
AcDbLine
 62
7
  6
BYLAYER
 10
16.6242044639
 20
66.6671149482
 11
16.6242044639
 21
69.3494946047
  0
LINE
  5
23F
100
AcDbEntity
  8
00_COMPONENTS_1
100
AcDbLine
 62
7
  6
BYLAYER
 10
17.8970019692
 20
30.5434699468
 11
17.8970019692
 21
30.2390476415
  0
LINE
  5
240
100
AcDbEntity
  8
00_COMPONENTS_1
100
AcDbLine
 62
7
  6
BYLAYER
 10
17.8970019692
 20
65.9322815901
 11
17.8970019692
 21
68.6146612466
  0
LINE
  5
241
100
AcDbEntity
  8
00_COMPONENTS_1
100
AcDbLine
 62
7
  6
BYLAYER
 10
36.4263297483
 20
73.1887416417
 11
37.9080405623
 21
74.0442026727
  0
LINE
  5
242
100
AcDbEntity
  8
00_COMPONENTS_1
100
AcDbLine
 62
7
  6
BYLAYER
 10
35.2206023078
 20
72.0850470929
 11
41.6556938435
 21
75.799654234
  0
LINE
  5
243
100
AcDbEntity
  8
00_COMPONENTS_1
100
AcDbLine
 62
7
  6
BYLAYER
 10
35.7867808645
 20
71.7581711457
 11
24.1195675505
 21
65.0221426068
  0
LINE
  5
244
100
AcDbEntity
  8
00_COMPONENTS_1
100
AcDbLine
 62
7
  6
BYLAYER
 10
41.0193492599
 20
74.7791778843
 11
41.3072546567
 21
74.9453991505
  0
LINE
  5
245
100
AcDbEntity
  8
00_COMPONENTS_1
100
AcDbLine
 62
7
  6
BYLAYER
 10
45.7922981003
 20
76.9224429821
 11
48.4792926817
 21
78.4737707668
  0
LINE
  5
246
100
AcDbEntity
  8
00_COMPONENTS_1
100
AcDbLine
 62
7
  6
BYLAYER
 10
43.1406242663
 20
74.9423486495
 11
44.484121557
 21
75.7180125419
  0
LINE
  5
247
100
AcDbEntity
  8
00_COMPONENTS_1
100
AcDbLine
 62
7
  6
BYLAYER
 10
21.4930587378
 20
73.7882890649
 11
21.4930587378
 21
76.6632296028
  0
LINE
  5
248
100
AcDbEntity
  8
00_COMPONENTS_1
100
AcDbLine
 62
7
  6
BYLAYER
 10
22.0688521966
 20
76.9956621269
 11
22.0688521966
 21
79.6780417834
  0
LINE
  5
249
100
AcDbEntity
  8
00_COMPONENTS_1
100
AcDbLine
 62
7
  6
BYLAYER
 10
37.0595783698
 20
71.0233377875
 11
25.3923650557
 21
64.2873092487
  0
LINE
  5
24A
100
AcDbEntity
  8
00_COMPONENTS_1
100
AcDbLine
 62
7
  6
BYLAYER
 10
42.2921467651
 20
74.0443445262
 11
42.5800521619
 21
74.2105657923
  0
LINE
  5
24B
100
AcDbEntity
  8
00_COMPONENTS_1
100
AcDbLine
 62
7
  6
BYLAYER
 10
37.4585557297
 20
70.7929933125
 11
42.6911241251
 21
73.8140000511
  0
LINE
  5
24C
100
AcDbEntity
  8
00_COMPONENTS_1
100
AcDbLine
 62
7
  6
BYLAYER
 10
47.5600724132
 20
75.9018410958
 11
50.2470669946
 21
77.4531688805
  0
LINE
  5
24D
100
AcDbEntity
  8
00_COMPONENTS_1
100
AcDbLine
 62
7
  6
BYLAYER
 10
43.1800246592
 20
72.8422267409
 11
45.7922981003
 21
74.3504145127
  0
LINE
  5
24E
100
AcDbEntity
  8
00_COMPONENTS_1
100
AcDbLine
 62
7
  6
BYLAYER
 10
43.3228664381
 20
72.5164518343
 11
45.6534973194
 21
73.8620341689
  0
LINE
  5
24F
100
AcDbEntity
  8
00_COMPONENTS_1
100
AcDbLine
 62
7
  6
BYLAYER
 10
44.9084109439
 20
72.941980631
 11
45.7922981003
 21
73.4522900726
  0
LINE
  5
250
100
AcDbEntity
  8
00_COMPONENTS_1
100
AcDbLine
 62
7
  6
BYLAYER
 10
25.3923650557
 20
61.6049295922
 11
34.6907805151
 21
66.9733402156
  0
LINE
  5
251
100
AcDbEntity
  8
00_COMPONENTS_1
100
AcDbLine
 62
7
  6
BYLAYER
 10
36.4837849109
 20
68.008525607
 11
37.0595783698
 21
68.3409581311
  0
LINE
  5
252
100
AcDbEntity
  8
00_COMPONENTS_1
100
AcDbLine
 62
7
  6
BYLAYER
 10
45.0851883751
 20
72.8399204424
 11
45.7923042098
 21
73.2481715229
  0
LINE
  5
253
100
AcDbEntity
  8
00_COMPONENTS_1
100
AcDbLine
 62
7
  6
BYLAYER
 10
28.5036696317
 20
37.0162392967
 11
15.7756945791
 21
44.364572878
  0
LINE
  5
254
100
AcDbEntity
  8
00_COMPONENTS_1
100
AcDbLine
 62
7
  6
BYLAYER
 10
36.1092515392
 20
34.5527731209
 11
33.6405932956
 21
35.978021379
  0
LINE
  5
255
100
AcDbEntity
  8
00_COMPONENTS_1
100
AcDbLine
 62
7
  6
BYLAYER
 10
24.1195675505
 20
26.950951307
 11
24.1195675505
 21
26.6465290017
  0
LINE
  5
256
100
AcDbEntity
  8
00_COMPONENTS_1
100
AcDbLine
 62
7
  6
BYLAYER
 10
24.1195675505
 20
62.3397629503
 11
24.1195675505
 21
65.0221426068
  0
LINE
  5
257
100
AcDbEntity
  8
00_COMPONENTS_1
100
AcDbLine
 62
7
  6
BYLAYER
 10
27.6497271194
 20
75.7150450806
 11
27.7699398157
 21
76.3865917744
  0
LINE
  5
258
100
AcDbEntity
  8
00_COMPONENTS_1
100
AcDbLine
 62
7
420
15788975
  6
BYLAYER
 10
20.3665823911
 20
58.2828929315
 11
18.7577798097
 21
57.3540558726
  0
LINE
  5
259
100
AcDbEntity
  8
00_COMPONENTS_1
100
AcDbLine
 62
7
  6
BYLAYER
 10
37.8240673585
 20
68.0566264205
 11
43.0566357538
 21
71.0776331591
  0
LINE
  5
25A
100
AcDbEntity
  8
00_COMPONENTS_1
100
AcDbLine
 62
7
  6
BYLAYER
 10
47.5600724132
 20
72.2275802187
 11
50.2470669946
 21
73.7789080034
  0
LINE
  5
25B
100
AcDbEntity
  8
00_COMPONENTS_1
100
AcDbLine
 62
7
  6
BYLAYER
 10
25.3923650557
 20
26.2161179489
 11
25.3923650557
 21
25.9116956436
  0
LINE
  5
25C
100
AcDbEntity
  8
00_COMPONENTS_1
100
AcDbLine
 62
7
  6
BYLAYER
 10
25.3923650557
 20
61.6049295922
 11
25.3923650557
 21
64.2873092487
  0
LINE
  5
25D
100
AcDbEntity
  8
00_COMPONENTS_1
100
AcDbLine
 62
7
  6
BYLAYER
 10
50.9541767197
 20
72.5541648317
 11
48.2671821383
 21
71.002837047
  0
LINE
  5
25E
100
AcDbEntity
  8
00_COMPONENTS_1
100
AcDbLine
 62
7
  6
BYLAYER
 10
42.7606659889
 20
67.7318877785
 11
47.9932343842
 21
70.7528945172
  0
LINE
  5
25F
100
AcDbEntity
  8
00_COMPONENTS_1
100
AcDbLine
 62
7
  6
BYLAYER
 10
48.4439595696
 20
70.9007768584
 11
51.130954151
 21
72.4521046431
  0
LINE
  5
260
100
AcDbEntity
  8
00_COMPONENTS_1
100
AcDbLine
 62
7
  6
BYLAYER
 10
43.2821439511
 20
67.4308191478
 11
31.614930637
 21
60.6947906089
  0
LINE
  5
261
100
AcDbEntity
  8
00_COMPONENTS_1
100
AcDbLine
 62
7
  6
BYLAYER
 10
48.5147123464
 20
70.4518258864
 11
51.6259692302
 21
72.2481001634
  0
LINE
  5
262
100
AcDbEntity
  8
00_COMPONENTS_1
100
AcDbLine
 62
7
  6
BYLAYER
 10
15.7756945791
 20
50.8965922151
 11
16.4368044388
 21
51.2782818921
  0
LINE
  5
263
100
AcDbEntity
  8
00_COMPONENTS_1
100
AcDbLine
 62
7
  6
BYLAYER
 10
44.5549414563
 20
66.6959857896
 11
32.8877281423
 21
59.9599572507
  0
LINE
  5
264
100
AcDbEntity
  8
00_COMPONENTS_1
100
AcDbLine
 62
7
  6
BYLAYER
 10
49.7875098517
 20
69.7169925283
 11
52.8987667354
 21
71.5132668053
  0
LINE
  5
265
100
AcDbEntity
  8
00_COMPONENTS_1
100
AcDbLine
 62
7
  6
BYLAYER
 10
44.9973085937
 20
66.4405907816
 11
50.229876989
 21
69.4615975203
  0
LINE
  5
266
100
AcDbEntity
  8
00_COMPONENTS_1
100
AcDbLine
 62
7
  6
BYLAYER
 10
15.7756945791
 20
50.8965922151
 11
28.5036696317
 21
43.5482586337
  0
LINE
  5
267
100
AcDbEntity
  8
00_COMPONENTS_1
100
AcDbLine
 62
7
  6
BYLAYER
 10
34.8035495085
 20
41.4232746951
 11
36.1092515392
 21
40.6694443301
  0
LINE
  5
268
100
AcDbEntity
  8
00_COMPONENTS_1
100
AcDbLine
 62
7
  6
BYLAYER
 10
16.4368044388
 20
51.2782818921
 11
16.536588419
 21
51.2144978235
  0
LINE
  5
269
100
AcDbEntity
  8
00_COMPONENTS_1
100
AcDbLine
 62
7
  6
BYLAYER
 10
16.4304459515
 20
51.2751134255
 11
16.5277698859
 21
51.2100926003
  0
LINE
  5
26A
100
AcDbEntity
  8
00_COMPONENTS_1
100
AcDbLine
 62
7
  6
BYLAYER
 10
22.4678295566
 20
79.4476973083
 11
22.8333411853
 21
76.7113304163
  0
LINE
  5
26B
100
AcDbEntity
  8
00_COMPONENTS_1
100
AcDbLine
 62
7
  6
BYLAYER
 10
28.5036696317
 20
43.5482586337
 11
28.5036696317
 21
37.0162392967
  0
LINE
  5
26C
100
AcDbEntity
  8
00_COMPONENTS_1
100
AcDbLine
 62
7
  6
BYLAYER
 10
28.9884218243
 20
69.460937067
 11
28.9884218243
 21
72.3358776049
  0
LINE
  5
26D
100
AcDbEntity
  8
00_COMPONENTS_1
100
AcDbLine
 62
7
  6
BYLAYER
 10
29.283434015
 20
37.1806614673
 11
29.283434015
 21
43.8759812878
  0
LINE
  5
26E
100
AcDbEntity
  8
00_COMPONENTS_1
100
AcDbLine
 62
7
  6
BYLAYER
 10
29.5642152832
 20
72.668310129
 11
29.5642152832
 21
75.3506897855
  0
LINE
  5
26F
100
AcDbEntity
  8
00_COMPONENTS_1
100
AcDbLine
 62
7
  6
BYLAYER
 10
30.4126774758
 20
84.4953227991
 11
30.4126774758
 21
78.3715546706
  0
LINE
  5
270
100
AcDbEntity
  8
00_COMPONENTS_1
100
AcDbLine
 62
7
  6
BYLAYER
 10
53.1815823634
 20
69.1453299353
 11
54.5250796541
 21
69.9209938277
  0
LINE
  5
271
100
AcDbEntity
  8
00_COMPONENTS_1
100
AcDbLine
 62
7
  6
BYLAYER
 10
32.8877281423
 20
57.2775775943
 11
42.1861436016
 21
62.6459882177
  0
LINE
  5
272
100
AcDbEntity
  8
00_COMPONENTS_1
100
AcDbLine
 62
7
  6
BYLAYER
 10
43.9791479975
 20
63.681173609
 11
44.5549414563
 21
64.0136061332
  0
LINE
  5
273
100
AcDbEntity
  8
00_COMPONENTS_1
100
AcDbLine
 62
7
420
15788975
  6
BYLAYER
 10
28.0011541954
 20
54.0359126445
 11
26.2531428963
 21
53.0267038746
  0
LINE
  5
274
100
AcDbEntity
  8
00_COMPONENTS_1
100
AcDbLine
 62
7
  6
BYLAYER
 10
45.3116894199
 20
63.7906486936
 11
50.5442578153
 21
66.8116554323
  0
LINE
  5
275
100
AcDbEntity
  8
00_COMPONENTS_1
100
AcDbLine
 62
7
  6
BYLAYER
 10
54.6665127862
 20
68.2880243508
 11
52.8987667354
 21
67.2674217847
  0
LINE
  5
276
100
AcDbEntity
  8
00_COMPONENTS_1
100
AcDbLine
 62
7
  6
BYLAYER
 10
31.614930637
 20
23.095453063
 11
31.614930637
 21
22.3191770038
  0
LINE
  5
277
100
AcDbEntity
  8
00_COMPONENTS_1
100
AcDbLine
 62
7
  6
BYLAYER
 10
31.614930637
 20
58.0124109524
 11
31.614930637
 21
60.6947906089
  0
LINE
  5
278
100
AcDbEntity
  8
00_COMPONENTS_1
100
AcDbLine
 62
7
  6
BYLAYER
 10
32.8863576002
 20
42.2819225042
 11
32.8863576002
 21
35.3416519586
  0
LINE
  5
279
100
AcDbEntity
  8
00_COMPONENTS_1
100
AcDbLine
 62
7
  6
BYLAYER
 10
32.8877281423
 20
22.520132014
 11
32.8877281423
 21
21.5843436457
  0
LINE
  5
27A
100
AcDbEntity
  8
00_COMPONENTS_1
100
AcDbLine
 62
7
  6
BYLAYER
 10
32.8877281423
 20
57.2775775943
 11
32.8877281423
 21
59.9599572507
  0
LINE
  5
27B
100
AcDbEntity
  8
00_COMPONENTS_1
100
AcDbLine
 62
7
  6
BYLAYER
 10
33.6405932956
 20
35.978021379
 11
33.6405932956
 21
41.9408425256
  0
LINE
  5
27C
100
AcDbEntity
  8
00_COMPONENTS_1
100
AcDbLine
 62
7
  6
BYLAYER
 10
35.1069919307
 20
71.3656971645
 11
35.2206023078
 21
72.0850470929
  0
LINE
  5
27D
100
AcDbEntity
  8
00_COMPONENTS_1
100
AcDbLine
 62
7
  6
BYLAYER
 10
51.4170559214
 20
64.5340376459
 11
52.8987667354
 21
65.3894986768
  0
LINE
  5
27E
100
AcDbEntity
  8
00_COMPONENTS_1
100
AcDbLine
 62
7
  6
BYLAYER
 10
50.2113284809
 20
63.430343097
 11
55.4438968763
 21
66.4513498357
  0
LINE
  5
27F
100
AcDbEntity
  8
00_COMPONENTS_1
100
AcDbLine
 62
7
  6
BYLAYER
 10
50.7775070376
 20
63.1034671498
 11
39.1102937236
 21
56.367438611
  0
LINE
  5
280
100
AcDbEntity
  8
00_COMPONENTS_1
100
AcDbLine
 62
7
  6
BYLAYER
 10
56.010075433
 20
66.1244738885
 11
59.1213323167
 21
67.9207481655
  0
LINE
  5
281
100
AcDbEntity
  8
00_COMPONENTS_1
100
AcDbLine
 62
7
420
15788975
  6
BYLAYER
 10
11.7172923084
 20
39.8984635819
 11
13.3880082335
 21
40.8630461132
  0
LINE
  5
282
100
AcDbEntity
  8
00_COMPONENTS_1
100
AcDbLine
 62
7
  6
BYLAYER
 10
28.0659095807
 20
79.7323371549
 11
27.7003979519
 21
82.468704047
  0
LINE
  5
283
100
AcDbEntity
  8
00_COMPONENTS_1
100
AcDbLine
 62
7
  6
BYLAYER
 10
30.0065824205
 20
75.0952947774
 11
30.3209632468
 21
72.4453526894
  0
LINE
  5
284
100
AcDbEntity
  8
00_COMPONENTS_1
100
AcDbLine
 62
7
  6
BYLAYER
 10
36.1092515392
 20
40.6694443301
 11
36.1092515392
 21
34.5527731209
  0
LINE
  5
285
100
AcDbEntity
  8
00_COMPONENTS_1
100
AcDbLine
 62
7
  6
BYLAYER
 10
36.4837849109
 20
65.1335850691
 11
36.4837849109
 21
68.008525607
  0
LINE
  5
286
100
AcDbEntity
  8
00_COMPONENTS_1
100
AcDbLine
 62
7
  6
BYLAYER
 10
36.495345668
 20
33.7510923684
 11
36.495345668
 21
40.691362914
  0
LINE
  5
287
100
AcDbEntity
  8
00_COMPONENTS_1
100
AcDbLine
 62
7
  6
BYLAYER
 10
37.0595783698
 20
68.3409581311
 11
37.0595783698
 21
71.0233377875
  0
LINE
  5
288
100
AcDbEntity
  8
00_COMPONENTS_1
100
AcDbLine
 62
7
  6
BYLAYER
 10
40.2770247701
 20
55.693841366
 11
60.2880633632
 21
67.2471509206
  0
LINE
  5
289
100
AcDbEntity
  8
00_COMPONENTS_1
100
AcDbLine
 62
7
  6
BYLAYER
 10
40.2770247701
 20
52.9585582686
 11
39.4285001654
 21
52.468665284
  0
LINE
  5
28A
100
AcDbEntity
  8
00_COMPONENTS_1
100
AcDbLine
 62
7
  6
BYLAYER
 10
37.9080405623
 20
80.1679708011
 11
37.9080405623
 21
74.0442026727
  0
LINE
  5
28B
100
AcDbEntity
  8
00_COMPONENTS_1
100
AcDbLine
 62
7
  6
BYLAYER
 10
39.1102937236
 20
19.7074513297
 11
39.1102937236
 21
17.9918250059
  0
LINE
  5
28C
100
AcDbEntity
  8
00_COMPONENTS_1
100
AcDbLine
 62
7
  6
BYLAYER
 10
39.1102937236
 20
53.6850589545
 11
39.1102937236
 21
56.367438611
  0
LINE
  5
28D
100
AcDbEntity
  8
00_COMPONENTS_1
100
AcDbLine
 62
7
  6
BYLAYER
 10
39.4285001654
 20
52.468665284
 11
39.4285001654
 21
19.5636178737
  0
LINE
  5
28E
100
AcDbEntity
  8
00_COMPONENTS_1
100
AcDbLine
 62
7
  6
BYLAYER
 10
42.6404532925
 20
67.0603410848
 11
42.7606659889
 21
67.7318877785
  0
LINE
  5
28F
100
AcDbEntity
  8
00_COMPONENTS_1
100
AcDbLine
 62
7
420
15788975
  6
BYLAYER
 10
36.2949314573
 20
50.1695225341
 11
34.2033815681
 21
48.9619728507
  0
LINE
  5
290
100
AcDbEntity
  8
00_COMPONENTS_1
100
AcDbLine
 62
7
  6
BYLAYER
 10
11.4915160579
 20
35.1956367639
 11
10.4016388826
 21
34.5663996394
  0
LINE
  5
291
100
AcDbEntity
  8
00_COMPONENTS_1
100
AcDbLine
 62
7
  6
BYLAYER
 10
29.1719734584
 20
43.9341017247
 11
28.5036696317
 21
43.5482586337
  0
LINE
  5
292
100
AcDbEntity
  8
00_COMPONENTS_1
100
AcDbLine
 62
7
  6
BYLAYER
 10
60.2880633632
 20
61.1233827921
 11
65.0256590726
 21
63.858618623
  0
LINE
  5
293
100
AcDbEntity
  8
00_COMPONENTS_1
100
AcDbLine
 62
7
  6
BYLAYER
 10
40.2770247701
 20
52.9585582686
 11
9.2349078361
 21
70.8803273921
  0
LINE
  5
294
100
AcDbEntity
  8
00_COMPONENTS_1
100
AcDbLine
 62
7
  6
BYLAYER
 10
37.4585557297
 20
70.7929933125
 11
37.8240673585
 21
68.0566264204
  0
LINE
  5
295
100
AcDbEntity
  8
00_COMPONENTS_1
100
AcDbLine
 62
7
  6
BYLAYER
 10
35.5535316422
 20
75.4663594281
 11
35.2391508159
 21
78.1163015161
  0
LINE
  5
296
100
AcDbEntity
  8
00_COMPONENTS_1
100
AcDbLine
 62
7
  6
BYLAYER
 10
40.2770247701
 20
55.693841366
 11
40.2770247701
 21
52.9585582686
  0
LINE
  5
297
100
AcDbEntity
  8
00_COMPONENTS_1
100
AcDbLine
 62
7
  6
BYLAYER
 10
40.2770247701
 20
20.0535108583
 11
40.2770247701
 21
17.3182277609
  0
LINE
  5
298
100
AcDbEntity
  8
00_COMPONENTS_1
100
AcDbLine
 62
7
  6
BYLAYER
 10
41.6556938435
 20
74.7442322431
 11
41.6556938435
 21
75.799654234
  0
LINE
  5
299
100
AcDbEntity
  8
00_COMPONENTS_1
100
AcDbLine
 62
7
420
15788975
  6
BYLAYER
 10
18.7577798097
 20
35.3084906101
 11
20.3665877075
 21
36.2373307385
  0
LINE
  5
29A
100
AcDbEntity
  8
00_COMPONENTS_1
100
AcDbLine
 62
7
  6
BYLAYER
 10
9.2349078361
 20
73.6156104895
 11
10.4016388826
 21
72.9420132445
  0
LINE
  5
29B
100
AcDbEntity
  8
00_COMPONENTS_1
100
AcDbLine
 62
7
  6
BYLAYER
 10
16.6242044639
 20
69.3494946047
 11
17.8970019692
 21
68.6146612466
  0
LINE
  5
29C
100
AcDbEntity
  8
00_COMPONENTS_1
100
AcDbLine
 62
7
  6
BYLAYER
 10
24.1195675505
 20
65.0221426068
 11
25.3923650557
 21
64.2873092487
  0
LINE
  5
29D
100
AcDbEntity
  8
00_COMPONENTS_1
100
AcDbLine
 62
7
  6
BYLAYER
 10
31.614930637
 20
60.6947906089
 11
32.8877281423
 21
59.9599572507
  0
LINE
  5
29E
100
AcDbEntity
  8
00_COMPONENTS_1
100
AcDbLine
 62
7
  6
BYLAYER
 10
39.1102937236
 20
56.367438611
 11
40.2770247701
 21
55.693841366
  0
LINE
  5
29F
100
AcDbEntity
  8
00_COMPONENTS_1
100
AcDbLine
 62
7
  6
BYLAYER
 10
43.1406242663
 20
72.9320860201
 11
43.1406242663
 21
74.9423486495
  0
LINE
  5
2A0
100
AcDbEntity
  8
00_COMPONENTS_1
100
AcDbLine
 62
7
  6
BYLAYER
 10
43.6356440558
 20
71.8031094215
 11
43.6356440558
 21
69.3514089709
  0
LINE
  5
2A1
100
AcDbEntity
  8
00_COMPONENTS_1
100
AcDbLine
 62
7
  6
BYLAYER
 10
43.9791479975
 20
60.8062330712
 11
43.9791479975
 21
63.681173609
  0
LINE
  5
2A2
100
AcDbEntity
  8
00_COMPONENTS_1
100
AcDbLine
 62
7
  6
BYLAYER
 10
44.484121557
 20
73.5951429417
 11
44.484121557
 21
75.7180125419
  0
LINE
  5
2A3
100
AcDbEntity
  8
00_COMPONENTS_1
100
AcDbLine
 62
7
  6
BYLAYER
 10
44.5549414563
 20
64.0136061332
 11
44.5549414563
 21
66.6959857896
  0
LINE
  5
2A4
100
AcDbEntity
  8
00_COMPONENTS_1
100
AcDbLine
 62
7
  6
BYLAYER
 10
44.9084109439
 20
72.941980631
 11
44.9084109439
 21
69.2166490746
  0
LINE
  5
2A5
100
AcDbEntity
  8
00_COMPONENTS_1
100
AcDbLine
 62
7
  6
BYLAYER
 10
45.6534973194
 20
73.3721538827
 11
45.6534973194
 21
73.8620341689
  0
LINE
  5
2A6
100
AcDbEntity
  8
00_COMPONENTS_1
100
AcDbLine
 62
7
  6
BYLAYER
 10
45.7922981003
 20
76.9224429821
 11
45.7922981003
 21
73.248182105
  0
LINE
  5
2A7
100
AcDbEntity
  8
00_COMPONENTS_1
100
AcDbLine
 62
7
  6
BYLAYER
 10
29.283434015
 20
37.466433786
 11
28.5036696317
 21
37.0162392967
  0
LINE
  5
2A8
100
AcDbEntity
  8
00_COMPONENTS_1
100
AcDbLine
 62
7
  6
BYLAYER
 10
18.160643188
 20
30.3912600616
 11
17.8970019692
 21
30.2390476415
  0
LINE
  5
2A9
100
AcDbEntity
  8
00_COMPONENTS_1
100
AcDbLine
 62
7
  6
BYLAYER
 10
36.1092515392
 20
40.6694443301
 11
36.2957091076
 21
40.7770950148
  0
LINE
  5
2AA
100
AcDbEntity
  8
00_COMPONENTS_1
100
AcDbLine
 62
7
  6
BYLAYER
 10
43.0566357539
 20
71.0776331591
 11
42.6911241251
 21
73.8140000511
  0
LINE
  5
2AB
100
AcDbEntity
  8
00_COMPONENTS_1
100
AcDbLine
 62
7
  6
BYLAYER
 10
47.5600724132
 20
72.2275802187
 11
47.5600724132
 21
75.9018410958
  0
LINE
  5
2AC
100
AcDbEntity
  8
00_COMPONENTS_1
100
AcDbLine
 62
7
  6
BYLAYER
 10
48.4439595696
 20
70.4926740971
 11
48.4439595696
 21
70.9007768584
  0
LINE
  5
2AD
100
AcDbEntity
  8
00_COMPONENTS_1
100
AcDbLine
 62
7
  6
BYLAYER
 10
50.0977181038
 20
62.7109931687
 11
50.2113284809
 21
63.430343097
  0
LINE
  5
2AE
100
AcDbEntity
  8
00_COMPONENTS_1
100
AcDbLine
 62
7
  6
BYLAYER
 10
32.8863576002
 20
35.3416519586
 11
33.8145922706
 21
35.8775652965
  0
LINE
  5
2AF
100
AcDbEntity
  8
00_COMPONENTS_1
100
AcDbLine
 62
7
  6
BYLAYER
 10
44.9973085937
 20
66.4405907816
 11
45.3116894199
 21
63.7906486936
  0
LINE
  5
2B0
100
AcDbEntity
  8
00_COMPONENTS_1
100
AcDbLine
 62
7
  6
BYLAYER
 10
50.2470669946
 20
73.7789080034
 11
50.2470669946
 21
77.4531688805
  0
LINE
  5
2B1
100
AcDbEntity
  8
00_COMPONENTS_1
100
AcDbLine
 62
7
  6
BYLAYER
 10
51.130954151
 20
71.9623047802
 11
51.130954151
 21
72.4521046431
  0
LINE
  5
2B2
100
AcDbEntity
  8
00_COMPONENTS_1
100
AcDbLine
 62
7
420
15788975
  6
BYLAYER
 10
26.2531428963
 20
30.9811386121
 11
28.0011597691
 21
31.9903506
  0
LINE
  5
2B3
100
AcDbEntity
  8
00_COMPONENTS_1
100
AcDbLine
 62
7
  6
BYLAYER
 10
36.1092515392
 20
34.5527731209
 11
36.495345668
 21
34.7756833395
  0
LINE
  5
2B4
100
AcDbEntity
  8
00_COMPONENTS_1
100
AcDbLine
 62
7
  6
BYLAYER
 10
42.5800521619
 20
74.2105657923
 11
43.6356440558
 21
71.8031094215
  0
LINE
  5
2B5
100
AcDbEntity
  8
00_COMPONENTS_1
100
AcDbLine
 62
7
  6
BYLAYER
 10
52.8987667354
 20
71.5132668053
 11
52.8987667354
 21
65.3894986768
  0
LINE
  5
2B6
100
AcDbEntity
  8
00_COMPONENTS_1
100
AcDbLine
 62
7
  6
BYLAYER
 10
53.1815823634
 20
67.430704489
 11
53.1815823634
 21
69.1453299353
  0
LINE
  5
2B7
100
AcDbEntity
  8
00_COMPONENTS_1
100
AcDbLine
 62
7
  6
BYLAYER
 10
25.6560062746
 20
26.0639080637
 11
25.3923650557
 21
25.9116956436
  0
LINE
  5
2B8
100
AcDbEntity
  8
00_COMPONENTS_1
100
AcDbLine
 62
7
  6
BYLAYER
 10
50.7775070376
 20
63.1034671498
 11
50.2113284809
 21
63.430343097
  0
LINE
  5
2B9
100
AcDbEntity
  8
00_COMPONENTS_1
100
AcDbLine
 62
7
  6
BYLAYER
 10
44.9973085937
 20
66.4405907816
 11
44.5549414563
 21
66.6959857896
  0
LINE
  5
2BA
100
AcDbEntity
  8
00_COMPONENTS_1
100
AcDbLine
 62
7
  6
BYLAYER
 10
43.2821439511
 20
67.4308191478
 11
42.7606659889
 21
67.7318877785
  0
LINE
  5
2BB
100
AcDbEntity
  8
00_COMPONENTS_1
100
AcDbLine
 62
7
  6
BYLAYER
 10
37.4585557297
 20
70.7929933125
 11
37.0595783698
 21
71.0233377875
  0
LINE
  5
2BC
100
AcDbEntity
  8
00_COMPONENTS_1
100
AcDbLine
 62
7
  6
BYLAYER
 10
35.7867808645
 20
71.7581711457
 11
35.2206023078
 21
72.0850470929
  0
LINE
  5
2BD
100
AcDbEntity
  8
00_COMPONENTS_1
100
AcDbLine
 62
7
  6
BYLAYER
 10
30.0065824205
 20
75.0952947774
 11
29.5642152832
 21
75.3506897855
  0
LINE
  5
2BE
100
AcDbEntity
  8
00_COMPONENTS_1
100
AcDbLine
 62
7
  6
BYLAYER
 10
28.2914177779
 20
76.0855231436
 11
27.7699398157
 21
76.3865917744
  0
LINE
  5
2BF
100
AcDbEntity
  8
00_COMPONENTS_1
100
AcDbLine
 62
7
  6
BYLAYER
 10
22.4678295566
 20
79.4476973083
 11
22.0688521966
 21
79.6780417834
  0
LINE
  5
2C0
100
AcDbEntity
  8
00_COMPONENTS_1
100
AcDbLine
 62
7
  6
BYLAYER
 10
50.5442578153
 20
66.8116554322
 11
50.229876989
 21
69.4615975203
  0
LINE
  5
2C1
100
AcDbEntity
  8
00_COMPONENTS_1
100
AcDbLine
 62
7
420
15788975
  6
BYLAYER
 10
34.2033815681
 20
26.9164075882
 11
36.294936189
 21
28.1239600035
  0
LINE
  5
2C2
100
AcDbEntity
  8
00_COMPONENTS_1
100
AcDbLine
 62
7
  6
BYLAYER
 10
45.1203889078
 20
69.0942663087
 11
43.6356440558
 21
69.9514647562
  0
LINE
  5
2C3
100
AcDbEntity
  8
00_COMPONENTS_1
100
AcDbLine
 62
7
  6
BYLAYER
 10
60.2880633632
 20
34.995305444
 11
60.2880633632
 21
28.8715373155
  0
LINE
  5
2C4
100
AcDbEntity
  8
00_COMPONENTS_1
100
AcDbLine
 62
7
  6
BYLAYER
 10
60.2880633632
 20
61.1233827921
 11
60.2880633632
 21
67.2471509206
  0
LINE
  5
2C5
100
AcDbEntity
  8
00_COMPONENTS_1
100
AcDbLine
 62
7
  6
BYLAYER
 10
33.7968255501
 20
22.1092081457
 11
32.8877281423
 21
21.5843436457
  0
LINE
  5
2C6
100
AcDbEntity
  8
00_COMPONENTS_1
100
AcDbLine
 62
7
  6
BYLAYER
 10
27.301420592
 20
82.699048522
 11
27.7003979519
 21
82.468704047
  0
LINE
  5
2C7
100
AcDbEntity
  8
00_COMPONENTS_1
100
AcDbLine
 62
7
  6
BYLAYER
 10
33.0025082111
 20
79.407598513
 11
33.5239861733
 21
79.1065298822
  0
LINE
  5
2C8
100
AcDbEntity
  8
00_COMPONENTS_1
100
AcDbLine
 62
7
  6
BYLAYER
 10
34.7967836786
 20
78.3716965241
 11
35.2391508159
 21
78.1163015161
  0
LINE
  5
2C9
100
AcDbEntity
  8
00_COMPONENTS_1
100
AcDbLine
 62
7
  6
BYLAYER
 10
40.4531707032
 20
75.1060538315
 11
41.0193492599
 21
74.7791778843
  0
LINE
  5
2CA
100
AcDbEntity
  8
00_COMPONENTS_1
100
AcDbLine
 62
7
  6
BYLAYER
 10
42.2921467651
 20
74.0443445262
 11
42.6911241251
 21
73.8140000511
  0
LINE
  5
2CB
100
AcDbEntity
  8
00_COMPONENTS_1
100
AcDbLine
 62
7
  6
BYLAYER
 10
47.9932343842
 20
70.7528945172
 11
48.5147123464
 21
70.4518258864
  0
LINE
  5
2CC
100
AcDbEntity
  8
00_COMPONENTS_1
100
AcDbLine
 62
7
  6
BYLAYER
 10
49.7875098517
 20
69.7169925283
 11
50.229876989
 21
69.4615975203
  0
LINE
  5
2CD
100
AcDbEntity
  8
00_COMPONENTS_1
100
AcDbLine
 62
7
  6
BYLAYER
 10
55.4438968763
 20
66.4513498357
 11
56.010075433
 21
66.1244738885
  0
LINE
  5
2CE
100
AcDbEntity
  8
00_COMPONENTS_1
100
AcDbLine
 62
7
  6
BYLAYER
 10
41.3072546567
 20
74.9453991505
 11
42.5800521619
 21
74.2105657923
  0
LINE
  5
2CF
100
AcDbEntity
  8
00_COMPONENTS_1
100
AcDbLine
 62
7
  6
BYLAYER
 10
48.4439595696
 20
70.9007768584
 11
48.2671821383
 21
71.002837047
  0
LINE
  5
2D0
100
AcDbEntity
  8
00_COMPONENTS_1
100
AcDbLine
 62
7
  6
BYLAYER
 10
45.0851883751
 20
72.8399204424
 11
44.9084109439
 21
72.941980631
  0
LINE
  5
2D1
100
AcDbEntity
  8
00_COMPONENTS_1
100
AcDbLine
 62
7
  6
BYLAYER
 10
41.6556938435
 20
75.799654234
 11
43.1406242663
 21
74.9423486495
  0
LINE
  5
2D2
100
AcDbEntity
  8
00_COMPONENTS_1
100
AcDbLine
 62
7
  6
BYLAYER
 10
53.1815823634
 20
69.1453299353
 11
54.6665127862
 21
68.2880243508
  0
LINE
  5
2D3
100
AcDbEntity
  8
00_COMPONENTS_1
100
AcDbLine
 62
7
  6
BYLAYER
 10
60.2880633632
 20
34.995305444
 11
65.0256590726
 21
37.7305412749
  0
LINE
  5
2D4
100
AcDbEntity
  8
00_COMPONENTS_1
100
AcDbLine
 62
7
  6
BYLAYER
 10
45.6534973194
 20
73.8620341689
 11
45.7922981003
 21
73.7818993136
  0
LINE
  5
2D5
100
AcDbEntity
  8
00_COMPONENTS_1
100
AcDbLine
 62
7
  6
BYLAYER
 10
33.9835421386
 20
81.7803877465
 11
36.0694241835
 21
80.5761304303
  0
LINE
  5
2D6
100
AcDbEntity
  8
00_COMPONENTS_1
100
AcDbLine
 62
7
  6
BYLAYER
 10
37.9080405623
 20
79.5146287834
 11
44.484121557
 21
75.7180125419
  0
LINE
  5
2D7
100
AcDbEntity
  8
00_COMPONENTS_1
100
AcDbLine
 62
7
  6
BYLAYER
 10
54.5250796541
 20
69.9209938277
 11
58.5555134432
 21
67.5940744366
  0
LINE
  5
2D8
100
AcDbEntity
  8
00_COMPONENTS_1
100
AcDbLine
 62
7
  6
BYLAYER
 10
60.2880633632
 20
66.5938089029
 11
65.0256590726
 21
63.858618623
  0
LINE
  5
2D9
100
AcDbEntity
  8
00_COMPONENTS_1
100
AcDbLine
 62
7
  6
BYLAYER
 10
51.130954151
 20
72.4521046431
 11
50.9541767197
 21
72.5541648317
  0
LINE
  5
2DA
100
AcDbEntity
  8
00_COMPONENTS_1
100
AcDbLine
 62
7
  6
BYLAYER
 10
29.2459464293
 20
85.168920044
 11
30.4126774758
 21
84.4953227991
  0
LINE
  5
2DB
100
AcDbEntity
  8
00_COMPONENTS_1
100
AcDbLine
 62
7
  6
BYLAYER
 10
36.6352430571
 20
80.9028041593
 11
37.9080405623
 21
80.1679708011
  0
LINE
  5
2DC
100
AcDbEntity
  8
00_COMPONENTS_1
100
AcDbLine
 62
7
  6
BYLAYER
 10
51.6259692302
 20
72.2481001634
 11
52.8987667354
 21
71.5132668053
  0
LINE
  5
2DD
100
AcDbEntity
  8
00_COMPONENTS_1
100
AcDbLine
 62
7
  6
BYLAYER
 10
59.1213323167
 20
67.9207481655
 11
60.2880633632
 21
67.2471509206
  0
LINE
  5
2DE
100
AcDbEntity
  8
00_COMPONENTS_1
100
AcDbLine
 62
7
  6
BYLAYER
 10
47.5600724132
 20
75.9018410958
 11
45.7922981003
 21
76.9224429821
  0
LINE
  5
2DF
100
AcDbEntity
  8
00_COMPONENTS_1
100
AcDbLine
 62
7
  6
BYLAYER
 10
65.0256590726
 20
63.858618623
 11
65.0256590726
 21
37.7305412749
  0
LINE
  5
2E0
100
AcDbEntity
  8
00_COMPONENTS_1
100
AcDbLine
 62
7
  6
BYLAYER
 10
40.2770247701
 20
20.0535108583
 11
39.4285001654
 21
19.5636178737
  0
LINE
  5
2E1
100
AcDbEntity
  8
00_COMPONENTS_1
100
AcDbLine
 62
7
  6
BYLAYER
 10
50.2470669946
 20
77.4531688805
 11
48.4792926817
 21
78.4737707668
  0
LINE
  5
2E2
100
AcDbEntity
  8
00_COMPONENTS_1
100
AcDbLine
 62
7
  6
BYLAYER
 10
40.2770247701
 20
17.3182277609
 11
60.2880633632
 21
28.8715373155
  0
ARC
  5
2E3
100
AcDbEntity
  8
00_COMPONENTS_1
100
AcDbCircle
 62
7
  6
BYLAYER
 10
90.5081787387
 20
161.1961806599
 40
138.4183393411
100
AcDbArc
 50
245.3995788114
 51
247.0321576244
  0
ARC
  5
2E4
100
AcDbEntity
  8
00_COMPONENTS_1
100
AcDbCircle
 62
7
  6
BYLAYER
 10
90.0652363748
 20
167.1314126543
 40
137.3201346076
100
AcDbArc
 50
245.3930501674
 51
247.0386862684
  0
ARC
  5
2E5
100
AcDbEntity
  8
00_COMPONENTS_1
100
AcDbCircle
 62
7
  6
BYLAYER
 10
85.8763605822
 20
151.4185145054
 40
127.4874362602
100
AcDbArc
 50
243.5131172414
 51
243.646388715
  0
ARC
  5
2E6
100
AcDbEntity
  8
00_COMPONENTS_1
100
AcDbCircle
 62
7
  6
BYLAYER
 10
73.0895584247
 20
135.978307543
 40
101.9062614365
100
AcDbArc
 50
236.0661676419
 51
236.2209001482
  0
ARC
  5
2E7
100
AcDbEntity
  8
00_COMPONENTS_1
100
AcDbCircle
 62
7
  6
BYLAYER
 10
36.0095388299
 20
69.5413208171
 40
13.2555906932
100
AcDbArc
 50
216.7783006954
 51
217.2857896598
  0
ARC
  5
2E8
100
AcDbEntity
  8
00_COMPONENTS_1
100
AcDbCircle
 62
7
  6
BYLAYER
 10
43.5049019162
 20
65.2139688191
 40
13.255590693
100
AcDbArc
 50
216.7783006953
 51
217.2857896598
  0
ARC
  5
2E9
100
AcDbEntity
  8
00_COMPONENTS_1
100
AcDbCircle
 62
7
  6
BYLAYER
 10
28.5141757431
 20
73.8686728149
 40
13.2555906929
100
AcDbArc
 50
216.7783006953
 51
217.2857896598
  0
ARC
  5
2EA
100
AcDbEntity
  8
00_COMPONENTS_1
100
AcDbCircle
 62
7
  6
BYLAYER
 10
21.0188126561
 20
78.1960248125
 40
13.2555906924
100
AcDbArc
 50
216.7783006953
 51
217.2857896598
  0
ARC
  5
2EB
100
AcDbEntity
  8
00_COMPONENTS_1
100
AcDbCircle
 62
7
  6
BYLAYER
 10
31.0704669949
 20
60.9866215915
 40
3.0236351604
100
AcDbArc
 50
279.0144262704
 51
280.373792031
  0
ARC
  5
2EC
100
AcDbEntity
  8
00_COMPONENTS_1
100
AcDbCircle
 62
7
  6
BYLAYER
 10
23.5751039084
 20
65.3139735894
 40
3.0236351604
100
AcDbArc
 50
279.0144262704
 51
280.373792031
  0
ARC
  5
2ED
100
AcDbEntity
  8
00_COMPONENTS_1
100
AcDbCircle
 62
7
  6
BYLAYER
 10
16.0797408218
 20
69.6413255873
 40
3.0236351604
100
AcDbArc
 50
279.0144262704
 51
280.373792031
  0
ARC
  5
2EE
100
AcDbEntity
  8
00_COMPONENTS_1
100
AcDbCircle
 62
7
  6
BYLAYER
 10
38.5658300815
 20
56.6592695935
 40
3.0236351603
100
AcDbArc
 50
279.0144262704
 51
280.373792031
  0
SPLINE
  5
2EF
100
AcDbEntity
  8
00_COMPONENTS_1
100
AcDbSpline
 62
7
  6
BYLAYER
 70
0
 71
3
 72
11
 73
7
 74
0
 42
0.0000001
 43
0.0000001
 44
0.0000000001
 40
0.0
 40
0.0
 40
0.0
 40
0.0
 40
0.2177461357
 40
0.4508866354
 40
0.7104627206
 40
1.0
 40
1.0
 40
1.0
 40
1.0
 10
45.5851622776
 20
72.7904374892
 30
0.0
 10
45.6181428013
 20
72.8094786876
 30
0.0
 10
45.6799112148
 20
72.8612904059
 30
0.0
 10
45.745612522
 20
72.9687760995
 30
0.0
 10
45.7845655225
 20
73.1011871269
 30
0.0
 10
45.7922981003
 20
73.1975436684
 30
0.0
 10
45.7922981003
 20
73.248182105
 30
0.0
  0
SPLINE
  5
2F0
100
AcDbEntity
  8
00_COMPONENTS_1
100
AcDbSpline
 62
7
  6
BYLAYER
 70
0
 71
3
 72
20
 73
16
 74
0
 42
0.0000001
 43
0.0000001
 44
0.0000000001
 40
0.0
 40
0.0
 40
0.0
 40
0.0
 40
0.0463406876
 40
0.0947678084
 40
0.1462730535
 40
0.2014250463
 40
0.2603958978
 40
0.3230186595
 40
0.388866769
 40
0.4573240438
 40
0.5987908018
 40
0.7407354088
 40
0.8097854078
 40
0.8764388946
 40
1.0
 40
1.0
 40
1.0
 40
1.0
 10
32.6515707239
 20
29.7732278056
 30
0.0
 10
32.7415275362
 20
29.8251627106
 30
0.0
 10
32.9385898558
 20
29.9100062139
 30
0.0
 10
33.2627322318
 20
29.9721313662
 30
0.0
 10
33.6122388536
 20
29.9711780341
 30
0.0
 10
33.9796344094
 20
29.9083850471
 30
0.0
 10
34.3576387896
 20
29.7858352944
 30
0.0
 10
34.7386934164
 20
29.6065322818
 30
0.0
 10
35.1151504462
 20
29.3743625608
 30
0.0
 10
35.6055818799
 20
28.9966113569
 30
0.0
 10
36.156993116
 20
28.4257191288
 30
0.0
 10
36.5948943963
 20
27.7620540189
 30
0.0
 10
36.8563316856
 20
27.1959683208
 30
0.0
 10
37.0421096649
 20
26.6448281575
 30
0.0
 10
37.1086595029
 20
26.2171349537
 30
0.0
 10
37.1086595029
 20
25.9401735732
 30
0.0
  0
SPLINE
  5
2F1
100
AcDbEntity
  8
00_COMPONENTS_1
100
AcDbSpline
 62
7
  6
BYLAYER
 70
0
 71
3
 72
22
 73
18
 74
0
 42
0.0000001
 43
0.0000001
 44
0.0000000001
 40
0.0
 40
0.0
 40
0.0
 40
0.0
 40
0.0435770867
 40
0.0891119604
 40
0.1379288426
 40
0.1908423585
 40
0.2481735975
 40
0.3098195282
 40
0.3753544516
 40
0.444117758
 40
0.515274698
 40
0.5878835722
 40
0.733320791
 40
0.804318801
 40
0.8729017405
 40
0.9383491923
 40
1.0
 40
1.0
 40
1.0
 40
1.0
 10
24.6421610043
 20
33.80379673
 30
0.0
 10
24.7245413876
 20
33.8513569264
 30
0.0
 10
24.9061041608
 20
33.9274363831
 30
0.0
 10
25.2058723483
 20
33.9749417486
 30
0.0
 10
25.528927515
 20
33.9578144214
 30
0.0
 10
25.8683745466
 20
33.8777964446
 30
0.0
 10
26.2176200364
 20
33.7373552506
 30
0.0
 10
26.5697341835
 20
33.5398350401
 30
0.0
 10
26.9175562195
 20
33.2895155291
 30
0.0
 10
27.2537216769
 20
32.9916006619
 30
0.0
 10
27.5710717519
 20
32.652252953
 30
0.0
 10
27.9597608168
 20
32.1540687142
 30
0.0
 10
28.2818404146
 20
31.6068181236
 30
0.0
 10
28.5211305745
 20
31.0317318864
 30
0.0
 10
28.6520252496
 20
30.6028734195
 30
0.0
 10
28.732532389
 20
30.1825436997
 30
0.0
 10
28.7520870822
 20
29.9048854869
 30
0.0
 10
28.7520870822
 20
29.7703090982
 30
0.0
  0
SPLINE
  5
2F2
100
AcDbEntity
  8
00_COMPONENTS_1
100
AcDbSpline
 62
7
  6
BYLAYER
 70
0
 71
3
 72
22
 73
18
 74
0
 42
0.0000001
 43
0.0000001
 44
0.0000000001
 40
0.0
 40
0.0
 40
0.0
 40
0.0
 40
0.0406098392
 40
0.0830364132
 40
0.1289792067
 40
0.1795100199
 40
0.2350920554
 40
0.2956803433
 40
0.360850976
 40
0.4299071449
 40
0.5019469047
 40
0.5759390484
 40
0.7252212201
 40
0.7984059012
 40
0.8691712989
 40
0.9366452967
 40
1.0
 40
1.0
 40
1.0
 40
1.0
 10
17.2887880176
 20
38.2131268222
 30
0.0
 10
17.3636931325
 20
38.2563712511
 30
0.0
 10
17.5299898503
 20
38.3237970932
 30
0.0
 10
17.8054688899
 20
38.3566177482
 30
0.0
 10
18.1016402123
 20
38.3233872053
 30
0.0
 10
18.4123493004
 20
38.2266350924
 30
0.0
 10
18.7319229466
 20
38.0692507723
 30
0.0
 10
19.0542504153
 20
37.8548321754
 30
0.0
 10
19.3728685939
 20
37.5878939475
 30
0.0
 10
19.6810220942
 20
37.273920722
 30
0.0
 10
19.9720884568
 20
36.9194007623
 30
0.0
 10
20.3296033295
 20
36.4013057817
 30
0.0
 10
20.6245998664
 20
35.8392105605
 30
0.0
 10
20.843884548
 20
35.2538130801
 30
0.0
 10
20.9639679009
 20
34.8191037011
 30
0.0
 10
21.0378400372
 20
34.3954606943
 30
0.0
 10
21.0558864165
 20
34.1166427388
 30
0.0
 10
21.0558864165
 20
33.9817081579
 30
0.0
  0
SPLINE
  5
2F3
100
AcDbEntity
  8
00_COMPONENTS_1
100
AcDbSpline
 62
7
  6
BYLAYER
 70
0
 71
3
 72
23
 73
19
 74
0
 42
0.0000001
 43
0.0000001
 44
0.0000000001
 40
0.0
 40
0.0
 40
0.0
 40
0.0
 40
0.0186704171
 40
0.0374452015
 40
0.0764735223
 40
0.1193189687
 40
0.1673078675
 40
0.2210189287
 40
0.2804462302
 40
0.3451642627
 40
0.4144509833
 40
0.4873545541
 40
0.5627704389
 40
0.7161831209
 40
0.7917817215
 40
0.8649818218
 40
0.934729104
 40
1.0
 40
1.0
 40
1.0
 40
1.0
 10
10.5947429635
 20
43.0031182705
 30
0.0
 10
10.6284210907
 20
43.0225615966
 30
0.0
 10
10.6990243731
 20
43.0565374248
 30
0.0
 10
10.8518529115
 20
43.1032515266
 30
0.0
 10
11.0639315791
 20
43.1184458856
 30
0.0
 10
11.3320651969
 20
43.0687765257
 30
0.0
 10
11.6127657962
 20
42.9556224521
 30
0.0
 10
11.9012997323
 20
42.7820676922
 30
0.0
 10
12.1925932259
 20
42.5518775989
 30
0.0
 10
12.480980017
 20
42.2696115583
 30
0.0
 10
12.7604304376
 20
41.9408422894
 30
0.0
 10
13.0249305146
 20
41.5721663351
 30
0.0
 10
13.3514141914
 20
41.0346584482
 30
0.0
 10
13.6203418707
 20
40.4573592379
 30
0.0
 10
13.8208165397
 20
39.860178023
 30
0.0
 10
13.9309083896
 20
39.4179057268
 30
0.0
 10
13.9987228721
 20
38.9889943371
 30
0.0
 10
14.0153989152
 20
38.7076309599
 30
0.0
 10
14.0153989152
 20
38.5716811297
 30
0.0
  0
SPLINE
  5
2F4
100
AcDbEntity
  8
00_COMPONENTS_1
100
AcDbSpline
 62
7
  6
BYLAYER
 70
0
 71
3
 72
20
 73
16
 74
0
 42
0.0000001
 43
0.0000001
 44
0.0000000001
 40
0.0
 40
0.0
 40
0.0
 40
0.0
 40
0.0463406757
 40
0.0947678013
 40
0.1462730905
 40
0.2014251031
 40
0.2603959139
 40
0.3230186719
 40
0.38886677
 40
0.4573239599
 40
0.5987907105
 40
0.740735383
 40
0.8097853651
 40
0.8764388677
 40
1.0
 40
1.0
 40
1.0
 40
1.0
 10
32.6515706785
 20
51.81879305
 30
0.0
 10
32.7415274827
 20
51.8707279165
 30
0.0
 10
32.9385897546
 20
51.9555714746
 30
0.0
 10
33.2627322296
 20
52.0176966317
 30
0.0
 10
33.6122390001
 20
52.0167432312
 30
0.0
 10
33.9796346306
 20
51.9539503549
 30
0.0
 10
34.3576389287
 20
51.8314004921
 30
0.0
 10
34.7386933937
 20
51.6520974471
 30
0.0
 10
35.1151503063
 20
51.4199279674
 30
0.0
 10
35.6055816017
 20
51.042176938
 30
0.0
 10
36.1569925602
 20
50.471284558
 30
0.0
 10
36.5948943326
 20
49.8076196626
 30
0.0
 10
36.8563316249
 20
49.241533792
 30
0.0
 10
37.0421096373
 20
48.6903935805
 30
0.0
 10
37.1086595029
 20
48.2627002778
 30
0.0
 10
37.1086595029
 20
47.9857388357
 30
0.0
  0
SPLINE
  5
2F5
100
AcDbEntity
  8
00_COMPONENTS_1
100
AcDbSpline
 62
7
  6
BYLAYER
 70
0
 71
3
 72
22
 73
18
 74
0
 42
0.0000001
 43
0.0000001
 44
0.0000000001
 40
0.0
 40
0.0
 40
0.0
 40
0.0
 40
0.0435770802
 40
0.0891119519
 40
0.1379288696
 40
0.1908424032
 40
0.2481736041
 40
0.3098195303
 40
0.3753544381
 40
0.4441176544
 40
0.5152745566
 40
0.5878834641
 40
0.7333207476
 40
0.8043187473
 40
0.8729017076
 40
0.9383491825
 40
1.0
 40
1.0
 40
1.0
 40
1.0
 10
24.6421609891
 20
55.849361991
 30
0.0
 10
24.7245413743
 20
55.8969221559
 30
0.0
 10
24.9061040937
 20
55.9730016758
 30
0.0
 10
25.2058723605
 20
56.0205070252
 30
0.0
 10
25.5289276265
 20
56.0033795991
 30
0.0
 10
25.8683747165
 20
55.9233617297
 30
0.0
 10
26.2176201327
 20
55.7829204726
 30
0.0
 10
26.5697341233
 20
55.5854002579
 30
0.0
 10
26.9175560338
 20
55.3350809879
 30
0.0
 10
27.2537212826
 20
55.0371663499
 30
0.0
 10
27.5710711812
 20
54.6978187596
 30
0.0
 10
27.9597604141
 20
54.1996344903
 30
0.0
 10
28.2818402606
 20
53.6523838115
 30
0.0
 10
28.5211304874
 20
53.0772974206
 30
0.0
 10
28.652025197
 20
52.6484388878
 30
0.0
 10
28.7325323902
 20
52.2281090569
 30
0.0
 10
28.7520870822
 20
51.9504507709
 30
0.0
 10
28.7520870822
 20
51.8158743607
 30
0.0
  0
SPLINE
  5
2F6
100
AcDbEntity
  8
00_COMPONENTS_1
100
AcDbSpline
 62
7
  6
BYLAYER
 70
0
 71
3
 72
22
 73
18
 74
0
 42
0.0000001
 43
0.0000001
 44
0.0000000001
 40
0.0
 40
0.0
 40
0.0
 40
0.0
 40
0.0406098362
 40
0.0830364004
 40
0.1289792238
 40
0.1795100545
 40
0.2350920556
 40
0.2956803402
 40
0.3608509556
 40
0.4299070322
 40
0.5019467554
 40
0.5759389327
 40
0.7252211711
 40
0.7984058432
 40
0.8691712637
 40
0.9366452863
 40
1.0
 40
1.0
 40
1.0
 40
1.0
 10
17.2887880407
 20
60.2586921068
 30
0.0
 10
17.3636931637
 20
60.3019365086
 30
0.0
 10
17.529989817
 20
60.3693624191
 30
0.0
 10
17.8054689177
 20
60.4021830255
 30
0.0
 10
18.1016402952
 20
60.3689523602
 30
0.0
 10
18.4123494445
 20
60.2722003643
 30
0.0
 10
18.73192303
 20
60.1148159991
 30
0.0
 10
19.0542503556
 20
59.900397414
 30
0.0
 10
19.3728684148
 20
59.633459422
 30
0.0
 10
19.6810217027
 20
59.3194864232
 30
0.0
 10
19.9720879631
 20
58.9649666493
 30
0.0
 10
20.3296030733
 20
58.4468716671
 30
0.0
 10
20.6245996488
 20
57.8847762401
 30
0.0
 10
20.8438844606
 20
57.2993786306
 30
0.0
 10
20.9639678462
 20
56.8646691754
 30
0.0
 10
21.0378400337
 20
56.4410260535
 30
0.0
 10
21.0558864165
 20
56.162208023
 30
0.0
 10
21.0558864165
 20
56.0272734204
 30
0.0
  0
SPLINE
  5
2F7
100
AcDbEntity
  8
00_COMPONENTS_1
100
AcDbSpline
 62
7
  6
BYLAYER
 70
0
 71
3
 72
23
 73
19
 74
0
 42
0.0000001
 43
0.0000001
 44
0.0000000001
 40
0.0
 40
0.0
 40
0.0
 40
0.0
 40
0.0186704227
 40
0.0374452019
 40
0.0764735053
 40
0.1193189779
 40
0.1673078942
 40
0.2210189262
 40
0.2804462285
 40
0.3451642449
 40
0.4144508739
 40
0.4873544075
 40
0.562770326
 40
0.7161830795
 40
0.7917816673
 40
0.8649817885
 40
0.9347290944
 40
1.0
 40
1.0
 40
1.0
 40
1.0
 10
10.5947430247
 20
65.048683581
 30
0.0
 10
10.6284211687
 20
65.0681269008
 30
0.0
 10
10.6990244622
 20
65.1021026966
 30
0.0
 10
10.8518529294
 20
65.1488169042
 30
0.0
 10
11.0639316336
 20
65.1640111526
 30
0.0
 10
11.3320652607
 20
65.1143416608
 30
0.0
 10
11.6127659364
 20
65.0011877082
 30
0.0
 10
11.9012998267
 20
64.8276329031
 30
0.0
 10
12.1925932076
 20
64.597442833
 30
0.0
 10
12.4809798995
 20
64.3151770136
 30
0.0
 10
12.7604300876
 20
63.9864079473
 30
0.0
 10
13.024930144
 20
63.6177322357
 30
0.0
 10
13.3514141345
 20
63.0802243683
 30
0.0
 10
13.6203416156
 20
62.5029248521
 30
0.0
 10
13.8208164665
 20
61.9057435364
 30
0.0
 10
13.9309083357
 20
61.4634711778
 30
0.0
 10
13.9987228674
 20
61.0345596862
 30
0.0
 10
14.0153989152
 20
60.7531962415
 30
0.0
 10
14.0153989152
 20
60.6172463922
 30
0.0
  0
SPLINE
  5
2F8
100
AcDbEntity
  8
00_COMPONENTS_1
100
AcDbSpline
 62
7
  6
BYLAYER
 70
0
 71
3
 72
13
 73
9
 74
0
 42
0.0000001
 43
0.0000001
 44
0.0000000001
 40
0.0
 40
0.0
 40
0.0
 40
0.0
 40
0.1141755944
 40
0.2375687028
 40
0.4999988186
 40
0.7624295809
 40
0.8858234769
 40
1.0
 40
1.0
 40
1.0
 40
1.0
 10
50.9541767197
 20
72.5541648317
 30
0.0
 10
50.9058042228
 20
72.5820920741
 30
0.0
 10
50.8102066172
 20
72.6491722686
 30
0.0
 10
50.6311120307
 20
72.8166319691
 30
0.0
 10
50.4421059265
 20
73.0750149555
 30
0.0
 10
50.3128412186
 20
73.3678902506
 30
0.0
 10
50.2573624
 20
73.6067213284
 30
0.0
 10
50.2470669946
 20
73.7230521167
 30
0.0
 10
50.2470669946
 20
73.7789080034
 30
0.0
  0
SPLINE
  5
2F9
100
AcDbEntity
  8
00_COMPONENTS_1
100
AcDbSpline
 62
7
  6
BYLAYER
 70
0
 71
3
 72
9
 73
5
 74
0
 42
0.0000001
 43
0.0000001
 44
0.0000000001
 40
0.0
 40
0.0
 40
0.0
 40
0.0
 40
0.490752589
 40
1.0
 40
1.0
 40
1.0
 40
1.0
 10
16.5277698859
 20
51.2100926003
 30
0.0
 10
18.5309521555
 20
49.8734502205
 30
0.0
 10
22.7096866319
 20
47.2929584767
 30
0.0
 10
27.0442053148
 20
44.9852873479
 30
0.0
 10
29.283434015
 20
43.8759812878
 30
0.0
  0
SPLINE
  5
2FA
100
AcDbEntity
  8
00_COMPONENTS_1
100
AcDbSpline
 62
7
  6
BYLAYER
 70
0
 71
3
 72
11
 73
7
 74
0
 42
0.0000001
 43
0.0000001
 44
0.0000000001
 40
0.0
 40
0.0
 40
0.0
 40
0.0
 40
0.2320344977
 40
0.4777107327
 40
0.7347023776
 40
1.0
 40
1.0
 40
1.0
 40
1.0
 10
45.1722831005
 20
59.8468825615
 30
0.0
 10
44.8996328921
 20
60.0112540038
 30
0.0
 10
44.3586226832
 20
60.3841263161
 30
0.0
 10
43.5911796694
 20
61.040070773
 30
0.0
 10
42.8568945469
 20
61.7977288711
 30
0.0
 10
42.4040813297
 20
62.3544375062
 30
0.0
 10
42.1861436016
 20
62.6459882177
 30
0.0
  0
SPLINE
  5
2FB
100
AcDbEntity
  8
00_COMPONENTS_1
100
AcDbSpline
 62
7
  6
BYLAYER
 70
0
 71
3
 72
9
 73
5
 74
0
 42
0.0000001
 43
0.0000001
 44
0.0000000001
 40
0.0
 40
0.0
 40
0.0
 40
0.0
 40
0.4826355259
 40
1.0
 40
1.0
 40
1.0
 40
1.0
 10
47.5285687411
 20
61.2220541733
 30
0.0
 10
47.1701093358
 20
61.4390846946
 30
0.0
 10
46.4626884151
 20
61.9482800735
 30
0.0
 10
45.8281090959
 20
62.5442270733
 30
0.0
 10
45.5185087973
 20
62.8696849639
 30
0.0
  0
SPLINE
  5
2FC
100
AcDbEntity
  8
00_COMPONENTS_1
100
AcDbSpline
 62
7
  6
BYLAYER
 70
0
 71
3
 72
11
 73
7
 74
0
 42
0.0000001
 43
0.0000001
 44
0.0000000001
 40
0.0
 40
0.0
 40
0.0
 40
0.0
 40
0.2320344977
 40
0.4777107327
 40
0.7347023776
 40
1.0
 40
1.0
 40
1.0
 40
1.0
 10
37.6769200139
 20
64.1742345595
 30
0.0
 10
37.4042698056
 20
64.3386060017
 30
0.0
 10
36.8632595966
 20
64.711478314
 30
0.0
 10
36.0958165829
 20
65.3674227709
 30
0.0
 10
35.3615314604
 20
66.125080869
 30
0.0
 10
34.9087182432
 20
66.6817895041
 30
0.0
 10
34.6907805151
 20
66.9733402156
 30
0.0
  0
SPLINE
  5
2FD
100
AcDbEntity
  8
00_COMPONENTS_1
100
AcDbSpline
 62
7
  6
BYLAYER
 70
0
 71
3
 72
9
 73
5
 74
0
 42
0.0000001
 43
0.0000001
 44
0.0000000001
 40
0.0
 40
0.0
 40
0.0
 40
0.0
 40
0.4826355259
 40
1.0
 40
1.0
 40
1.0
 40
1.0
 10
40.0332056546
 20
65.5494061712
 30
0.0
 10
39.6747462493
 20
65.7664366925
 30
0.0
 10
38.9673253285
 20
66.2756320714
 30
0.0
 10
38.3327460093
 20
66.8715790712
 30
0.0
 10
38.0231457107
 20
67.1970369618
 30
0.0
  0
SPLINE
  5
2FE
100
AcDbEntity
  8
00_COMPONENTS_1
100
AcDbSpline
 62
7
  6
BYLAYER
 70
0
 71
3
 72
13
 73
9
 74
0
 42
0.0000001
 43
0.0000001
 44
0.0000000001
 40
0.0
 40
0.0
 40
0.0
 40
0.0
 40
0.2754910256
 40
0.529264116
 40
0.6499355871
 40
0.7677470751
 40
0.8839763896
 40
1.0
 40
1.0
 40
1.0
 40
1.0
 10
37.1086595029
 20
25.9401735732
 30
0.0
 10
37.1086595029
 20
25.7735646147
 30
0.0
 10
37.0785040593
 20
25.4521878765
 30
0.0
 10
36.950746899
 20
25.0756546371
 30
0.0
 10
36.7988778229
 20
24.8185653983
 30
0.0
 10
36.6641234335
 20
24.6506552224
 30
0.0
 10
36.5082532784
 20
24.506286026
 30
0.0
 10
36.391570001
 20
24.4269953988
 30
0.0
 10
36.3308025309
 20
24.3919123355
 30
0.0
  0
SPLINE
  5
2FF
100
AcDbEntity
  8
00_COMPONENTS_1
100
AcDbSpline
 62
7
  6
BYLAYER
 70
0
 71
3
 72
11
 73
7
 74
0
 42
0.0000001
 43
0.0000001
 44
0.0000000001
 40
0.0
 40
0.0
 40
0.0
 40
0.0
 40
0.2320344977
 40
0.4777107327
 40
0.7347023776
 40
1.0
 40
1.0
 40
1.0
 40
1.0
 10
30.1815569274
 20
68.5015865574
 30
0.0
 10
29.908906719
 20
68.6659579997
 30
0.0
 10
29.3678965101
 20
69.0388303119
 30
0.0
 10
28.6004534963
 20
69.6947747688
 30
0.0
 10
27.8661683738
 20
70.4524328669
 30
0.0
 10
27.4133551566
 20
71.0091415021
 30
0.0
 10
27.1954174285
 20
71.3006922135
 30
0.0
  0
SPLINE
  5
300
100
AcDbEntity
  8
00_COMPONENTS_1
100
AcDbSpline
 62
7
  6
BYLAYER
 70
0
 71
3
 72
9
 73
5
 74
0
 42
0.0000001
 43
0.0000001
 44
0.0000000001
 40
0.0
 40
0.0
 40
0.0
 40
0.0
 40
0.4826355259
 40
1.0
 40
1.0
 40
1.0
 40
1.0
 10
32.537842568
 20
69.8767581691
 30
0.0
 10
32.1793831627
 20
70.0937886904
 30
0.0
 10
31.4719622419
 20
70.6029840693
 30
0.0
 10
30.8373829228
 20
71.1989310691
 30
0.0
 10
30.5277826242
 20
71.5243889597
 30
0.0
  0
SPLINE
  5
301
100
AcDbEntity
  8
00_COMPONENTS_1
100
AcDbSpline
 62
7
  6
BYLAYER
 70
0
 71
3
 72
11
 73
7
 74
0
 42
0.0000001
 43
0.0000001
 44
0.0000000001
 40
0.0
 40
0.0
 40
0.0
 40
0.0
 40
0.2320344977
 40
0.4777107327
 40
0.7347023776
 40
1.0
 40
1.0
 40
1.0
 40
1.0
 10
22.6861938408
 20
72.8289385553
 30
0.0
 10
22.4135436324
 20
72.9933099976
 30
0.0
 10
21.8725334235
 20
73.3661823098
 30
0.0
 10
21.1050904097
 20
74.0221267667
 30
0.0
 10
20.3708052873
 20
74.7797848648
 30
0.0
 10
19.91799207
 20
75.3364935
 30
0.0
 10
19.700054342
 20
75.6280442114
 30
0.0
  0
SPLINE
  5
302
100
AcDbEntity
  8
00_COMPONENTS_1
100
AcDbSpline
 62
7
  6
BYLAYER
 70
0
 71
3
 72
9
 73
5
 74
0
 42
0.0000001
 43
0.0000001
 44
0.0000000001
 40
0.0
 40
0.0
 40
0.0
 40
0.0
 40
0.4826355259
 40
1.0
 40
1.0
 40
1.0
 40
1.0
 10
25.0424794815
 20
74.204110167
 30
0.0
 10
24.6840200762
 20
74.4211406883
 30
0.0
 10
23.9765991554
 20
74.9303360672
 30
0.0
 10
23.3420198362
 20
75.526283067
 30
0.0
 10
23.0324195376
 20
75.8517409576
 30
0.0
  0
SPLINE
  5
303
100
AcDbEntity
  8
00_COMPONENTS_1
100
AcDbSpline
 62
7
  6
BYLAYER
 70
0
 71
3
 72
13
 73
9
 74
0
 42
0.0000001
 43
0.0000001
 44
0.0000000001
 40
0.0
 40
0.0
 40
0.0
 40
0.0
 40
0.2831617742
 40
0.5398537937
 40
0.6598737527
 40
0.7756091477
 40
0.8884498068
 40
1.0
 40
1.0
 40
1.0
 40
1.0
 10
28.7520870822
 20
29.7703090982
 30
0.0
 10
28.7520870822
 20
29.6048479999
 30
0.0
 10
28.724982093
 20
29.2883036516
 30
0.0
 10
28.6080172938
 20
28.9164991379
 30
0.0
 10
28.4674293423
 20
28.6644241859
 30
0.0
 10
28.3431369389
 20
28.5020666851
 30
0.0
 10
28.1990718468
 20
28.3640215952
 30
0.0
 10
28.0905717988
 20
28.2892171979
 30
0.0
 10
28.0341214184
 20
28.2566269474
 30
0.0
  0
SPLINE
  5
304
100
AcDbEntity
  8
00_COMPONENTS_1
100
AcDbSpline
 62
7
  6
BYLAYER
 70
0
 71
3
 72
11
 73
7
 74
0
 42
0.0000001
 43
0.0000001
 44
0.0000000001
 40
0.0
 40
0.0
 40
0.0
 40
0.0
 40
0.2328609035
 40
0.4774327299
 40
0.7333645586
 40
1.0
 40
1.0
 40
1.0
 40
1.0
 10
8.3863832315
 20
37.4853869971
 30
0.0
 10
10.5279318415
 20
35.692297198
 30
0.0
 10
15.1007963161
 20
32.2293994091
 30
0.0
 10
22.5526817317
 20
27.5377921406
 30
0.0
 10
30.7070798355
 20
23.2562546676
 30
0.0
 10
36.4570823909
 20
20.7465183417
 30
0.0
 10
39.4285001654
 20
19.5636178737
 30
0.0
  0
SPLINE
  5
305
100
AcDbEntity
  8
00_COMPONENTS_1
100
AcDbSpline
 62
7
  6
BYLAYER
 70
0
 71
3
 72
14
 73
10
 74
0
 42
0.0000001
 43
0.0000001
 44
0.0000000001
 40
0.0
 40
0.0
 40
0.0
 40
0.0
 40
0.2914176516
 40
0.4254250853
 40
0.5517121959
 40
0.6710177471
 40
0.7844549698
 40
0.8935052842
 40
1.0
 40
1.0
 40
1.0
 40
1.0
 10
21.0558864165
 20
33.9817081579
 30
0.0
 10
21.0558864165
 20
33.8171562382
 30
0.0
 10
21.0370212138
 20
33.5757886964
 30
0.0
 10
20.964012355
 20
33.2723995078
 30
0.0
 10
20.8898044588
 20
33.0707130957
 30
0.0
 10
20.7953475805
 20
32.8906131325
 30
0.0
 10
20.6813758205
 20
32.7339209793
 30
0.0
 10
20.5491054707
 20
32.6023399713
 30
0.0
 10
20.4488455956
 20
32.5320674409
 30
0.0
 10
20.3967680041
 20
32.5020018419
 30
0.0
  0
SPLINE
  5
306
100
AcDbEntity
  8
00_COMPONENTS_1
100
AcDbSpline
 62
7
  6
BYLAYER
 70
0
 71
3
 72
13
 73
9
 74
0
 42
0.0000001
 43
0.0000001
 44
0.0000000001
 40
0.0
 40
0.0
 40
0.0
 40
0.0
 40
0.300887867
 40
0.5645572345
 40
0.683214321
 40
0.794214697
 40
0.8991194049
 40
1.0
 40
1.0
 40
1.0
 40
1.0
 10
14.0153989152
 20
38.5716811297
 30
0.0
 10
14.0153989152
 20
38.4078313438
 30
0.0
 10
13.993725167
 20
38.0996800175
 30
0.0
 10
13.897182561
 20
37.7368378188
 30
0.0
 10
13.7786507818
 20
37.4948635157
 30
0.0
 10
13.675079642
 20
37.3440700764
 30
0.0
 10
13.5548367115
 20
37.2192227879
 30
0.0
 10
13.4630266555
 20
37.153603571
 30
0.0
 10
13.415451116
 20
37.1261368962
 30
0.0
  0
SPLINE
  5
307
100
AcDbEntity
  8
00_COMPONENTS_1
100
AcDbSpline
 62
7
  6
BYLAYER
 70
0
 71
3
 72
13
 73
9
 74
0
 42
0.0000001
 43
0.0000001
 44
0.0000000001
 40
0.0
 40
0.0
 40
0.0
 40
0.0
 40
0.3008876896
 40
0.56455703
 40
0.683214162
 40
0.7942145971
 40
0.8991193801
 40
1.0
 40
1.0
 40
1.0
 40
1.0
 10
14.0153989152
 20
60.6172463922
 30
0.0
 10
14.0153989152
 20
60.4533966972
 30
0.0
 10
13.9937251995
 20
60.1452454691
 30
0.0
 10
13.8971826513
 20
59.7824033418
 30
0.0
 10
13.7786509258
 20
59.5404289471
 30
0.0
 10
13.6750796666
 20
59.3896354658
 30
0.0
 10
13.5548367465
 20
59.2647880438
 30
0.0
 10
13.4630266351
 20
59.1991687912
 30
0.0
 10
13.4154510725
 20
59.1717021255
 30
0.0
  0
SPLINE
  5
308
100
AcDbEntity
  8
00_COMPONENTS_1
100
AcDbSpline
 62
7
  6
BYLAYER
 70
0
 71
3
 72
14
 73
10
 74
0
 42
0.0000001
 43
0.0000001
 44
0.0000000001
 40
0.0
 40
0.0
 40
0.0
 40
0.0
 40
0.2914174883
 40
0.4254248835
 40
0.5517120147
 40
0.6710176177
 40
0.7844549065
 40
0.8935052836
 40
1.0
 40
1.0
 40
1.0
 40
1.0
 10
21.0558864165
 20
56.0272734204
 30
0.0
 10
21.0558864165
 20
55.8627215919
 30
0.0
 10
21.0370212515
 20
55.6213541618
 30
0.0
 10
20.9640124332
 20
55.3179650668
 30
0.0
 10
20.8898045776
 20
55.1162786211
 30
0.0
 10
20.7953477101
 20
54.9361785556
 30
0.0
 10
20.6813758316
 20
54.7794863639
 30
0.0
 10
20.5491055047
 20
54.6479052337
 30
0.0
 10
20.4488455963
 20
54.5776326749
 30
0.0
 10
20.3967679949
 20
54.5475670918
 30
0.0
  0
SPLINE
  5
309
100
AcDbEntity
  8
00_COMPONENTS_1
100
AcDbSpline
 62
7
  6
BYLAYER
 70
0
 71
3
 72
13
 73
9
 74
0
 42
0.0000001
 43
0.0000001
 44
0.0000000001
 40
0.0
 40
0.0
 40
0.0
 40
0.0
 40
0.2831616213
 40
0.5398536358
 40
0.6598736538
 40
0.7756091202
 40
0.8884498311
 40
1.0
 40
1.0
 40
1.0
 40
1.0
 10
28.7520870822
 20
51.8158743607
 30
0.0
 10
28.7520870822
 20
51.6504133552
 30
0.0
 10
28.7249821357
 20
51.3338691024
 30
0.0
 10
28.6080173768
 20
50.9620646536
 30
0.0
 10
28.4674294559
 20
50.7099896006
 30
0.0
 10
28.3431369322
 20
50.5476320659
 30
0.0
 10
28.1990718842
 20
50.4095868592
 30
0.0
 10
28.0905718235
 20
50.3347824447
 30
0.0
 10
28.0341214474
 20
50.3021922178
 30
0.0
  0
SPLINE
  5
30A
100
AcDbEntity
  8
00_COMPONENTS_1
100
AcDbSpline
 62
7
  6
BYLAYER
 70
0
 71
3
 72
13
 73
9
 74
0
 42
0.0000001
 43
0.0000001
 44
0.0000000001
 40
0.0
 40
0.0
 40
0.0
 40
0.0
 40
0.2754908803
 40
0.5292639744
 40
0.6499355139
 40
0.7677470838
 40
0.8839764435
 40
1.0
 40
1.0
 40
1.0
 40
1.0
 10
37.1086595029
 20
47.9857388357
 30
0.0
 10
37.1086595029
 20
47.8191299724
 30
0.0
 10
37.0785041028
 20
47.4977533306
 30
0.0
 10
36.950746981
 20
47.1212201506
 30
0.0
 10
36.7988779188
 20
46.864130803
 30
0.0
 10
36.6641233973
 20
46.6962205969
 30
0.0
 10
36.5082533119
 20
46.551851281
 30
0.0
 10
36.3915700416
 20
46.4725606512
 30
0.0
 10
36.3308025932
 20
46.4374776215
 30
0.0
  0
SPLINE
  5
30B
100
AcDbEntity
  8
00_COMPONENTS_1
100
AcDbSpline
 62
7
  6
BYLAYER
 70
0
 71
3
 72
11
 73
7
 74
0
 42
0.0000001
 43
0.0000001
 44
0.0000000001
 40
0.0
 40
0.0
 40
0.0
 40
0.0
 40
0.2652976224
 40
0.5222892673
 40
0.7679655023
 40
1.0
 40
1.0
 40
1.0
 40
1.0
 10
43.9791479975
 20
63.681173609
 30
0.0
 10
44.1970857255
 20
63.3896228976
 30
0.0
 10
44.6498989428
 20
62.8329142624
 30
0.0
 10
45.3841840652
 20
62.0752561643
 30
0.0
 10
46.151627079
 20
61.4193117074
 30
0.0
 10
46.6926372879
 20
61.0464393952
 30
0.0
 10
46.9652874963
 20
60.8820679529
 30
0.0
  0
SPLINE
  5
30C
100
AcDbEntity
  8
00_COMPONENTS_1
100
AcDbSpline
 62
7
  6
BYLAYER
 70
0
 71
3
 72
20
 73
16
 74
0
 42
0.0000001
 43
0.0000001
 44
0.0000000001
 40
0.0
 40
0.0
 40
0.0
 40
0.0
 40
0.0475646615
 40
0.0969887875
 40
0.1491368017
 40
0.2045435544
 40
0.325425968
 40
0.3907745979
 40
0.4586884288
 40
0.5992368104
 40
0.7407474172
 40
0.8097374275
 40
0.8763750772
 40
0.939997249
 40
1.0
 40
1.0
 40
1.0
 40
1.0
 10
36.3308025309
 20
24.3919123355
 30
0.0
 10
36.2380920792
 20
24.3383875362
 30
0.0
 10
36.0361257725
 20
24.250331869
 30
0.0
 10
35.7051221466
 20
24.183019662
 30
0.0
 10
35.3498815274
 20
24.1792267762
 30
0.0
 10
34.840225611
 20
24.2603595166
 30
0.0
 10
34.329103618
 20
24.467884643
 30
0.0
 10
33.8435193168
 20
24.771313288
 30
0.0
 10
33.3588188831
 20
25.1538267803
 30
0.0
 10
32.8191000564
 20
25.7347931761
 30
0.0
 10
32.3966385603
 20
26.4085340798
 30
0.0
 10
32.1461063127
 20
26.9807426046
 30
0.0
 10
32.0094775116
 20
27.4088250182
 30
0.0
 10
31.9255887146
 20
27.829667122
 30
0.0
 10
31.9052749614
 20
28.1081440911
 30
0.0
 10
31.9052749614
 20
28.2431900404
 30
0.0
  0
SPLINE
  5
30D
100
AcDbEntity
  8
00_COMPONENTS_1
100
AcDbSpline
 62
7
  6
BYLAYER
 70
0
 71
3
 72
9
 73
5
 74
0
 42
0.0000001
 43
0.0000001
 44
0.0000000001
 40
0.0
 40
0.0
 40
0.0
 40
0.0
 40
0.2462621285
 40
1.0
 40
1.0
 40
1.0
 40
1.0
 10
45.5185087973
 20
62.8696849639
 30
0.0
 10
45.4338596673
 20
62.9586697853
 30
0.0
 10
45.0957591297
 20
63.3253429767
 30
0.0
 10
44.7800045945
 20
63.7125232567
 30
0.0
 10
44.5549414563
 20
64.0136061332
 30
0.0
  0
SPLINE
  5
30E
100
AcDbEntity
  8
00_COMPONENTS_1
100
AcDbSpline
 62
7
  6
BYLAYER
 70
0
 71
3
 72
11
 73
7
 74
0
 42
0.0000001
 43
0.0000001
 44
0.0000000001
 40
0.0
 40
0.0
 40
0.0
 40
0.0
 40
0.2652976224
 40
0.5222892673
 40
0.7679655023
 40
1.0
 40
1.0
 40
1.0
 40
1.0
 10
36.4837849109
 20
68.008525607
 30
0.0
 10
36.701722639
 20
67.7169748955
 30
0.0
 10
37.1545358562
 20
67.1602662603
 30
0.0
 10
37.8888209787
 20
66.4026081623
 30
0.0
 10
38.6562639924
 20
65.7466637054
 30
0.0
 10
39.1972742014
 20
65.3737913931
 30
0.0
 10
39.4699244098
 20
65.2094199508
 30
0.0
  0
SPLINE
  5
30F
100
AcDbEntity
  8
00_COMPONENTS_1
100
AcDbSpline
 62
7
  6
BYLAYER
 70
0
 71
3
 72
13
 73
9
 74
0
 42
0.0000001
 43
0.0000001
 44
0.0000000001
 40
0.0
 40
0.0
 40
0.0
 40
0.0
 40
0.2792543453
 40
0.5341340257
 40
0.6543020951
 40
0.7710106262
 40
0.885708464
 40
1.0
 40
1.0
 40
1.0
 40
1.0
 10
31.9052749614
 20
28.2431900404
 30
0.0
 10
31.9052749614
 20
28.4090982734
 30
0.0
 10
31.9335231233
 20
28.7276042813
 30
0.0
 10
32.0549014712
 20
29.10148903
 30
0.0
 10
32.2005086721
 20
29.3558089462
 30
0.0
 10
32.3297993625
 20
29.5208561073
 30
0.0
 10
32.4799222521
 20
29.662146993
 30
0.0
 10
32.5927654575
 20
29.7392776706
 30
0.0
 10
32.6515707239
 20
29.7732278056
 30
0.0
  0
SPLINE
  5
310
100
AcDbEntity
  8
00_COMPONENTS_1
100
AcDbSpline
 62
7
  6
BYLAYER
 70
0
 71
3
 72
9
 73
5
 74
0
 42
0.0000001
 43
0.0000001
 44
0.0000000001
 40
0.0
 40
0.0
 40
0.0
 40
0.0
 40
0.2462621285
 40
1.0
 40
1.0
 40
1.0
 40
1.0
 10
38.0231457107
 20
67.1970369618
 30
0.0
 10
37.9384965808
 20
67.2860217832
 30
0.0
 10
37.6003960432
 20
67.6526949746
 30
0.0
 10
37.2846415079
 20
68.0398752546
 30
0.0
 10
37.0595783698
 20
68.3409581311
 30
0.0
  0
SPLINE
  5
311
100
AcDbEntity
  8
00_COMPONENTS_1
100
AcDbSpline
 62
7
  6
BYLAYER
 70
0
 71
3
 72
21
 73
17
 74
0
 42
0.0000001
 43
0.0000001
 44
0.0000000001
 40
0.0
 40
0.0
 40
0.0
 40
0.0
 40
0.0449031538
 40
0.0915367722
 40
0.1410835801
 40
0.1943188996
 40
0.2516029856
 40
0.3129209523
 40
0.3779552193
 40
0.4461512097
 40
0.5887646525
 40
0.733677212
 40
0.804583954
 40
0.8731302364
 40
0.9385203425
 40
1.0
 40
1.0
 40
1.0
 40
1.0
 10
28.0341214474
 20
50.3021922178
 30
0.0
 10
27.9488632265
 20
50.2529704951
 30
0.0
 10
27.7620958999
 20
50.173605561
 30
0.0
 10
27.4548579637
 20
50.1210079698
 30
0.0
 10
27.1254225365
 20
50.1337461885
 30
0.0
 10
26.7813363959
 20
50.2106457834
 30
0.0
 10
26.4297148276
 20
50.3495629685
 30
0.0
 10
26.0777660334
 20
50.5472709105
 30
0.0
 10
25.7326200203
 20
50.7994455477
 30
0.0
 10
25.2846262866
 20
51.20711514
 30
0.0
 10
24.7885489167
 20
51.815114762
 30
0.0
 10
24.4033976667
 20
52.504979941
 30
0.0
 10
24.1748045143
 20
53.085812572
 30
0.0
 10
24.0501510384
 20
53.5180520161
 30
0.0
 10
23.9736556666
 20
53.9403536368
 30
0.0
 10
23.9550362896
 20
54.2186969946
 30
0.0
 10
23.9550362896
 20
54.3534863268
 30
0.0
  0
SPLINE
  5
312
100
AcDbEntity
  8
00_COMPONENTS_1
100
AcDbSpline
 62
7
  6
BYLAYER
 70
0
 71
3
 72
11
 73
7
 74
0
 42
0.0000001
 43
0.0000001
 44
0.0000000001
 40
0.0
 40
0.0
 40
0.0
 40
0.0
 40
0.2652976224
 40
0.5222892673
 40
0.7679655023
 40
1.0
 40
1.0
 40
1.0
 40
1.0
 10
28.9884218243
 20
72.3358776049
 30
0.0
 10
29.2063595524
 20
72.0443268934
 30
0.0
 10
29.6591727696
 20
71.4876182582
 30
0.0
 10
30.3934578921
 20
70.7299601602
 30
0.0
 10
31.1609009059
 20
70.0740157033
 30
0.0
 10
31.7019111148
 20
69.701143391
 30
0.0
 10
31.9745613232
 20
69.5367719487
 30
0.0
  0
SPLINE
  5
313
100
AcDbEntity
  8
00_COMPONENTS_1
100
AcDbSpline
 62
7
  6
BYLAYER
 70
0
 71
3
 72
20
 73
16
 74
0
 42
0.0000001
 43
0.0000001
 44
0.0000000001
 40
0.0
 40
0.0
 40
0.0
 40
0.0
 40
0.0475646501
 40
0.0969887796
 40
0.1491368356
 40
0.2045436093
 40
0.3254259773
 40
0.3907745939
 40
0.4586883387
 40
0.5992367101
 40
0.7407473805
 40
0.8097373801
 40
0.8763750485
 40
0.9399972404
 40
1.0
 40
1.0
 40
1.0
 40
1.0
 10
36.3308025932
 20
46.4374776215
 30
0.0
 10
36.238092149
 20
46.3839528585
 30
0.0
 10
36.036125888
 20
46.295897145
 30
0.0
 10
35.7051221715
 20
46.2285849189
 30
0.0
 10
35.3498814069
 20
46.2247921149
 30
0.0
 10
34.8402254129
 20
46.3059246805
 30
0.0
 10
34.3291036021
 20
46.5134500734
 30
0.0
 10
33.8435195066
 20
46.816878405
 30
0.0
 10
33.3588191516
 20
47.199391634
 30
0.0
 10
32.819100654
 20
47.7803582102
 30
0.0
 10
32.3966386012
 20
48.4540988799
 30
0.0
 10
32.1461064095
 20
49.0263076243
 30
0.0
 10
32.0094775675
 20
49.4543900888
 30
0.0
 10
31.9255887053
 20
49.8752322955
 30
0.0
 10
31.9052749614
 20
50.1537093332
 30
0.0
 10
31.9052749614
 20
50.2887553029
 30
0.0
  0
SPLINE
  5
314
100
AcDbEntity
  8
00_COMPONENTS_1
100
AcDbSpline
 62
7
  6
BYLAYER
 70
0
 71
3
 72
9
 73
5
 74
0
 42
0.0000001
 43
0.0000001
 44
0.0000000001
 40
0.0
 40
0.0
 40
0.0
 40
0.0
 40
0.2462621285
 40
1.0
 40
1.0
 40
1.0
 40
1.0
 10
30.5277826242
 20
71.5243889597
 30
0.0
 10
30.4431334942
 20
71.6133737811
 30
0.0
 10
30.1050329566
 20
71.9800469725
 30
0.0
 10
29.7892784214
 20
72.3672272525
 30
0.0
 10
29.5642152832
 20
72.668310129
 30
0.0
  0
SPLINE
  5
315
100
AcDbEntity
  8
00_COMPONENTS_1
100
AcDbSpline
 62
7
  6
BYLAYER
 70
0
 71
3
 72
13
 73
9
 74
0
 42
0.0000001
 43
0.0000001
 44
0.0000000001
 40
0.0
 40
0.0
 40
0.0
 40
0.0
 40
0.1141764757
 40
0.2375702783
 40
0.5000009872
 40
0.7624311564
 40
0.8858243582
 40
1.0
 40
1.0
 40
1.0
 40
1.0
 10
47.5600724132
 20
72.2275802187
 30
0.0
 10
47.5600724132
 20
72.1717243551
 30
0.0
 10
47.5703677848
 20
72.0553936333
 30
0.0
 10
47.6258465991
 20
71.8165626509
 30
0.0
 10
47.7551112245
 20
71.5236873796
 30
0.0
 10
47.9441173081
 20
71.2653043099
 30
0.0
 10
48.1232119751
 20
71.097844558
 30
0.0
 10
48.2188096213
 20
71.030764301
 30
0.0
 10
48.2671821383
 20
71.002837047
 30
0.0
  0
SPLINE
  5
316
100
AcDbEntity
  8
00_COMPONENTS_1
100
AcDbSpline
 62
7
  6
BYLAYER
 70
0
 71
3
 72
11
 73
7
 74
0
 42
0.0000001
 43
0.0000001
 44
0.0000000001
 40
0.0
 40
0.0
 40
0.0
 40
0.0
 40
0.2895362931
 40
0.5491119104
 40
0.782252836
 40
1.0
 40
1.0
 40
1.0
 40
1.0
 10
45.0851883751
 20
72.8399204424
 30
0.0
 10
45.1290414742
 20
72.8146024166
 30
0.0
 10
45.2163527913
 20
72.7731227811
 30
0.0
 10
45.3504970969
 20
72.7406536091
 30
0.0
 10
45.4764298319
 20
72.743810298
 30
0.0
 10
45.5521824795
 20
72.7713967098
 30
0.0
 10
45.5851622776
 20
72.7904374892
 30
0.0
  0
SPLINE
  5
317
100
AcDbEntity
  8
00_COMPONENTS_1
100
AcDbSpline
 62
7
  6
BYLAYER
 70
0
 71
3
 72
11
 73
7
 74
0
 42
0.0000001
 43
0.0000001
 44
0.0000000001
 40
0.0
 40
0.0
 40
0.0
 40
0.0
 40
0.2652976224
 40
0.5222892673
 40
0.7679655023
 40
1.0
 40
1.0
 40
1.0
 40
1.0
 10
21.4930587378
 20
76.6632296028
 30
0.0
 10
21.7109964658
 20
76.3716788913
 30
0.0
 10
22.1638096831
 20
75.8149702562
 30
0.0
 10
22.8980948056
 20
75.0573121581
 30
0.0
 10
23.6655378193
 20
74.4013677012
 30
0.0
 10
24.2065480283
 20
74.0284953889
 30
0.0
 10
24.4791982366
 20
73.8641239466
 30
0.0
  0
SPLINE
  5
318
100
AcDbEntity
  8
00_COMPONENTS_1
100
AcDbSpline
 62
7
  6
BYLAYER
 70
0
 71
3
 72
9
 73
5
 74
0
 42
0.0000001
 43
0.0000001
 44
0.0000000001
 40
0.0
 40
0.0
 40
0.0
 40
0.0
 40
0.2462621285
 40
1.0
 40
1.0
 40
1.0
 40
1.0
 10
23.0324195376
 20
75.8517409576
 30
0.0
 10
22.9477704076
 20
75.940725779
 30
0.0
 10
22.6096698701
 20
76.3073989704
 30
0.0
 10
22.2939153348
 20
76.6945792505
 30
0.0
 10
22.0688521966
 20
76.9956621269
 30
0.0
  0
SPLINE
  5
319
100
AcDbEntity
  8
00_COMPONENTS_1
100
AcDbSpline
 62
7
  6
BYLAYER
 70
0
 71
3
 72
11
 73
7
 74
0
 42
0.0000001
 43
0.0000001
 44
0.0000000001
 40
0.0
 40
0.0
 40
0.0
 40
0.0
 40
0.2666354414
 40
0.5225672701
 40
0.7671390965
 40
1.0
 40
1.0
 40
1.0
 40
1.0
 10
39.4285001654
 20
52.468665284
 30
0.0
 10
36.4570823909
 20
53.651565752
 30
0.0
 10
30.7070798355
 20
56.1613020779
 30
0.0
 10
22.5526817317
 20
60.4428395509
 30
0.0
 10
15.1007963161
 20
65.1344468194
 30
0.0
 10
10.5279318415
 20
68.5973446083
 30
0.0
 10
8.3863832315
 20
70.3904344074
 30
0.0
  0
SPLINE
  5
31A
100
AcDbEntity
  8
00_COMPONENTS_1
100
AcDbSpline
 62
7
  6
BYLAYER
 70
0
 71
3
 72
13
 73
9
 74
0
 42
0.0000001
 43
0.0000001
 44
0.0000000001
 40
0.0
 40
0.0
 40
0.0
 40
0.0
 40
0.2872581249
 40
0.5452182704
 40
0.6647240509
 40
0.7792694277
 40
0.8904138157
 40
1.0
 40
1.0
 40
1.0
 40
1.0
 10
23.9550362896
 20
32.3079210643
 30
0.0
 10
23.9550362896
 20
32.4728083482
 30
0.0
 10
23.9803933459
 20
32.7867391708
 30
0.0
 10
24.0912622419
 20
33.1559971015
 30
0.0
 10
24.2257471382
 20
33.4053267407
 30
0.0
 10
24.3446711364
 20
33.5647862853
 30
0.0
 10
24.4830258858
 20
33.699710126
 30
0.0
 10
24.5876848846
 20
33.7723463429
 30
0.0
 10
24.6421610043
 20
33.80379673
 30
0.0
  0
SPLINE
  5
31B
100
AcDbEntity
  8
00_COMPONENTS_1
100
AcDbSpline
 62
7
  6
BYLAYER
 70
0
 71
3
 72
21
 73
17
 74
0
 42
0.0000001
 43
0.0000001
 44
0.0000000001
 40
0.0
 40
0.0
 40
0.0
 40
0.0
 40
0.0449031581
 40
0.0915367811
 40
0.1410835539
 40
0.1943188531
 40
0.2516029776
 40
0.3129209509
 40
0.3779552341
 40
0.4461513137
 40
0.5887647621
 40
0.7336772584
 40
0.8045840085
 40
0.8731302693
 40
0.9385203523
 40
1.0
 40
1.0
 40
1.0
 40
1.0
 10
28.0341214184
 20
28.2566269474
 30
0.0
 10
27.9488632037
 20
28.2074051962
 30
0.0
 10
27.7620958225
 20
28.1280403266
 30
0.0
 10
27.4548579661
 20
28.0754427178
 30
0.0
 10
27.1254226386
 20
28.0881808306
 30
0.0
 10
26.7813365663
 20
28.1650805608
 30
0.0
 10
26.4297149279
 20
28.3039976795
 30
0.0
 10
26.0777659591
 20
28.5017055976
 30
0.0
 10
25.7326198175
 20
28.7538804797
 30
0.0
 10
25.2846259817
 20
29.1615503058
 30
0.0
 10
24.7885484871
 20
29.7695499226
 30
0.0
 10
24.4033975498
 20
30.4594151451
 30
0.0
 10
24.1748044073
 20
31.0402475903
 30
0.0
 10
24.0501509789
 20
31.472486965
 30
0.0
 10
23.9736556682
 20
31.8947884711
 30
0.0
 10
23.9550362896
 20
32.1731317542
 30
0.0
 10
23.9550362896
 20
32.3079210643
 30
0.0
  0
SPLINE
  5
31C
100
AcDbEntity
  8
00_COMPONENTS_1
100
AcDbSpline
 62
7
  6
BYLAYER
 70
0
 71
3
 72
22
 73
18
 74
0
 42
0.0000001
 43
0.0000001
 44
0.0000000001
 40
0.0
 40
0.0
 40
0.0
 40
0.0
 40
0.0420427695
 40
0.0856639989
 40
0.1324100079
 40
0.1833143819
 40
0.238881528
 40
0.2991528132
 40
0.3638084607
 40
0.4322553652
 40
0.5036865119
 40
0.5771451378
 40
0.7257490129
 40
0.7987836478
 40
0.8694678465
 40
0.9368488481
 40
1.0
 40
1.0
 40
1.0
 40
1.0
 10
20.3967679949
 20
54.5475670918
 30
0.0
 10
20.3188290417
 20
54.5025711624
 30
0.0
 10
20.1469897425
 20
54.431747728
 30
0.0
 10
19.8633778408
 20
54.393860815
 30
0.0
 10
19.5600993415
 20
54.4230328452
 30
0.0
 10
19.2441741628
 20
54.5172378654
 30
0.0
 10
18.9219292813
 20
54.6737329011
 30
0.0
 10
18.599777721
 20
54.8888609765
 30
0.0
 10
18.2841484926
 20
55.1579364812
 30
0.0
 10
17.9815067259
 20
55.4752566301
 30
0.0
 10
17.6979448629
 20
55.8340255255
 30
0.0
 10
17.3518991506
 20
56.359034539
 30
0.0
 10
17.0697284472
 20
56.9279108142
 30
0.0
 10
16.8613303634
 20
57.5184782097
 30
0.0
 10
16.7475011645
 20
57.9564316699
 30
0.0
 10
16.6776208503
 20
58.3820471789
 30
0.0
 10
16.6605107822
 20
58.661612422
 30
0.0
 10
16.6605107822
 20
58.796791263
 30
0.0
  0
SPLINE
  5
31D
100
AcDbEntity
  8
00_COMPONENTS_1
100
AcDbSpline
 62
7
  6
BYLAYER
 70
0
 71
3
 72
22
 73
18
 74
0
 42
0.0000001
 43
0.0000001
 44
0.0000000001
 40
0.0
 40
0.0
 40
0.0
 40
0.0
 40
0.038913767
 40
0.0792545993
 40
0.1229898723
 40
0.1714186081
 40
0.2251679048
 40
0.2843149016
 40
0.348529838
 40
0.4171875149
 40
0.4894332012
 40
0.5642457828
 40
0.716837394
 40
0.7922356951
 40
0.8653223012
 40
0.9349545349
 40
1.0
 40
1.0
 40
1.0
 40
1.0
 10
13.4154510725
 20
59.1717021255
 30
0.0
 10
13.3448668119
 20
59.1309519129
 30
0.0
 10
13.1879619113
 20
59.0686971735
 30
0.0
 10
12.9282943985
 20
59.0459090282
 30
0.0
 10
12.6521044915
 20
59.0917553323
 30
0.0
 10
12.365626692
 20
59.2030003336
 30
0.0
 10
12.0741138319
 20
59.3763082817
 30
0.0
 10
11.7830152853
 20
59.6077319668
 30
0.0
 10
11.4979026736
 20
59.8924136556
 30
0.0
 10
11.2244580936
 20
60.2245261163
 30
0.0
 10
10.9680753685
 20
60.5971925003
 30
0.0
 10
10.6539831644
 20
61.1410808492
 30
0.0
 10
10.3985657985
 20
61.7245469826
 30
0.0
 10
10.2094021313
 20
62.3265277247
 30
0.0
 10
10.1057741997
 20
62.7719804785
 30
0.0
 10
10.0420624329
 20
63.2029293337
 30
0.0
 10
10.0263570297
 20
63.4851253768
 30
0.0
 10
10.0263570297
 20
63.6213597338
 30
0.0
  0
SPLINE
  5
31E
100
AcDbEntity
  8
00_COMPONENTS_1
100
AcDbSpline
 62
7
  6
BYLAYER
 70
0
 71
3
 72
22
 73
18
 74
0
 42
0.0000001
 43
0.0000001
 44
0.0000000001
 40
0.0
 40
0.0
 40
0.0
 40
0.0
 40
0.0420427686
 40
0.0856640102
 40
0.1324099895
 40
0.1833143428
 40
0.238881524
 40
0.299152814
 40
0.3638084785
 40
0.4322554719
 40
0.503686655
 40
0.5771452476
 40
0.7257490569
 40
0.7987837021
 40
0.8694678796
 40
0.9368488578
 40
1.0
 40
1.0
 40
1.0
 40
1.0
 10
20.3967680041
 20
32.5020018419
 30
0.0
 10
20.3188290667
 20
32.4570058891
 30
0.0
 10
20.1469897025
 20
32.3861825339
 30
0.0
 10
19.8633778695
 20
32.3482955628
 30
0.0
 10
19.5600994262
 20
32.3774674601
 30
0.0
 10
19.2441743228
 20
32.4716726285
 30
0.0
 10
18.9219293819
 20
32.6281676073
 30
0.0
 10
18.5997776612
 20
32.8432956753
 30
0.0
 10
18.2841483142
 20
33.1123714113
 30
0.0
 10
17.9815063831
 20
33.4296918208
 30
0.0
 10
17.6979444181
 20
33.7884608897
 30
0.0
 10
17.3518989276
 20
34.3134698874
 30
0.0
 10
17.0697282847
 20
34.8823459684
 30
0.0
 10
16.8613302655
 20
35.4729132151
 30
0.0
 10
16.747501105
 20
35.9108666096
 30
0.0
 10
16.6776208488
 20
36.3364820094
 30
0.0
 10
16.6605107822
 20
36.6160471805
 30
0.0
 10
16.6605107822
 20
36.7512260005
 30
0.0
  0
SPLINE
  5
31F
100
AcDbEntity
  8
00_COMPONENTS_1
100
AcDbSpline
 62
7
  6
BYLAYER
 70
0
 71
3
 72
14
 73
10
 74
0
 42
0.0000001
 43
0.0000001
 44
0.0000000001
 40
0.0
 40
0.0
 40
0.0
 40
0.0
 40
0.2959621275
 40
0.4311088131
 40
0.5576955513
 40
0.67646119
 40
0.7885922889
 40
0.8957429673
 40
1.0
 40
1.0
 40
1.0
 40
1.0
 10
16.6605107822
 20
36.7512260005
 30
0.0
 10
16.6605107822
 20
36.9153104357
 30
0.0
 10
16.6781148719
 20
37.1553838538
 30
0.0
 10
16.7473202375
 20
37.457231947
 30
0.0
 10
16.8176234487
 20
37.6566873053
 30
0.0
 10
16.9073249161
 20
37.8341147805
 30
0.0
 10
17.0159009247
 20
37.9878116676
 30
0.0
 10
17.1423831186
 20
38.1161681114
 30
0.0
 10
17.2387301428
 20
38.1842272709
 30
0.0
 10
17.2887880176
 20
38.2131268222
 30
0.0
  0
SPLINE
  5
320
100
AcDbEntity
  8
00_COMPONENTS_1
100
AcDbSpline
 62
7
  6
BYLAYER
 70
0
 71
3
 72
13
 73
9
 74
0
 42
0.0000001
 43
0.0000001
 44
0.0000000001
 40
0.0
 40
0.0
 40
0.0
 40
0.0
 40
0.3060270766
 40
0.571372942
 40
0.6894379234
 40
0.7989677527
 40
0.9017041812
 40
1.0
 40
1.0
 40
1.0
 40
1.0
 10
10.0263570297
 20
41.5757944713
 30
0.0
 10
10.0263570297
 20
41.7392716484
 30
0.0
 10
10.0464376129
 20
42.0451080234
 30
0.0
 10
10.1369642796
 20
42.405409959
 30
0.0
 10
10.2492368737
 20
42.6444669625
 30
0.0
 10
10.3472653272
 20
42.7920889513
 30
0.0
 10
10.4615187384
 20
42.913542704
 30
0.0
 10
10.5492685465
 20
42.9768646161
 30
0.0
 10
10.5947429635
 20
43.0031182705
 30
0.0
  0
SPLINE
  5
321
100
AcDbEntity
  8
00_COMPONENTS_1
100
AcDbSpline
 62
7
  6
BYLAYER
 70
0
 71
3
 72
13
 73
9
 74
0
 42
0.0000001
 43
0.0000001
 44
0.0000000001
 40
0.0
 40
0.0
 40
0.0
 40
0.0
 40
0.3060268872
 40
0.5713727169
 40
0.6894377513
 40
0.7989676497
 40
0.9017041627
 40
1.0
 40
1.0
 40
1.0
 40
1.0
 10
10.0263570297
 20
63.6213597338
 30
0.0
 10
10.0263570297
 20
63.784836818
 30
0.0
 10
10.0464375832
 20
64.0906730893
 30
0.0
 10
10.1369641757
 20
64.4509749585
 30
0.0
 10
10.2492367293
 20
64.6900320556
 30
0.0
 10
10.3472653176
 20
64.8376540953
 30
0.0
 10
10.4615187244
 20
64.9591079844
 30
0.0
 10
10.5492685877
 20
65.0224299363
 30
0.0
 10
10.5947430247
 20
65.048683581
 30
0.0
  0
SPLINE
  5
322
100
AcDbEntity
  8
00_COMPONENTS_1
100
AcDbSpline
 62
7
  6
BYLAYER
 70
0
 71
3
 72
22
 73
18
 74
0
 42
0.0000001
 43
0.0000001
 44
0.0000000001
 40
0.0
 40
0.0
 40
0.0
 40
0.0
 40
0.0389137602
 40
0.0792546106
 40
0.1229898592
 40
0.1714185749
 40
0.2251678996
 40
0.2843148964
 40
0.3485298487
 40
0.4171876116
 40
0.4894333338
 40
0.5642458814
 40
0.7168374215
 40
0.7922357406
 40
0.8653223298
 40
0.9349545433
 40
1.0
 40
1.0
 40
1.0
 40
1.0
 10
13.415451116
 20
37.1261368962
 30
0.0
 10
13.3448668819
 20
37.0853866656
 30
0.0
 10
13.187961912
 20
37.0231320224
 30
0.0
 10
12.928294461
 20
37.0003437807
 30
0.0
 10
12.6521045639
 20
37.0461899151
 30
0.0
 10
12.3656268511
 20
37.157435064
 30
0.0
 10
12.0741139612
 20
37.3307429711
 30
0.0
 10
11.7830152866
 20
37.5621666555
 30
0.0
 10
11.4979025661
 20
37.8468485408
 30
0.0
 10
11.2244578103
 20
38.1789612326
 30
0.0
 10
10.9680750774
 20
38.5516278425
 30
0.0
 10
10.6539831604
 20
39.0955161834
 30
0.0
 10
10.3985656323
 20
39.6789820375
 30
0.0
 10
10.2094020461
 20
40.2809626604
 30
0.0
 10
10.1057741378
 20
40.7264153789
 30
0.0
 10
10.0420624308
 20
41.1573641481
 30
0.0
 10
10.0263570297
 20
41.4395601313
 30
0.0
 10
10.0263570297
 20
41.5757944713
 30
0.0
  0
SPLINE
  5
323
100
AcDbEntity
  8
00_COMPONENTS_1
100
AcDbSpline
 62
7
  6
BYLAYER
 70
0
 71
3
 72
14
 73
10
 74
0
 42
0.0000001
 43
0.0000001
 44
0.0000000001
 40
0.0
 40
0.0
 40
0.0
 40
0.0
 40
0.2959619578
 40
0.4311085997
 40
0.5576953568
 40
0.6764610526
 40
0.7885922256
 40
0.8957429731
 40
1.0
 40
1.0
 40
1.0
 40
1.0
 10
16.6605107822
 20
58.796791263
 30
0.0
 10
16.6605107822
 20
58.9608756069
 30
0.0
 10
16.6781148388
 20
59.2009489105
 30
0.0
 10
16.7473201548
 20
59.5027969095
 30
0.0
 10
16.817623322
 20
59.7022523033
 30
0.0
 10
16.9073247875
 20
59.8796798839
 30
0.0
 10
17.0159009272
 20
60.0333768151
 30
0.0
 10
17.1423831022
 20
60.1617333821
 30
0.0
 10
17.2387301586
 20
60.2297925726
 30
0.0
 10
17.2887880407
 20
60.2586921068
 30
0.0
  0
SPLINE
  5
324
100
AcDbEntity
  8
00_COMPONENTS_1
100
AcDbSpline
 62
7
  6
BYLAYER
 70
0
 71
3
 72
13
 73
9
 74
0
 42
0.0000001
 43
0.0000001
 44
0.0000000001
 40
0.0
 40
0.0
 40
0.0
 40
0.0
 40
0.2872579688
 40
0.5452181033
 40
0.6647239458
 40
0.7792693993
 40
0.8904138435
 40
1.0
 40
1.0
 40
1.0
 40
1.0
 10
23.9550362896
 20
54.3534863268
 30
0.0
 10
23.9550362896
 20
54.518373519
 30
0.0
 10
23.9803933088
 20
54.8323042438
 30
0.0
 10
24.0912621514
 20
55.2015621146
 30
0.0
 10
24.2257470253
 20
55.450891853
 30
0.0
 10
24.3446711528
 20
55.6103514349
 30
0.0
 10
24.4830258626
 20
55.7452753921
 30
0.0
 10
24.5876848745
 20
55.8179116284
 30
0.0
 10
24.6421609891
 20
55.849361991
 30
0.0
  0
SPLINE
  5
325
100
AcDbEntity
  8
00_COMPONENTS_1
100
AcDbSpline
 62
7
  6
BYLAYER
 70
0
 71
3
 72
13
 73
9
 74
0
 42
0.0000001
 43
0.0000001
 44
0.0000000001
 40
0.0
 40
0.0
 40
0.0
 40
0.0
 40
0.2792541984
 40
0.5341338769
 40
0.6543020148
 40
0.7710106299
 40
0.885708516
 40
1.0
 40
1.0
 40
1.0
 40
1.0
 10
31.9052749614
 20
50.2887553029
 30
0.0
 10
31.9052749614
 20
50.454663443
 30
0.0
 10
31.9335230833
 20
50.7731693538
 30
0.0
 10
32.0549013825
 20
51.1470540472
 30
0.0
 10
32.2005085746
 20
51.4013740682
 30
0.0
 10
32.3297994023
 20
51.5664212606
 30
0.0
 10
32.4799222291
 20
51.7077122649
 30
0.0
 10
32.5927654313
 20
51.7848429481
 30
0.0
 10
32.6515706785
 20
51.81879305
 30
0.0
  0
ELLIPSE
  5
326
100
AcDbEntity
  8
00_COMPONENTS_1
100
AcDbEllipse
 62
7
  6
BYLAYER
 10
30.3291027843
 20
78.9118706114
 30
0.0
 11
-1.5359456422
 21
2.9692843387
 31
0.0
 40
0.5757057628
 41
1.0133373161
 42
1.8738483176
  0
ELLIPSE
  5
327
100
AcDbEntity
  8
00_COMPONENTS_1
100
AcDbEllipse
 62
7
  6
BYLAYER
 10
37.8244658708
 20
74.5845186135
 30
0.0
 11
-1.5359456422
 21
2.9692843387
 31
0.0
 40
0.5757057628
 41
0.9927341483
 42
1.8595064794
  0
ELLIPSE
  5
328
100
AcDbEntity
  8
00_COMPONENTS_1
100
AcDbEllipse
 62
7
  6
BYLAYER
 10
45.3198289574
 20
70.2571666156
 30
0.0
 11
-1.5359456422
 21
2.9692843387
 31
0.0
 40
0.5757057628
 41
1.0133373161
 42
1.8738483176
  0
ELLIPSE
  5
329
100
AcDbEntity
  8
00_COMPONENTS_1
100
AcDbEllipse
 62
7
  6
BYLAYER
 10
52.815192044
 20
65.9298146177
 30
0.0
 11
-1.5359456422
 21
2.9692843387
 31
0.0
 40
0.5757057628
 41
0.9927341483
 42
1.8595064794
  0
ELLIPSE
  5
32A
100
AcDbEntity
  8
00_COMPONENTS_1
100
AcDbEllipse
 62
7
  6
BYLAYER
 10
47.5826236486
 20
62.908807879
 30
0.0
 11
-1.5359456422
 21
2.9692843387
 31
0.0
 40
0.5757057628
 41
0.9927341483
 42
1.293987292
  0
ELLIPSE
  5
32B
100
AcDbEntity
  8
00_COMPONENTS_1
100
AcDbEllipse
 62
7
  6
BYLAYER
 10
40.087260562
 20
67.236159877
 30
0.0
 11
-1.5359456422
 21
2.9692843387
 31
0.0
 40
0.5757057628
 41
1.0133373161
 42
1.293987292
  0
ELLIPSE
  5
32C
100
AcDbEntity
  8
00_COMPONENTS_1
100
AcDbEllipse
 62
7
  6
BYLAYER
 10
32.5918974755
 20
71.5635118749
 30
0.0
 11
-1.5359456422
 21
2.9692843387
 31
0.0
 40
0.5757057628
 41
0.9927341483
 42
1.293987292
  0
ELLIPSE
  5
32D
100
AcDbEntity
  8
00_COMPONENTS_1
100
AcDbEllipse
 62
7
  6
BYLAYER
 10
25.0965343889
 20
75.8908638728
 30
0.0
 11
-1.5359456422
 21
2.9692843387
 31
0.0
 40
0.5757057628
 41
1.0133373161
 42
1.293987292
  0
ENDSEC
  0
SECTION
  2
OBJECTS
  0
DICTIONARY
  5
C
100
AcDbDictionary
280
0
281
1
  3
ACAD_GROUP
350
D
  3
ACAD_MLINESTYLE
350
17
  3
ACAD_LAYOUT
350
1A
  3
ACAD_PLOTSETTINGS
350
19
  3
ACAD_PLOTSTYLENAME
350
E
  0
DICTIONARY
  5
D
102
{ACAD_REACTORS
330
C
102
}
100
AcDbDictionary
280
0
281
1
  0
ACDBDICTIONARYWDFLT
  5
E
102
{ACAD_REACTORS
330
C
102
}
100
AcDbDictionary
281
1
  3
Normal
350
F
100
AcDbDictionaryWithDefault
340
F
  0
DICTIONARY
  5
17
102
{ACAD_REACTORS
330
C
102
}
100
AcDbDictionary
280
0
281
1
  3
Standard
350
18
  0
DICTIONARY
  5
19
102
{ACAD_REACTORS
330
C
102
}
100
AcDbDictionary
281
1
  0
DICTIONARY
  5
1A
102
{ACAD_REACTORS
330
C
102
}
100
AcDbDictionary
281
1
  3
Model
350
32E
  3
Layout1
350
32F
  0
ACDBPLACEHOLDER
  5
F
102
{ACAD_REACTORS
330
E
102
}
  0
MLINESTYLE
  5
18
102
{ACAD_REACTORS
330
17
102
}
100
AcDbMlineStyle
  2
STANDARD
 70
0
  3

 62
256
 51
90.0
 52
90.0
 71
2
 49
0.5
 62
256
  6
BYLAYER
 49
-0.5
 62
256
  6
BYLAYER
  0
LAYOUT
  5
32E
102
{ACAD_REACTORS
330
1A
102
}
100
AcDbPlotSettings
  1

  2
none_device
  4

  6

 40
0.0
 41
0.0
 42
0.0
 43
0.0
 44
210.0
 45
297.0
 46
0.0
 47
0.0
 48
0.0
 49
0.0
140
0.0
141
0.0
142
1.0
143
1.0
 70
1024
 72
1
 73
0
 74
0
  7

 75
0
147
1.0
148
0.0
149
0.0
100
AcDbLayout
  1
Model
 70
0
 71
0
 10
0.0
 20
0.0
 11
210.0
 21
297.0
 12
0.0
 22
0.0
 32
0.0
 14
0.0
 24
0.0
 34
0.0
 15
0.0
 25
0.0
 35
0.0
146
0.0
 13
0.0
 23
0.0
 33
0.0
 16
1.0
 26
0.0
 36
0.0
 17
0.0
 27
1.0
 37
0.0
 76
0
330
216
345
0
346
0
  0
LAYOUT
  5
32F
102
{ACAD_REACTORS
330
1A
102
}
100
AcDbPlotSettings
  1

  2
none_device
  4

  6

 40
0.0
 41
0.0
 42
0.0
 43
0.0
 44
210.0
 45
297.0
 46
0.0
 47
0.0
 48
0.0
 49
0.0
140
0.0
141
0.0
142
1.0
143
1.0
 70
0
 72
1
 73
0
 74
0
  7

 75
0
147
1.0
148
0.0
149
0.0
100
AcDbLayout
  1
Layout1
 70
0
 71
1
 10
0.0
 20
0.0
 11
210.0
 21
297.0
 12
0.0
 22
0.0
 32
0.0
 14
0.0
 24
0.0
 34
0.0
 15
0.0
 25
0.0
 35
0.0
146
0.0
 13
0.0
 23
0.0
 33
0.0
 16
1.0
 26
0.0
 36
0.0
 17
0.0
 27
1.0
 37
0.0
 76
0
330
217
345
0
346
0
  0
ENDSEC
  0
EOF
