999
DXF file: C:\Users\sesa63760\Dev\_Creo\CAD\MCADID0004250_3D-CAD\drw0001_4.dxf
999
Pro/ENGINEER 2019471 by Parametric Technology Corporation
  0
SECTION
  2
HEADER
  9
$ACADVER
  1
AC1024
  9
$DWGCODEPAGE
  3
ANSI_1252
  9
$EXTMAX
 10
1449.6777716865
 20
2050.2585628137
 30
0.0
  9
$EXTMIN
 10
0.0
 20
0.0
 30
0.0
  9
$LIMMIN
 10
0.0
 20
0.0
  9
$LIMMAX
 10
1449.6777716865
 20
2050.2585628137
  9
$VIEWCTR
 10
724.8388858432
 20
1025.1292814069
  9
$VIEWSIZE
 40
2050.2585628137
  9
$CLAYER
  8
0
  9
$LTSCALE
 40
133.6464840945
  9
$CELTYPE
  6
BYLAYER
  9
$DIMSCALE
 40
1.0
  9
$DIMASZ
 40
17.2580687106
  9
$DIMEXO
 40
1.0
  9
$DIMDLI
 40
92.3375708289
  9
$DIMEXE
 40
1.0
  9
$DIMCEN
 40
21.86942467
  9
$DIMLFAC
 40
1.0
  9
$DIMBLK
  1
_FILLED
  9
$DIMALT
 70
0
  9
$DIMALTF
 40
0.0393700787
  9
$DIMTXT
 40
24.1612961948
  9
$DIMTOL
 70
1
  9
$DIMLIM
 70
0
  9
$DIMTFAC
 40
1.0
  9
$DIMTP
 40
0.01
  9
$DIMTM
 40
0.01
  9
$DIMGAP
 40
0.625
  9
$DIMDSEP
 70
46
  9
$AUNITS
 70
0
  9
$PDMODE
 70
3
  9
$PDSIZE
 40
0.3125
  9
$HANDSEED
  5
407
  9
$TILEMODE
 70
1
  9
$MEASUREMENT
 70
1
  9
$INSUNITS
 70
4
  0
ENDSEC
  0
SECTION
  2
CLASSES
  0
CLASS
  1
ACDBDICTIONARYWDFLT
  2
AcDbDictionaryWithDefault
  3
AutoCAD 2000
 90
0
 91
1
280
0
281
0
  0
CLASS
  1
ACDBPLACEHOLDER
  2
AcDbPlaceHolder
  3
AutoCAD 2000
 90
0
 91
1
280
0
281
0
  0
CLASS
  1
LAYOUT
  2
AcDbLayout
  3
AutoCAD 2000
 90
0
 91
0
280
0
281
0
  0
ENDSEC
  0
SECTION
  2
TABLES
  0
TABLE
  2
VPORT
  5
8
100
AcDbSymbolTable
 70
2
  0
VPORT
  5
1F4
100
AcDbSymbolTableRecord
100
AcDbViewportTableRecord
  2
*ACTIVE
 70
0
 10
0.0
 20
0.0
 11
1.0
 21
1.0
 12
724.8388858432
 22
1025.1292814069
 13
0.0
 23
0.0
 14
1.0
 24
1.0
 15
0.0
 25
0.0
 16
0.0
 26
0.0
 36
1.0
 17
0.0
 27
0.0
 37
0.0
 40
2050.2585628137
 41
0.7070707071
 42
50.0
 43
0.0
 44
0.0
 50
0.0
 51
0.0
 71
0
 72
100
 73
1
 74
1
 75
0
 76
0
 77
0
 78
0
  0
ENDTAB
  0
TABLE
  2
LTYPE
  5
5
100
AcDbSymbolTable
 70
6
  0
LTYPE
  5
14
100
AcDbSymbolTableRecord
100
AcDbLinetypeTableRecord
  2
BYBLOCK
 70
0
  3

 72
65
 73
0
 40
0.0
  0
LTYPE
  5
15
100
AcDbSymbolTableRecord
100
AcDbLinetypeTableRecord
  2
BYLAYER
 70
0
  3

 72
65
 73
0
 40
0.0
  0
LTYPE
  5
16
100
AcDbSymbolTableRecord
100
AcDbLinetypeTableRecord
  2
CONTINUOUS
 70
64
  3
Solid line
 72
65
 73
0
 40
0.0
  0
LTYPE
  5
1F5
100
AcDbSymbolTableRecord
100
AcDbLinetypeTableRecord
  2
CENTER
 70
64
  3
____ _ ____ _ ____ _ ____ _ ____ _ ____ _ ____
 72
65
 73
4
 40
0.6
 49
0.375
 74
0
 49
-0.075
 74
0
 49
0.075
 74
0
 49
-0.075
 74
0
  0
LTYPE
  5
1F6
100
AcDbSymbolTableRecord
100
AcDbLinetypeTableRecord
  2
HIDDEN
 70
64
  3
- - - - - - - - - - - - - - - - - - - -
 72
65
 73
2
 40
0.2
 49
0.1
 74
0
 49
-0.1
 74
0
  0
LTYPE
  5
1F7
100
AcDbSymbolTableRecord
100
AcDbLinetypeTableRecord
  2
PHANTOM
 70
64
  3
_____ _ _ _____ _ _ _____ _ _ _____
 72
65
 73
6
 40
0.8
 49
0.45
 74
0
 49
-0.05
 74
0
 49
0.1
 74
0
 49
-0.05
 74
0
 49
0.1
 74
0
 49
-0.05
 74
0
  0
LTYPE
  5
1F8
100
AcDbSymbolTableRecord
100
AcDbLinetypeTableRecord
  2
DOT
 70
64
  3
. . . . . . . . . . . . . . . . . . . .
 72
65
 73
2
 40
0.2
 49
0.1
 74
0
 49
-0.1
 74
0
  0
LTYPE
  5
1F9
100
AcDbSymbolTableRecord
100
AcDbLinetypeTableRecord
  2
DASHED
 70
64
  3
- - - - - - - - - - - - - - - - - - - -
 72
65
 73
2
 40
0.2
 49
0.1
 74
0
 49
-0.1
 74
0
  0
ENDTAB
  0
TABLE
  2
LAYER
  5
2
100
AcDbSymbolTable
 70
36
  0
LAYER
  5
10
100
AcDbSymbolTableRecord
100
AcDbLayerTableRecord
  2
0
 70
0
 62
7
  6
CONTINUOUS
370
-3
390
F
  0
LAYER
  5
1FA
100
AcDbSymbolTableRecord
100
AcDbLayerTableRecord
  2
DEFAULT_1
 70
0
 62
7
  6
CENTER
370
-3
390
F
  0
LAYER
  5
1FB
100
AcDbSymbolTableRecord
100
AcDbLayerTableRecord
  2
DEFAULT_2
 70
0
 62
7
  6
HIDDEN
370
-3
390
F
  0
LAYER
  5
1FC
100
AcDbSymbolTableRecord
100
AcDbLayerTableRecord
  2
DEFAULT_3
 70
0
 62
7
  6
PHANTOM
370
-3
390
F
  0
LAYER
  5
1FD
100
AcDbSymbolTableRecord
100
AcDbLayerTableRecord
  2
00_COMPONENTS
 70
0
 62
7
  6
CONTINUOUS
370
-3
390
F
  0
LAYER
  5
1FE
100
AcDbSymbolTableRecord
100
AcDbLayerTableRecord
  2
01_1_DEFAULT_DATUMS
 70
0
 62
7
  6
CONTINUOUS
370
-3
390
F
  0
LAYER
  5
1FF
100
AcDbSymbolTableRecord
100
AcDbLayerTableRecord
  2
01_PLANES
 70
0
 62
7
  6
CONTINUOUS
370
-3
390
F
  0
LAYER
  5
200
100
AcDbSymbolTableRecord
100
AcDbLayerTableRecord
  2
02_COORD_SYS
 70
0
 62
7
  6
CONTINUOUS
370
-3
390
F
  0
LAYER
  5
201
100
AcDbSymbolTableRecord
100
AcDbLayerTableRecord
  2
03_AXES
 70
0
 62
7
  6
CONTINUOUS
370
-3
390
F
  0
LAYER
  5
202
100
AcDbSymbolTableRecord
100
AcDbLayerTableRecord
  2
04_POINTS
 70
0
 62
7
  6
CONTINUOUS
370
-3
390
F
  0
LAYER
  5
203
100
AcDbSymbolTableRecord
100
AcDbLayerTableRecord
  2
05_CURVES
 70
0
 62
7
  6
CONTINUOUS
370
-3
390
F
  0
LAYER
  5
204
100
AcDbSymbolTableRecord
100
AcDbLayerTableRecord
  2
06_SURFS
 70
0
 62
7
  6
CONTINUOUS
370
-3
390
F
  0
LAYER
  5
205
100
AcDbSymbolTableRecord
100
AcDbLayerTableRecord
  2
07_COSMETICS
 70
0
 62
7
  6
CONTINUOUS
370
-3
390
F
  0
LAYER
  5
206
100
AcDbSymbolTableRecord
100
AcDbLayerTableRecord
  2
10_NOTES
 70
0
 62
7
  6
CONTINUOUS
370
-3
390
F
  0
LAYER
  5
207
100
AcDbSymbolTableRecord
100
AcDbLayerTableRecord
  2
11_NOTES_PUB
 70
0
 62
7
  6
CONTINUOUS
370
-3
390
F
  0
LAYER
  5
208
100
AcDbSymbolTableRecord
100
AcDbLayerTableRecord
  2
13_REF_GTOL
 70
0
 62
7
  6
CONTINUOUS
370
-3
390
F
  0
LAYER
  5
209
100
AcDbSymbolTableRecord
100
AcDbLayerTableRecord
  2
16_MISC
 70
0
 62
7
  6
CONTINUOUS
370
-3
390
F
  0
LAYER
  5
20A
100
AcDbSymbolTableRecord
100
AcDbLayerTableRecord
  2
17_NO_PRINT
 70
0
 62
7
  6
CONTINUOUS
370
-3
390
F
  0
LAYER
  5
20B
100
AcDbSymbolTableRecord
100
AcDbLayerTableRecord
  2
18_DATUM_CAMS_JOINTS
 70
0
 62
7
  6
CONTINUOUS
370
-3
390
F
  0
LAYER
  5
20C
100
AcDbSymbolTableRecord
100
AcDbLayerTableRecord
  2
19_DATUM_FUNCTIONAL
 70
0
 62
7
  6
CONTINUOUS
370
-3
390
F
  0
LAYER
  5
20D
100
AcDbSymbolTableRecord
100
AcDbLayerTableRecord
  2
20_DATUM_KINEMATIC_SCHEME
 70
0
 62
7
  6
CONTINUOUS
370
-3
390
F
  0
LAYER
  5
20E
100
AcDbSymbolTableRecord
100
AcDbLayerTableRecord
  2
3
 70
0
 62
7
  6
CONTINUOUS
370
-3
390
F
  0
LAYER
  5
20F
100
AcDbSymbolTableRecord
100
AcDbLayerTableRecord
  2
4
 70
0
 62
7
  6
CONTINUOUS
370
-3
390
F
  0
ENDTAB
  0
TABLE
  2
STYLE
  5
3
100
AcDbSymbolTable
 70
1
  0
STYLE
  5
11
100
AcDbSymbolTableRecord
100
AcDbTextStyleTableRecord
  2
STANDARD
 70
0
 40
0.0
 41
1.0
 50
0.0
 71
0
 42
0.2
  3
ARIAL.TTF
  4

  0
STYLE
  5
210
100
AcDbSymbolTableRecord
100
AcDbTextStyleTableRecord
  2
TEXTSTYLE_1
 70
0
 40
0.0
 41
0.8
 50
0.0
 71
0
 42
0.2
  3
gdt
  4

  0
ENDTAB
  0
TABLE
  2
VIEW
  5
6
100
AcDbSymbolTable
 70
0
  0
ENDTAB
  0
TABLE
  2
UCS
  5
7
100
AcDbSymbolTable
 70
0
  0
ENDTAB
  0
TABLE
  2
APPID
  5
9
100
AcDbSymbolTable
 70
1
  0
APPID
  5
211
100
AcDbSymbolTableRecord
100
AcDbRegAppTableRecord
  2
ACAD
 70
0
  0
ENDTAB
  0
TABLE
  2
BLOCK_RECORD
  5
1
100
AcDbSymbolTable
 70
0
  0
BLOCK_RECORD
  5
212
100
AcDbSymbolTableRecord
100
AcDbBlockTableRecord
  2
*Model_Space
  0
BLOCK_RECORD
  5
213
100
AcDbSymbolTableRecord
100
AcDbBlockTableRecord
  2
*Paper_Space
  0
BLOCK_RECORD
  5
214
100
AcDbSymbolTableRecord
100
AcDbBlockTableRecord
  2
_FILLED
  0
ENDTAB
  0
TABLE
  2
DIMSTYLE
  5
A
100
AcDbSymbolTable
 70
1
100
AcDbDimStyleTable
 71
0
  0
DIMSTYLE
105
215
100
AcDbSymbolTableRecord
100
AcDbDimStyleTableRecord
  2
STANDARD
 70
0
  3

  4

 40
1.0
 41
17.2580687106
 42
1.0
 43
0.38
 44
1.0
 45
0.0
 46
0.0
 47
0.01
 48
0.01
140
24.1612961948
141
0.09
142
0.0
143
25.4
144
1.0
145
0.0
146
1.0
147
0.625
 71
1
 72
0
 73
0
 74
0
 75
0
 76
0
 77
1
 78
8
 79
2
170
0
171
1
172
0
173
0
174
0
175
0
176
0
177
0
178
0
270
2
179
2
271
2
272
2
273
2
274
2
275
0
280
0
281
0
282
0
283
1
284
8
285
0
286
0
287
3
288
0
340
11
278
46
341
214
342
214
343
214
344
214
  0
ENDTAB
  0
ENDSEC
  0
SECTION
  2
BLOCKS
  0
BLOCK
  5
20
100
AcDbEntity
  8
0
100
AcDbBlockBegin
  2
*Model_Space
 70
0
 10
0.0
 20
0.0
 30
0.0
  3
*Model_Space
  1

  0
ENDBLK
  5
21
100
AcDbEntity
  8
0
100
AcDbBlockEnd
  0
BLOCK
  5
1C
100
AcDbEntity
  8
0
100
AcDbBlockBegin
  2
*Paper_Space
 70
0
 10
0.0
 20
0.0
 30
0.0
  3
*Paper_Space
  1

  0
ENDBLK
  5
1D
100
AcDbEntity
  8
0
100
AcDbBlockEnd
  0
BLOCK
  5
216
100
AcDbEntity
  8
0
100
AcDbBlockBegin
  2
_FILLED
 70
64
 10
0.0
 20
0.0
  3
_FILLED
  1

  0
SOLID
  5
217
100
AcDbEntity
  8
0
  6
BYBLOCK
 62
0
100
AcDbTrace
 10
0.0
 20
0.0
 11
-1.0
 21
0.25
 12
-1.0
 22
-0.25
 13
-1.0
 23
-0.25
  0
ENDBLK
  5
218
100
AcDbEntity
  8
0
  6
BYBLOCK
 62
0
100
AcDbBlockEnd
  0
ENDSEC
  0
SECTION
  2
ENTITIES
  0
LINE
  5
219
100
AcDbEntity
  8
0
100
AcDbLine
 62
7
  6
BYLAYER
 10
836.1904375949
 20
146.8055396874
 11
830.5900642276
 21
146.8055396874
  0
LINE
  5
21A
100
AcDbEntity
  8
0
100
AcDbLine
 62
7
  6
BYLAYER
 10
794.1899625579
 20
146.8055396874
 11
788.5905392706
 21
146.8055396874
  0
LINE
  5
21B
100
AcDbEntity
  8
0
100
AcDbLine
 62
7
  6
BYLAYER
 10
688.5413067064
 20
146.8055396874
 11
682.9409333391
 21
146.8055396874
  0
LINE
  5
21C
100
AcDbEntity
  8
0
100
AcDbLine
 62
7
  6
BYLAYER
 10
646.5408316693
 20
146.8055396874
 11
640.9414083821
 21
146.8055396874
  0
LINE
  5
21D
100
AcDbEntity
  8
0
100
AcDbLine
 62
7
  6
BYLAYER
 10
641.229655812
 20
146.9054295489
 11
688.252209099
 21
146.9054295489
  0
LINE
  5
21E
100
AcDbEntity
  8
0
100
AcDbLine
 62
7
  6
BYLAYER
 10
788.8787867005
 20
146.9054295489
 11
835.9013399875
 21
146.9054295489
  0
LINE
  5
21F
100
AcDbEntity
  8
0
100
AcDbLine
 62
7
  6
BYLAYER
 10
837.190539021
 20
147.8055396874
 11
836.8690125771
 21
147.8055396874
  0
LINE
  5
220
100
AcDbEntity
  8
0
100
AcDbLine
 62
7
  6
BYLAYER
 10
787.9111156146
 20
147.8055396874
 11
787.590539024
 21
147.8055396874
  0
LINE
  5
221
100
AcDbEntity
  8
0
100
AcDbLine
 62
7
  6
BYLAYER
 10
689.5414081324
 20
147.8055396874
 11
689.2198816885
 21
147.8055396874
  0
LINE
  5
222
100
AcDbEntity
  8
0
100
AcDbLine
 62
7
  6
BYLAYER
 10
640.2619847261
 20
147.8055396874
 11
639.9414081355
 21
147.8055396874
  0
LINE
  5
223
100
AcDbEntity
  8
0
100
AcDbLine
 62
7
  6
BYLAYER
 10
837.390063981
 20
147.9054295489
 11
837.190539021
 21
147.9054295489
  0
LINE
  5
224
100
AcDbEntity
  8
0
100
AcDbLine
 62
7
  6
BYLAYER
 10
787.590539024
 20
147.9054295489
 11
787.390063981
 21
147.9054295489
  0
LINE
  5
225
100
AcDbEntity
  8
0
100
AcDbLine
 62
7
  6
BYLAYER
 10
836.9014690047
 20
147.9054295489
 11
787.8786589573
 21
147.9054295489
  0
LINE
  5
226
100
AcDbEntity
  8
0
100
AcDbLine
 62
7
  6
BYLAYER
 10
689.7409330925
 20
147.9054295489
 11
689.5414081324
 21
147.9054295489
  0
LINE
  5
227
100
AcDbEntity
  8
0
100
AcDbLine
 62
7
  6
BYLAYER
 10
689.2523381162
 20
147.9054295489
 11
640.2295280687
 21
147.9054295489
  0
LINE
  5
228
100
AcDbEntity
  8
0
100
AcDbLine
 62
7
  6
BYLAYER
 10
639.9414081355
 20
147.9054295489
 11
639.7409330925
 21
147.9054295489
  0
LINE
  5
229
100
AcDbEntity
  8
0
100
AcDbLine
 62
7
  6
BYLAYER
 10
639.7409330925
 20
148.90542948
 11
639.9414081355
 21
148.90542948
  0
LINE
  5
22A
100
AcDbEntity
  8
0
100
AcDbLine
 62
7
  6
BYLAYER
 10
689.5414081324
 20
148.9054294918
 11
689.7409330925
 21
148.9054294918
  0
LINE
  5
22B
100
AcDbEntity
  8
0
100
AcDbLine
 62
7
  6
BYLAYER
 10
787.390063981
 20
148.90542948
 11
787.590539024
 21
148.90542948
  0
LINE
  5
22C
100
AcDbEntity
  8
0
100
AcDbLine
 62
7
  6
BYLAYER
 10
837.190539021
 20
148.9054294918
 11
837.390063981
 21
148.9054294918
  0
LINE
  5
22D
100
AcDbEntity
  8
0
100
AcDbLine
 62
7
  6
BYLAYER
 10
639.9414081355
 20
149.4055396874
 11
640.2295280687
 21
149.4055396874
  0
LINE
  5
22E
100
AcDbEntity
  8
0
100
AcDbLine
 62
7
  6
BYLAYER
 10
689.2523381162
 20
149.4055396874
 11
689.5414081324
 21
149.4055396874
  0
LINE
  5
22F
100
AcDbEntity
  8
0
100
AcDbLine
 62
7
  6
BYLAYER
 10
787.590539024
 20
149.4055396874
 11
787.8786589573
 21
149.4055396874
  0
LINE
  5
230
100
AcDbEntity
  8
0
100
AcDbLine
 62
7
  6
BYLAYER
 10
836.9014690047
 20
149.4055396874
 11
837.190539021
 21
149.4055396874
  0
LINE
  5
231
100
AcDbEntity
  8
0
100
AcDbLine
 62
7
  6
BYLAYER
 10
837.390063981
 20
149.9054295489
 11
836.8437549262
 21
149.9054295489
  0
LINE
  5
232
100
AcDbEntity
  8
0
100
AcDbLine
 62
7
  6
BYLAYER
 10
787.9363730358
 20
149.9054295489
 11
787.390063981
 21
149.9054295489
  0
LINE
  5
233
100
AcDbEntity
  8
0
100
AcDbLine
 62
7
  6
BYLAYER
 10
689.7409330925
 20
149.9054295489
 11
689.1946240377
 21
149.9054295489
  0
LINE
  5
234
100
AcDbEntity
  8
0
100
AcDbLine
 62
7
  6
BYLAYER
 10
640.2872421473
 20
149.9054295489
 11
639.7409330925
 21
149.9054295489
  0
LINE
  5
235
100
AcDbEntity
  8
0
100
AcDbLine
 62
7
  6
BYLAYER
 10
645.9407689868
 20
164.4054295489
 11
683.5407689868
 21
164.4054295489
  0
LINE
  5
236
100
AcDbEntity
  8
0
100
AcDbLine
 62
7
  6
BYLAYER
 10
639.7409330925
 20
164.4054295489
 11
645.7409330925
 21
164.4054295489
  0
LINE
  5
237
100
AcDbEntity
  8
0
100
AcDbLine
 62
7
  6
BYLAYER
 10
683.793719497
 20
164.4054295489
 11
689.7409330925
 21
164.4054295489
  0
LINE
  5
238
100
AcDbEntity
  8
0
100
AcDbLine
 62
7
  6
BYLAYER
 10
793.5898998753
 20
164.4054295489
 11
831.1898998753
 21
164.4054295489
  0
LINE
  5
239
100
AcDbEntity
  8
0
100
AcDbLine
 62
7
  6
BYLAYER
 10
787.390063981
 20
164.4054295489
 11
793.390063981
 21
164.4054295489
  0
LINE
  5
23A
100
AcDbEntity
  8
0
100
AcDbLine
 62
7
  6
BYLAYER
 10
831.4428503855
 20
164.4054295489
 11
837.390063981
 21
164.4054295489
  0
LINE
  5
23B
100
AcDbEntity
  8
3
100
AcDbLine
 62
7
  6
BYLAYER
 10
837.390539024
 20
164.4055524959
 11
831.3895584449
 21
164.4055524959
  0
LINE
  5
23C
100
AcDbEntity
  8
3
100
AcDbLine
 62
7
  6
BYLAYER
 10
793.391519603
 20
164.4055524959
 11
787.390539024
 21
164.4055524959
  0
LINE
  5
23D
100
AcDbEntity
  8
3
100
AcDbLine
 62
7
  6
BYLAYER
 10
689.7414081355
 20
164.4055524959
 11
683.7404275564
 21
164.4055524959
  0
LINE
  5
23E
100
AcDbEntity
  8
3
100
AcDbLine
 62
7
  6
BYLAYER
 10
645.7423887145
 20
164.4055524959
 11
639.7414081355
 21
164.4055524959
  0
LINE
  5
23F
100
AcDbEntity
  8
3
100
AcDbLine
 62
7
  6
BYLAYER
 10
645.9407689868
 20
164.4055524959
 11
683.5407689868
 21
164.4055524959
  0
LINE
  5
240
100
AcDbEntity
  8
3
100
AcDbLine
 62
7
  6
BYLAYER
 10
793.5898998753
 20
164.4055524959
 11
831.1898998753
 21
164.4055524959
  0
LINE
  5
241
100
AcDbEntity
  8
4
100
AcDbLine
 62
7
  6
BYLAYER
 10
847.5792847075
 20
191.7537148106
 11
837.390539024
 21
191.7537148106
  0
LINE
  5
242
100
AcDbEntity
  8
3
100
AcDbLine
 62
7
  6
BYLAYER
 10
699.930153819
 20
191.7537148106
 11
689.7414081355
 21
191.7537148106
  0
LINE
  5
243
100
AcDbEntity
  8
3
100
AcDbLine
 62
7
  6
BYLAYER
 10
689.7414081355
 20
241.7537148106
 11
699.930153819
 21
241.7537148106
  0
LINE
  5
244
100
AcDbEntity
  8
4
100
AcDbLine
 62
7
  6
BYLAYER
 10
837.390539024
 20
241.7537148106
 11
847.5792847075
 21
241.7537148106
  0
LINE
  5
245
100
AcDbEntity
  8
0
100
AcDbLine
 62
7
  6
BYLAYER
 10
648.4916609035
 20
1886.9055396874
 11
647.9916609035
 21
1886.4055396874
  0
LINE
  5
246
100
AcDbEntity
  8
0
100
AcDbLine
 62
7
  6
BYLAYER
 10
668.2416589249
 20
1890.9055396874
 11
667.7416609035
 21
1890.4055418459
  0
LINE
  5
247
100
AcDbEntity
  8
0
100
AcDbLine
 62
7
  6
BYLAYER
 10
666.4916609035
 20
1886.9055396874
 11
665.9916609035
 21
1886.4055396874
  0
LINE
  5
248
100
AcDbEntity
  8
0
100
AcDbLine
 62
7
  6
BYLAYER
 10
666.4916609035
 20
1881.9055396874
 11
665.9916609035
 21
1881.4055396874
  0
LINE
  5
249
100
AcDbEntity
  8
0
100
AcDbLine
 62
7
  6
BYLAYER
 10
681.2916609035
 20
1880.4055396874
 11
681.4916609035
 21
1880.6055396874
  0
LINE
  5
24A
100
AcDbEntity
  8
0
100
AcDbLine
 62
7
  6
BYLAYER
 10
796.140791792
 20
1886.9055396874
 11
795.640791792
 21
1886.4055396874
  0
LINE
  5
24B
100
AcDbEntity
  8
0
100
AcDbLine
 62
7
  6
BYLAYER
 10
815.8907898134
 20
1890.9055396874
 11
815.390791792
 21
1890.4055418459
  0
LINE
  5
24C
100
AcDbEntity
  8
0
100
AcDbLine
 62
7
  6
BYLAYER
 10
814.140791792
 20
1886.9055396874
 11
813.640791792
 21
1886.4055396874
  0
LINE
  5
24D
100
AcDbEntity
  8
0
100
AcDbLine
 62
7
  6
BYLAYER
 10
814.140791792
 20
1881.9055396874
 11
813.640791792
 21
1881.4055396874
  0
LINE
  5
24E
100
AcDbEntity
  8
0
100
AcDbLine
 62
7
  6
BYLAYER
 10
828.940791792
 20
1880.4055396874
 11
829.140791792
 21
1880.6055396874
  0
LINE
  5
24F
100
AcDbEntity
  8
3
100
AcDbLine
 62
7
  6
BYLAYER
 10
643.378165849
 20
1514.4055524959
 11
643.250010961
 21
1862.9055524959
  0
LINE
  5
250
100
AcDbEntity
  8
3
100
AcDbLine
 62
7
  6
BYLAYER
 10
686.1046504219
 20
1514.4055524959
 11
685.9764955339
 21
1862.9055524959
  0
LINE
  5
251
100
AcDbEntity
  8
0
100
AcDbLine
 62
7
  6
BYLAYER
 10
639.7409330925
 20
147.9054295489
 11
639.7409330925
 21
164.4054295489
  0
LINE
  5
252
100
AcDbEntity
  8
3
100
AcDbLine
 62
7
  6
BYLAYER
 10
639.7414081355
 20
1862.9055524959
 11
639.7414081355
 21
164.4055524959
  0
LINE
  5
253
100
AcDbEntity
  8
0
100
AcDbLine
 62
7
  6
BYLAYER
 10
639.7416609035
 20
1879.4055396874
 11
639.7416609035
 21
1862.9055396874
  0
LINE
  5
254
100
AcDbEntity
  8
0
100
AcDbLine
 62
7
  6
BYLAYER
 10
639.9414081355
 20
149.4055396874
 11
639.9414081355
 21
147.8055396874
  0
LINE
  5
255
100
AcDbEntity
  8
0
100
AcDbLine
 62
7
  6
BYLAYER
 10
639.9416609035
 20
1879.5055396874
 11
639.9416609035
 21
1877.9055396874
  0
LINE
  5
256
100
AcDbEntity
  8
0
100
AcDbLine
 62
7
  6
BYLAYER
 10
640.1256936161
 20
149.9054295489
 11
640.1256936161
 21
164.4054295489
  0
LINE
  5
257
100
AcDbEntity
  8
3
100
AcDbLine
 62
7
  6
BYLAYER
 10
640.1261686591
 20
164.4055524959
 11
640.1261686591
 21
1862.9055524959
  0
LINE
  5
258
100
AcDbEntity
  8
0
100
AcDbLine
 62
7
  6
BYLAYER
 10
640.1264214271
 20
1862.9055396874
 11
640.1264214271
 21
1877.4055396874
  0
LINE
  5
259
100
AcDbEntity
  8
0
100
AcDbLine
 62
7
  6
BYLAYER
 10
640.2295280687
 20
149.5207405325
 11
640.2295280687
 21
147.9054295489
  0
LINE
  5
25A
100
AcDbEntity
  8
0
100
AcDbLine
 62
7
  6
BYLAYER
 10
640.2302558798
 20
1879.4055396874
 11
640.2302558798
 21
1877.7902286868
  0
LINE
  5
25B
100
AcDbEntity
  8
0
100
AcDbLine
 62
7
  6
BYLAYER
 10
640.2872421473
 20
147.9054295489
 11
640.2872421473
 21
149.9054295489
  0
LINE
  5
25C
100
AcDbEntity
  8
0
100
AcDbLine
 62
7
  6
BYLAYER
 10
640.2879699583
 20
1877.4055396874
 11
640.2879699583
 21
1879.4055396874
  0
LINE
  5
25D
100
AcDbEntity
  8
0
100
AcDbLine
 62
7
  6
BYLAYER
 10
641.3264880227
 20
164.4054295489
 11
641.3264880227
 21
147.9054295489
  0
LINE
  5
25E
100
AcDbEntity
  8
3
100
AcDbLine
 62
7
  6
BYLAYER
 10
641.3269630657
 20
1862.9055524959
 11
641.3269630657
 21
164.4055524959
  0
LINE
  5
25F
100
AcDbEntity
  8
0
100
AcDbLine
 62
7
  6
BYLAYER
 10
641.3272158337
 20
1879.4055396874
 11
641.3272158337
 21
1862.9055396874
  0
LINE
  5
260
100
AcDbEntity
  8
0
100
AcDbLine
 62
7
  6
BYLAYER
 10
643.249535918
 20
146.9054295489
 11
643.249535918
 21
164.4054295489
  0
LINE
  5
261
100
AcDbEntity
  8
0
100
AcDbLine
 62
7
  6
BYLAYER
 10
643.250263729
 20
1862.9055396874
 11
643.250263729
 21
1880.4055396874
  0
LINE
  5
262
100
AcDbEntity
  8
0
100
AcDbLine
 62
7
  6
BYLAYER
 10
643.504865115
 20
164.4054295489
 11
643.504865115
 21
146.9054295489
  0
LINE
  5
263
100
AcDbEntity
  8
0
100
AcDbLine
 62
7
  6
BYLAYER
 10
643.505592926
 20
1880.4055396874
 11
643.505592926
 21
1862.9055396874
  0
LINE
  5
264
100
AcDbEntity
  8
0
100
AcDbLine
 62
7
  6
BYLAYER
 10
645.293719497
 20
147.9054295489
 11
645.293719497
 21
164.4054295489
  0
LINE
  5
265
100
AcDbEntity
  8
0
100
AcDbLine
 62
7
  6
BYLAYER
 10
645.294447308
 20
1862.9055396874
 11
645.294447308
 21
1879.4055396874
  0
LINE
  5
266
100
AcDbEntity
  8
3
100
AcDbLine
 62
7
  6
BYLAYER
 10
645.295175119
 20
164.4055524959
 11
645.295175119
 21
1862.9055524959
  0
LINE
  5
267
100
AcDbEntity
  8
0
100
AcDbLine
 62
7
  6
BYLAYER
 10
645.688146688
 20
164.4054295489
 11
645.688146688
 21
147.9054295489
  0
LINE
  5
268
100
AcDbEntity
  8
0
100
AcDbLine
 62
7
  6
BYLAYER
 10
645.688874499
 20
1879.4055396874
 11
645.688874499
 21
1862.9055396874
  0
LINE
  5
269
100
AcDbEntity
  8
3
100
AcDbLine
 62
7
  6
BYLAYER
 10
645.68960231
 20
1862.9055524959
 11
645.68960231
 21
164.4055524959
  0
LINE
  5
26A
100
AcDbEntity
  8
0
100
AcDbLine
 62
7
  6
BYLAYER
 10
645.7409330925
 20
147.9054295489
 11
645.7409330925
 21
164.4054295489
  0
LINE
  5
26B
100
AcDbEntity
  8
0
100
AcDbLine
 62
7
  6
BYLAYER
 10
645.7416609035
 20
1862.9055396874
 11
645.7416609035
 21
1879.4055396874
  0
LINE
  5
26C
100
AcDbEntity
  8
3
100
AcDbLine
 62
7
  6
BYLAYER
 10
645.7423887145
 20
164.4055524959
 11
645.7423887145
 21
1862.9055524959
  0
LINE
  5
26D
100
AcDbEntity
  8
3
100
AcDbLine
 62
7
  6
BYLAYER
 10
645.9407689868
 20
164.4055524959
 11
645.9407689868
 21
1862.905568955
  0
LINE
  5
26E
100
AcDbEntity
  8
0
100
AcDbLine
 62
7
  6
BYLAYER
 10
647.9916609035
 20
1880.4055396874
 11
647.9916609035
 21
1886.4055396874
  0
LINE
  5
26F
100
AcDbEntity
  8
0
100
AcDbLine
 62
7
  6
BYLAYER
 10
651.6149009035
 20
1888.1055396874
 11
651.6149009035
 21
1886.9055396874
  0
LINE
  5
270
100
AcDbEntity
  8
0
100
AcDbLine
 62
7
  6
BYLAYER
 10
655.0399009035
 20
1886.9055396874
 11
655.0399009035
 21
1888.4055396874
  0
LINE
  5
271
100
AcDbEntity
  8
0
100
AcDbLine
 62
7
  6
BYLAYER
 10
656.4399009035
 20
1886.9055396874
 11
656.4399009035
 21
1888.4055396874
  0
LINE
  5
272
100
AcDbEntity
  8
0
100
AcDbLine
 62
7
  6
BYLAYER
 10
659.8649009035
 20
1886.9055396874
 11
659.8649009035
 21
1888.1055396874
  0
LINE
  5
273
100
AcDbEntity
  8
0
100
AcDbLine
 62
7
  6
BYLAYER
 10
663.4916609035
 20
1880.4055396874
 11
663.4916609035
 21
1886.4055396874
  0
LINE
  5
274
100
AcDbEntity
  8
0
100
AcDbLine
 62
7
  6
BYLAYER
 10
665.9916609035
 20
1880.4055396874
 11
665.9916609035
 21
1886.4055396874
  0
LINE
  5
275
100
AcDbEntity
  8
0
100
AcDbLine
 62
7
  6
BYLAYER
 10
667.7416609035
 20
1890.40553875
 11
667.7416609035
 21
1882.9055396874
  0
LINE
  5
276
100
AcDbEntity
  8
0
100
AcDbLine
 62
7
  6
BYLAYER
 10
668.2416609035
 20
1881.9055396874
 11
668.2416609035
 21
1882.9055396874
  0
LINE
  5
277
100
AcDbEntity
  8
0
100
AcDbLine
 62
7
  6
BYLAYER
 10
679.2416609035
 20
1881.9055396874
 11
679.2416609035
 21
1882.9055396874
  0
LINE
  5
278
100
AcDbEntity
  8
0
100
AcDbLine
 62
7
  6
BYLAYER
 10
679.7416609035
 20
1882.9055396874
 11
679.7416609035
 21
1890.40553875
  0
LINE
  5
279
100
AcDbEntity
  8
0
100
AcDbLine
 62
7
  6
BYLAYER
 10
681.4916609035
 20
1880.4055396874
 11
681.4916609035
 21
1886.4055396874
  0
LINE
  5
27A
100
AcDbEntity
  8
3
100
AcDbLine
 62
7
  6
BYLAYER
 10
683.5407689868
 20
1862.905568955
 11
683.5407689868
 21
164.4055524959
  0
LINE
  5
27B
100
AcDbEntity
  8
3
100
AcDbLine
 62
7
  6
BYLAYER
 10
683.7404275564
 20
1862.9055524959
 11
683.7404275564
 21
164.4055524959
  0
LINE
  5
27C
100
AcDbEntity
  8
0
100
AcDbLine
 62
7
  6
BYLAYER
 10
683.7409330925
 20
164.4054295489
 11
683.7409330925
 21
147.9054295489
  0
LINE
  5
27D
100
AcDbEntity
  8
0
100
AcDbLine
 62
7
  6
BYLAYER
 10
683.7416609035
 20
1879.4055396874
 11
683.7416609035
 21
1862.9055396874
  0
LINE
  5
27E
100
AcDbEntity
  8
3
100
AcDbLine
 62
7
  6
BYLAYER
 10
683.7932139609
 20
164.4055524959
 11
683.7932139609
 21
1862.9055524959
  0
LINE
  5
27F
100
AcDbEntity
  8
0
100
AcDbLine
 62
7
  6
BYLAYER
 10
683.793719497
 20
147.9054295489
 11
683.793719497
 21
164.4054295489
  0
LINE
  5
280
100
AcDbEntity
  8
0
100
AcDbLine
 62
7
  6
BYLAYER
 10
683.794447308
 20
1862.9055396874
 11
683.794447308
 21
1879.4055396874
  0
LINE
  5
281
100
AcDbEntity
  8
3
100
AcDbLine
 62
7
  6
BYLAYER
 10
684.1876411519
 20
1862.9055524959
 11
684.1876411519
 21
164.4055524959
  0
LINE
  5
282
100
AcDbEntity
  8
0
100
AcDbLine
 62
7
  6
BYLAYER
 10
684.188146688
 20
164.4054295489
 11
684.188146688
 21
147.9054295489
  0
LINE
  5
283
100
AcDbEntity
  8
0
100
AcDbLine
 62
7
  6
BYLAYER
 10
684.188874499
 20
1879.4055396874
 11
684.188874499
 21
1862.9055396874
  0
LINE
  5
284
100
AcDbEntity
  8
0
100
AcDbLine
 62
7
  6
BYLAYER
 10
685.97700107
 20
146.9054295489
 11
685.97700107
 21
164.4054295489
  0
LINE
  5
285
100
AcDbEntity
  8
0
100
AcDbLine
 62
7
  6
BYLAYER
 10
685.977728881
 20
1862.9055396874
 11
685.977728881
 21
1880.4055396874
  0
LINE
  5
286
100
AcDbEntity
  8
0
100
AcDbLine
 62
7
  6
BYLAYER
 10
686.232330267
 20
164.4054295489
 11
686.232330267
 21
146.9054295489
  0
LINE
  5
287
100
AcDbEntity
  8
0
100
AcDbLine
 62
7
  6
BYLAYER
 10
686.233058078
 20
1880.4055396874
 11
686.233058078
 21
1862.9055396874
  0
LINE
  5
288
100
AcDbEntity
  8
0
100
AcDbLine
 62
7
  6
BYLAYER
 10
688.1553781622
 20
147.9054295489
 11
688.1553781622
 21
164.4054295489
  0
LINE
  5
289
100
AcDbEntity
  8
3
100
AcDbLine
 62
7
  6
BYLAYER
 10
688.1558532052
 20
164.4055524959
 11
688.1558532052
 21
1862.9055524959
  0
LINE
  5
28A
100
AcDbEntity
  8
0
100
AcDbLine
 62
7
  6
BYLAYER
 10
688.1561059733
 20
1862.9055396874
 11
688.1561059733
 21
1879.4055396874
  0
LINE
  5
28B
100
AcDbEntity
  8
0
100
AcDbLine
 62
7
  6
BYLAYER
 10
689.1946240377
 20
149.9054295489
 11
689.1946240377
 21
147.9054295489
  0
LINE
  5
28C
100
AcDbEntity
  8
0
100
AcDbLine
 62
7
  6
BYLAYER
 10
689.1953518487
 20
1879.4055396874
 11
689.1953518487
 21
1877.4055396874
  0
LINE
  5
28D
100
AcDbEntity
  8
0
100
AcDbLine
 62
7
  6
BYLAYER
 10
689.2523381162
 20
147.9054295489
 11
689.2523381162
 21
149.5207405495
  0
LINE
  5
28E
100
AcDbEntity
  8
0
100
AcDbLine
 62
7
  6
BYLAYER
 10
689.2530659272
 20
1877.7902287038
 11
689.2530659272
 21
1879.4055396874
  0
LINE
  5
28F
100
AcDbEntity
  8
0
100
AcDbLine
 62
7
  6
BYLAYER
 10
689.3561725689
 20
164.4054295489
 11
689.3561725689
 21
149.9054295489
  0
LINE
  5
290
100
AcDbEntity
  8
3
100
AcDbLine
 62
7
  6
BYLAYER
 10
689.3566476119
 20
1862.9055524959
 11
689.3566476119
 21
164.4055524959
  0
LINE
  5
291
100
AcDbEntity
  8
0
100
AcDbLine
 62
7
  6
BYLAYER
 10
689.3569003799
 20
1877.4055396874
 11
689.3569003799
 21
1862.9055396874
  0
LINE
  5
292
100
AcDbEntity
  8
0
100
AcDbLine
 62
7
  6
BYLAYER
 10
689.5414081324
 20
147.8055396874
 11
689.5414081324
 21
149.4055396874
  0
LINE
  5
293
100
AcDbEntity
  8
0
100
AcDbLine
 62
7
  6
BYLAYER
 10
689.5416609035
 20
1877.9055396874
 11
689.5416609035
 21
1879.5055396874
  0
LINE
  5
294
100
AcDbEntity
  8
0
100
AcDbLine
 62
7
  6
BYLAYER
 10
689.740951826
 20
148.84290935
 11
689.7409330928
 21
149.7377607719
  0
LINE
  5
295
100
AcDbEntity
  8
0
100
AcDbLine
 62
7
  6
BYLAYER
 10
689.7409330925
 20
147.9054295489
 11
689.7409330925
 21
164.4054295489
  0
LINE
  5
296
100
AcDbEntity
  8
3
100
AcDbLine
 62
7
  6
BYLAYER
 10
689.7414081355
 20
164.4055524959
 11
689.7414081355
 21
1862.9055524959
  0
LINE
  5
297
100
AcDbEntity
  8
0
100
AcDbLine
 62
7
  6
BYLAYER
 10
689.7416609035
 20
1862.9055396874
 11
689.7416609035
 21
1879.4055396874
  0
LINE
  5
298
100
AcDbEntity
  8
3
100
AcDbLine
 62
7
  6
BYLAYER
 10
692.930153819
 20
1838.0886172715
 11
692.930153819
 21
1788.0886172715
  0
LINE
  5
299
100
AcDbEntity
  8
3
100
AcDbLine
 62
7
  6
BYLAYER
 10
692.930153819
 20
1039.0378556504
 11
692.930153819
 21
989.0378556504
  0
LINE
  5
29A
100
AcDbEntity
  8
3
100
AcDbLine
 62
7
  6
BYLAYER
 10
692.930153819
 20
241.7537148106
 11
692.930153819
 21
191.7537148106
  0
LINE
  5
29B
100
AcDbEntity
  8
3
100
AcDbLine
 62
7
  6
BYLAYER
 10
643.506320737
 20
1862.9055524959
 11
643.378165849
 21
1514.4055524959
  0
LINE
  5
29C
100
AcDbEntity
  8
3
100
AcDbLine
 62
7
  6
BYLAYER
 10
686.2328053099
 20
1862.9055524959
 11
686.1046504219
 21
1514.4055524959
  0
LINE
  5
29D
100
AcDbEntity
  8
3
100
AcDbLine
 62
7
  6
BYLAYER
 10
699.930153819
 20
191.7537148106
 11
699.930153819
 21
241.7537148106
  0
LINE
  5
29E
100
AcDbEntity
  8
3
100
AcDbLine
 62
7
  6
BYLAYER
 10
699.930153819
 20
989.0378556504
 11
699.930153819
 21
1039.0378556504
  0
LINE
  5
29F
100
AcDbEntity
  8
3
100
AcDbLine
 62
7
  6
BYLAYER
 10
699.930153819
 20
1788.0886172715
 11
699.930153819
 21
1838.0886172715
  0
LINE
  5
2A0
100
AcDbEntity
  8
4
100
AcDbLine
 62
7
  6
BYLAYER
 10
847.5792847075
 20
989.0378556504
 11
837.390539024
 21
989.0378556504
  0
LINE
  5
2A1
100
AcDbEntity
  8
3
100
AcDbLine
 62
7
  6
BYLAYER
 10
699.930153819
 20
989.0378556504
 11
689.7414081355
 21
989.0378556504
  0
LINE
  5
2A2
100
AcDbEntity
  8
3
100
AcDbLine
 62
7
  6
BYLAYER
 10
791.0272967375
 20
1514.4055524959
 11
790.8991418495
 21
1862.9055524959
  0
LINE
  5
2A3
100
AcDbEntity
  8
0
100
AcDbLine
 62
7
  6
BYLAYER
 10
787.390063981
 20
147.9054295489
 11
787.390063981
 21
164.4054295489
  0
LINE
  5
2A4
100
AcDbEntity
  8
3
100
AcDbLine
 62
7
  6
BYLAYER
 10
787.390539024
 20
1862.9055524959
 11
787.390539024
 21
164.4055524959
  0
LINE
  5
2A5
100
AcDbEntity
  8
0
100
AcDbLine
 62
7
  6
BYLAYER
 10
787.390791792
 20
1877.4055396874
 11
787.390791792
 21
1862.9055396874
  0
LINE
  5
2A6
100
AcDbEntity
  8
0
100
AcDbLine
 62
7
  6
BYLAYER
 10
787.390791792
 20
1879.4055396874
 11
787.390791792
 21
1877.4192724483
  0
LINE
  5
2A7
100
AcDbEntity
  8
0
100
AcDbLine
 62
7
  6
BYLAYER
 10
787.590539024
 20
149.4055396874
 11
787.590539024
 21
147.8055396874
  0
LINE
  5
2A8
100
AcDbEntity
  8
0
100
AcDbLine
 62
7
  6
BYLAYER
 10
787.590791792
 20
1879.5055396874
 11
787.590791792
 21
1877.9055396874
  0
LINE
  5
2A9
100
AcDbEntity
  8
0
100
AcDbLine
 62
7
  6
BYLAYER
 10
787.7748245046
 20
149.9054295489
 11
787.7748245046
 21
164.4054295489
  0
LINE
  5
2AA
100
AcDbEntity
  8
3
100
AcDbLine
 62
7
  6
BYLAYER
 10
787.7752995476
 20
164.4055524959
 11
787.7752995476
 21
1862.9055524959
  0
LINE
  5
2AB
100
AcDbEntity
  8
0
100
AcDbLine
 62
7
  6
BYLAYER
 10
787.7755523156
 20
1862.9055396874
 11
787.7755523156
 21
1877.4055396874
  0
LINE
  5
2AC
100
AcDbEntity
  8
0
100
AcDbLine
 62
7
  6
BYLAYER
 10
787.8786589573
 20
149.5207405325
 11
787.8786589573
 21
147.9054295489
  0
LINE
  5
2AD
100
AcDbEntity
  8
0
100
AcDbLine
 62
7
  6
BYLAYER
 10
787.8793867683
 20
1879.4055396874
 11
787.8793867683
 21
1877.7902286868
  0
LINE
  5
2AE
100
AcDbEntity
  8
0
100
AcDbLine
 62
7
  6
BYLAYER
 10
787.9363730358
 20
147.9054295489
 11
787.9363730358
 21
149.9054295489
  0
LINE
  5
2AF
100
AcDbEntity
  8
0
100
AcDbLine
 62
7
  6
BYLAYER
 10
787.9371008468
 20
1877.4055396874
 11
787.9371008468
 21
1879.4055396874
  0
LINE
  5
2B0
100
AcDbEntity
  8
0
100
AcDbLine
 62
7
  6
BYLAYER
 10
788.9756189112
 20
164.4054295489
 11
788.9756189112
 21
147.9054295489
  0
LINE
  5
2B1
100
AcDbEntity
  8
3
100
AcDbLine
 62
7
  6
BYLAYER
 10
788.9760939542
 20
1862.9055524959
 11
788.9760939542
 21
164.4055524959
  0
LINE
  5
2B2
100
AcDbEntity
  8
0
100
AcDbLine
 62
7
  6
BYLAYER
 10
788.9763467222
 20
1879.4055396874
 11
788.9763467222
 21
1862.9055396874
  0
LINE
  5
2B3
100
AcDbEntity
  8
0
100
AcDbLine
 62
7
  6
BYLAYER
 10
790.8986668065
 20
146.9054295489
 11
790.8986668065
 21
164.4054295489
  0
LINE
  5
2B4
100
AcDbEntity
  8
0
100
AcDbLine
 62
7
  6
BYLAYER
 10
790.8993946175
 20
1862.9055396874
 11
790.8993946175
 21
1880.4055396874
  0
LINE
  5
2B5
100
AcDbEntity
  8
0
100
AcDbLine
 62
7
  6
BYLAYER
 10
791.1539960035
 20
164.4054295489
 11
791.1539960035
 21
146.9054295489
  0
LINE
  5
2B6
100
AcDbEntity
  8
0
100
AcDbLine
 62
7
  6
BYLAYER
 10
791.1547238145
 20
1880.4055396874
 11
791.1547238145
 21
1862.9055396874
  0
LINE
  5
2B7
100
AcDbEntity
  8
0
100
AcDbLine
 62
7
  6
BYLAYER
 10
792.9428503855
 20
147.9054295489
 11
792.9428503855
 21
164.4054295489
  0
LINE
  5
2B8
100
AcDbEntity
  8
0
100
AcDbLine
 62
7
  6
BYLAYER
 10
792.9435781965
 20
1862.9055396874
 11
792.9435781965
 21
1879.4055396874
  0
LINE
  5
2B9
100
AcDbEntity
  8
3
100
AcDbLine
 62
7
  6
BYLAYER
 10
792.9443060075
 20
164.4055524959
 11
792.9443060075
 21
1862.9055524959
  0
LINE
  5
2BA
100
AcDbEntity
  8
0
100
AcDbLine
 62
7
  6
BYLAYER
 10
793.3372775765
 20
164.4054295489
 11
793.3372775765
 21
147.9054295489
  0
LINE
  5
2BB
100
AcDbEntity
  8
0
100
AcDbLine
 62
7
  6
BYLAYER
 10
793.3380053875
 20
1879.4055396874
 11
793.3380053875
 21
1862.9055396874
  0
LINE
  5
2BC
100
AcDbEntity
  8
3
100
AcDbLine
 62
7
  6
BYLAYER
 10
793.3387331985
 20
1862.9055524959
 11
793.3387331985
 21
164.4055524959
  0
LINE
  5
2BD
100
AcDbEntity
  8
0
100
AcDbLine
 62
7
  6
BYLAYER
 10
793.390063981
 20
147.9054295489
 11
793.390063981
 21
164.4054295489
  0
LINE
  5
2BE
100
AcDbEntity
  8
0
100
AcDbLine
 62
7
  6
BYLAYER
 10
793.390791792
 20
1862.9055396874
 11
793.390791792
 21
1879.4055396874
  0
LINE
  5
2BF
100
AcDbEntity
  8
3
100
AcDbLine
 62
7
  6
BYLAYER
 10
793.391519603
 20
164.4055524959
 11
793.391519603
 21
1862.9055524959
  0
LINE
  5
2C0
100
AcDbEntity
  8
3
100
AcDbLine
 62
7
  6
BYLAYER
 10
793.5898998753
 20
164.4055524959
 11
793.5898998753
 21
1862.905568955
  0
LINE
  5
2C1
100
AcDbEntity
  8
0
100
AcDbLine
 62
7
  6
BYLAYER
 10
795.640791792
 20
1880.4055396874
 11
795.640791792
 21
1886.4055396874
  0
LINE
  5
2C2
100
AcDbEntity
  8
0
100
AcDbLine
 62
7
  6
BYLAYER
 10
799.264031792
 20
1888.1055396874
 11
799.264031792
 21
1886.9055396874
  0
LINE
  5
2C3
100
AcDbEntity
  8
0
100
AcDbLine
 62
7
  6
BYLAYER
 10
805.7685678731
 20
1886.9055396874
 11
805.7685678731
 21
1888.1055396874
  0
LINE
  5
2C4
100
AcDbEntity
  8
0
100
AcDbLine
 62
7
  6
BYLAYER
 10
806.3235249339
 20
1886.9055396874
 11
806.3235249339
 21
1888.4055396874
  0
LINE
  5
2C5
100
AcDbEntity
  8
0
100
AcDbLine
 62
7
  6
BYLAYER
 10
806.7585173668
 20
1888.1055396874
 11
806.7585173668
 21
1886.9055396874
  0
LINE
  5
2C6
100
AcDbEntity
  8
0
100
AcDbLine
 62
7
  6
BYLAYER
 10
807.514031792
 20
1888.1055396874
 11
807.514031792
 21
1886.9055396874
  0
LINE
  5
2C7
100
AcDbEntity
  8
3
100
AcDbLine
 62
7
  6
BYLAYER
 10
791.1554516255
 20
1862.9055524959
 11
791.0272967375
 21
1514.4055524959
  0
LINE
  5
2C8
100
AcDbEntity
  8
3
100
AcDbLine
 62
7
  6
BYLAYER
 10
689.7414081355
 20
1039.0378556504
 11
699.930153819
 21
1039.0378556504
  0
LINE
  5
2C9
100
AcDbEntity
  8
4
100
AcDbLine
 62
7
  6
BYLAYER
 10
837.390539024
 20
1039.0378556504
 11
847.5792847075
 21
1039.0378556504
  0
LINE
  5
2CA
100
AcDbEntity
  8
3
100
AcDbLine
 62
7
  6
BYLAYER
 10
833.7537813104
 20
1514.4055524959
 11
833.6256264224
 21
1862.9055524959
  0
LINE
  5
2CB
100
AcDbEntity
  8
0
100
AcDbLine
 62
7
  6
BYLAYER
 10
811.140791792
 20
1880.4055396874
 11
811.140791792
 21
1886.4055396874
  0
LINE
  5
2CC
100
AcDbEntity
  8
0
100
AcDbLine
 62
7
  6
BYLAYER
 10
813.640791792
 20
1880.4055396874
 11
813.640791792
 21
1886.4055396874
  0
LINE
  5
2CD
100
AcDbEntity
  8
0
100
AcDbLine
 62
7
  6
BYLAYER
 10
815.390791792
 20
1890.40553875
 11
815.390791792
 21
1882.9055396874
  0
LINE
  5
2CE
100
AcDbEntity
  8
0
100
AcDbLine
 62
7
  6
BYLAYER
 10
815.890791792
 20
1881.9055396874
 11
815.890791792
 21
1882.9055396874
  0
LINE
  5
2CF
100
AcDbEntity
  8
0
100
AcDbLine
 62
7
  6
BYLAYER
 10
826.890791792
 20
1881.9055396874
 11
826.890791792
 21
1882.9055396874
  0
LINE
  5
2D0
100
AcDbEntity
  8
0
100
AcDbLine
 62
7
  6
BYLAYER
 10
827.390791792
 20
1882.9055396874
 11
827.390791792
 21
1890.40553875
  0
LINE
  5
2D1
100
AcDbEntity
  8
0
100
AcDbLine
 62
7
  6
BYLAYER
 10
829.140791792
 20
1880.4055396874
 11
829.140791792
 21
1886.4055396874
  0
LINE
  5
2D2
100
AcDbEntity
  8
3
100
AcDbLine
 62
7
  6
BYLAYER
 10
831.1898998753
 20
1862.905568955
 11
831.1898998753
 21
164.4055524959
  0
LINE
  5
2D3
100
AcDbEntity
  8
3
100
AcDbLine
 62
7
  6
BYLAYER
 10
831.3895584449
 20
1862.9055524959
 11
831.3895584449
 21
164.4055524959
  0
LINE
  5
2D4
100
AcDbEntity
  8
0
100
AcDbLine
 62
7
  6
BYLAYER
 10
831.390063981
 20
164.4054295489
 11
831.390063981
 21
147.9054295489
  0
LINE
  5
2D5
100
AcDbEntity
  8
0
100
AcDbLine
 62
7
  6
BYLAYER
 10
831.390791792
 20
1879.4055396874
 11
831.390791792
 21
1862.9055396874
  0
LINE
  5
2D6
100
AcDbEntity
  8
3
100
AcDbLine
 62
7
  6
BYLAYER
 10
831.4423448494
 20
164.4055524959
 11
831.4423448494
 21
1862.9055524959
  0
LINE
  5
2D7
100
AcDbEntity
  8
0
100
AcDbLine
 62
7
  6
BYLAYER
 10
831.4428503855
 20
147.9054295489
 11
831.4428503855
 21
164.4054295489
  0
LINE
  5
2D8
100
AcDbEntity
  8
0
100
AcDbLine
 62
7
  6
BYLAYER
 10
831.4435781965
 20
1862.9055396874
 11
831.4435781965
 21
1879.4055396874
  0
LINE
  5
2D9
100
AcDbEntity
  8
3
100
AcDbLine
 62
7
  6
BYLAYER
 10
831.8367720404
 20
1862.9055524959
 11
831.8367720404
 21
164.4055524959
  0
LINE
  5
2DA
100
AcDbEntity
  8
0
100
AcDbLine
 62
7
  6
BYLAYER
 10
831.8372775765
 20
164.4054295489
 11
831.8372775765
 21
147.9054295489
  0
LINE
  5
2DB
100
AcDbEntity
  8
0
100
AcDbLine
 62
7
  6
BYLAYER
 10
831.8380053875
 20
1879.4055396874
 11
831.8380053875
 21
1862.9055396874
  0
LINE
  5
2DC
100
AcDbEntity
  8
0
100
AcDbLine
 62
7
  6
BYLAYER
 10
833.6261319585
 20
146.9054295489
 11
833.6261319585
 21
164.4054295489
  0
LINE
  5
2DD
100
AcDbEntity
  8
0
100
AcDbLine
 62
7
  6
BYLAYER
 10
833.6268597695
 20
1862.9055396874
 11
833.6268597695
 21
1880.4055396874
  0
LINE
  5
2DE
100
AcDbEntity
  8
0
100
AcDbLine
 62
7
  6
BYLAYER
 10
833.8814611555
 20
164.4054295489
 11
833.8814611555
 21
146.9054295489
  0
LINE
  5
2DF
100
AcDbEntity
  8
0
100
AcDbLine
 62
7
  6
BYLAYER
 10
833.8821889665
 20
1880.4055396874
 11
833.8821889665
 21
1862.9055396874
  0
LINE
  5
2E0
100
AcDbEntity
  8
0
100
AcDbLine
 62
7
  6
BYLAYER
 10
835.8045090508
 20
147.9054295489
 11
835.8045090508
 21
164.4054295489
  0
LINE
  5
2E1
100
AcDbEntity
  8
3
100
AcDbLine
 62
7
  6
BYLAYER
 10
835.8049840937
 20
164.4055524959
 11
835.8049840937
 21
1862.9055524959
  0
LINE
  5
2E2
100
AcDbEntity
  8
0
100
AcDbLine
 62
7
  6
BYLAYER
 10
835.8052368618
 20
1862.9055396874
 11
835.8052368618
 21
1879.4055396874
  0
LINE
  5
2E3
100
AcDbEntity
  8
0
100
AcDbLine
 62
7
  6
BYLAYER
 10
836.8437549262
 20
149.9054295489
 11
836.8437549262
 21
147.9054295489
  0
LINE
  5
2E4
100
AcDbEntity
  8
0
100
AcDbLine
 62
7
  6
BYLAYER
 10
836.8444827372
 20
1879.4055396874
 11
836.8444827372
 21
1877.4055396874
  0
LINE
  5
2E5
100
AcDbEntity
  8
0
100
AcDbLine
 62
7
  6
BYLAYER
 10
836.9014690047
 20
147.9054295489
 11
836.9014690047
 21
149.5207405495
  0
LINE
  5
2E6
100
AcDbEntity
  8
0
100
AcDbLine
 62
7
  6
BYLAYER
 10
836.9021968157
 20
1877.7902287038
 11
836.9021968157
 21
1879.4055396874
  0
LINE
  5
2E7
100
AcDbEntity
  8
0
100
AcDbLine
 62
7
  6
BYLAYER
 10
837.0053034574
 20
164.4054295489
 11
837.0053034574
 21
149.9054295489
  0
LINE
  5
2E8
100
AcDbEntity
  8
3
100
AcDbLine
 62
7
  6
BYLAYER
 10
837.0057785004
 20
1862.9055524959
 11
837.0057785004
 21
164.4055524959
  0
LINE
  5
2E9
100
AcDbEntity
  8
0
100
AcDbLine
 62
7
  6
BYLAYER
 10
837.0060312684
 20
1877.4055396874
 11
837.0060312684
 21
1862.9055396874
  0
LINE
  5
2EA
100
AcDbEntity
  8
0
100
AcDbLine
 62
7
  6
BYLAYER
 10
837.190539021
 20
147.8055396874
 11
837.190539021
 21
149.4055396874
  0
LINE
  5
2EB
100
AcDbEntity
  8
0
100
AcDbLine
 62
7
  6
BYLAYER
 10
837.190791792
 20
1877.9055396874
 11
837.190791792
 21
1879.5055396874
  0
LINE
  5
2EC
100
AcDbEntity
  8
0
100
AcDbLine
 62
7
  6
BYLAYER
 10
837.390063981
 20
147.9054295489
 11
837.390063981
 21
149.8916817234
  0
LINE
  5
2ED
100
AcDbEntity
  8
0
100
AcDbLine
 62
7
  6
BYLAYER
 10
837.390063981
 20
149.9054295489
 11
837.390063981
 21
164.4054295489
  0
LINE
  5
2EE
100
AcDbEntity
  8
3
100
AcDbLine
 62
7
  6
BYLAYER
 10
837.390539024
 20
164.4055524959
 11
837.390539024
 21
1862.9055524959
  0
LINE
  5
2EF
100
AcDbEntity
  8
0
100
AcDbLine
 62
7
  6
BYLAYER
 10
837.390791792
 20
1862.9055396874
 11
837.390791792
 21
1879.4055396874
  0
LINE
  5
2F0
100
AcDbEntity
  8
4
100
AcDbLine
 62
7
  6
BYLAYER
 10
840.5792847075
 20
1838.0886172715
 11
840.5792847075
 21
1788.0886172715
  0
LINE
  5
2F1
100
AcDbEntity
  8
4
100
AcDbLine
 62
7
  6
BYLAYER
 10
840.5792847075
 20
1039.0378556504
 11
840.5792847075
 21
989.0378556504
  0
LINE
  5
2F2
100
AcDbEntity
  8
4
100
AcDbLine
 62
7
  6
BYLAYER
 10
840.5792847075
 20
241.7537148106
 11
840.5792847075
 21
191.7537148106
  0
LINE
  5
2F3
100
AcDbEntity
  8
4
100
AcDbLine
 62
7
  6
BYLAYER
 10
847.5792847075
 20
191.7537148106
 11
847.5792847075
 21
241.7537148106
  0
LINE
  5
2F4
100
AcDbEntity
  8
4
100
AcDbLine
 62
7
  6
BYLAYER
 10
847.5792847075
 20
989.0378556504
 11
847.5792847075
 21
1039.0378556504
  0
LINE
  5
2F5
100
AcDbEntity
  8
4
100
AcDbLine
 62
7
  6
BYLAYER
 10
847.5792847075
 20
1788.0886172715
 11
847.5792847075
 21
1838.0886172715
  0
LINE
  5
2F6
100
AcDbEntity
  8
3
100
AcDbLine
 62
7
  6
BYLAYER
 10
833.8819361984
 20
1862.9055524959
 11
833.7537813104
 21
1514.4055524959
  0
LINE
  5
2F7
100
AcDbEntity
  8
0
100
AcDbLine
 62
7
  6
BYLAYER
 10
666.1916609035
 20
1880.4055396874
 11
665.9916609035
 21
1880.6055396874
  0
LINE
  5
2F8
100
AcDbEntity
  8
0
100
AcDbLine
 62
7
  6
BYLAYER
 10
662.9916609035
 20
1886.9055396874
 11
663.4916609035
 21
1886.4055396874
  0
LINE
  5
2F9
100
AcDbEntity
  8
0
100
AcDbLine
 62
7
  6
BYLAYER
 10
680.9916609035
 20
1881.9055396874
 11
681.4916609035
 21
1881.4055396874
  0
LINE
  5
2FA
100
AcDbEntity
  8
0
100
AcDbLine
 62
7
  6
BYLAYER
 10
680.9916609035
 20
1886.9055396874
 11
681.4916609035
 21
1886.4055396874
  0
LINE
  5
2FB
100
AcDbEntity
  8
0
100
AcDbLine
 62
7
  6
BYLAYER
 10
679.2416628821
 20
1890.9055396874
 11
679.7416609035
 21
1890.4055418459
  0
LINE
  5
2FC
100
AcDbEntity
  8
0
100
AcDbLine
 62
7
  6
BYLAYER
 10
813.840791792
 20
1880.4055396874
 11
813.640791792
 21
1880.6055396874
  0
LINE
  5
2FD
100
AcDbEntity
  8
0
100
AcDbLine
 62
7
  6
BYLAYER
 10
810.640791792
 20
1886.9055396874
 11
811.140791792
 21
1886.4055396874
  0
LINE
  5
2FE
100
AcDbEntity
  8
0
100
AcDbLine
 62
7
  6
BYLAYER
 10
828.640791792
 20
1881.9055396874
 11
829.140791792
 21
1881.4055396874
  0
LINE
  5
2FF
100
AcDbEntity
  8
0
100
AcDbLine
 62
7
  6
BYLAYER
 10
828.640791792
 20
1886.9055396874
 11
829.140791792
 21
1886.4055396874
  0
LINE
  5
300
100
AcDbEntity
  8
0
100
AcDbLine
 62
7
  6
BYLAYER
 10
826.8907937706
 20
1890.9055396874
 11
827.390791792
 21
1890.4055418459
  0
LINE
  5
301
100
AcDbEntity
  8
4
100
AcDbLine
 62
7
  6
BYLAYER
 10
847.5792847075
 20
1788.0886172715
 11
837.390539024
 21
1788.0886172715
  0
LINE
  5
302
100
AcDbEntity
  8
3
100
AcDbLine
 62
7
  6
BYLAYER
 10
699.930153819
 20
1788.0886172715
 11
689.7414081355
 21
1788.0886172715
  0
LINE
  5
303
100
AcDbEntity
  8
3
100
AcDbLine
 62
7
  6
BYLAYER
 10
689.7414081355
 20
1838.0886172715
 11
699.930153819
 21
1838.0886172715
  0
LINE
  5
304
100
AcDbEntity
  8
4
100
AcDbLine
 62
7
  6
BYLAYER
 10
837.390539024
 20
1838.0886172715
 11
847.5792847075
 21
1838.0886172715
  0
LINE
  5
305
100
AcDbEntity
  8
0
100
AcDbLine
 62
7
  6
BYLAYER
 10
837.390791792
 20
1862.9055396874
 11
831.390791792
 21
1862.9055396874
  0
LINE
  5
306
100
AcDbEntity
  8
0
100
AcDbLine
 62
7
  6
BYLAYER
 10
831.1898998753
 20
1862.9055396874
 11
793.5898998753
 21
1862.9055396874
  0
LINE
  5
307
100
AcDbEntity
  8
3
100
AcDbLine
 62
7
  6
BYLAYER
 10
831.1898998753
 20
1862.905568955
 11
793.5898998753
 21
1862.905568955
  0
LINE
  5
308
100
AcDbEntity
  8
0
100
AcDbLine
 62
7
  6
BYLAYER
 10
793.3380053875
 20
1862.9055396874
 11
787.390791792
 21
1862.9055396874
  0
LINE
  5
309
100
AcDbEntity
  8
0
100
AcDbLine
 62
7
  6
BYLAYER
 10
689.7416609035
 20
1862.9055396874
 11
683.7416609035
 21
1862.9055396874
  0
LINE
  5
30A
100
AcDbEntity
  8
0
100
AcDbLine
 62
7
  6
BYLAYER
 10
683.5407689868
 20
1862.9055396874
 11
645.9407689868
 21
1862.9055396874
  0
LINE
  5
30B
100
AcDbEntity
  8
3
100
AcDbLine
 62
7
  6
BYLAYER
 10
683.5407689868
 20
1862.905568955
 11
645.9407689868
 21
1862.905568955
  0
LINE
  5
30C
100
AcDbEntity
  8
0
100
AcDbLine
 62
7
  6
BYLAYER
 10
645.688874499
 20
1862.9055396874
 11
639.7416609035
 21
1862.9055396874
  0
LINE
  5
30D
100
AcDbEntity
  8
3
100
AcDbLine
 62
7
  6
BYLAYER
 10
639.7414081355
 20
1862.9055524959
 11
645.7423887145
 21
1862.9055524959
  0
LINE
  5
30E
100
AcDbEntity
  8
3
100
AcDbLine
 62
7
  6
BYLAYER
 10
683.7404275564
 20
1862.9055524959
 11
689.7414081355
 21
1862.9055524959
  0
LINE
  5
30F
100
AcDbEntity
  8
3
100
AcDbLine
 62
7
  6
BYLAYER
 10
787.390539024
 20
1862.9055524959
 11
793.391519603
 21
1862.9055524959
  0
LINE
  5
310
100
AcDbEntity
  8
3
100
AcDbLine
 62
7
  6
BYLAYER
 10
831.3895584449
 20
1862.9055524959
 11
837.390539024
 21
1862.9055524959
  0
LINE
  5
311
100
AcDbEntity
  8
0
100
AcDbLine
 62
7
  6
BYLAYER
 10
829.390791792
 20
1876.4055396874
 11
813.3908086059
 21
1876.4055396874
  0
LINE
  5
312
100
AcDbEntity
  8
0
100
AcDbLine
 62
7
  6
BYLAYER
 10
811.390791792
 20
1876.4055396874
 11
795.3908086059
 21
1876.4055396874
  0
LINE
  5
313
100
AcDbEntity
  8
0
100
AcDbLine
 62
7
  6
BYLAYER
 10
681.7416609035
 20
1876.4055396874
 11
665.7416777174
 21
1876.4055396874
  0
LINE
  5
314
100
AcDbEntity
  8
0
100
AcDbLine
 62
7
  6
BYLAYER
 10
663.7416609035
 20
1876.4055396874
 11
647.7416777174
 21
1876.4055396874
  0
LINE
  5
315
100
AcDbEntity
  8
0
100
AcDbLine
 62
7
  6
BYLAYER
 10
811.2854953074
 20
1876.4167527703
 11
795.4961048693
 21
1876.4167527703
  0
LINE
  5
316
100
AcDbEntity
  8
0
100
AcDbLine
 62
7
  6
BYLAYER
 10
663.6363644189
 20
1876.4167527703
 11
647.8469739808
 21
1876.4167527703
  0
LINE
  5
317
100
AcDbEntity
  8
0
100
AcDbLine
 62
7
  6
BYLAYER
 10
665.8468699324
 20
1876.4167339384
 11
681.6364352818
 21
1876.4167339384
  0
LINE
  5
318
100
AcDbEntity
  8
0
100
AcDbLine
 62
7
  6
BYLAYER
 10
813.4960008209
 20
1876.4167339384
 11
829.2855661703
 21
1876.4167339384
  0
LINE
  5
319
100
AcDbEntity
  8
0
100
AcDbLine
 62
7
  6
BYLAYER
 10
829.4962864522
 20
1877.3942838707
 11
813.2853141675
 21
1877.3942838707
  0
LINE
  5
31A
100
AcDbEntity
  8
0
100
AcDbLine
 62
7
  6
BYLAYER
 10
681.8471555637
 20
1877.3942838707
 11
665.6361832789
 21
1877.3942838707
  0
LINE
  5
31B
100
AcDbEntity
  8
0
100
AcDbLine
 62
7
  6
BYLAYER
 10
811.4960882767
 20
1877.3943266045
 11
795.2855123426
 21
1877.3943266045
  0
LINE
  5
31C
100
AcDbEntity
  8
0
100
AcDbLine
 62
7
  6
BYLAYER
 10
663.8469573881
 20
1877.3943266045
 11
647.6363814541
 21
1877.3943266045
  0
LINE
  5
31D
100
AcDbEntity
  8
0
100
AcDbLine
 62
7
  6
BYLAYER
 10
639.7416609035
 20
1877.4055396874
 11
640.2879699583
 21
1877.4055396874
  0
LINE
  5
31E
100
AcDbEntity
  8
0
100
AcDbLine
 62
7
  6
BYLAYER
 10
689.1953518487
 20
1877.4055396874
 11
689.7416609035
 21
1877.4055396874
  0
LINE
  5
31F
100
AcDbEntity
  8
0
100
AcDbLine
 62
7
  6
BYLAYER
 10
787.390791792
 20
1877.4055396874
 11
787.9371008468
 21
1877.4055396874
  0
LINE
  5
320
100
AcDbEntity
  8
0
100
AcDbLine
 62
7
  6
BYLAYER
 10
836.8444827372
 20
1877.4055396874
 11
837.390791792
 21
1877.4055396874
  0
LINE
  5
321
100
AcDbEntity
  8
0
100
AcDbLine
 62
7
  6
BYLAYER
 10
837.190791792
 20
1877.9055396874
 11
836.9021968157
 21
1877.9055396874
  0
LINE
  5
322
100
AcDbEntity
  8
0
100
AcDbLine
 62
7
  6
BYLAYER
 10
787.8793867683
 20
1877.9055396874
 11
787.590791792
 21
1877.9055396874
  0
LINE
  5
323
100
AcDbEntity
  8
0
100
AcDbLine
 62
7
  6
BYLAYER
 10
689.5416609035
 20
1877.9055396874
 11
689.2530659272
 21
1877.9055396874
  0
LINE
  5
324
100
AcDbEntity
  8
0
100
AcDbLine
 62
7
  6
BYLAYER
 10
640.2302558798
 20
1877.9055396874
 11
639.9416609035
 21
1877.9055396874
  0
LINE
  5
325
100
AcDbEntity
  8
0
100
AcDbLine
 62
7
  6
BYLAYER
 10
837.390791792
 20
1878.4055397563
 11
837.190791792
 21
1878.4055397563
  0
LINE
  5
326
100
AcDbEntity
  8
0
100
AcDbLine
 62
7
  6
BYLAYER
 10
787.590791792
 20
1878.4055397445
 11
787.390791792
 21
1878.4055397445
  0
LINE
  5
327
100
AcDbEntity
  8
0
100
AcDbLine
 62
7
  6
BYLAYER
 10
689.7416609035
 20
1878.4055397563
 11
689.5416609035
 21
1878.4055397563
  0
LINE
  5
328
100
AcDbEntity
  8
0
100
AcDbLine
 62
7
  6
BYLAYER
 10
639.9416609035
 20
1878.4055397445
 11
639.7416609035
 21
1878.4055397445
  0
LINE
  5
329
100
AcDbEntity
  8
0
100
AcDbLine
 62
7
  6
BYLAYER
 10
639.7416609035
 20
1879.4055396874
 11
639.9416609035
 21
1879.4055396874
  0
LINE
  5
32A
100
AcDbEntity
  8
0
100
AcDbLine
 62
7
  6
BYLAYER
 10
689.5416609035
 20
1879.4055396874
 11
689.7416609035
 21
1879.4055396874
  0
LINE
  5
32B
100
AcDbEntity
  8
0
100
AcDbLine
 62
7
  6
BYLAYER
 10
640.2302558798
 20
1879.4055396874
 11
689.2530659272
 21
1879.4055396874
  0
LINE
  5
32C
100
AcDbEntity
  8
0
100
AcDbLine
 62
7
  6
BYLAYER
 10
787.390791792
 20
1879.4055396874
 11
787.590791792
 21
1879.4055396874
  0
LINE
  5
32D
100
AcDbEntity
  8
0
100
AcDbLine
 62
7
  6
BYLAYER
 10
837.190791792
 20
1879.4055396874
 11
837.390791792
 21
1879.4055396874
  0
LINE
  5
32E
100
AcDbEntity
  8
0
100
AcDbLine
 62
7
  6
BYLAYER
 10
787.8793867683
 20
1879.4055396874
 11
836.9021968157
 21
1879.4055396874
  0
LINE
  5
32F
100
AcDbEntity
  8
0
100
AcDbLine
 62
7
  6
BYLAYER
 10
639.9416609035
 20
1879.5055396874
 11
640.2627480939
 21
1879.5055396874
  0
LINE
  5
330
100
AcDbEntity
  8
0
100
AcDbLine
 62
7
  6
BYLAYER
 10
689.2205734832
 20
1879.5055396874
 11
689.5416609035
 21
1879.5055396874
  0
LINE
  5
331
100
AcDbEntity
  8
0
100
AcDbLine
 62
7
  6
BYLAYER
 10
787.590791792
 20
1879.5055396874
 11
787.9118789824
 21
1879.5055396874
  0
LINE
  5
332
100
AcDbEntity
  8
0
100
AcDbLine
 62
7
  6
BYLAYER
 10
836.8697043717
 20
1879.5055396874
 11
837.190791792
 21
1879.5055396874
  0
LINE
  5
333
100
AcDbEntity
  8
0
100
AcDbLine
 62
7
  6
BYLAYER
 10
641.2304777945
 20
1880.4055396874
 11
688.2528424314
 21
1880.4055396874
  0
LINE
  5
334
100
AcDbEntity
  8
0
100
AcDbLine
 62
7
  6
BYLAYER
 10
788.879608683
 20
1880.4055396874
 11
835.9019733199
 21
1880.4055396874
  0
LINE
  5
335
100
AcDbEntity
  8
0
100
AcDbLine
 62
7
  6
BYLAYER
 10
640.9417623295
 20
1880.5055396874
 11
646.5416606568
 21
1880.5055396874
  0
LINE
  5
336
100
AcDbEntity
  8
0
100
AcDbLine
 62
7
  6
BYLAYER
 10
682.9417623295
 20
1880.5055396874
 11
688.5416606568
 21
1880.5055396874
  0
LINE
  5
337
100
AcDbEntity
  8
0
100
AcDbLine
 62
7
  6
BYLAYER
 10
788.590893218
 20
1880.5055396874
 11
794.1907915454
 21
1880.5055396874
  0
LINE
  5
338
100
AcDbEntity
  8
0
100
AcDbLine
 62
7
  6
BYLAYER
 10
830.590893218
 20
1880.5055396874
 11
836.1907915454
 21
1880.5055396874
  0
LINE
  5
339
100
AcDbEntity
  8
0
100
AcDbLine
 62
7
  6
BYLAYER
 10
829.140791792
 20
1880.6055396874
 11
813.640791792
 21
1880.6055396874
  0
LINE
  5
33A
100
AcDbEntity
  8
0
100
AcDbLine
 62
7
  6
BYLAYER
 10
681.4916609035
 20
1880.6055396874
 11
665.9916609035
 21
1880.6055396874
  0
LINE
  5
33B
100
AcDbEntity
  8
0
100
AcDbLine
 62
7
  6
BYLAYER
 10
665.9916609035
 20
1881.4055396874
 11
681.4916609035
 21
1881.4055396874
  0
LINE
  5
33C
100
AcDbEntity
  8
0
100
AcDbLine
 62
7
  6
BYLAYER
 10
813.640791792
 20
1881.4055396874
 11
829.140791792
 21
1881.4055396874
  0
LINE
  5
33D
100
AcDbEntity
  8
0
100
AcDbLine
 62
7
  6
BYLAYER
 10
811.140791792
 20
1881.9055396874
 11
795.640791792
 21
1881.9055396874
  0
LINE
  5
33E
100
AcDbEntity
  8
0
100
AcDbLine
 62
7
  6
BYLAYER
 10
663.4916609035
 20
1881.9055396874
 11
647.9916609035
 21
1881.9055396874
  0
LINE
  5
33F
100
AcDbEntity
  8
0
100
AcDbLine
 62
7
  6
BYLAYER
 10
665.9916609035
 20
1881.9055396874
 11
681.4916609035
 21
1881.9055396874
  0
LINE
  5
340
100
AcDbEntity
  8
0
100
AcDbLine
 62
7
  6
BYLAYER
 10
813.640791792
 20
1881.9055396874
 11
829.140791792
 21
1881.9055396874
  0
LINE
  5
341
100
AcDbEntity
  8
0
100
AcDbLine
 62
7
  6
BYLAYER
 10
827.390791792
 20
1882.9055396874
 11
815.390791792
 21
1882.9055396874
  0
LINE
  5
342
100
AcDbEntity
  8
0
100
AcDbLine
 62
7
  6
BYLAYER
 10
679.7416609035
 20
1882.9055396874
 11
667.7416609035
 21
1882.9055396874
  0
LINE
  5
343
100
AcDbEntity
  8
0
100
AcDbLine
 62
7
  6
BYLAYER
 10
829.1407875092
 20
1884.9055396874
 11
827.390791792
 21
1884.9055396874
  0
LINE
  5
344
100
AcDbEntity
  8
0
100
AcDbLine
 62
7
  6
BYLAYER
 10
815.390791792
 20
1884.9055396874
 11
813.6407960748
 21
1884.9055396874
  0
LINE
  5
345
100
AcDbEntity
  8
0
100
AcDbLine
 62
7
  6
BYLAYER
 10
811.1407875092
 20
1884.9055396874
 11
795.6407960748
 21
1884.9055396874
  0
LINE
  5
346
100
AcDbEntity
  8
0
100
AcDbLine
 62
7
  6
BYLAYER
 10
681.4916566207
 20
1884.9055396874
 11
679.7416609035
 21
1884.9055396874
  0
LINE
  5
347
100
AcDbEntity
  8
0
100
AcDbLine
 62
7
  6
BYLAYER
 10
667.7416609035
 20
1884.9055396874
 11
665.9916651863
 21
1884.9055396874
  0
LINE
  5
348
100
AcDbEntity
  8
0
100
AcDbLine
 62
7
  6
BYLAYER
 10
663.4916566207
 20
1884.9055396874
 11
647.9916651863
 21
1884.9055396874
  0
LINE
  5
349
100
AcDbEntity
  8
0
100
AcDbLine
 62
7
  6
BYLAYER
 10
647.9916609035
 20
1886.4055396874
 11
663.4916609035
 21
1886.4055396874
  0
LINE
  5
34A
100
AcDbEntity
  8
0
100
AcDbLine
 62
7
  6
BYLAYER
 10
665.9916609035
 20
1886.4055396874
 11
667.7416609035
 21
1886.4055396874
  0
LINE
  5
34B
100
AcDbEntity
  8
0
100
AcDbLine
 62
7
  6
BYLAYER
 10
679.7416609035
 20
1886.4055396874
 11
681.4916609035
 21
1886.4055396874
  0
LINE
  5
34C
100
AcDbEntity
  8
0
100
AcDbLine
 62
7
  6
BYLAYER
 10
795.640791792
 20
1886.4055396874
 11
811.140791792
 21
1886.4055396874
  0
LINE
  5
34D
100
AcDbEntity
  8
0
100
AcDbLine
 62
7
  6
BYLAYER
 10
813.640791792
 20
1886.4055396874
 11
815.390791792
 21
1886.4055396874
  0
LINE
  5
34E
100
AcDbEntity
  8
0
100
AcDbLine
 62
7
  6
BYLAYER
 10
827.390791792
 20
1886.4055396874
 11
829.140791792
 21
1886.4055396874
  0
LINE
  5
34F
100
AcDbEntity
  8
0
100
AcDbLine
 62
7
  6
BYLAYER
 10
648.4916649063
 20
1886.9055396874
 11
662.9916569007
 21
1886.9055396874
  0
LINE
  5
350
100
AcDbEntity
  8
0
100
AcDbLine
 62
7
  6
BYLAYER
 10
666.4916649063
 20
1886.9055396874
 11
667.7416609035
 21
1886.9055396874
  0
LINE
  5
351
100
AcDbEntity
  8
0
100
AcDbLine
 62
7
  6
BYLAYER
 10
679.7416609035
 20
1886.9055396874
 11
680.9916569007
 21
1886.9055396874
  0
LINE
  5
352
100
AcDbEntity
  8
0
100
AcDbLine
 62
7
  6
BYLAYER
 10
796.1407957948
 20
1886.9055396874
 11
810.6407877892
 21
1886.9055396874
  0
LINE
  5
353
100
AcDbEntity
  8
0
100
AcDbLine
 62
7
  6
BYLAYER
 10
814.1407957948
 20
1886.9055396874
 11
815.390791792
 21
1886.9055396874
  0
LINE
  5
354
100
AcDbEntity
  8
0
100
AcDbLine
 62
7
  6
BYLAYER
 10
827.390791792
 20
1886.9055396874
 11
828.6407877892
 21
1886.9055396874
  0
LINE
  5
355
100
AcDbEntity
  8
0
100
AcDbLine
 62
7
  6
BYLAYER
 10
651.6149009035
 20
1888.1055396874
 11
655.0399009035
 21
1888.1055396874
  0
LINE
  5
356
100
AcDbEntity
  8
0
100
AcDbLine
 62
7
  6
BYLAYER
 10
656.4399009035
 20
1888.1055396874
 11
659.8649009035
 21
1888.1055396874
  0
LINE
  5
357
100
AcDbEntity
  8
0
100
AcDbLine
 62
7
  6
BYLAYER
 10
799.264031792
 20
1888.1055396874
 11
805.7685678731
 21
1888.1055396874
  0
LINE
  5
358
100
AcDbEntity
  8
0
100
AcDbLine
 62
7
  6
BYLAYER
 10
806.7585173668
 20
1888.1055396874
 11
807.514031792
 21
1888.1055396874
  0
LINE
  5
359
100
AcDbEntity
  8
0
100
AcDbLine
 62
7
  6
BYLAYER
 10
651.9149124294
 20
1888.4055396874
 11
659.5648701388
 21
1888.4055396874
  0
LINE
  5
35A
100
AcDbEntity
  8
0
100
AcDbLine
 62
7
  6
BYLAYER
 10
799.5640099007
 20
1888.4055396874
 11
807.2140921599
 21
1888.4055396874
  0
LINE
  5
35B
100
AcDbEntity
  8
0
100
AcDbLine
 62
7
  6
BYLAYER
 10
667.7416609035
 20
1890.40553875
 11
679.7416609035
 21
1890.40553875
  0
LINE
  5
35C
100
AcDbEntity
  8
0
100
AcDbLine
 62
7
  6
BYLAYER
 10
815.390791792
 20
1890.40553875
 11
827.390791792
 21
1890.40553875
  0
LINE
  5
35D
100
AcDbEntity
  8
0
100
AcDbLine
 62
7
  6
BYLAYER
 10
668.2416603392
 20
1890.9055396874
 11
679.2416556022
 21
1890.9055396874
  0
LINE
  5
35E
100
AcDbEntity
  8
0
100
AcDbLine
 62
7
  6
BYLAYER
 10
815.8907912278
 20
1890.9055396874
 11
826.8907864907
 21
1890.9055396874
  0
ARC
  5
35F
100
AcDbEntity
  8
0
100
AcDbCircle
 62
7
  6
BYLAYER
 10
646.5409330954
 20
147.8055396874
 40
1.0
100
AcDbArc
 50
270.0
 51
292.3676490033
  0
ARC
  5
360
100
AcDbEntity
  8
0
100
AcDbCircle
 62
7
  6
BYLAYER
 10
640.9414081355
 20
147.8055396874
 40
1.0
100
AcDbArc
 50
180.0
 51
270.0
  0
ARC
  5
361
100
AcDbEntity
  8
0
100
AcDbCircle
 62
7
  6
BYLAYER
 10
645.5414081355
 20
147.8055396874
 40
1.0
100
AcDbArc
 50
270.0
 51
292.3676490033
  0
ARC
  5
362
100
AcDbEntity
  8
0
100
AcDbCircle
 62
7
  6
BYLAYER
 10
641.2295280688
 20
147.9054295489
 40
1.0
100
AcDbArc
 50
180.0
 51
270.0
  0
ARC
  5
363
100
AcDbEntity
  8
0
100
AcDbCircle
 62
7
  6
BYLAYER
 10
644.7409330925
 20
147.9054295489
 40
1.0
100
AcDbArc
 50
270.0
 51
360.0
  0
ARC
  5
364
100
AcDbEntity
  8
0
100
AcDbCircle
 62
7
  6
BYLAYER
 10
640.7409330925
 20
147.9054295489
 40
1.0
100
AcDbArc
 50
180.0
 51
249.9315512357
  0
ARC
  5
365
100
AcDbEntity
  8
0
100
AcDbCircle
 62
7
  6
BYLAYER
 10
641.2487737446
 20
147.8167423931
 40
0.9113128442
100
AcDbArc
 50
268.9031615482
 51
269.9995190543
  0
ARC
  5
366
100
AcDbEntity
  8
0
100
AcDbCircle
 62
7
  6
BYLAYER
 10
640.2409330925
 20
149.9054295489
 40
0.5
100
AcDbArc
 50
180.0
 51
268.8357968818
  0
ARC
  5
367
100
AcDbEntity
  8
0
100
AcDbCircle
 62
7
  6
BYLAYER
 10
682.9409330925
 20
147.8055396874
 40
1.0
100
AcDbArc
 50
247.6323509967
 51
270.0
  0
ARC
  5
368
100
AcDbEntity
  8
0
100
AcDbCircle
 62
7
  6
BYLAYER
 10
683.9414081324
 20
147.8055396874
 40
1.0
100
AcDbArc
 50
247.6323509967
 51
270.0
  0
ARC
  5
369
100
AcDbEntity
  8
0
100
AcDbCircle
 62
7
  6
BYLAYER
 10
688.5414081324
 20
147.8055396874
 40
1.0
100
AcDbArc
 50
270.0
 51
360.0
  0
ARC
  5
36A
100
AcDbEntity
  8
0
100
AcDbCircle
 62
7
  6
BYLAYER
 10
688.2523381162
 20
147.9054295489
 40
1.0
100
AcDbArc
 50
270.0
 51
360.0
  0
ARC
  5
36B
100
AcDbEntity
  8
0
100
AcDbCircle
 62
7
  6
BYLAYER
 10
688.7409330925
 20
147.9054295489
 40
1.0
100
AcDbArc
 50
290.1402792352
 51
360.0
  0
ARC
  5
36C
100
AcDbEntity
  8
0
100
AcDbCircle
 62
7
  6
BYLAYER
 10
684.7409330925
 20
147.9054295489
 40
1.0
100
AcDbArc
 50
180.0
 51
270.0
  0
ARC
  5
36D
100
AcDbEntity
  8
0
100
AcDbCircle
 62
7
  6
BYLAYER
 10
688.2330925098
 20
147.8158863604
 40
0.9104568115
100
AcDbArc
 50
270.0004770286
 51
271.0800917667
  0
ARC
  5
36E
100
AcDbEntity
  8
0
100
AcDbCircle
 62
7
  6
BYLAYER
 10
689.2409330925
 20
149.9054295489
 40
0.5
100
AcDbArc
 50
271.1642031186
 51
360.0
  0
ARC
  5
36F
100
AcDbEntity
  8
0
100
AcDbCircle
 62
7
  6
BYLAYER
 10
689.6031792223
 20
149.4977452469
 40
0.351195612
100
AcDbArc
 50
168.8863826969
 51
177.982295177
  0
ARC
  5
370
100
AcDbEntity
  8
0
100
AcDbCircle
 62
7
  6
BYLAYER
 10
646.5416609035
 20
1879.5055396874
 40
1.0
100
AcDbArc
 50
67.6076884452
 51
90.0
  0
ARC
  5
371
100
AcDbEntity
  8
0
100
AcDbCircle
 62
7
  6
BYLAYER
 10
645.5416609035
 20
1879.5055396874
 40
1.0
100
AcDbArc
 50
67.6076884452
 51
90.0
  0
ARC
  5
372
100
AcDbEntity
  8
0
100
AcDbCircle
 62
7
  6
BYLAYER
 10
640.9416609035
 20
1879.5055396874
 40
1.0
100
AcDbArc
 50
90.0
 51
180.0
  0
ARC
  5
373
100
AcDbEntity
  8
0
100
AcDbCircle
 62
7
  6
BYLAYER
 10
641.2302558798
 20
1879.4055396874
 40
1.0
100
AcDbArc
 50
90.0
 51
180.0
  0
ARC
  5
374
100
AcDbEntity
  8
0
100
AcDbCircle
 62
7
  6
BYLAYER
 10
640.7416609035
 20
1879.4055396874
 40
1.0
100
AcDbArc
 50
110.1126910722
 51
180.0
  0
ARC
  5
375
100
AcDbEntity
  8
0
100
AcDbCircle
 62
7
  6
BYLAYER
 10
644.7416609035
 20
1879.4055396874
 40
1.0
100
AcDbArc
 50
0.0
 51
90.0
  0
ARC
  5
376
100
AcDbEntity
  8
0
100
AcDbCircle
 62
7
  6
BYLAYER
 10
641.2495014861
 20
1879.4950828788
 40
0.9104568086
100
AcDbArc
 50
90.0004770267
 51
91.0800917682
  0
ARC
  5
377
100
AcDbEntity
  8
0
100
AcDbCircle
 62
7
  6
BYLAYER
 10
640.2416609035
 20
1877.4055396874
 40
0.5
100
AcDbArc
 50
91.1642031186
 51
180.0
  0
ARC
  5
378
100
AcDbEntity
  8
0
100
AcDbCircle
 62
7
  6
BYLAYER
 10
647.7416785659
 20
1876.9055398702
 40
0.4999999534
100
AcDbArc
 50
102.1571786862
 51
282.1569797606
  0
ARC
  5
379
100
AcDbEntity
  8
0
100
AcDbCircle
 62
7
  6
BYLAYER
 10
663.7416432411
 20
1876.9055398702
 40
0.4999999534
100
AcDbArc
 50
257.8430202394
 51
77.8428213138
  0
ARC
  5
37A
100
AcDbEntity
  8
0
100
AcDbCircle
 62
7
  6
BYLAYER
 10
639.8794147734
 20
1877.8132239895
 40
0.3511956123
100
AcDbArc
 50
348.8863826992
 51
357.9822949632
  0
ARC
  5
37B
100
AcDbEntity
  8
0
100
AcDbCircle
 62
7
  6
BYLAYER
 10
659.5649009035
 20
1888.1055396874
 40
0.3
100
AcDbArc
 50
0.0
 51
90.0
  0
ARC
  5
37C
100
AcDbEntity
  8
0
100
AcDbCircle
 62
7
  6
BYLAYER
 10
651.9149009035
 20
1888.1055396874
 40
0.3
100
AcDbArc
 50
90.0
 51
180.0
  0
ARC
  5
37D
100
AcDbEntity
  8
0
100
AcDbCircle
 62
7
  6
BYLAYER
 10
682.9416609035
 20
1879.5055396874
 40
1.0
100
AcDbArc
 50
90.0
 51
112.3923115548
  0
ARC
  5
37E
100
AcDbEntity
  8
0
100
AcDbCircle
 62
7
  6
BYLAYER
 10
688.5416609035
 20
1879.5055396874
 40
1.0
100
AcDbArc
 50
0.0
 51
90.0
  0
ARC
  5
37F
100
AcDbEntity
  8
0
100
AcDbCircle
 62
7
  6
BYLAYER
 10
683.9416609035
 20
1879.5055396874
 40
1.0
100
AcDbArc
 50
90.0
 51
112.3923115548
  0
ARC
  5
380
100
AcDbEntity
  8
0
100
AcDbCircle
 62
7
  6
BYLAYER
 10
688.2530659272
 20
1879.4055396874
 40
1.0
100
AcDbArc
 50
0.0
 51
90.0
  0
ARC
  5
381
100
AcDbEntity
  8
0
100
AcDbCircle
 62
7
  6
BYLAYER
 10
688.7416609035
 20
1879.4055396874
 40
1.0
100
AcDbArc
 50
0.0
 51
69.8873089278
  0
ARC
  5
382
100
AcDbEntity
  8
0
100
AcDbCircle
 62
7
  6
BYLAYER
 10
684.7416609035
 20
1879.4055396874
 40
1.0
100
AcDbArc
 50
90.0
 51
180.0000000001
  0
ARC
  5
383
100
AcDbEntity
  8
0
100
AcDbCircle
 62
7
  6
BYLAYER
 10
688.2338202514
 20
1879.4942268455
 40
0.911312842
100
AcDbArc
 50
88.9031615468
 51
89.9995190552
  0
ARC
  5
384
100
AcDbEntity
  8
0
100
AcDbCircle
 62
7
  6
BYLAYER
 10
689.2416609035
 20
1877.4055396874
 40
0.5
100
AcDbArc
 50
0.0
 51
88.8357968818
  0
ARC
  5
385
100
AcDbEntity
  8
0
100
AcDbCircle
 62
7
  6
BYLAYER
 10
665.7416785654
 20
1876.9055398704
 40
0.4999999532
100
AcDbArc
 50
102.1804098124
 51
282.180210997
  0
ARC
  5
386
100
AcDbEntity
  8
0
100
AcDbCircle
 62
7
  6
BYLAYER
 10
681.7416432416
 20
1876.9055398704
 40
0.4999999532
100
AcDbArc
 50
257.819789003
 51
77.8195901876
  0
ARC
  5
387
100
AcDbEntity
  8
0
100
AcDbCircle
 62
7
  6
BYLAYER
 10
794.1900639839
 20
147.8055396874
 40
1.0
100
AcDbArc
 50
270.0
 51
292.3676490033
  0
ARC
  5
388
100
AcDbEntity
  8
0
100
AcDbCircle
 62
7
  6
BYLAYER
 10
788.590539024
 20
147.8055396874
 40
1.0
100
AcDbArc
 50
180.0
 51
270.0
  0
ARC
  5
389
100
AcDbEntity
  8
0
100
AcDbCircle
 62
7
  6
BYLAYER
 10
793.190539024
 20
147.8055396874
 40
1.0
100
AcDbArc
 50
270.0
 51
292.3676490033
  0
ARC
  5
38A
100
AcDbEntity
  8
0
100
AcDbCircle
 62
7
  6
BYLAYER
 10
788.8786589573
 20
147.9054295489
 40
1.0
100
AcDbArc
 50
180.0
 51
270.0
  0
ARC
  5
38B
100
AcDbEntity
  8
0
100
AcDbCircle
 62
7
  6
BYLAYER
 10
792.390063981
 20
147.9054295489
 40
1.0
100
AcDbArc
 50
270.0
 51
360.0
  0
ARC
  5
38C
100
AcDbEntity
  8
0
100
AcDbCircle
 62
7
  6
BYLAYER
 10
788.390063981
 20
147.9054295489
 40
1.0
100
AcDbArc
 50
180.0
 51
249.9315512356
  0
ARC
  5
38D
100
AcDbEntity
  8
0
100
AcDbCircle
 62
7
  6
BYLAYER
 10
788.8979046331
 20
147.816742393
 40
0.9113128441
100
AcDbArc
 50
268.9031615483
 51
269.9995190545
  0
ARC
  5
38E
100
AcDbEntity
  8
0
100
AcDbCircle
 62
7
  6
BYLAYER
 10
787.890063981
 20
149.9054295489
 40
0.5
100
AcDbArc
 50
180.0
 51
268.8357968818
  0
ARC
  5
38F
100
AcDbEntity
  8
0
100
AcDbCircle
 62
7
  6
BYLAYER
 10
830.590063981
 20
147.8055396874
 40
1.0
100
AcDbArc
 50
247.6323509967
 51
270.0
  0
ARC
  5
390
100
AcDbEntity
  8
0
100
AcDbCircle
 62
7
  6
BYLAYER
 10
831.590539021
 20
147.8055396874
 40
1.0
100
AcDbArc
 50
247.6323509967
 51
270.0
  0
ARC
  5
391
100
AcDbEntity
  8
0
100
AcDbCircle
 62
7
  6
BYLAYER
 10
836.190539021
 20
147.8055396874
 40
1.0
100
AcDbArc
 50
270.0
 51
360.0
  0
ARC
  5
392
100
AcDbEntity
  8
0
100
AcDbCircle
 62
7
  6
BYLAYER
 10
835.9014690047
 20
147.9054295489
 40
1.0
100
AcDbArc
 50
270.0
 51
360.0
  0
ARC
  5
393
100
AcDbEntity
  8
0
100
AcDbCircle
 62
7
  6
BYLAYER
 10
836.390063981
 20
147.9054295489
 40
1.0
100
AcDbArc
 50
290.1402792352
 51
360.0
  0
ARC
  5
394
100
AcDbEntity
  8
0
100
AcDbCircle
 62
7
  6
BYLAYER
 10
832.390063981
 20
147.9054295489
 40
1.0
100
AcDbArc
 50
180.0
 51
270.0
  0
ARC
  5
395
100
AcDbEntity
  8
0
100
AcDbCircle
 62
7
  6
BYLAYER
 10
835.8822233983
 20
147.8158863602
 40
0.9104568113
100
AcDbArc
 50
270.0004770284
 51
271.0800917668
  0
ARC
  5
396
100
AcDbEntity
  8
0
100
AcDbCircle
 62
7
  6
BYLAYER
 10
836.890063981
 20
149.9054295489
 40
0.5
100
AcDbArc
 50
271.1642031186
 51
360.0
  0
ARC
  5
397
100
AcDbEntity
  8
0
100
AcDbCircle
 62
7
  6
BYLAYER
 10
837.2523101108
 20
149.4977452469
 40
0.351195612
100
AcDbArc
 50
168.8863826973
 51
177.9822952308
  0
ARC
  5
398
100
AcDbEntity
  8
0
100
AcDbCircle
 62
7
  6
BYLAYER
 10
794.190791792
 20
1879.5055396874
 40
1.0
100
AcDbArc
 50
67.6076884452
 51
90.0
  0
ARC
  5
399
100
AcDbEntity
  8
0
100
AcDbCircle
 62
7
  6
BYLAYER
 10
793.190791792
 20
1879.5055396874
 40
1.0
100
AcDbArc
 50
67.6076884452
 51
90.0
  0
ARC
  5
39A
100
AcDbEntity
  8
0
100
AcDbCircle
 62
7
  6
BYLAYER
 10
788.590791792
 20
1879.5055396874
 40
1.0
100
AcDbArc
 50
90.0
 51
180.0
  0
ARC
  5
39B
100
AcDbEntity
  8
0
100
AcDbCircle
 62
7
  6
BYLAYER
 10
788.8793867683
 20
1879.4055396874
 40
1.0
100
AcDbArc
 50
90.0
 51
180.0
  0
ARC
  5
39C
100
AcDbEntity
  8
0
100
AcDbCircle
 62
7
  6
BYLAYER
 10
788.390791792
 20
1879.4055396874
 40
1.0
100
AcDbArc
 50
110.1126910722
 51
180.0000000001
  0
ARC
  5
39D
100
AcDbEntity
  8
0
100
AcDbCircle
 62
7
  6
BYLAYER
 10
792.390791792
 20
1879.4055396874
 40
1.0
100
AcDbArc
 50
0.0
 51
90.0
  0
ARC
  5
39E
100
AcDbEntity
  8
0
100
AcDbCircle
 62
7
  6
BYLAYER
 10
788.8986323746
 20
1879.495082882
 40
0.9104568054
100
AcDbArc
 50
90.0004770258
 51
91.080091771
  0
ARC
  5
39F
100
AcDbEntity
  8
0
100
AcDbCircle
 62
7
  6
BYLAYER
 10
787.890791792
 20
1877.4055396874
 40
0.5
100
AcDbArc
 50
91.1642031186
 51
180.0
  0
ARC
  5
3A0
100
AcDbEntity
  8
0
100
AcDbCircle
 62
7
  6
BYLAYER
 10
795.3908094545
 20
1876.9055398702
 40
0.4999999534
100
AcDbArc
 50
102.1571786862
 51
282.1569797606
  0
ARC
  5
3A1
100
AcDbEntity
  8
0
100
AcDbCircle
 62
7
  6
BYLAYER
 10
811.3907741296
 20
1876.9055398702
 40
0.4999999534
100
AcDbArc
 50
257.8430202394
 51
77.8428213138
  0
ARC
  5
3A2
100
AcDbEntity
  8
0
100
AcDbCircle
 62
7
  6
BYLAYER
 10
787.528545662
 20
1877.8132239895
 40
0.3511956122
100
AcDbArc
 50
348.886382699
 51
357.9822949908
  0
ARC
  5
3A3
100
AcDbEntity
  8
0
100
AcDbCircle
 62
7
  6
BYLAYER
 10
807.214031792
 20
1888.1055396874
 40
0.3
100
AcDbArc
 50
0.0
 51
90.0
  0
ARC
  5
3A4
100
AcDbEntity
  8
0
100
AcDbCircle
 62
7
  6
BYLAYER
 10
799.564031792
 20
1888.1055396874
 40
0.3
100
AcDbArc
 50
90.0
 51
180.0
  0
ARC
  5
3A5
100
AcDbEntity
  8
0
100
AcDbCircle
 62
7
  6
BYLAYER
 10
830.590791792
 20
1879.5055396874
 40
1.0
100
AcDbArc
 50
90.0
 51
112.3923115548
  0
ARC
  5
3A6
100
AcDbEntity
  8
0
100
AcDbCircle
 62
7
  6
BYLAYER
 10
836.190791792
 20
1879.5055396874
 40
1.0
100
AcDbArc
 50
0.0
 51
90.0
  0
ARC
  5
3A7
100
AcDbEntity
  8
0
100
AcDbCircle
 62
7
  6
BYLAYER
 10
831.590791792
 20
1879.5055396874
 40
1.0
100
AcDbArc
 50
90.0
 51
112.3923115548
  0
ARC
  5
3A8
100
AcDbEntity
  8
0
100
AcDbCircle
 62
7
  6
BYLAYER
 10
835.9021968157
 20
1879.4055396874
 40
1.0
100
AcDbArc
 50
0.0
 51
90.0
  0
ARC
  5
3A9
100
AcDbEntity
  8
0
100
AcDbCircle
 62
7
  6
BYLAYER
 10
836.390791792
 20
1879.4055396874
 40
1.0
100
AcDbArc
 50
0.0
 51
69.8873089278
  0
ARC
  5
3AA
100
AcDbEntity
  8
0
100
AcDbCircle
 62
7
  6
BYLAYER
 10
832.390791792
 20
1879.4055396874
 40
1.0
100
AcDbArc
 50
90.0
 51
180.0000000001
  0
ARC
  5
3AB
100
AcDbEntity
  8
0
100
AcDbCircle
 62
7
  6
BYLAYER
 10
835.8829511399
 20
1879.4942268424
 40
0.911312845
100
AcDbArc
 50
88.9031615496
 51
89.9995190543
  0
ARC
  5
3AC
100
AcDbEntity
  8
0
100
AcDbCircle
 62
7
  6
BYLAYER
 10
836.890791792
 20
1877.4055396874
 40
0.5
100
AcDbArc
 50
0.0
 51
88.8357968818
  0
ARC
  5
3AD
100
AcDbEntity
  8
0
100
AcDbCircle
 62
7
  6
BYLAYER
 10
813.3908094539
 20
1876.9055398704
 40
0.4999999532
100
AcDbArc
 50
102.1804098124
 51
282.180210997
  0
ARC
  5
3AE
100
AcDbEntity
  8
0
100
AcDbCircle
 62
7
  6
BYLAYER
 10
829.3907741301
 20
1876.9055398704
 40
0.4999999532
100
AcDbArc
 50
257.819789003
 51
77.8195901876
  0
SPLINE
  5
3AF
100
AcDbEntity
  8
0
100
AcDbSpline
 62
7
  6
BYLAYER
 70
0
 71
3
 72
11
 73
7
 74
0
 42
0.0000001
 43
0.0000001
 44
0.0000000001
 40
0.0
 40
0.0
 40
0.0
 40
0.0
 40
0.288432907
 40
0.5554725908
 40
0.7902209526
 40
1.0
 40
1.0
 40
1.0
 40
1.0
 10
805.7685678731
 20
1888.1055396874
 30
0.0
 10
805.7685678731
 20
1888.1444813536
 30
0.0
 10
805.7581703896
 20
1888.2199717228
 30
0.0
 10
805.7125863989
 20
1888.3183706763
 30
0.0
 10
805.6421373181
 20
1888.387736228
 30
0.0
 10
805.5813801955
 20
1888.4055406528
 30
0.0
 10
805.5530576795
 20
1888.4055396874
 30
0.0
  0
SPLINE
  5
3B0
100
AcDbEntity
  8
0
100
AcDbSpline
 62
7
  6
BYLAYER
 70
0
 71
3
 72
11
 73
7
 74
0
 42
0.0000001
 43
0.0000001
 44
0.0000000001
 40
0.0
 40
0.0
 40
0.0
 40
0.0
 40
0.2883671583
 40
0.5553852791
 40
0.7902445524
 40
1.0
 40
1.0
 40
1.0
 40
1.0
 10
806.7585173668
 20
1888.1055396874
 30
0.0
 10
806.7585173668
 20
1888.1444603935
 30
0.0
 10
806.7480777068
 20
1888.2199187176
 30
0.0
 10
806.7024053952
 20
1888.3182345002
 30
0.0
 10
806.6320448492
 20
1888.3876116389
 30
0.0
 10
806.5713177137
 20
1888.4055406524
 30
0.0
 10
806.5430071732
 20
1888.4055396874
 30
0.0
  0
SPLINE
  5
3B1
100
AcDbEntity
  8
0
100
AcDbSpline
 62
7
  6
BYLAYER
 70
0
 71
3
 72
9
 73
5
 74
0
 42
0.0000001
 43
0.0000001
 44
0.0000000001
 40
0.0
 40
0.0
 40
0.0
 40
0.0
 40
0.242355115
 40
1.0
 40
1.0
 40
1.0
 40
1.0
 10
836.9014730161
 20
149.5207420545
 30
0.0
 10
836.9014820346
 20
149.5522277238
 30
0.0
 10
836.8962770341
 20
149.6821290027
 30
0.0
 10
836.8712878825
 20
149.8109288965
 30
0.0
 10
836.8437548992
 20
149.9054294448
 30
0.0
  0
SPLINE
  5
3B2
100
AcDbEntity
  8
0
100
AcDbSpline
 62
7
  6
BYLAYER
 70
0
 71
3
 72
8
 73
4
 74
0
 42
0.0000001
 43
0.0000001
 44
0.0000000001
 40
0.0
 40
0.0
 40
0.0
 40
0.0
 40
1.0
 40
1.0
 40
1.0
 40
1.0
 10
836.9077005122
 20
149.5654400209
 30
0.0
 10
836.9169973639
 20
149.61297282
 30
0.0
 10
836.9361483767
 20
149.6594473584
 30
0.0
 10
836.9628025767
 20
149.6998868448
 30
0.0
  0
SPLINE
  5
3B3
100
AcDbEntity
  8
0
100
AcDbSpline
 62
7
  6
BYLAYER
 70
0
 71
3
 72
11
 73
7
 74
0
 42
0.0000001
 43
0.0000001
 44
0.0000000001
 40
0.0
 40
0.0
 40
0.0
 40
0.0
 40
0.2455000837
 40
0.4935877931
 40
0.7454492783
 40
1.0
 40
1.0
 40
1.0
 40
1.0
 10
788.8804600337
 20
146.9055965288
 30
0.0
 10
788.7566081388
 20
146.9079667542
 30
0.0
 10
788.5057556899
 20
146.9641932178
 30
0.0
 10
788.1925804461
 20
147.1892613461
 30
0.0
 10
787.9846072036
 20
147.5188551939
 30
0.0
 10
787.9363730358
 20
147.7769881998
 30
0.0
 10
787.9363730358
 20
147.9054295489
 30
0.0
  0
SPLINE
  5
3B4
100
AcDbEntity
  8
0
100
AcDbSpline
 62
7
  6
BYLAYER
 70
0
 71
3
 72
11
 73
7
 74
0
 42
0.0000001
 43
0.0000001
 44
0.0000000001
 40
0.0
 40
0.0
 40
0.0
 40
0.0
 40
0.2370154222
 40
0.4817461593
 40
0.7371748139
 40
1.0
 40
1.0
 40
1.0
 40
1.0
 10
792.0484231945
 20
146.9054295489
 30
0.0
 10
792.1653094772
 20
146.9054295489
 30
0.0
 10
792.4058509268
 20
146.9596982842
 30
0.0
 10
792.7026394818
 20
147.1863453031
 30
0.0
 10
792.8979230622
 20
147.5178476567
 30
0.0
 10
792.9428503855
 20
147.7758149495
 30
0.0
 10
792.9428503855
 20
147.9054295489
 30
0.0
  0
SPLINE
  5
3B5
100
AcDbEntity
  8
0
100
AcDbSpline
 62
7
  6
BYLAYER
 70
0
 71
3
 72
11
 73
7
 74
0
 42
0.0000001
 43
0.0000001
 44
0.0000000001
 40
0.0
 40
0.0
 40
0.0
 40
0.0
 40
0.2429770416
 40
0.4900484521
 40
0.7429376142
 40
1.0
 40
1.0
 40
1.0
 40
1.0
 10
792.3900631041
 20
146.9054295489
 30
0.0
 10
792.5131555732
 20
146.9054366971
 30
0.0
 10
792.7643212664
 20
146.9581849358
 30
0.0
 10
793.0790182591
 20
147.1821090485
 30
0.0
 10
793.2886158381
 20
147.5142106942
 30
0.0
 10
793.3372955989
 20
147.7752014268
 30
0.0
 10
793.3372964182
 20
147.9054295489
 30
0.0
  0
SPLINE
  5
3B6
100
AcDbEntity
  8
0
100
AcDbSpline
 62
7
  6
BYLAYER
 70
0
 71
3
 72
11
 73
7
 74
0
 42
0.0000001
 43
0.0000001
 44
0.0000000001
 40
0.0
 40
0.0
 40
0.0
 40
0.0
 40
0.2570642536
 40
0.5099515937
 40
0.7570212812
 40
1.0
 40
1.0
 40
1.0
 40
1.0
 10
831.4428314556
 20
147.9054295489
 30
0.0
 10
831.4428322869
 20
147.7752004656
 30
0.0
 10
831.49151225
 20
147.5142095607
 30
0.0
 10
831.701110062
 20
147.182109225
 30
0.0
 10
832.01580568
 20
146.9581851091
 30
0.0
 10
832.266971514
 20
146.9054366089
 30
0.0
 10
832.390064847
 20
146.9054295489
 30
0.0
  0
SPLINE
  5
3B7
100
AcDbEntity
  8
0
100
AcDbSpline
 62
7
  6
BYLAYER
 70
0
 71
3
 72
11
 73
7
 74
0
 42
0.0000001
 43
0.0000001
 44
0.0000000001
 40
0.0
 40
0.0
 40
0.0
 40
0.0
 40
0.2627344212
 40
0.5180975916
 40
0.762900959
 40
1.0
 40
1.0
 40
1.0
 40
1.0
 10
831.8372775765
 20
147.9054295489
 30
0.0
 10
831.8372775765
 20
147.7758597814
 30
0.0
 10
831.8821736784
 20
147.5179717576
 30
0.0
 10
832.0773743782
 20
147.1864766205
 30
0.0
 10
832.374156722
 20
146.9597386692
 30
0.0
 10
832.6147773109
 20
146.9054295489
 30
0.0
 10
832.7317047675
 20
146.9054295489
 30
0.0
  0
SPLINE
  5
3B8
100
AcDbEntity
  8
0
100
AcDbSpline
 62
7
  6
BYLAYER
 70
0
 71
3
 72
11
 73
7
 74
0
 42
0.0000001
 43
0.0000001
 44
0.0000000001
 40
0.0
 40
0.0
 40
0.0
 40
0.0
 40
0.2544641196
 40
0.5062554122
 40
0.7544085347
 40
1.0
 40
1.0
 40
1.0
 40
1.0
 10
836.8437549262
 20
147.9054295489
 30
0.0
 10
836.8437549262
 20
147.7770084963
 30
0.0
 10
836.7955373454
 20
147.5189082754
 30
0.0
 10
836.5875749817
 20
147.1892824323
 30
0.0
 10
836.274304482
 20
146.9641344583
 30
0.0
 10
836.0233068113
 20
146.9079266435
 30
0.0
 10
835.8993855466
 20
146.9055913169
 30
0.0
  0
SPLINE
  5
3B9
100
AcDbEntity
  8
0
100
AcDbSpline
 62
7
  6
BYLAYER
 70
0
 71
3
 72
9
 73
5
 74
0
 42
0.0000001
 43
0.0000001
 44
0.0000000001
 40
0.0
 40
0.0
 40
0.0
 40
0.0
 40
0.2799425407
 40
1.0
 40
1.0
 40
1.0
 40
1.0
 10
836.9628024633
 20
149.6998866392
 30
0.0
 10
836.9678286046
 20
149.6849546133
 30
0.0
 10
836.9832939309
 20
149.6310965986
 30
0.0
 10
836.986406217
 20
149.5716685293
 30
0.0
 10
836.9749722484
 20
149.5327899839
 30
0.0
  0
SPLINE
  5
3BA
100
AcDbEntity
  8
0
100
AcDbSpline
 62
7
  6
BYLAYER
 70
0
 71
3
 72
8
 73
4
 74
0
 42
0.0000001
 43
0.0000001
 44
0.0000000001
 40
0.0
 40
0.0
 40
0.0
 40
0.0
 40
1.0
 40
1.0
 40
1.0
 40
1.0
 10
836.9749722484
 20
149.5327899839
 30
0.0
 10
836.9699781444
 20
149.5158086972
 30
0.0
 10
836.9622921899
 20
149.4993744895
 30
0.0
 10
836.952262744
 20
149.4847897239
 30
0.0
  0
SPLINE
  5
3BB
100
AcDbEntity
  8
0
100
AcDbSpline
 62
7
  6
BYLAYER
 70
0
 71
3
 72
8
 73
4
 74
0
 42
0.0000001
 43
0.0000001
 44
0.0000000001
 40
0.0
 40
0.0
 40
0.0
 40
0.0
 40
1.0
 40
1.0
 40
1.0
 40
1.0
 10
836.952262744
 20
149.4847897239
 30
0.0
 10
836.939222813
 20
149.4658271272
 30
0.0
 10
836.9216482943
 20
149.4494835441
 30
0.0
 10
836.9020758911
 20
149.4373781358
 30
0.0
  0
SPLINE
  5
3BC
100
AcDbEntity
  8
0
100
AcDbSpline
 62
7
  6
BYLAYER
 70
0
 71
3
 72
8
 73
4
 74
0
 42
0.0000001
 43
0.0000001
 44
0.0000000001
 40
0.0
 40
0.0
 40
0.0
 40
0.0
 40
1.0
 40
1.0
 40
1.0
 40
1.0
 10
837.0053034574
 20
149.9054295489
 30
0.0
 10
837.0053034574
 20
149.8354659647
 30
0.0
 10
836.9906350331
 20
149.7640760768
 30
0.0
 10
836.9628025767
 20
149.6998868449
 30
0.0
  0
SPLINE
  5
3BD
100
AcDbEntity
  8
0
100
AcDbSpline
 62
7
  6
BYLAYER
 70
0
 71
3
 72
9
 73
5
 74
0
 42
0.0000001
 43
0.0000001
 44
0.0000000001
 40
0.0
 40
0.0
 40
0.0
 40
0.0
 40
0.2703934266
 40
1.0
 40
1.0
 40
1.0
 40
1.0
 10
836.8437549262
 20
149.9054295489
 30
0.0
 10
836.8569192426
 20
149.8884922179
 30
0.0
 10
836.9036181224
 20
149.8244140181
 30
0.0
 10
836.9426226296
 20
149.7541384825
 30
0.0
 10
836.9628025767
 20
149.6998868449
 30
0.0
  0
SPLINE
  5
3BE
100
AcDbEntity
  8
0
100
AcDbSpline
 62
7
  6
BYLAYER
 70
0
 71
3
 72
11
 73
7
 74
0
 42
0.0000001
 43
0.0000001
 44
0.0000000001
 40
0.0
 40
0.0
 40
0.0
 40
0.0
 40
0.2454646712
 40
0.49351694
 40
0.7453862235
 40
1.0
 40
1.0
 40
1.0
 40
1.0
 10
834.8429851031
 20
146.9054295489
 30
0.0
 10
834.96824042
 20
146.9054295489
 30
0.0
 10
835.2229904627
 20
146.9581666638
 30
0.0
 10
835.5424670018
 20
147.1822387705
 30
0.0
 10
835.7551366284
 20
147.5143594648
 30
0.0
 10
835.8045090508
 20
147.7755056413
 30
0.0
 10
835.8045090508
 20
147.9054295489
 30
0.0
  0
SPLINE
  5
3BF
100
AcDbEntity
  8
0
100
AcDbSpline
 62
7
  6
BYLAYER
 70
0
 71
3
 72
9
 73
5
 74
0
 42
0.0000001
 43
0.0000001
 44
0.0000000001
 40
0.0
 40
0.0
 40
0.0
 40
0.0
 40
0.2581441244
 40
1.0
 40
1.0
 40
1.0
 40
1.0
 10
787.9363730736
 20
149.9054294031
 30
0.0
 10
787.9269934663
 20
149.8732360805
 30
0.0
 10
787.8946120973
 20
149.7474491161
 30
0.0
 10
787.8786284809
 20
149.6171197087
 30
0.0
 10
787.8786549442
 20
149.5207556246
 30
0.0
  0
SPLINE
  5
3C0
100
AcDbEntity
  8
0
100
AcDbSpline
 62
7
  6
BYLAYER
 70
0
 71
3
 72
8
 73
4
 74
0
 42
0.0000001
 43
0.0000001
 44
0.0000000001
 40
0.0
 40
0.0
 40
0.0
 40
0.0
 40
1.0
 40
1.0
 40
1.0
 40
1.0
 10
787.8173253852
 20
149.6998868448
 30
0.0
 10
787.8520350061
 20
149.6472257544
 30
0.0
 10
787.8741387979
 20
149.5836916611
 30
0.0
 10
787.8782646542
 20
149.5207557767
 30
0.0
  0
SPLINE
  5
3C1
100
AcDbEntity
  8
0
100
AcDbSpline
 62
7
  6
BYLAYER
 70
0
 71
3
 72
9
 73
5
 74
0
 42
0.0000001
 43
0.0000001
 44
0.0000000001
 40
0.0
 40
0.0
 40
0.0
 40
0.0
 40
0.27038548
 40
1.0
 40
1.0
 40
1.0
 40
1.0
 10
787.9363730358
 20
149.9054295489
 30
0.0
 10
787.9232090872
 20
149.8884926985
 30
0.0
 10
787.8765058861
 20
149.8244174637
 30
0.0
 10
787.8375055834
 20
149.7541391346
 30
0.0
 10
787.8173253853
 20
149.6998868449
 30
0.0
  0
SPLINE
  5
3C2
100
AcDbEntity
  8
0
100
AcDbSpline
 62
7
  6
BYLAYER
 70
0
 71
3
 72
8
 73
4
 74
0
 42
0.0000001
 43
0.0000001
 44
0.0000000001
 40
0.0
 40
0.0
 40
0.0
 40
0.0
 40
1.0
 40
1.0
 40
1.0
 40
1.0
 10
787.8173253853
 20
149.6998868449
 30
0.0
 10
787.7894929289
 20
149.7640760768
 30
0.0
 10
787.7748245046
 20
149.8354659647
 30
0.0
 10
787.7748245046
 20
149.9054295489
 30
0.0
  0
SPLINE
  5
3C3
100
AcDbEntity
  8
0
100
AcDbSpline
 62
7
  6
BYLAYER
 70
0
 71
3
 72
9
 73
5
 74
0
 42
0.0000001
 43
0.0000001
 44
0.0000000001
 40
0.0
 40
0.0
 40
0.0
 40
0.0
 40
0.2666839678
 40
1.0
 40
1.0
 40
1.0
 40
1.0
 10
787.878607923
 20
149.4370357127
 30
0.0
 10
787.8693765585
 20
149.442699983
 30
0.0
 10
787.8365722366
 20
149.4668832345
 30
0.0
 10
787.81378382
 20
149.5037551275
 30
0.0
 10
787.8052997959
 20
149.5323026515
 30
0.0
  0
SPLINE
  5
3C4
100
AcDbEntity
  8
0
100
AcDbSpline
 62
7
  6
BYLAYER
 70
0
 71
3
 72
9
 73
5
 74
0
 42
0.0000001
 43
0.0000001
 44
0.0000000001
 40
0.0
 40
0.0
 40
0.0
 40
0.0
 40
0.2268944865
 40
1.0
 40
1.0
 40
1.0
 40
1.0
 10
787.8052997959
 20
149.5323026515
 30
0.0
 10
787.8016444204
 20
149.5446024657
 30
0.0
 10
787.7914717901
 20
149.6006605024
 30
0.0
 10
787.8033778329
 20
149.6584498677
 30
0.0
 10
787.8173255046
 20
149.6998866285
 30
0.0
  0
SPLINE
  5
3C5
100
AcDbEntity
  8
0
100
AcDbSpline
 62
7
  6
BYLAYER
 70
0
 71
3
 72
11
 73
7
 74
0
 42
0.0000001
 43
0.0000001
 44
0.0000000001
 40
0.0
 40
0.0
 40
0.0
 40
0.0
 40
0.2545253123
 40
0.5063269197
 40
0.7544493833
 40
1.0
 40
1.0
 40
1.0
 40
1.0
 10
788.9756189112
 20
147.9054295489
 30
0.0
 10
788.9756189112
 20
147.7755508076
 30
0.0
 10
789.0249563028
 20
147.5144866915
 30
0.0
 10
789.2375368259
 20
147.1823691948
 30
0.0
 10
789.5570116363
 20
146.9582050262
 30
0.0
 10
789.8118437098
 20
146.9054295489
 30
0.0
 10
789.9371428589
 20
146.9054295489
 30
0.0
  0
SPLINE
  5
3C6
100
AcDbEntity
  8
0
100
AcDbSpline
 62
7
  6
BYLAYER
 70
0
 71
3
 72
9
 73
5
 74
0
 42
0.0000001
 43
0.0000001
 44
0.0000000001
 40
0.0
 40
0.0
 40
0.0
 40
0.0
 40
0.242355115
 40
1.0
 40
1.0
 40
1.0
 40
1.0
 10
689.2523421276
 20
149.5207420532
 30
0.0
 10
689.2523511462
 20
149.5522277226
 30
0.0
 10
689.2471461457
 20
149.6821290019
 30
0.0
 10
689.222156994
 20
149.8109288961
 30
0.0
 10
689.1946240107
 20
149.9054294448
 30
0.0
  0
SPLINE
  5
3C7
100
AcDbEntity
  8
0
100
AcDbSpline
 62
7
  6
BYLAYER
 70
0
 71
3
 72
8
 73
4
 74
0
 42
0.0000001
 43
0.0000001
 44
0.0000000001
 40
0.0
 40
0.0
 40
0.0
 40
0.0
 40
1.0
 40
1.0
 40
1.0
 40
1.0
 10
689.2585696237
 20
149.5654400209
 30
0.0
 10
689.2678664754
 20
149.61297282
 30
0.0
 10
689.2870174881
 20
149.6594473584
 30
0.0
 10
689.3136716882
 20
149.6998868448
 30
0.0
  0
SPLINE
  5
3C8
100
AcDbEntity
  8
0
100
AcDbSpline
 62
7
  6
BYLAYER
 70
0
 71
3
 72
11
 73
7
 74
0
 42
0.0000001
 43
0.0000001
 44
0.0000000001
 40
0.0
 40
0.0
 40
0.0
 40
0.0
 40
0.2455000837
 40
0.4935877931
 40
0.7454492783
 40
1.0
 40
1.0
 40
1.0
 40
1.0
 10
641.2313291452
 20
146.9055965288
 30
0.0
 10
641.1074772503
 20
146.9079667542
 30
0.0
 10
640.8566248014
 20
146.9641932178
 30
0.0
 10
640.5434495576
 20
147.1892613461
 30
0.0
 10
640.335476315
 20
147.5188551939
 30
0.0
 10
640.2872421473
 20
147.7769881998
 30
0.0
 10
640.2872421473
 20
147.9054295489
 30
0.0
  0
SPLINE
  5
3C9
100
AcDbEntity
  8
0
100
AcDbSpline
 62
7
  6
BYLAYER
 70
0
 71
3
 72
11
 73
7
 74
0
 42
0.0000001
 43
0.0000001
 44
0.0000000001
 40
0.0
 40
0.0
 40
0.0
 40
0.0
 40
0.2370154222
 40
0.4817461593
 40
0.7371748139
 40
1.0
 40
1.0
 40
1.0
 40
1.0
 10
644.399292306
 20
146.9054295489
 30
0.0
 10
644.5161785887
 20
146.9054295489
 30
0.0
 10
644.7567200383
 20
146.9596982842
 30
0.0
 10
645.0535085933
 20
147.1863453031
 30
0.0
 10
645.2487921737
 20
147.5178476567
 30
0.0
 10
645.293719497
 20
147.7758149495
 30
0.0
 10
645.293719497
 20
147.9054295489
 30
0.0
  0
SPLINE
  5
3CA
100
AcDbEntity
  8
0
100
AcDbSpline
 62
7
  6
BYLAYER
 70
0
 71
3
 72
11
 73
7
 74
0
 42
0.0000001
 43
0.0000001
 44
0.0000000001
 40
0.0
 40
0.0
 40
0.0
 40
0.0
 40
0.2429770416
 40
0.4900484521
 40
0.7429376142
 40
1.0
 40
1.0
 40
1.0
 40
1.0
 10
644.7409322156
 20
146.9054295489
 30
0.0
 10
644.8640246847
 20
146.9054366971
 30
0.0
 10
645.1151903779
 20
146.9581849358
 30
0.0
 10
645.4298873706
 20
147.1821090485
 30
0.0
 10
645.6394849496
 20
147.5142106942
 30
0.0
 10
645.6881647104
 20
147.7752014268
 30
0.0
 10
645.6881655297
 20
147.9054295489
 30
0.0
  0
SPLINE
  5
3CB
100
AcDbEntity
  8
0
100
AcDbSpline
 62
7
  6
BYLAYER
 70
0
 71
3
 72
11
 73
7
 74
0
 42
0.0000001
 43
0.0000001
 44
0.0000000001
 40
0.0
 40
0.0
 40
0.0
 40
0.0
 40
0.2570642536
 40
0.5099515937
 40
0.7570212812
 40
1.0
 40
1.0
 40
1.0
 40
1.0
 10
683.7937005671
 20
147.9054295489
 30
0.0
 10
683.7937013984
 20
147.7752004656
 30
0.0
 10
683.8423813615
 20
147.5142095607
 30
0.0
 10
684.0519791735
 20
147.182109225
 30
0.0
 10
684.3666747914
 20
146.9581851091
 30
0.0
 10
684.6178406255
 20
146.9054366089
 30
0.0
 10
684.7409339585
 20
146.9054295489
 30
0.0
  0
SPLINE
  5
3CC
100
AcDbEntity
  8
0
100
AcDbSpline
 62
7
  6
BYLAYER
 70
0
 71
3
 72
11
 73
7
 74
0
 42
0.0000001
 43
0.0000001
 44
0.0000000001
 40
0.0
 40
0.0
 40
0.0
 40
0.0
 40
0.2627344212
 40
0.5180975916
 40
0.762900959
 40
1.0
 40
1.0
 40
1.0
 40
1.0
 10
684.188146688
 20
147.9054295489
 30
0.0
 10
684.188146688
 20
147.7758597814
 30
0.0
 10
684.2330427899
 20
147.5179717576
 30
0.0
 10
684.4282434897
 20
147.1864766205
 30
0.0
 10
684.7250258335
 20
146.9597386692
 30
0.0
 10
684.9656464224
 20
146.9054295489
 30
0.0
 10
685.082573879
 20
146.9054295489
 30
0.0
  0
SPLINE
  5
3CD
100
AcDbEntity
  8
0
100
AcDbSpline
 62
7
  6
BYLAYER
 70
0
 71
3
 72
11
 73
7
 74
0
 42
0.0000001
 43
0.0000001
 44
0.0000000001
 40
0.0
 40
0.0
 40
0.0
 40
0.0
 40
0.2544641196
 40
0.5062554122
 40
0.7544085347
 40
1.0
 40
1.0
 40
1.0
 40
1.0
 10
689.1946240377
 20
147.9054295489
 30
0.0
 10
689.1946240377
 20
147.7770084963
 30
0.0
 10
689.1464064569
 20
147.5189082754
 30
0.0
 10
688.9384440931
 20
147.1892824323
 30
0.0
 10
688.6251735935
 20
146.9641344583
 30
0.0
 10
688.3741759227
 20
146.9079266435
 30
0.0
 10
688.2502546581
 20
146.9055913169
 30
0.0
  0
SPLINE
  5
3CE
100
AcDbEntity
  8
0
100
AcDbSpline
 62
7
  6
BYLAYER
 70
0
 71
3
 72
9
 73
5
 74
0
 42
0.0000001
 43
0.0000001
 44
0.0000000001
 40
0.0
 40
0.0
 40
0.0
 40
0.0
 40
0.2799425407
 40
1.0
 40
1.0
 40
1.0
 40
1.0
 10
689.3136715747
 20
149.6998866392
 30
0.0
 10
689.3186977161
 20
149.6849546133
 30
0.0
 10
689.3341630424
 20
149.6310965986
 30
0.0
 10
689.3372753285
 20
149.5716685293
 30
0.0
 10
689.3258413599
 20
149.5327899839
 30
0.0
  0
SPLINE
  5
3CF
100
AcDbEntity
  8
0
100
AcDbSpline
 62
7
  6
BYLAYER
 70
0
 71
3
 72
8
 73
4
 74
0
 42
0.0000001
 43
0.0000001
 44
0.0000000001
 40
0.0
 40
0.0
 40
0.0
 40
0.0
 40
1.0
 40
1.0
 40
1.0
 40
1.0
 10
689.3258413599
 20
149.5327899839
 30
0.0
 10
689.3208472559
 20
149.5158086972
 30
0.0
 10
689.3131613014
 20
149.4993744895
 30
0.0
 10
689.3031318555
 20
149.4847897239
 30
0.0
  0
SPLINE
  5
3D0
100
AcDbEntity
  8
0
100
AcDbSpline
 62
7
  6
BYLAYER
 70
0
 71
3
 72
8
 73
4
 74
0
 42
0.0000001
 43
0.0000001
 44
0.0000000001
 40
0.0
 40
0.0
 40
0.0
 40
0.0
 40
1.0
 40
1.0
 40
1.0
 40
1.0
 10
689.3031318555
 20
149.4847897239
 30
0.0
 10
689.2900919244
 20
149.4658271272
 30
0.0
 10
689.2725174058
 20
149.4494835441
 30
0.0
 10
689.2529450026
 20
149.4373781358
 30
0.0
  0
SPLINE
  5
3D1
100
AcDbEntity
  8
0
100
AcDbSpline
 62
7
  6
BYLAYER
 70
0
 71
3
 72
8
 73
4
 74
0
 42
0.0000001
 43
0.0000001
 44
0.0000000001
 40
0.0
 40
0.0
 40
0.0
 40
0.0
 40
1.0
 40
1.0
 40
1.0
 40
1.0
 10
689.3561725689
 20
149.9054295489
 30
0.0
 10
689.3561725689
 20
149.8354659647
 30
0.0
 10
689.3415041446
 20
149.7640760768
 30
0.0
 10
689.3136716882
 20
149.6998868449
 30
0.0
  0
SPLINE
  5
3D2
100
AcDbEntity
  8
0
100
AcDbSpline
 62
7
  6
BYLAYER
 70
0
 71
3
 72
9
 73
5
 74
0
 42
0.0000001
 43
0.0000001
 44
0.0000000001
 40
0.0
 40
0.0
 40
0.0
 40
0.0
 40
0.2703934266
 40
1.0
 40
1.0
 40
1.0
 40
1.0
 10
689.1946240377
 20
149.9054295489
 30
0.0
 10
689.2077883541
 20
149.8884922179
 30
0.0
 10
689.2544872338
 20
149.8244140181
 30
0.0
 10
689.2934917411
 20
149.7541384825
 30
0.0
 10
689.3136716882
 20
149.6998868449
 30
0.0
  0
SPLINE
  5
3D3
100
AcDbEntity
  8
0
100
AcDbSpline
 62
7
  6
BYLAYER
 70
0
 71
3
 72
11
 73
7
 74
0
 42
0.0000001
 43
0.0000001
 44
0.0000000001
 40
0.0
 40
0.0
 40
0.0
 40
0.0
 40
0.2454646712
 40
0.49351694
 40
0.7453862235
 40
1.0
 40
1.0
 40
1.0
 40
1.0
 10
687.1938542146
 20
146.9054295489
 30
0.0
 10
687.3191095315
 20
146.9054295489
 30
0.0
 10
687.5738595742
 20
146.9581666638
 30
0.0
 10
687.8933361133
 20
147.1822387705
 30
0.0
 10
688.1060057399
 20
147.5143594648
 30
0.0
 10
688.1553781622
 20
147.7755056413
 30
0.0
 10
688.1553781622
 20
147.9054295489
 30
0.0
  0
SPLINE
  5
3D4
100
AcDbEntity
  8
0
100
AcDbSpline
 62
7
  6
BYLAYER
 70
0
 71
3
 72
9
 73
5
 74
0
 42
0.0000001
 43
0.0000001
 44
0.0000000001
 40
0.0
 40
0.0
 40
0.0
 40
0.0
 40
0.2581441244
 40
1.0
 40
1.0
 40
1.0
 40
1.0
 10
640.2872421851
 20
149.9054294031
 30
0.0
 10
640.2778625777
 20
149.8732360804
 30
0.0
 10
640.2454812087
 20
149.7474491159
 30
0.0
 10
640.2294975923
 20
149.6171197082
 30
0.0
 10
640.2295240557
 20
149.5207556239
 30
0.0
  0
SPLINE
  5
3D5
100
AcDbEntity
  8
0
100
AcDbSpline
 62
7
  6
BYLAYER
 70
0
 71
3
 72
8
 73
4
 74
0
 42
0.0000001
 43
0.0000001
 44
0.0000000001
 40
0.0
 40
0.0
 40
0.0
 40
0.0
 40
1.0
 40
1.0
 40
1.0
 40
1.0
 10
640.1681944967
 20
149.6998868448
 30
0.0
 10
640.2029041177
 20
149.6472257542
 30
0.0
 10
640.2250079096
 20
149.5836916606
 30
0.0
 10
640.2291337658
 20
149.5207557761
 30
0.0
  0
SPLINE
  5
3D6
100
AcDbEntity
  8
0
100
AcDbSpline
 62
7
  6
BYLAYER
 70
0
 71
3
 72
9
 73
5
 74
0
 42
0.0000001
 43
0.0000001
 44
0.0000000001
 40
0.0
 40
0.0
 40
0.0
 40
0.0
 40
0.27038548
 40
1.0
 40
1.0
 40
1.0
 40
1.0
 10
640.2872421473
 20
149.9054295489
 30
0.0
 10
640.2740781987
 20
149.8884926985
 30
0.0
 10
640.2273749976
 20
149.8244174637
 30
0.0
 10
640.1883746949
 20
149.7541391346
 30
0.0
 10
640.1681944968
 20
149.6998868449
 30
0.0
  0
SPLINE
  5
3D7
100
AcDbEntity
  8
0
100
AcDbSpline
 62
7
  6
BYLAYER
 70
0
 71
3
 72
8
 73
4
 74
0
 42
0.0000001
 43
0.0000001
 44
0.0000000001
 40
0.0
 40
0.0
 40
0.0
 40
0.0
 40
1.0
 40
1.0
 40
1.0
 40
1.0
 10
640.1681944968
 20
149.6998868449
 30
0.0
 10
640.1403620404
 20
149.7640760768
 30
0.0
 10
640.1256936161
 20
149.8354659647
 30
0.0
 10
640.1256936161
 20
149.9054295489
 30
0.0
  0
SPLINE
  5
3D8
100
AcDbEntity
  8
0
100
AcDbSpline
 62
7
  6
BYLAYER
 70
0
 71
3
 72
9
 73
5
 74
0
 42
0.0000001
 43
0.0000001
 44
0.0000000001
 40
0.0
 40
0.0
 40
0.0
 40
0.0
 40
0.2666839678
 40
1.0
 40
1.0
 40
1.0
 40
1.0
 10
640.2294770345
 20
149.4370357127
 30
0.0
 10
640.22024567
 20
149.442699983
 30
0.0
 10
640.1874413481
 20
149.4668832345
 30
0.0
 10
640.1646529315
 20
149.5037551275
 30
0.0
 10
640.1561689074
 20
149.5323026515
 30
0.0
  0
SPLINE
  5
3D9
100
AcDbEntity
  8
0
100
AcDbSpline
 62
7
  6
BYLAYER
 70
0
 71
3
 72
9
 73
5
 74
0
 42
0.0000001
 43
0.0000001
 44
0.0000000001
 40
0.0
 40
0.0
 40
0.0
 40
0.0
 40
0.2268944865
 40
1.0
 40
1.0
 40
1.0
 40
1.0
 10
640.1561689074
 20
149.5323026515
 30
0.0
 10
640.1525135319
 20
149.5446024657
 30
0.0
 10
640.1423409016
 20
149.6006605024
 30
0.0
 10
640.1542469444
 20
149.6584498677
 30
0.0
 10
640.1681946161
 20
149.6998866285
 30
0.0
  0
SPLINE
  5
3DA
100
AcDbEntity
  8
0
100
AcDbSpline
 62
7
  6
BYLAYER
 70
0
 71
3
 72
11
 73
7
 74
0
 42
0.0000001
 43
0.0000001
 44
0.0000000001
 40
0.0
 40
0.0
 40
0.0
 40
0.0
 40
0.2545253123
 40
0.5063269197
 40
0.7544493833
 40
1.0
 40
1.0
 40
1.0
 40
1.0
 10
641.3264880227
 20
147.9054295489
 30
0.0
 10
641.3264880227
 20
147.7755508076
 30
0.0
 10
641.3758254143
 20
147.5144866915
 30
0.0
 10
641.5884059374
 20
147.1823691948
 30
0.0
 10
641.9078807477
 20
146.9582050262
 30
0.0
 10
642.1627128213
 20
146.9054295489
 30
0.0
 10
642.2880119703
 20
146.9054295489
 30
0.0
  0
SPLINE
  5
3DB
100
AcDbEntity
  8
0
100
AcDbSpline
 62
7
  6
BYLAYER
 70
0
 71
3
 72
8
 73
4
 74
0
 42
0.0000001
 43
0.0000001
 44
0.0000000001
 40
0.0
 40
0.0
 40
0.0
 40
0.0
 40
1.0
 40
1.0
 40
1.0
 40
1.0
 10
640.2240243723
 20
1877.7455292154
 30
0.0
 10
640.2147275206
 20
1877.6979964163
 30
0.0
 10
640.1955765078
 20
1877.6515218779
 30
0.0
 10
640.1689223077
 20
1877.6110823915
 30
0.0
  0
SPLINE
  5
3DC
100
AcDbEntity
  8
0
100
AcDbSpline
 62
7
  6
BYLAYER
 70
0
 71
3
 72
9
 73
5
 74
0
 42
0.0000001
 43
0.0000001
 44
0.0000000001
 40
0.0
 40
0.0
 40
0.0
 40
0.0
 40
0.2581441241
 40
1.0
 40
1.0
 40
1.0
 40
1.0
 10
689.1953518109
 20
1877.4055398332
 30
0.0
 10
689.204731418
 20
1877.4377331549
 30
0.0
 10
689.2371127862
 20
1877.5635201157
 30
0.0
 10
689.2530964027
 20
1877.6938495194
 30
0.0
 10
689.2530699403
 20
1877.7902136009
 30
0.0
  0
SPLINE
  5
3DD
100
AcDbEntity
  8
0
100
AcDbSpline
 62
7
  6
BYLAYER
 70
0
 71
3
 72
8
 73
4
 74
0
 42
0.0000001
 43
0.0000001
 44
0.0000000001
 40
0.0
 40
0.0
 40
0.0
 40
0.0
 40
1.0
 40
1.0
 40
1.0
 40
1.0
 10
689.3143994992
 20
1877.6110823915
 30
0.0
 10
689.2796898803
 20
1877.663743479
 30
0.0
 10
689.257586089
 20
1877.727277568
 30
0.0
 10
689.253460231
 20
1877.7902134488
 30
0.0
  0
SPLINE
  5
3DE
100
AcDbEntity
  8
0
100
AcDbSpline
 62
7
  6
BYLAYER
 70
0
 71
3
 72
9
 73
5
 74
0
 42
0.0000001
 43
0.0000001
 44
0.0000000001
 40
0.0
 40
0.0
 40
0.0
 40
0.0
 40
0.27038548
 40
1.0
 40
1.0
 40
1.0
 40
1.0
 10
689.1953518487
 20
1877.4055396874
 30
0.0
 10
689.2085157973
 20
1877.4224765378
 30
0.0
 10
689.2552189984
 20
1877.4865517726
 30
0.0
 10
689.2942193011
 20
1877.5568301017
 30
0.0
 10
689.3143994992
 20
1877.6110823914
 30
0.0
  0
SPLINE
  5
3DF
100
AcDbEntity
  8
0
100
AcDbSpline
 62
7
  6
BYLAYER
 70
0
 71
3
 72
9
 73
5
 74
0
 42
0.0000001
 43
0.0000001
 44
0.0000000001
 40
0.0
 40
0.0
 40
0.0
 40
0.0
 40
0.2666839678
 40
1.0
 40
1.0
 40
1.0
 40
1.0
 10
689.2531169615
 20
1877.8739335236
 30
0.0
 10
689.262348326
 20
1877.8682692533
 30
0.0
 10
689.2951526479
 20
1877.8440860018
 30
0.0
 10
689.3179410645
 20
1877.8072141088
 30
0.0
 10
689.3264250886
 20
1877.7786665848
 30
0.0
  0
SPLINE
  5
3E0
100
AcDbEntity
  8
0
100
AcDbSpline
 62
7
  6
BYLAYER
 70
0
 71
3
 72
9
 73
5
 74
0
 42
0.0000001
 43
0.0000001
 44
0.0000000001
 40
0.0
 40
0.0
 40
0.0
 40
0.0
 40
0.2268944865
 40
1.0
 40
1.0
 40
1.0
 40
1.0
 10
689.3264250886
 20
1877.7786665848
 30
0.0
 10
689.3300804641
 20
1877.7663667706
 30
0.0
 10
689.3402530944
 20
1877.7103087339
 30
0.0
 10
689.3283470516
 20
1877.6525193687
 30
0.0
 10
689.3143993798
 20
1877.6110826078
 30
0.0
  0
SPLINE
  5
3E1
100
AcDbEntity
  8
0
100
AcDbSpline
 62
7
  6
BYLAYER
 70
0
 71
3
 72
8
 73
4
 74
0
 42
0.0000001
 43
0.0000001
 44
0.0000000001
 40
0.0
 40
0.0
 40
0.0
 40
0.0
 40
1.0
 40
1.0
 40
1.0
 40
1.0
 10
689.3143994992
 20
1877.6110823914
 30
0.0
 10
689.3422319556
 20
1877.5468931596
 30
0.0
 10
689.3569003799
 20
1877.4755032716
 30
0.0
 10
689.3569003799
 20
1877.4055396874
 30
0.0
  0
SPLINE
  5
3E2
100
AcDbEntity
  8
0
100
AcDbSpline
 62
7
  6
BYLAYER
 70
0
 71
3
 72
9
 73
5
 74
0
 42
0.0000001
 43
0.0000001
 44
0.0000000001
 40
0.0
 40
0.0
 40
0.0
 40
0.0
 40
0.242355115
 40
1.0
 40
1.0
 40
1.0
 40
1.0
 10
640.2302518684
 20
1877.7902271849
 30
0.0
 10
640.2302428498
 20
1877.7587415154
 30
0.0
 10
640.23544785
 20
1877.6288402355
 30
0.0
 10
640.2604370018
 20
1877.5000403406
 30
0.0
 10
640.2879699853
 20
1877.4055397915
 30
0.0
  0
SPLINE
  5
3E3
100
AcDbEntity
  8
0
100
AcDbSpline
 62
7
  6
BYLAYER
 70
0
 71
3
 72
11
 73
7
 74
0
 42
0.0000001
 43
0.0000001
 44
0.0000000001
 40
0.0
 40
0.0
 40
0.0
 40
0.0
 40
0.2545253123
 40
0.5063269197
 40
0.7544493833
 40
1.0
 40
1.0
 40
1.0
 40
1.0
 10
688.1561059733
 20
1879.4055396874
 30
0.0
 10
688.1561059733
 20
1879.5354184288
 30
0.0
 10
688.1067685816
 20
1879.7964825449
 30
0.0
 10
687.8941880586
 20
1880.1286000415
 30
0.0
 10
687.5747132482
 20
1880.3527642101
 30
0.0
 10
687.3198811747
 20
1880.4055396874
 30
0.0
 10
687.1945820256
 20
1880.4055396874
 30
0.0
  0
SPLINE
  5
3E4
100
AcDbEntity
  8
0
100
AcDbSpline
 62
7
  6
BYLAYER
 70
0
 71
3
 72
9
 73
5
 74
0
 42
0.0000001
 43
0.0000001
 44
0.0000000001
 40
0.0
 40
0.0
 40
0.0
 40
0.0
 40
0.2799425408
 40
1.0
 40
1.0
 40
1.0
 40
1.0
 10
640.1689224212
 20
1877.6110825971
 30
0.0
 10
640.1638962799
 20
1877.626014623
 30
0.0
 10
640.1484309536
 20
1877.6798726378
 30
0.0
 10
640.1453186675
 20
1877.739300707
 30
0.0
 10
640.1567526361
 20
1877.7781792524
 30
0.0
  0
SPLINE
  5
3E5
100
AcDbEntity
  8
0
100
AcDbSpline
 62
7
  6
BYLAYER
 70
0
 71
3
 72
8
 73
4
 74
0
 42
0.0000001
 43
0.0000001
 44
0.0000000001
 40
0.0
 40
0.0
 40
0.0
 40
0.0
 40
1.0
 40
1.0
 40
1.0
 40
1.0
 10
640.1567526361
 20
1877.7781792524
 30
0.0
 10
640.1617467401
 20
1877.7951605391
 30
0.0
 10
640.1694326946
 20
1877.8115947468
 30
0.0
 10
640.1794621405
 20
1877.8261795124
 30
0.0
  0
SPLINE
  5
3E6
100
AcDbEntity
  8
0
100
AcDbSpline
 62
7
  6
BYLAYER
 70
0
 71
3
 72
8
 73
4
 74
0
 42
0.0000001
 43
0.0000001
 44
0.0000000001
 40
0.0
 40
0.0
 40
0.0
 40
0.0
 40
1.0
 40
1.0
 40
1.0
 40
1.0
 10
640.1794621405
 20
1877.8261795124
 30
0.0
 10
640.1925020715
 20
1877.8451421091
 30
0.0
 10
640.2100765902
 20
1877.8614856923
 30
0.0
 10
640.2296489934
 20
1877.8735911005
 30
0.0
  0
SPLINE
  5
3E7
100
AcDbEntity
  8
0
100
AcDbSpline
 62
7
  6
BYLAYER
 70
0
 71
3
 72
11
 73
7
 74
0
 42
0.0000001
 43
0.0000001
 44
0.0000000001
 40
0.0
 40
0.0
 40
0.0
 40
0.0
 40
0.2454646712
 40
0.49351694
 40
0.7453862235
 40
1.0
 40
1.0
 40
1.0
 40
1.0
 10
642.2887397814
 20
1880.4055396874
 30
0.0
 10
642.1634844645
 20
1880.4055396874
 30
0.0
 10
641.9087344218
 20
1880.3528025725
 30
0.0
 10
641.5892578827
 20
1880.1287304658
 30
0.0
 10
641.3765882561
 20
1879.7966097715
 30
0.0
 10
641.3272158337
 20
1879.535463595
 30
0.0
 10
641.3272158337
 20
1879.4055396874
 30
0.0
  0
SPLINE
  5
3E8
100
AcDbEntity
  8
0
100
AcDbSpline
 62
7
  6
BYLAYER
 70
0
 71
3
 72
9
 73
5
 74
0
 42
0.0000001
 43
0.0000001
 44
0.0000000001
 40
0.0
 40
0.0
 40
0.0
 40
0.0
 40
0.2703934266
 40
1.0
 40
1.0
 40
1.0
 40
1.0
 10
640.2879699583
 20
1877.4055396874
 30
0.0
 10
640.2748056419
 20
1877.4224770184
 30
0.0
 10
640.2281067621
 20
1877.4865552182
 30
0.0
 10
640.1891022549
 20
1877.5568307538
 30
0.0
 10
640.1689223078
 20
1877.6110823914
 30
0.0
  0
SPLINE
  5
3E9
100
AcDbEntity
  8
0
100
AcDbSpline
 62
7
  6
BYLAYER
 70
0
 71
3
 72
11
 73
7
 74
0
 42
0.0000001
 43
0.0000001
 44
0.0000000001
 40
0.0
 40
0.0
 40
0.0
 40
0.0
 40
0.2544641196
 40
0.5062554122
 40
0.7544085347
 40
1.0
 40
1.0
 40
1.0
 40
1.0
 10
640.2879699583
 20
1879.4055396874
 30
0.0
 10
640.2879699583
 20
1879.53396074
 30
0.0
 10
640.3361875391
 20
1879.7920609609
 30
0.0
 10
640.5441499028
 20
1880.121686804
 30
0.0
 10
640.8574204025
 20
1880.346834778
 30
0.0
 10
641.1084180732
 20
1880.4030425928
 30
0.0
 10
641.2323393379
 20
1880.4053779195
 30
0.0
  0
SPLINE
  5
3EA
100
AcDbEntity
  8
0
100
AcDbSpline
 62
7
  6
BYLAYER
 70
0
 71
3
 72
11
 73
7
 74
0
 42
0.0000001
 43
0.0000001
 44
0.0000000001
 40
0.0
 40
0.0
 40
0.0
 40
0.0
 40
0.2627344212
 40
0.5180975916
 40
0.762900959
 40
1.0
 40
1.0
 40
1.0
 40
1.0
 10
645.294447308
 20
1879.4055396874
 30
0.0
 10
645.294447308
 20
1879.5351094549
 30
0.0
 10
645.2495512061
 20
1879.7929974787
 30
0.0
 10
645.0543505062
 20
1880.1244926158
 30
0.0
 10
644.7575681625
 20
1880.3512305671
 30
0.0
 10
644.5169475736
 20
1880.4055396874
 30
0.0
 10
644.400020117
 20
1880.4055396874
 30
0.0
  0
SPLINE
  5
3EB
100
AcDbEntity
  8
0
100
AcDbSpline
 62
7
  6
BYLAYER
 70
0
 71
3
 72
11
 73
7
 74
0
 42
0.0000001
 43
0.0000001
 44
0.0000000001
 40
0.0
 40
0.0
 40
0.0
 40
0.0
 40
0.2570642536
 40
0.5099515937
 40
0.7570212812
 40
1.0
 40
1.0
 40
1.0
 40
1.0
 10
645.6888934289
 20
1879.4055396874
 30
0.0
 10
645.6888925975
 20
1879.5357687707
 30
0.0
 10
645.6402126345
 20
1879.7967596756
 30
0.0
 10
645.4306148225
 20
1880.1288600113
 30
0.0
 10
645.1159192045
 20
1880.3527841272
 30
0.0
 10
644.8647533705
 20
1880.4055326275
 30
0.0
 10
644.7416600375
 20
1880.4055396874
 30
0.0
  0
SPLINE
  5
3EC
100
AcDbEntity
  8
0
100
AcDbSpline
 62
7
  6
BYLAYER
 70
0
 71
3
 72
11
 73
7
 74
0
 42
0.0000001
 43
0.0000001
 44
0.0000000001
 40
0.0
 40
0.0
 40
0.0
 40
0.0
 40
0.2429770416
 40
0.4900484521
 40
0.7429376142
 40
1.0
 40
1.0
 40
1.0
 40
1.0
 10
684.7416617803
 20
1880.4055396874
 30
0.0
 10
684.6185693113
 20
1880.4055325392
 30
0.0
 10
684.3674036181
 20
1880.3527843005
 30
0.0
 10
684.0527066254
 20
1880.1288601878
 30
0.0
 10
683.8431090464
 20
1879.7967585421
 30
0.0
 10
683.7944292856
 20
1879.5357678095
 30
0.0
 10
683.7944284663
 20
1879.4055396874
 30
0.0
  0
SPLINE
  5
3ED
100
AcDbEntity
  8
0
100
AcDbSpline
 62
7
  6
BYLAYER
 70
0
 71
3
 72
11
 73
7
 74
0
 42
0.0000001
 43
0.0000001
 44
0.0000000001
 40
0.0
 40
0.0
 40
0.0
 40
0.0
 40
0.2370154222
 40
0.4817461593
 40
0.7371748139
 40
1.0
 40
1.0
 40
1.0
 40
1.0
 10
685.08330169
 20
1880.4055396874
 30
0.0
 10
684.9664154073
 20
1880.4055396874
 30
0.0
 10
684.7258739576
 20
1880.3512709522
 30
0.0
 10
684.4290854026
 20
1880.1246239332
 30
0.0
 10
684.2338018223
 20
1879.7931215797
 30
0.0
 10
684.188874499
 20
1879.5351542869
 30
0.0
 10
684.188874499
 20
1879.4055396874
 30
0.0
  0
SPLINE
  5
3EE
100
AcDbEntity
  8
0
100
AcDbSpline
 62
7
  6
BYLAYER
 70
0
 71
3
 72
11
 73
7
 74
0
 42
0.0000001
 43
0.0000001
 44
0.0000000001
 40
0.0
 40
0.0
 40
0.0
 40
0.0
 40
0.2455000837
 40
0.4935877931
 40
0.7454492783
 40
1.0
 40
1.0
 40
1.0
 40
1.0
 10
688.2512648508
 20
1880.4053727075
 30
0.0
 10
688.3751167457
 20
1880.4030024821
 30
0.0
 10
688.6259691946
 20
1880.3467760185
 30
0.0
 10
688.9391444384
 20
1880.1217078902
 30
0.0
 10
689.1471176809
 20
1879.7921140424
 30
0.0
 10
689.1953518487
 20
1879.5339810365
 30
0.0
 10
689.1953518487
 20
1879.4055396874
 30
0.0
  0
SPLINE
  5
3EF
100
AcDbEntity
  8
0
100
AcDbSpline
 62
7
  6
BYLAYER
 70
0
 71
3
 72
8
 73
4
 74
0
 42
0.0000001
 43
0.0000001
 44
0.0000000001
 40
0.0
 40
0.0
 40
0.0
 40
0.0
 40
1.0
 40
1.0
 40
1.0
 40
1.0
 10
640.1264214271
 20
1877.4055396874
 30
0.0
 10
640.1264214271
 20
1877.4755032716
 30
0.0
 10
640.1410898514
 20
1877.5468931595
 30
0.0
 10
640.1689223078
 20
1877.6110823914
 30
0.0
  0
SPLINE
  5
3F0
100
AcDbEntity
  8
0
100
AcDbSpline
 62
7
  6
BYLAYER
 70
0
 71
3
 72
8
 73
4
 74
0
 42
0.0000001
 43
0.0000001
 44
0.0000000001
 40
0.0
 40
0.0
 40
0.0
 40
0.0
 40
1.0
 40
1.0
 40
1.0
 40
1.0
 10
787.8731552608
 20
1877.7455292154
 30
0.0
 10
787.8638584091
 20
1877.6979964163
 30
0.0
 10
787.8447073963
 20
1877.6515218779
 30
0.0
 10
787.8180531963
 20
1877.6110823915
 30
0.0
  0
SPLINE
  5
3F1
100
AcDbEntity
  8
0
100
AcDbSpline
 62
7
  6
BYLAYER
 70
0
 71
3
 72
9
 73
5
 74
0
 42
0.0000001
 43
0.0000001
 44
0.0000000001
 40
0.0
 40
0.0
 40
0.0
 40
0.0
 40
0.2581441241
 40
1.0
 40
1.0
 40
1.0
 40
1.0
 10
836.8444826994
 20
1877.4055398332
 30
0.0
 10
836.8538623065
 20
1877.437733155
 30
0.0
 10
836.8862436748
 20
1877.5635201161
 30
0.0
 10
836.9022272913
 20
1877.6938495201
 30
0.0
 10
836.9022008288
 20
1877.7902136019
 30
0.0
  0
SPLINE
  5
3F2
100
AcDbEntity
  8
0
100
AcDbSpline
 62
7
  6
BYLAYER
 70
0
 71
3
 72
8
 73
4
 74
0
 42
0.0000001
 43
0.0000001
 44
0.0000000001
 40
0.0
 40
0.0
 40
0.0
 40
0.0
 40
1.0
 40
1.0
 40
1.0
 40
1.0
 10
836.9635303878
 20
1877.6110823915
 30
0.0
 10
836.9288207686
 20
1877.6637434793
 30
0.0
 10
836.9067169773
 20
1877.7272775687
 30
0.0
 10
836.9025911194
 20
1877.7902134498
 30
0.0
  0
SPLINE
  5
3F3
100
AcDbEntity
  8
0
100
AcDbSpline
 62
7
  6
BYLAYER
 70
0
 71
3
 72
9
 73
5
 74
0
 42
0.0000001
 43
0.0000001
 44
0.0000000001
 40
0.0
 40
0.0
 40
0.0
 40
0.0
 40
0.27038548
 40
1.0
 40
1.0
 40
1.0
 40
1.0
 10
836.8444827372
 20
1877.4055396874
 30
0.0
 10
836.8576466858
 20
1877.4224765378
 30
0.0
 10
836.9043498869
 20
1877.4865517726
 30
0.0
 10
836.9433501896
 20
1877.5568301017
 30
0.0
 10
836.9635303877
 20
1877.6110823914
 30
0.0
  0
SPLINE
  5
3F4
100
AcDbEntity
  8
0
100
AcDbSpline
 62
7
  6
BYLAYER
 70
0
 71
3
 72
9
 73
5
 74
0
 42
0.0000001
 43
0.0000001
 44
0.0000000001
 40
0.0
 40
0.0
 40
0.0
 40
0.0
 40
0.2666839678
 40
1.0
 40
1.0
 40
1.0
 40
1.0
 10
836.90224785
 20
1877.8739335236
 30
0.0
 10
836.9114792145
 20
1877.8682692533
 30
0.0
 10
836.9442835364
 20
1877.8440860018
 30
0.0
 10
836.967071953
 20
1877.8072141088
 30
0.0
 10
836.9755559771
 20
1877.7786665848
 30
0.0
  0
SPLINE
  5
3F5
100
AcDbEntity
  8
0
100
AcDbSpline
 62
7
  6
BYLAYER
 70
0
 71
3
 72
9
 73
5
 74
0
 42
0.0000001
 43
0.0000001
 44
0.0000000001
 40
0.0
 40
0.0
 40
0.0
 40
0.0
 40
0.2268944865
 40
1.0
 40
1.0
 40
1.0
 40
1.0
 10
836.9755559771
 20
1877.7786665848
 30
0.0
 10
836.9792113526
 20
1877.7663667706
 30
0.0
 10
836.9893839829
 20
1877.7103087339
 30
0.0
 10
836.9774779401
 20
1877.6525193687
 30
0.0
 10
836.9635302684
 20
1877.6110826078
 30
0.0
  0
SPLINE
  5
3F6
100
AcDbEntity
  8
0
100
AcDbSpline
 62
7
  6
BYLAYER
 70
0
 71
3
 72
8
 73
4
 74
0
 42
0.0000001
 43
0.0000001
 44
0.0000000001
 40
0.0
 40
0.0
 40
0.0
 40
0.0
 40
1.0
 40
1.0
 40
1.0
 40
1.0
 10
836.9635303877
 20
1877.6110823914
 30
0.0
 10
836.9913628441
 20
1877.5468931596
 30
0.0
 10
837.0060312684
 20
1877.4755032716
 30
0.0
 10
837.0060312684
 20
1877.4055396874
 30
0.0
  0
SPLINE
  5
3F7
100
AcDbEntity
  8
0
100
AcDbSpline
 62
7
  6
BYLAYER
 70
0
 71
3
 72
9
 73
5
 74
0
 42
0.0000001
 43
0.0000001
 44
0.0000000001
 40
0.0
 40
0.0
 40
0.0
 40
0.0
 40
0.242355115
 40
1.0
 40
1.0
 40
1.0
 40
1.0
 10
787.8793827569
 20
1877.7902271851
 30
0.0
 10
787.8793737383
 20
1877.7587415156
 30
0.0
 10
787.8845787385
 20
1877.6288402356
 30
0.0
 10
787.9095678903
 20
1877.5000403406
 30
0.0
 10
787.9371008738
 20
1877.4055397915
 30
0.0
  0
SPLINE
  5
3F8
100
AcDbEntity
  8
0
100
AcDbSpline
 62
7
  6
BYLAYER
 70
0
 71
3
 72
11
 73
7
 74
0
 42
0.0000001
 43
0.0000001
 44
0.0000000001
 40
0.0
 40
0.0
 40
0.0
 40
0.0
 40
0.2545253123
 40
0.5063269197
 40
0.7544493833
 40
1.0
 40
1.0
 40
1.0
 40
1.0
 10
835.8052368618
 20
1879.4055396874
 30
0.0
 10
835.8052368618
 20
1879.5354184288
 30
0.0
 10
835.7558994702
 20
1879.7964825449
 30
0.0
 10
835.5433189471
 20
1880.1286000415
 30
0.0
 10
835.2238441367
 20
1880.3527642101
 30
0.0
 10
834.9690120632
 20
1880.4055396874
 30
0.0
 10
834.8437129141
 20
1880.4055396874
 30
0.0
  0
SPLINE
  5
3F9
100
AcDbEntity
  8
0
100
AcDbSpline
 62
7
  6
BYLAYER
 70
0
 71
3
 72
11
 73
7
 74
0
 42
0.0000001
 43
0.0000001
 44
0.0000000001
 40
0.0
 40
0.0
 40
0.0
 40
0.0
 40
0.2454646712
 40
0.49351694
 40
0.7453862235
 40
1.0
 40
1.0
 40
1.0
 40
1.0
 10
789.9378706699
 20
1880.4055396874
 30
0.0
 10
789.812615353
 20
1880.4055396874
 30
0.0
 10
789.5578653103
 20
1880.3528025725
 30
0.0
 10
789.2383887712
 20
1880.1287304658
 30
0.0
 10
789.0257191446
 20
1879.7966097715
 30
0.0
 10
788.9763467222
 20
1879.535463595
 30
0.0
 10
788.9763467222
 20
1879.4055396874
 30
0.0
  0
SPLINE
  5
3FA
100
AcDbEntity
  8
0
100
AcDbSpline
 62
7
  6
BYLAYER
 70
0
 71
3
 72
9
 73
5
 74
0
 42
0.0000001
 43
0.0000001
 44
0.0000000001
 40
0.0
 40
0.0
 40
0.0
 40
0.0
 40
0.2703934266
 40
1.0
 40
1.0
 40
1.0
 40
1.0
 10
787.9371008468
 20
1877.4055396874
 30
0.0
 10
787.9239365304
 20
1877.4224770184
 30
0.0
 10
787.8772376507
 20
1877.4865552182
 30
0.0
 10
787.8382331434
 20
1877.5568307538
 30
0.0
 10
787.8180531963
 20
1877.6110823914
 30
0.0
  0
SPLINE
  5
3FB
100
AcDbEntity
  8
0
100
AcDbSpline
 62
7
  6
BYLAYER
 70
0
 71
3
 72
11
 73
7
 74
0
 42
0.0000001
 43
0.0000001
 44
0.0000000001
 40
0.0
 40
0.0
 40
0.0
 40
0.0
 40
0.2544641196
 40
0.5062554122
 40
0.7544085347
 40
1.0
 40
1.0
 40
1.0
 40
1.0
 10
787.9371008468
 20
1879.4055396874
 30
0.0
 10
787.9371008468
 20
1879.53396074
 30
0.0
 10
787.9853184276
 20
1879.7920609609
 30
0.0
 10
788.1932807913
 20
1880.121686804
 30
0.0
 10
788.506551291
 20
1880.346834778
 30
0.0
 10
788.7575489617
 20
1880.4030425928
 30
0.0
 10
788.8814702264
 20
1880.4053779195
 30
0.0
  0
SPLINE
  5
3FC
100
AcDbEntity
  8
0
100
AcDbSpline
 62
7
  6
BYLAYER
 70
0
 71
3
 72
11
 73
7
 74
0
 42
0.0000001
 43
0.0000001
 44
0.0000000001
 40
0.0
 40
0.0
 40
0.0
 40
0.0
 40
0.2627344212
 40
0.5180975916
 40
0.762900959
 40
1.0
 40
1.0
 40
1.0
 40
1.0
 10
792.9435781965
 20
1879.4055396874
 30
0.0
 10
792.9435781965
 20
1879.5351094549
 30
0.0
 10
792.8986820946
 20
1879.7929974787
 30
0.0
 10
792.7034813948
 20
1880.1244926158
 30
0.0
 10
792.406699051
 20
1880.3512305671
 30
0.0
 10
792.1660784621
 20
1880.4055396874
 30
0.0
 10
792.0491510055
 20
1880.4055396874
 30
0.0
  0
SPLINE
  5
3FD
100
AcDbEntity
  8
0
100
AcDbSpline
 62
7
  6
BYLAYER
 70
0
 71
3
 72
11
 73
7
 74
0
 42
0.0000001
 43
0.0000001
 44
0.0000000001
 40
0.0
 40
0.0
 40
0.0
 40
0.0
 40
0.2570642536
 40
0.5099515937
 40
0.7570212812
 40
1.0
 40
1.0
 40
1.0
 40
1.0
 10
793.3380243174
 20
1879.4055396874
 30
0.0
 10
793.338023486
 20
1879.5357687707
 30
0.0
 10
793.289343523
 20
1879.7967596756
 30
0.0
 10
793.079745711
 20
1880.1288600113
 30
0.0
 10
792.765050093
 20
1880.3527841272
 30
0.0
 10
792.513884259
 20
1880.4055326275
 30
0.0
 10
792.390790926
 20
1880.4055396874
 30
0.0
  0
SPLINE
  5
3FE
100
AcDbEntity
  8
0
100
AcDbSpline
 62
7
  6
BYLAYER
 70
0
 71
3
 72
11
 73
7
 74
0
 42
0.0000001
 43
0.0000001
 44
0.0000000001
 40
0.0
 40
0.0
 40
0.0
 40
0.0
 40
0.2429770416
 40
0.4900484521
 40
0.7429376142
 40
1.0
 40
1.0
 40
1.0
 40
1.0
 10
832.3907926689
 20
1880.4055396874
 30
0.0
 10
832.2677001998
 20
1880.4055325392
 30
0.0
 10
832.0165345066
 20
1880.3527843005
 30
0.0
 10
831.7018375139
 20
1880.1288601878
 30
0.0
 10
831.4922399349
 20
1879.7967585421
 30
0.0
 10
831.4435601741
 20
1879.5357678095
 30
0.0
 10
831.4435593548
 20
1879.4055396874
 30
0.0
  0
SPLINE
  5
3FF
100
AcDbEntity
  8
0
100
AcDbSpline
 62
7
  6
BYLAYER
 70
0
 71
3
 72
11
 73
7
 74
0
 42
0.0000001
 43
0.0000001
 44
0.0000000001
 40
0.0
 40
0.0
 40
0.0
 40
0.0
 40
0.2370154222
 40
0.4817461593
 40
0.7371748139
 40
1.0
 40
1.0
 40
1.0
 40
1.0
 10
832.7324325785
 20
1880.4055396874
 30
0.0
 10
832.6155462958
 20
1880.4055396874
 30
0.0
 10
832.3750048462
 20
1880.3512709522
 30
0.0
 10
832.0782162912
 20
1880.1246239332
 30
0.0
 10
831.8829327108
 20
1879.7931215797
 30
0.0
 10
831.8380053875
 20
1879.5351542869
 30
0.0
 10
831.8380053875
 20
1879.4055396874
 30
0.0
  0
SPLINE
  5
400
100
AcDbEntity
  8
0
100
AcDbSpline
 62
7
  6
BYLAYER
 70
0
 71
3
 72
11
 73
7
 74
0
 42
0.0000001
 43
0.0000001
 44
0.0000000001
 40
0.0
 40
0.0
 40
0.0
 40
0.0
 40
0.2455000837
 40
0.4935877931
 40
0.7454492783
 40
1.0
 40
1.0
 40
1.0
 40
1.0
 10
835.9003957393
 20
1880.4053727075
 30
0.0
 10
836.0242476342
 20
1880.4030024821
 30
0.0
 10
836.2751000831
 20
1880.3467760185
 30
0.0
 10
836.5882753269
 20
1880.1217078902
 30
0.0
 10
836.7962485695
 20
1879.7921140424
 30
0.0
 10
836.8444827372
 20
1879.5339810365
 30
0.0
 10
836.8444827372
 20
1879.4055396874
 30
0.0
  0
SPLINE
  5
401
100
AcDbEntity
  8
0
100
AcDbSpline
 62
7
  6
BYLAYER
 70
0
 71
3
 72
9
 73
5
 74
0
 42
0.0000001
 43
0.0000001
 44
0.0000000001
 40
0.0
 40
0.0
 40
0.0
 40
0.0
 40
0.2799425408
 40
1.0
 40
1.0
 40
1.0
 40
1.0
 10
787.8180533097
 20
1877.6110825971
 30
0.0
 10
787.8130271684
 20
1877.626014623
 30
0.0
 10
787.7975618421
 20
1877.6798726378
 30
0.0
 10
787.794449556
 20
1877.739300707
 30
0.0
 10
787.8058835246
 20
1877.7781792524
 30
0.0
  0
SPLINE
  5
402
100
AcDbEntity
  8
0
100
AcDbSpline
 62
7
  6
BYLAYER
 70
0
 71
3
 72
8
 73
4
 74
0
 42
0.0000001
 43
0.0000001
 44
0.0000000001
 40
0.0
 40
0.0
 40
0.0
 40
0.0
 40
1.0
 40
1.0
 40
1.0
 40
1.0
 10
787.8058835246
 20
1877.7781792524
 30
0.0
 10
787.8108776286
 20
1877.7951605391
 30
0.0
 10
787.8185635831
 20
1877.8115947468
 30
0.0
 10
787.828593029
 20
1877.8261795124
 30
0.0
  0
SPLINE
  5
403
100
AcDbEntity
  8
0
100
AcDbSpline
 62
7
  6
BYLAYER
 70
0
 71
3
 72
8
 73
4
 74
0
 42
0.0000001
 43
0.0000001
 44
0.0000000001
 40
0.0
 40
0.0
 40
0.0
 40
0.0
 40
1.0
 40
1.0
 40
1.0
 40
1.0
 10
787.828593029
 20
1877.8261795124
 30
0.0
 10
787.8416329601
 20
1877.8451421091
 30
0.0
 10
787.8592074787
 20
1877.8614856923
 30
0.0
 10
787.8787798819
 20
1877.8735911005
 30
0.0
  0
SPLINE
  5
404
100
AcDbEntity
  8
0
100
AcDbSpline
 62
7
  6
BYLAYER
 70
0
 71
3
 72
8
 73
4
 74
0
 42
0.0000001
 43
0.0000001
 44
0.0000000001
 40
0.0
 40
0.0
 40
0.0
 40
0.0
 40
1.0
 40
1.0
 40
1.0
 40
1.0
 10
787.7755523156
 20
1877.4055396874
 30
0.0
 10
787.7755523156
 20
1877.4755032716
 30
0.0
 10
787.7902207399
 20
1877.5468931595
 30
0.0
 10
787.8180531963
 20
1877.6110823914
 30
0.0
  0
ENDSEC
  0
SECTION
  2
OBJECTS
  0
DICTIONARY
  5
C
100
AcDbDictionary
280
0
281
1
  3
ACAD_GROUP
350
D
  3
ACAD_MLINESTYLE
350
17
  3
ACAD_LAYOUT
350
1A
  3
ACAD_PLOTSETTINGS
350
19
  3
ACAD_PLOTSTYLENAME
350
E
  0
DICTIONARY
  5
D
102
{ACAD_REACTORS
330
C
102
}
100
AcDbDictionary
280
0
281
1
  0
ACDBDICTIONARYWDFLT
  5
E
102
{ACAD_REACTORS
330
C
102
}
100
AcDbDictionary
281
1
  3
Normal
350
F
100
AcDbDictionaryWithDefault
340
F
  0
DICTIONARY
  5
17
102
{ACAD_REACTORS
330
C
102
}
100
AcDbDictionary
280
0
281
1
  3
Standard
350
18
  0
DICTIONARY
  5
19
102
{ACAD_REACTORS
330
C
102
}
100
AcDbDictionary
281
1
  0
DICTIONARY
  5
1A
102
{ACAD_REACTORS
330
C
102
}
100
AcDbDictionary
281
1
  3
Model
350
405
  3
Layout1
350
406
  0
ACDBPLACEHOLDER
  5
F
102
{ACAD_REACTORS
330
E
102
}
  0
MLINESTYLE
  5
18
102
{ACAD_REACTORS
330
17
102
}
100
AcDbMlineStyle
  2
STANDARD
 70
0
  3

 62
256
 51
90.0
 52
90.0
 71
2
 49
0.5
 62
256
  6
BYLAYER
 49
-0.5
 62
256
  6
BYLAYER
  0
LAYOUT
  5
405
102
{ACAD_REACTORS
330
1A
102
}
100
AcDbPlotSettings
  1

  2
none_device
  4

  6

 40
0.0
 41
0.0
 42
0.0
 43
0.0
 44
210.0
 45
297.0
 46
0.0
 47
0.0
 48
0.0
 49
0.0
140
0.0
141
0.0
142
1.0
143
1.0
 70
1024
 72
1
 73
0
 74
0
  7

 75
0
147
1.0
148
0.0
149
0.0
100
AcDbLayout
  1
Model
 70
0
 71
0
 10
0.0
 20
0.0
 11
210.0
 21
297.0
 12
0.0
 22
0.0
 32
0.0
 14
0.0
 24
0.0
 34
0.0
 15
0.0
 25
0.0
 35
0.0
146
0.0
 13
0.0
 23
0.0
 33
0.0
 16
1.0
 26
0.0
 36
0.0
 17
0.0
 27
1.0
 37
0.0
 76
0
330
212
345
0
346
0
  0
LAYOUT
  5
406
102
{ACAD_REACTORS
330
1A
102
}
100
AcDbPlotSettings
  1

  2
none_device
  4

  6

 40
0.0
 41
0.0
 42
0.0
 43
0.0
 44
210.0
 45
297.0
 46
0.0
 47
0.0
 48
0.0
 49
0.0
140
0.0
141
0.0
142
1.0
143
1.0
 70
0
 72
1
 73
0
 74
0
  7

 75
0
147
1.0
148
0.0
149
0.0
100
AcDbLayout
  1
Layout1
 70
0
 71
1
 10
0.0
 20
0.0
 11
210.0
 21
297.0
 12
0.0
 22
0.0
 32
0.0
 14
0.0
 24
0.0
 34
0.0
 15
0.0
 25
0.0
 35
0.0
146
0.0
 13
0.0
 23
0.0
 33
0.0
 16
1.0
 26
0.0
 36
0.0
 17
0.0
 27
1.0
 37
0.0
 76
0
330
213
345
0
346
0
  0
ENDSEC
  0
EOF
