999
DXF file: C:\Users\sesa63760\Dev\_Creo\CAD\MCADID0000566_3D-CAD\drw0001_1.dxf
999
Pro/ENGINEER 2019471 by Parametric Technology Corporation
  0
SECTION
  2
HEADER
  9
$ACADVER
  1
AC1024
  9
$DWGCODEPAGE
  3
ANSI_1252
  9
$EXTMAX
 10
212.6229077714
 20
300.709540991
 30
0.0
  9
$EXTMIN
 10
0.0
 20
0.0
 30
0.0
  9
$LIMMIN
 10
0.0
 20
0.0
  9
$LIMMAX
 10
212.6229077714
 20
300.709540991
  9
$VIEWCTR
 10
106.3114538857
 20
150.3547704955
  9
$VIEWSIZE
 40
300.709540991
  9
$CLAYER
  8
0
  9
$LTSCALE
 40
19.6018071165
  9
$CELTYPE
  6
BYLAYER
  9
$DIMSCALE
 40
1.0
  9
$DIMASZ
 40
2.5312250925
  9
$DIMEXO
 40
1.0
  9
$DIMDLI
 40
13.543066735
  9
$DIMEXE
 40
1.0
  9
$DIMCEN
 40
3.2075684372
  9
$DIMLFAC
 40
1.0
  9
$DIMBLK
  1
_FILLED
  9
$DIMALT
 70
0
  9
$DIMALTF
 40
0.0393700787
  9
$DIMTXT
 40
3.5437151295
  9
$DIMTOL
 70
1
  9
$DIMLIM
 70
0
  9
$DIMTFAC
 40
1.0
  9
$DIMTP
 40
0.01
  9
$DIMTM
 40
0.01
  9
$DIMGAP
 40
0.625
  9
$DIMDSEP
 70
46
  9
$AUNITS
 70
0
  9
$PDMODE
 70
3
  9
$PDSIZE
 40
0.3125
  9
$HANDSEED
  5
361
  9
$TILEMODE
 70
1
  9
$MEASUREMENT
 70
1
  9
$INSUNITS
 70
4
  0
ENDSEC
  0
SECTION
  2
CLASSES
  0
CLASS
  1
ACDBDICTIONARYWDFLT
  2
AcDbDictionaryWithDefault
  3
AutoCAD 2000
 90
0
 91
1
280
0
281
0
  0
CLASS
  1
ACDBPLACEHOLDER
  2
AcDbPlaceHolder
  3
AutoCAD 2000
 90
0
 91
1
280
0
281
0
  0
CLASS
  1
LAYOUT
  2
AcDbLayout
  3
AutoCAD 2000
 90
0
 91
0
280
0
281
0
  0
ENDSEC
  0
SECTION
  2
TABLES
  0
TABLE
  2
VPORT
  5
8
100
AcDbSymbolTable
 70
2
  0
VPORT
  5
1F4
100
AcDbSymbolTableRecord
100
AcDbViewportTableRecord
  2
*ACTIVE
 70
0
 10
0.0
 20
0.0
 11
1.0
 21
1.0
 12
106.3114538857
 22
150.3547704955
 13
0.0
 23
0.0
 14
1.0
 24
1.0
 15
0.0
 25
0.0
 16
0.0
 26
0.0
 36
1.0
 17
0.0
 27
0.0
 37
0.0
 40
300.709540991
 41
0.7070707071
 42
50.0
 43
0.0
 44
0.0
 50
0.0
 51
0.0
 71
0
 72
100
 73
1
 74
1
 75
0
 76
0
 77
0
 78
0
  0
ENDTAB
  0
TABLE
  2
LTYPE
  5
5
100
AcDbSymbolTable
 70
6
  0
LTYPE
  5
14
100
AcDbSymbolTableRecord
100
AcDbLinetypeTableRecord
  2
BYBLOCK
 70
0
  3

 72
65
 73
0
 40
0.0
  0
LTYPE
  5
15
100
AcDbSymbolTableRecord
100
AcDbLinetypeTableRecord
  2
BYLAYER
 70
0
  3

 72
65
 73
0
 40
0.0
  0
LTYPE
  5
16
100
AcDbSymbolTableRecord
100
AcDbLinetypeTableRecord
  2
CONTINUOUS
 70
64
  3
Solid line
 72
65
 73
0
 40
0.0
  0
LTYPE
  5
1F5
100
AcDbSymbolTableRecord
100
AcDbLinetypeTableRecord
  2
CENTER
 70
64
  3
____ _ ____ _ ____ _ ____ _ ____ _ ____ _ ____
 72
65
 73
4
 40
0.6
 49
0.375
 74
0
 49
-0.075
 74
0
 49
0.075
 74
0
 49
-0.075
 74
0
  0
LTYPE
  5
1F6
100
AcDbSymbolTableRecord
100
AcDbLinetypeTableRecord
  2
HIDDEN
 70
64
  3
- - - - - - - - - - - - - - - - - - - -
 72
65
 73
2
 40
0.2
 49
0.1
 74
0
 49
-0.1
 74
0
  0
LTYPE
  5
1F7
100
AcDbSymbolTableRecord
100
AcDbLinetypeTableRecord
  2
PHANTOM
 70
64
  3
_____ _ _ _____ _ _ _____ _ _ _____
 72
65
 73
6
 40
0.8
 49
0.45
 74
0
 49
-0.05
 74
0
 49
0.1
 74
0
 49
-0.05
 74
0
 49
0.1
 74
0
 49
-0.05
 74
0
  0
LTYPE
  5
1F8
100
AcDbSymbolTableRecord
100
AcDbLinetypeTableRecord
  2
DOT
 70
64
  3
. . . . . . . . . . . . . . . . . . . .
 72
65
 73
2
 40
0.2
 49
0.1
 74
0
 49
-0.1
 74
0
  0
LTYPE
  5
1F9
100
AcDbSymbolTableRecord
100
AcDbLinetypeTableRecord
  2
DASHED
 70
64
  3
- - - - - - - - - - - - - - - - - - - -
 72
65
 73
2
 40
0.2
 49
0.1
 74
0
 49
-0.1
 74
0
  0
ENDTAB
  0
TABLE
  2
LAYER
  5
2
100
AcDbSymbolTable
 70
36
  0
LAYER
  5
10
100
AcDbSymbolTableRecord
100
AcDbLayerTableRecord
  2
0
 70
0
 62
7
  6
CONTINUOUS
370
-3
390
F
  0
LAYER
  5
1FA
100
AcDbSymbolTableRecord
100
AcDbLayerTableRecord
  2
DEFAULT_1
 70
0
 62
7
  6
CENTER
370
-3
390
F
  0
LAYER
  5
1FB
100
AcDbSymbolTableRecord
100
AcDbLayerTableRecord
  2
DEFAULT_2
 70
0
 62
8
  6
HIDDEN
370
-3
390
F
  0
LAYER
  5
1FC
100
AcDbSymbolTableRecord
100
AcDbLayerTableRecord
  2
DEFAULT_3
 70
0
 62
7
  6
PHANTOM
370
-3
390
F
  0
LAYER
  5
1FD
100
AcDbSymbolTableRecord
100
AcDbLayerTableRecord
  2
00_COMPONENTS
 70
0
 62
7
  6
CONTINUOUS
370
-3
390
F
  0
LAYER
  5
1FE
100
AcDbSymbolTableRecord
100
AcDbLayerTableRecord
  2
01_1_DEFAULT_DATUMS
 70
0
 62
7
  6
CONTINUOUS
370
-3
390
F
  0
LAYER
  5
1FF
100
AcDbSymbolTableRecord
100
AcDbLayerTableRecord
  2
01_PLANES
 70
0
 62
7
  6
CONTINUOUS
370
-3
390
F
  0
LAYER
  5
200
100
AcDbSymbolTableRecord
100
AcDbLayerTableRecord
  2
02_COORD_SYS
 70
0
 62
7
  6
CONTINUOUS
370
-3
390
F
  0
LAYER
  5
201
100
AcDbSymbolTableRecord
100
AcDbLayerTableRecord
  2
03_AXES
 70
0
 62
7
  6
CONTINUOUS
370
-3
390
F
  0
LAYER
  5
202
100
AcDbSymbolTableRecord
100
AcDbLayerTableRecord
  2
04_POINTS
 70
0
 62
7
  6
CONTINUOUS
370
-3
390
F
  0
LAYER
  5
203
100
AcDbSymbolTableRecord
100
AcDbLayerTableRecord
  2
05_CURVES
 70
0
 62
7
  6
CONTINUOUS
370
-3
390
F
  0
LAYER
  5
204
100
AcDbSymbolTableRecord
100
AcDbLayerTableRecord
  2
06_SURFS
 70
0
 62
7
  6
CONTINUOUS
370
-3
390
F
  0
LAYER
  5
205
100
AcDbSymbolTableRecord
100
AcDbLayerTableRecord
  2
07_COSMETICS
 70
0
 62
7
  6
CONTINUOUS
370
-3
390
F
  0
LAYER
  5
206
100
AcDbSymbolTableRecord
100
AcDbLayerTableRecord
  2
10_NOTES
 70
0
 62
7
  6
CONTINUOUS
370
-3
390
F
  0
LAYER
  5
207
100
AcDbSymbolTableRecord
100
AcDbLayerTableRecord
  2
11_NOTES_PUB
 70
0
 62
7
  6
CONTINUOUS
370
-3
390
F
  0
LAYER
  5
208
100
AcDbSymbolTableRecord
100
AcDbLayerTableRecord
  2
13_REF_GTOL
 70
0
 62
7
  6
CONTINUOUS
370
-3
390
F
  0
LAYER
  5
209
100
AcDbSymbolTableRecord
100
AcDbLayerTableRecord
  2
16_MISC
 70
0
 62
7
  6
CONTINUOUS
370
-3
390
F
  0
LAYER
  5
20A
100
AcDbSymbolTableRecord
100
AcDbLayerTableRecord
  2
17_NO_PRINT
 70
0
 62
7
  6
CONTINUOUS
370
-3
390
F
  0
LAYER
  5
20B
100
AcDbSymbolTableRecord
100
AcDbLayerTableRecord
  2
18_DATUM_CAMS_JOINTS
 70
0
 62
7
  6
CONTINUOUS
370
-3
390
F
  0
LAYER
  5
20C
100
AcDbSymbolTableRecord
100
AcDbLayerTableRecord
  2
19_DATUM_FUNCTIONAL
 70
0
 62
7
  6
CONTINUOUS
370
-3
390
F
  0
LAYER
  5
20D
100
AcDbSymbolTableRecord
100
AcDbLayerTableRecord
  2
20_DATUM_KINEMATIC_SCHEME
 70
0
 62
7
  6
CONTINUOUS
370
-3
390
F
  0
ENDTAB
  0
TABLE
  2
STYLE
  5
3
100
AcDbSymbolTable
 70
1
  0
STYLE
  5
11
100
AcDbSymbolTableRecord
100
AcDbTextStyleTableRecord
  2
STANDARD
 70
0
 40
0.0
 41
0.8
 50
0.0
 71
0
 42
0.2
  3
txt
  4

  0
STYLE
  5
20E
100
AcDbSymbolTableRecord
100
AcDbTextStyleTableRecord
  2
TEXTSTYLE_1
 70
0
 40
0.0
 41
0.8
 50
0.0
 71
0
 42
0.2
  3
gdt
  4

  0
ENDTAB
  0
TABLE
  2
VIEW
  5
6
100
AcDbSymbolTable
 70
0
  0
ENDTAB
  0
TABLE
  2
UCS
  5
7
100
AcDbSymbolTable
 70
0
  0
ENDTAB
  0
TABLE
  2
APPID
  5
9
100
AcDbSymbolTable
 70
1
  0
APPID
  5
20F
100
AcDbSymbolTableRecord
100
AcDbRegAppTableRecord
  2
ACAD
 70
0
  0
ENDTAB
  0
TABLE
  2
BLOCK_RECORD
  5
1
100
AcDbSymbolTable
 70
0
  0
BLOCK_RECORD
  5
210
100
AcDbSymbolTableRecord
100
AcDbBlockTableRecord
  2
*Model_Space
  0
BLOCK_RECORD
  5
211
100
AcDbSymbolTableRecord
100
AcDbBlockTableRecord
  2
*Paper_Space
  0
BLOCK_RECORD
  5
212
100
AcDbSymbolTableRecord
100
AcDbBlockTableRecord
  2
_FILLED
  0
ENDTAB
  0
TABLE
  2
DIMSTYLE
  5
A
100
AcDbSymbolTable
 70
1
100
AcDbDimStyleTable
 71
0
  0
DIMSTYLE
105
213
100
AcDbSymbolTableRecord
100
AcDbDimStyleTableRecord
  2
STANDARD
 70
0
  3

  4

 40
1.0
 41
2.5312250925
 42
1.0
 43
0.38
 44
1.0
 45
0.0
 46
0.0
 47
0.01
 48
0.01
140
3.5437151295
141
0.09
142
0.0
143
25.4
144
1.0
145
0.0
146
1.0
147
0.625
 71
1
 72
0
 73
0
 74
0
 75
0
 76
0
 77
1
 78
8
 79
2
170
0
171
1
172
0
173
0
174
0
175
0
176
0
177
0
178
0
270
2
179
2
271
2
272
2
273
2
274
2
275
0
280
0
281
0
282
0
283
1
284
8
285
0
286
0
287
3
288
0
340
11
278
46
341
212
342
212
343
212
344
212
  0
ENDTAB
  0
ENDSEC
  0
SECTION
  2
BLOCKS
  0
BLOCK
  5
20
100
AcDbEntity
  8
0
100
AcDbBlockBegin
  2
*Model_Space
 70
0
 10
0.0
 20
0.0
 30
0.0
  3
*Model_Space
  1

  0
ENDBLK
  5
21
100
AcDbEntity
  8
0
100
AcDbBlockEnd
  0
BLOCK
  5
1C
100
AcDbEntity
  8
0
100
AcDbBlockBegin
  2
*Paper_Space
 70
0
 10
0.0
 20
0.0
 30
0.0
  3
*Paper_Space
  1

  0
ENDBLK
  5
1D
100
AcDbEntity
  8
0
100
AcDbBlockEnd
  0
BLOCK
  5
214
100
AcDbEntity
  8
0
100
AcDbBlockBegin
  2
_FILLED
 70
64
 10
0.0
 20
0.0
  3
_FILLED
  1

  0
SOLID
  5
215
100
AcDbEntity
  8
0
  6
BYBLOCK
 62
0
100
AcDbTrace
 10
0.0
 20
0.0
 11
-1.0
 21
0.25
 12
-1.0
 22
-0.25
 13
-1.0
 23
-0.25
  0
ENDBLK
  5
216
100
AcDbEntity
  8
0
  6
BYBLOCK
 62
0
100
AcDbBlockEnd
  0
ENDSEC
  0
SECTION
  2
ENTITIES
  0
LINE
  5
217
100
AcDbEntity
  8
0
100
AcDbLine
 62
7
  6
CONTINUOUS
 10
28.0229879431
 20
215.8888459022
 11
68.4693274317
 21
239.2404115036
  0
LINE
  5
218
100
AcDbEntity
  8
0
100
AcDbLine
 62
7
  6
CONTINUOUS
 10
28.0229879431
 20
215.8888459022
 11
27.3510168747
 21
211.3777852999
  0
LINE
  5
219
100
AcDbEntity
  8
0
100
AcDbLine
 62
7
  6
CONTINUOUS
 10
29.9673228577
 20
214.766309011
 11
32.442186288
 21
216.1951635495
  0
LINE
  5
21A
100
AcDbEntity
  8
0
100
AcDbLine
 62
7
  6
CONTINUOUS
 10
67.9387989161
 20
236.6890200739
 11
70.4136623464
 21
238.1178746124
  0
LINE
  5
21B
100
AcDbEntity
  8
0
100
AcDbLine
 62
7
  6
CONTINUOUS
 10
26.8646379734
 20
211.6585899369
 11
27.4425471078
 21
211.9922439396
  0
LINE
  5
21C
100
AcDbEntity
  8
0
100
AcDbLine
 62
7
  6
CONTINUOUS
 10
29.9673228577
 20
212.3168017596
 11
31.5635154634
 21
213.2383584892
  0
LINE
  5
21D
100
AcDbEntity
  8
0
100
AcDbLine
 62
7
  6
CONTINUOUS
 10
74.6563206973
 20
235.6684300853
 11
72.181457267
 21
234.2395755468
  0
LINE
  5
21E
100
AcDbEntity
  8
0
100
AcDbLine
 62
7
  6
CONTINUOUS
 10
36.6848446389
 20
213.7457190224
 11
34.2099812086
 21
212.3168644839
  0
LINE
  5
21F
100
AcDbEntity
  8
0
100
AcDbLine
 62
7
  6
CONTINUOUS
 10
34.9878178037
 20
206.5197560953
 11
36.8969981642
 21
207.6220153107
  0
LINE
  5
220
100
AcDbEntity
  8
0
100
AcDbLine
 62
7
  6
CONTINUOUS
 10
34.9878178037
 20
206.5197560953
 11
35.2663889779
 21
187.9306224777
  0
LINE
  5
221
100
AcDbEntity
  8
0
100
AcDbLine
 62
7
  6
CONTINUOUS
 10
29.9673228577
 20
214.766309011
 11
29.9673228577
 21
212.3168017596
  0
LINE
  5
222
100
AcDbEntity
  8
0
100
AcDbLine
 62
7
  6
CONTINUOUS
 10
29.9673228577
 20
209.8672945082
 11
29.9673228577
 21
141.934293403
  0
LINE
  5
223
100
AcDbEntity
  8
0
100
AcDbLine
 62
7
  6
CONTINUOUS
 10
31.5635154634
 20
213.827337902
 11
31.5635154634
 21
212.5209340346
  0
LINE
  5
224
100
AcDbEntity
  8
0
100
AcDbLine
 62
7
  6
CONTINUOUS
 10
32.442186288
 20
216.1951635495
 11
32.442186288
 21
215.0520601655
  0
LINE
  5
225
100
AcDbEntity
  8
0
100
AcDbLine
 62
7
  6
CONTINUOUS
 10
34.2099812086
 20
212.3168644839
 11
34.2099812086
 21
209.8673572325
  0
LINE
  5
226
100
AcDbEntity
  8
0
100
AcDbLine
 62
7
  6
CONTINUOUS
 10
145.9981989919
 20
62.5209683562
 11
141.755540641
 21
64.9704128833
  0
LINE
  5
227
100
AcDbEntity
  8
0
100
AcDbLine
 62
7
  6
CONTINUOUS
 10
59.7366681933
 20
122.9511293585
 11
59.7366681933
 21
149.0792067066
  0
LINE
  5
228
100
AcDbEntity
  8
0
100
AcDbLine
 62
7
  6
CONTINUOUS
 10
71.6867966414
 20
190.6801044943
 11
74.1616600717
 21
192.1089590328
  0
LINE
  5
229
100
AcDbEntity
  8
0
100
AcDbLine
 62
7
  6
CONTINUOUS
 10
109.6582726998
 20
212.6028155572
 11
112.13313613
 21
214.0316700957
  0
LINE
  5
22A
100
AcDbEntity
  8
0
100
AcDbLine
 62
7
  6
CONTINUOUS
 10
67.4441541879
 20
187.7815054628
 11
69.3533345484
 21
188.8837646783
  0
LINE
  5
22B
100
AcDbEntity
  8
0
100
AcDbLine
 62
7
  6
CONTINUOUS
 10
71.6867966414
 20
188.2305972429
 11
73.2829892471
 21
189.1521539725
  0
LINE
  5
22C
100
AcDbEntity
  8
0
100
AcDbLine
 62
7
  6
CONTINUOUS
 10
80.8791847968
 20
190.6801265901
 11
112.1331744016
 21
208.7245181912
  0
LINE
  5
22D
100
AcDbEntity
  8
0
100
AcDbLine
 62
7
  6
CONTINUOUS
 10
144.589835211
 20
65.6339141613
 11
140.3471768601
 21
68.0833586884
  0
LINE
  5
22E
100
AcDbEntity
  8
0
100
AcDbLine
 62
7
  6
CONTINUOUS
 10
95.8862946284
 20
100.3218999656
 11
140.3471768601
 21
74.6529783494
  0
LINE
  5
22F
100
AcDbEntity
  8
0
100
AcDbLine
 62
7
  6
CONTINUOUS
 10
65.3128755256
 20
118.4839384674
 11
91.6879993847
 21
103.2563534715
  0
LINE
  5
230
100
AcDbEntity
  8
0
100
AcDbLine
 62
7
  6
CONTINUOUS
 10
95.1098622469
 20
101.3136890231
 11
83.4290265661
 21
108.0574700831
  0
LINE
  5
231
100
AcDbEntity
  8
0
100
AcDbLine
 62
7
  6
CONTINUOUS
 10
140.3471768601
 20
76.4116833432
 11
94.8093105606
 21
102.7023879343
  0
LINE
  5
232
100
AcDbEntity
  8
0
100
AcDbLine
 62
7
  6
CONTINUOUS
 10
63.9793265442
 20
120.5016848314
 11
59.7366681933
 21
122.9511293585
  0
LINE
  5
233
100
AcDbEntity
  8
0
100
AcDbLine
 62
7
  6
CONTINUOUS
 10
82.4207453498
 20
110.2303486612
 11
64.3187363861
 21
120.6813119769
  0
LINE
  5
234
100
AcDbEntity
  8
0
100
AcDbLine
 62
7
  6
CONTINUOUS
 10
94.8093105606
 20
103.1106286888
 11
82.4348874266
 21
110.2548435926
  0
LINE
  5
235
100
AcDbEntity
  8
0
100
AcDbLine
 62
7
  6
CONTINUOUS
 10
42.9260733402
 20
130.8649207415
 11
73.3501367395
 21
113.2987965678
  0
LWPOLYLINE
  5
236
100
AcDbEntity
  8
0
100
AcDbPolyline
 62
7
  6
CONTINUOUS
 90
3
 70
0
 10
83.4149283267
 20
108.0330511691
 10
83.3520186558
 20
108.0712447895
 10
83.4293999623
 20
108.0600514236
  0
LINE
  5
237
100
AcDbEntity
  8
0
100
AcDbLine
 62
7
  6
CONTINUOUS
 10
62.8479250771
 20
167.7770810182
 11
62.8479250771
 21
155.1848060708
  0
LINE
  5
238
100
AcDbEntity
  8
0
100
AcDbLine
 62
7
  6
CONTINUOUS
 10
62.9186354608
 20
155.2518765547
 11
62.9186354608
 21
167.7362551919
  0
LINE
  5
239
100
AcDbEntity
  8
0
100
AcDbLine
 62
7
  6
CONTINUOUS
 10
63.9793265442
 20
120.5016848314
 11
63.9793265442
 21
146.6297621795
  0
LINE
  5
23A
100
AcDbEntity
  8
0
100
AcDbLine
 62
7
  6
CONTINUOUS
 10
64.3187363861
 20
120.6813119769
 11
64.3187363861
 21
146.8420494217
  0
LINE
  5
23B
100
AcDbEntity
  8
0
100
AcDbLine
 62
7
  6
CONTINUOUS
 10
67.1612938117
 20
153.0473827528
 11
67.1612938117
 21
152.8024320276
  0
LINE
  5
23C
100
AcDbEntity
  8
0
100
AcDbLine
 62
7
  6
CONTINUOUS
 10
67.9387989161
 20
235.5459166899
 11
67.9387989161
 21
236.6890200739
  0
LINE
  5
23D
100
AcDbEntity
  8
0
100
AcDbLine
 62
7
  6
CONTINUOUS
 10
67.1655830138
 20
169.5140308532
 11
67.4441541879
 21
187.7815054628
  0
LINE
  5
23E
100
AcDbEntity
  8
0
100
AcDbLine
 62
7
  6
CONTINUOUS
 10
78.4043213665
 20
186.8017648001
 11
80.8791847968
 21
188.2306193387
  0
LINE
  5
23F
100
AcDbEntity
  8
0
100
AcDbLine
 62
7
  6
CONTINUOUS
 10
112.1331744016
 20
206.2750109398
 11
114.6080378319
 21
207.7038654783
  0
LINE
  5
240
100
AcDbEntity
  8
0
100
AcDbLine
 62
7
  6
CONTINUOUS
 10
80.2781465351
 20
187.1895847533
 11
112.7342126632
 21
205.927991416
  0
LINE
  5
241
100
AcDbEntity
  8
0
100
AcDbLine
 62
7
  6
CONTINUOUS
 10
114.6080378319
 20
205.254358227
 11
114.2545248437
 21
205.0502586264
  0
LINE
  5
242
100
AcDbEntity
  8
0
100
AcDbLine
 62
7
  6
CONTINUOUS
 10
80.3046830034
 20
185.4494253022
 11
78.4043213665
 21
184.3522575487
  0
LINE
  5
243
100
AcDbEntity
  8
0
100
AcDbLine
 62
7
  6
CONTINUOUS
 10
114.6434089211
 20
204.8257413788
 11
82.187342793
 21
186.0873347161
  0
LINE
  5
244
100
AcDbEntity
  8
0
100
AcDbLine
 62
7
  6
CONTINUOUS
 10
27.3967169789
 20
142.4037623278
 11
42.7057338627
 21
133.5652972617
  0
LINE
  5
245
100
AcDbEntity
  8
0
100
AcDbLine
 62
7
  6
CONTINUOUS
 10
156.0449173738
 20
68.8181593021
 11
146.4283051877
 21
74.3704716824
  0
LINE
  5
246
100
AcDbEntity
  8
0
100
AcDbLine
 62
7
  6
CONTINUOUS
 10
42.618850752
 20
134.6300956106
 11
26.5676069212
 21
143.8970759101
  0
LWPOLYLINE
  5
247
100
AcDbEntity
  8
0
100
AcDbPolyline
 62
7
  6
CONTINUOUS
 90
3
 70
0
 10
91.7041955058
 20
103.2824665795
 10
91.7525873906
 20
103.2210399866
 10
91.688043545
 20
103.256429873
  0
LINE
  5
248
100
AcDbEntity
  8
0
100
AcDbLine
 62
7
  6
CONTINUOUS
 10
70.4136623464
 20
238.1178746124
 11
70.4136623464
 21
236.0387643918
  0
LINE
  5
249
100
AcDbEntity
  8
0
100
AcDbLine
 62
7
  6
CONTINUOUS
 10
71.6867966414
 20
190.6801044943
 11
71.6867966414
 21
188.2305972429
  0
LINE
  5
24A
100
AcDbEntity
  8
0
100
AcDbLine
 62
7
  6
CONTINUOUS
 10
73.2829892471
 20
189.7411333853
 11
73.2829892471
 21
188.4347295179
  0
LINE
  5
24B
100
AcDbEntity
  8
0
100
AcDbLine
 62
7
  6
CONTINUOUS
 10
74.1616600717
 20
192.1089590328
 11
74.1616600717
 21
190.9658556489
  0
LINE
  5
24C
100
AcDbEntity
  8
0
100
AcDbLine
 62
7
  6
CONTINUOUS
 10
74.1616806794
 20
186.8017546021
 11
74.1616806794
 21
161.2452289459
  0
LINE
  5
24D
100
AcDbEntity
  8
0
100
AcDbLine
 62
7
  6
CONTINUOUS
 10
76.3537202386
 20
159.979680856
 11
76.3537202386
 21
147.740252944
  0
LINE
  5
24E
100
AcDbEntity
  8
0
100
AcDbLine
 62
7
  6
CONTINUOUS
 10
69.3533345484
 20
188.8837646783
 11
69.0747633742
 21
170.6162900686
  0
LINE
  5
24F
100
AcDbEntity
  8
0
100
AcDbLine
 62
7
  6
CONTINUOUS
 10
62.8479250771
 20
155.1848060708
 11
62.9186354608
 21
155.2518765547
  0
LINE
  5
250
100
AcDbEntity
  8
0
100
AcDbLine
 62
7
  6
CONTINUOUS
 10
69.0747633742
 20
170.6162900686
 11
67.1655830138
 21
169.5140308532
  0
LINE
  5
251
100
AcDbEntity
  8
0
100
AcDbLine
 62
7
  6
CONTINUOUS
 10
68.2467463048
 20
168.8418973221
 11
66.3375659444
 21
167.7396381067
  0
LINE
  5
252
100
AcDbEntity
  8
0
100
AcDbLine
 62
7
  6
CONTINUOUS
 10
80.5567153897
 20
168.9221114829
 11
80.2781465351
 21
187.1895847533
  0
LINE
  5
253
100
AcDbEntity
  8
0
100
AcDbLine
 62
7
  6
CONTINUOUS
 10
82.187342793
 20
186.0873347161
 11
82.4659116476
 21
167.8198614457
  0
LINE
  5
254
100
AcDbEntity
  8
0
100
AcDbLine
 62
7
  6
CONTINUOUS
 10
78.4043007587
 20
190.9658658469
 11
78.4043007587
 21
192.1089692309
  0
LINE
  5
255
100
AcDbEntity
  8
0
100
AcDbLine
 62
7
  6
CONTINUOUS
 10
78.4043213665
 20
161.245239144
 11
78.4043213665
 21
186.8017648001
  0
LINE
  5
256
100
AcDbEntity
  8
0
100
AcDbLine
 62
7
  6
CONTINUOUS
 10
79.2829892471
 20
189.7411333853
 11
79.2829892471
 21
188.4347295179
  0
LINE
  5
257
100
AcDbEntity
  8
0
100
AcDbLine
 62
7
  6
CONTINUOUS
 10
80.8791847968
 20
190.6801265901
 11
80.8791847968
 21
188.2306193387
  0
LINE
  5
258
100
AcDbEntity
  8
0
100
AcDbLine
 62
7
  6
CONTINUOUS
 10
82.4207453498
 20
136.391086106
 11
82.4207453498
 21
110.2303486612
  0
LINE
  5
259
100
AcDbEntity
  8
0
100
AcDbLine
 62
7
  6
CONTINUOUS
 10
82.4348874266
 20
136.3829209407
 11
82.4348874266
 21
110.2548435926
  0
LINE
  5
25A
100
AcDbEntity
  8
0
100
AcDbLine
 62
7
  6
CONTINUOUS
 10
80.6122451325
 20
153.1038369705
 11
81.6246652052
 21
157.3252283924
  0
LINE
  5
25B
100
AcDbEntity
  8
0
100
AcDbLine
 62
7
  6
CONTINUOUS
 10
67.1612938117
 20
152.8024320276
 11
66.5801080873
 21
152.251163519
  0
LINE
  5
25C
100
AcDbEntity
  8
0
100
AcDbLine
 62
7
  6
CONTINUOUS
 10
66.6915952999
 20
151.9496067412
 11
67.5928106352
 21
152.7982520347
  0
LINE
  5
25D
100
AcDbEntity
  8
0
100
AcDbLine
 62
7
  6
CONTINUOUS
 10
85.2938962151
 20
166.2435794106
 11
111.536855499
 21
181.3948685765
  0
LINE
  5
25E
100
AcDbEntity
  8
0
100
AcDbLine
 62
7
  6
CONTINUOUS
 10
114.6080378319
 20
182.1473398222
 11
78.4043213665
 21
161.245239144
  0
LINE
  5
25F
100
AcDbEntity
  8
0
100
AcDbLine
 62
7
  6
CONTINUOUS
 10
116.6586389598
 20
183.2495976267
 11
76.3537202386
 21
159.979680856
  0
LINE
  5
260
100
AcDbEntity
  8
0
100
AcDbLine
 62
7
  6
CONTINUOUS
 10
166.7527686077
 20
81.3225977136
 11
163.358641927
 21
83.2821533353
  0
LINE
  5
261
100
AcDbEntity
  8
0
100
AcDbLine
 62
7
  6
CONTINUOUS
 10
183.1020473853
 20
75.3476327737
 11
168.2527431572
 21
83.9206886187
  0
LINE
  5
262
100
AcDbEntity
  8
0
100
AcDbLine
 62
7
  6
CONTINUOUS
 10
59.7366681933
 20
149.0792067066
 11
63.9793265442
 21
146.6297621795
  0
LINE
  5
263
100
AcDbEntity
  8
0
100
AcDbLine
 62
7
  6
CONTINUOUS
 10
94.8093105606
 20
128.8304652824
 11
140.3471768601
 21
102.5397606913
  0
LINE
  5
264
100
AcDbEntity
  8
0
100
AcDbLine
 62
7
  6
CONTINUOUS
 10
82.4348874266
 20
136.3829209407
 11
94.8735725372
 21
129.2016052068
  0
LINE
  5
265
100
AcDbEntity
  8
0
100
AcDbLine
 62
7
  6
CONTINUOUS
 10
64.3187363861
 20
146.8420494217
 11
82.4207453498
 21
136.391086106
  0
LINE
  5
266
100
AcDbEntity
  8
0
100
AcDbLine
 62
7
  6
CONTINUOUS
 10
89.8584175749
 20
147.7844474176
 11
90.8511432615
 21
151.990666981
  0
LINE
  5
267
100
AcDbEntity
  8
0
100
AcDbLine
 62
7
  6
CONTINUOUS
 10
89.8632963868
 20
147.8048715484
 11
90.8708376476
 21
152.0058388395
  0
LINE
  5
268
100
AcDbEntity
  8
0
100
AcDbLine
 62
7
  6
CONTINUOUS
 10
76.3537202386
 20
147.740252944
 11
78.9221240842
 21
150.1764451936
  0
LINE
  5
269
100
AcDbEntity
  8
0
100
AcDbLine
 62
7
  6
CONTINUOUS
 10
107.8198409946
 20
175.4520877268
 11
85.1925182038
 21
162.3882748029
  0
LINE
  5
26A
100
AcDbEntity
  8
0
100
AcDbLine
 62
7
  6
CONTINUOUS
 10
97.3138613083
 20
134.2436905335
 11
84.7903122203
 21
141.4740013992
  0
LINE
  5
26B
100
AcDbEntity
  8
0
100
AcDbLine
 62
7
  6
CONTINUOUS
 10
84.7936042637
 20
141.4986434255
 11
66.6915952999
 21
151.9496067412
  0
LINE
  5
26C
100
AcDbEntity
  8
0
100
AcDbLine
 62
7
  6
CONTINUOUS
 10
66.5801080873
 20
152.251163519
 11
42.594892114
 21
166.0987211442
  0
LINE
  5
26D
100
AcDbEntity
  8
0
100
AcDbLine
 62
7
  6
CONTINUOUS
 10
140.3471768601
 20
109.7956959753
 11
97.5400290764
 21
134.5098551625
  0
LINE
  5
26E
100
AcDbEntity
  8
0
100
AcDbLine
 62
7
  6
CONTINUOUS
 10
43.3090667143
 20
166.465316007
 11
62.8479250771
 21
155.1848060708
  0
LINE
  5
26F
100
AcDbEntity
  8
0
100
AcDbLine
 62
7
  6
CONTINUOUS
 10
62.9186354608
 20
155.2518765547
 11
67.1612938117
 21
152.8024320276
  0
LINE
  5
270
100
AcDbEntity
  8
0
100
AcDbLine
 62
7
  6
CONTINUOUS
 10
76.3537202386
 20
147.740252944
 11
67.1612938117
 21
153.0473827528
  0
LINE
  5
271
100
AcDbEntity
  8
0
100
AcDbLine
 62
7
  6
CONTINUOUS
 10
140.3471768601
 20
110.868085346
 11
144.589835211
 21
108.4186408189
  0
LINE
  5
272
100
AcDbEntity
  8
0
100
AcDbLine
 62
7
  6
CONTINUOUS
 10
188.1019625501
 20
84.0079357906
 11
173.252658322
 21
92.5809916355
  0
LINE
  5
273
100
AcDbEntity
  8
0
100
AcDbLine
 62
7
  6
CONTINUOUS
 10
100.4869000656
 20
137.1174137001
 11
140.9916433341
 21
113.7325183075
  0
LINE
  5
274
100
AcDbEntity
  8
0
100
AcDbLine
 62
7
  6
CONTINUOUS
 10
78.5735281974
 20
149.8457936883
 11
87.9246469352
 21
144.4470449039
  0
LINE
  5
275
100
AcDbEntity
  8
0
100
AcDbLine
 62
7
  6
CONTINUOUS
 10
87.9399017903
 20
144.4614621573
 11
100.5302872324
 21
137.1925641775
  0
LINE
  5
276
100
AcDbEntity
  8
0
100
AcDbLine
 62
7
  6
CONTINUOUS
 10
94.8093105606
 20
102.7023879343
 11
94.8093105606
 21
128.8304652824
  0
LINE
  5
277
100
AcDbEntity
  8
0
100
AcDbLine
 62
7
  6
CONTINUOUS
 10
99.8599947389
 20
215.7871540432
 11
99.8599947389
 21
212.9293955832
  0
LINE
  5
278
100
AcDbEntity
  8
0
100
AcDbLine
 62
7
  6
CONTINUOUS
 10
84.7903122203
 20
141.4740013992
 11
87.9399017903
 21
144.4614621573
  0
LINE
  5
279
100
AcDbEntity
  8
0
100
AcDbLine
 62
7
  6
CONTINUOUS
 10
87.9246535381
 20
144.4470249968
 11
84.7936042637
 21
141.4986434255
  0
LINE
  5
27A
100
AcDbEntity
  8
0
100
AcDbLine
 62
7
  6
CONTINUOUS
 10
116.7435656082
 20
169.6795472175
 11
94.0879586639
 21
156.5994045275
  0
LINE
  5
27B
100
AcDbEntity
  8
0
100
AcDbLine
 62
7
  6
CONTINUOUS
 10
116.7294235315
 20
169.6550522861
 11
94.1021007406
 21
156.5912393622
  0
LINE
  5
27C
100
AcDbEntity
  8
0
100
AcDbLine
 62
7
  6
CONTINUOUS
 10
174.7526328715
 20
95.1790825406
 11
171.3585061908
 21
97.1386381623
  0
LINE
  5
27D
100
AcDbEntity
  8
0
100
AcDbLine
 62
7
  6
CONTINUOUS
 10
102.4488041281
 20
140.5155487964
 11
89.8584175749
 21
147.7844474176
  0
LINE
  5
27E
100
AcDbEntity
  8
0
100
AcDbLine
 62
7
  6
CONTINUOUS
 10
89.8632758456
 20
147.8048673134
 11
80.6304291162
 21
153.1353332667
  0
LINE
  5
27F
100
AcDbEntity
  8
0
100
AcDbLine
 62
7
  6
CONTINUOUS
 10
142.9968931003
 20
117.205835956
 11
102.4921948181
 21
140.5907053763
  0
LINE
  5
280
100
AcDbEntity
  8
0
100
AcDbLine
 62
7
  6
CONTINUOUS
 10
149.398141304
 20
116.7469175017
 11
145.1554829531
 21
119.1963620288
  0
LINE
  5
281
100
AcDbEntity
  8
0
100
AcDbLine
 62
7
  6
CONTINUOUS
 10
76.3537202386
 20
159.979680856
 11
62.8479250771
 21
167.7770810182
  0
LINE
  5
282
100
AcDbEntity
  8
0
100
AcDbLine
 62
7
  6
CONTINUOUS
 10
103.2769711772
 20
144.4465855213
 11
146.084049034
 21
119.7324667055
  0
LINE
  5
283
100
AcDbEntity
  8
0
100
AcDbLine
 62
7
  6
CONTINUOUS
 10
81.6212997257
 20
157.319399079
 11
90.8511432615
 21
151.990666981
  0
LINE
  5
284
100
AcDbEntity
  8
0
100
AcDbLine
 62
7
  6
CONTINUOUS
 10
90.8708376476
 20
152.0058388395
 11
103.3943866437
 21
144.7755280269
  0
LINE
  5
285
100
AcDbEntity
  8
0
100
AcDbLine
 62
7
  6
CONTINUOUS
 10
107.8599947389
 20
215.7871540432
 11
107.8599947389
 21
212.9293955832
  0
LINE
  5
286
100
AcDbEntity
  8
0
100
AcDbLine
 62
7
  6
CONTINUOUS
 10
102.4921948181
 20
140.5907053763
 11
103.2769711772
 21
144.4465855213
  0
LINE
  5
287
100
AcDbEntity
  8
0
100
AcDbLine
 62
7
  6
CONTINUOUS
 10
106.8300757933
 20
149.6511569894
 11
129.4573985841
 21
162.7149699133
  0
LINE
  5
288
100
AcDbEntity
  8
0
100
AcDbLine
 62
7
  6
CONTINUOUS
 10
38.0943970935
 20
183.0888982275
 11
64.3375748981
 21
167.9377352227
  0
LINE
  5
289
100
AcDbEntity
  8
0
100
AcDbLine
 62
7
  6
CONTINUOUS
 10
188.8545307102
 20
99.5183088414
 11
189.4202184903
 21
99.1917162378
  0
LINE
  5
28A
100
AcDbEntity
  8
0
100
AcDbLine
 62
7
  6
CONTINUOUS
 10
106.5407834345
 20
149.4099250236
 11
94.1021007406
 21
156.5912393622
  0
LINE
  5
28B
100
AcDbEntity
  8
0
100
AcDbLine
 62
7
  6
CONTINUOUS
 10
94.0879586639
 20
156.5994045275
 11
84.7262630704
 21
162.0042597243
  0
LINE
  5
28C
100
AcDbEntity
  8
0
100
AcDbLine
 62
7
  6
CONTINUOUS
 10
152.3679420927
 20
123.3604523983
 11
106.8300757933
 21
149.6511569894
  0
LINE
  5
28D
100
AcDbEntity
  8
0
100
AcDbLine
 62
7
  6
CONTINUOUS
 10
81.3847338913
 20
167.1477179096
 11
83.2939301492
 21
166.0454678724
  0
LINE
  5
28E
100
AcDbEntity
  8
0
100
AcDbLine
 62
7
  6
CONTINUOUS
 10
109.6582726998
 20
211.4597121732
 11
109.6582726998
 21
212.6028155572
  0
LINE
  5
28F
100
AcDbEntity
  8
0
100
AcDbLine
 62
7
  6
CONTINUOUS
 10
112.13313613
 20
214.0316700957
 11
112.13313613
 21
211.9525598751
  0
LINE
  5
290
100
AcDbEntity
  8
0
100
AcDbLine
 62
7
  6
CONTINUOUS
 10
112.1331744016
 20
208.7245181912
 11
112.1331744016
 21
206.2750109398
  0
LINE
  5
291
100
AcDbEntity
  8
0
100
AcDbLine
 62
7
  6
CONTINUOUS
 10
114.6080378319
 20
207.7038654783
 11
114.6080378319
 21
204.8461624248
  0
LINE
  5
292
100
AcDbEntity
  8
0
100
AcDbLine
 62
7
  6
CONTINUOUS
 10
114.6080378319
 20
202.4653987155
 11
114.6080378319
 21
182.1473398222
  0
LINE
  5
293
100
AcDbEntity
  8
0
100
AcDbLine
 62
7
  6
CONTINUOUS
 10
114.7796018752
 20
210.2349899096
 11
114.7796018752
 21
208.9285860422
  0
LINE
  5
294
100
AcDbEntity
  8
0
100
AcDbLine
 62
7
  6
CONTINUOUS
 10
115.4867086564
 20
183.3720620858
 11
115.4867086564
 21
208.9285877419
  0
LINE
  5
295
100
AcDbEntity
  8
0
100
AcDbLine
 62
7
  6
CONTINUOUS
 10
116.6586389598
 20
171.3518981672
 11
116.6586389598
 21
183.2495976267
  0
LINE
  5
296
100
AcDbEntity
  8
0
100
AcDbLine
 62
7
  6
CONTINUOUS
 10
114.3648400665
 20
186.2366064221
 11
114.6434089211
 21
204.8257413788
  0
LINE
  5
297
100
AcDbEntity
  8
0
100
AcDbLine
 62
7
  6
CONTINUOUS
 10
97.5400290764
 20
134.5098551625
 11
100.4869000656
 21
137.1174137001
  0
LINE
  5
298
100
AcDbEntity
  8
0
100
AcDbLine
 62
7
  6
CONTINUOUS
 10
82.4659116476
 20
167.8198614457
 11
80.5567153897
 21
168.9221114829
  0
LINE
  5
299
100
AcDbEntity
  8
0
100
AcDbLine
 62
7
  6
CONTINUOUS
 10
67.4441541879
 20
187.7815054628
 11
34.9878178037
 21
206.5197560953
  0
LINE
  5
29A
100
AcDbEntity
  8
0
100
AcDbLine
 62
7
  6
CONTINUOUS
 10
74.1616806794
 20
184.3522473507
 11
69.3267978592
 21
187.1436050995
  0
LINE
  5
29B
100
AcDbEntity
  8
0
100
AcDbLine
 62
7
  6
CONTINUOUS
 10
35.3766859838
 20
206.7442679036
 11
26.8646379734
 21
211.6585899369
  0
LINE
  5
29C
100
AcDbEntity
  8
0
100
AcDbLine
 62
7
  6
CONTINUOUS
 10
36.8969981642
 20
207.6220153107
 11
69.3533345484
 21
188.8837646783
  0
LINE
  5
29D
100
AcDbEntity
  8
0
100
AcDbLine
 62
7
  6
CONTINUOUS
 10
29.9673228577
 20
212.3168017596
 11
34.2099812086
 21
209.8673572325
  0
LINE
  5
29E
100
AcDbEntity
  8
0
100
AcDbLine
 62
7
  6
CONTINUOUS
 10
71.6867966414
 20
188.2305972429
 11
74.1616806794
 21
186.8017546021
  0
LINE
  5
29F
100
AcDbEntity
  8
0
100
AcDbLine
 62
7
  6
CONTINUOUS
 10
28.0229879431
 20
215.8888459022
 11
29.9673228577
 21
214.766309011
  0
LINE
  5
2A0
100
AcDbEntity
  8
0
100
AcDbLine
 62
7
  6
CONTINUOUS
 10
34.2099812086
 20
212.3168644839
 11
71.6867966414
 21
190.6801044943
  0
LINE
  5
2A1
100
AcDbEntity
  8
0
100
AcDbLine
 62
7
  6
CONTINUOUS
 10
111.3876939931
 20
174.5088185028
 11
111.4343829122
 21
174.368055568
  0
LINE
  5
2A2
100
AcDbEntity
  8
0
100
AcDbLine
 62
7
  6
CONTINUOUS
 10
43.1633158744
 20
166.4479890014
 11
43.3090667143
 21
166.465316007
  0
LINE
  5
2A3
100
AcDbEntity
  8
0
100
AcDbLine
 62
7
  6
CONTINUOUS
 10
82.187342793
 20
186.0873347161
 11
80.2781465351
 21
187.1895847533
  0
LINE
  5
2A4
100
AcDbEntity
  8
0
100
AcDbLine
 62
7
  6
CONTINUOUS
 10
79.2829892471
 20
189.1521624209
 11
80.8791847968
 21
188.2306193387
  0
LINE
  5
2A5
100
AcDbEntity
  8
0
100
AcDbLine
 62
7
  6
CONTINUOUS
 10
179.8036063042
 20
132.1785098337
 11
189.4202184903
 21
126.6261974533
  0
LINE
  5
2A6
100
AcDbEntity
  8
0
100
AcDbLine
 62
7
  6
CONTINUOUS
 10
116.7294235315
 20
169.6550522861
 11
129.1038376119
 21
162.5108426093
  0
LINE
  5
2A7
100
AcDbEntity
  8
0
100
AcDbLine
 62
7
  6
CONTINUOUS
 10
107.2824279547
 20
175.1418140156
 11
116.7435656082
 21
169.6795472175
  0
LINE
  5
2A8
100
AcDbEntity
  8
0
100
AcDbLine
 62
7
  6
CONTINUOUS
 10
78.4043007587
 20
192.1089692309
 11
80.8791847968
 21
190.6801265901
  0
LINE
  5
2A9
100
AcDbEntity
  8
0
100
AcDbLine
 62
7
  6
CONTINUOUS
 10
129.4573985841
 20
162.7149699133
 11
174.9952648836
 21
136.4242653222
  0
LINE
  5
2AA
100
AcDbEntity
  8
0
100
AcDbLine
 62
7
  6
CONTINUOUS
 10
130.8102209329
 20
163.1490036625
 11
119.1293828106
 21
169.892786132
  0
LINE
  5
2AB
100
AcDbEntity
  8
0
100
AcDbLine
 62
7
  6
CONTINUOUS
 10
109.0489848746
 20
175.8590422958
 11
111.3876939931
 21
174.5088185028
  0
LINE
  5
2AC
100
AcDbEntity
  8
0
100
AcDbLine
 62
7
  6
CONTINUOUS
 10
132.0573544698
 20
162.972514913
 11
176.5182757027
 21
137.3035707799
  0
LINE
  5
2AD
100
AcDbEntity
  8
0
100
AcDbLine
 62
7
  6
CONTINUOUS
 10
127.4232154971
 20
165.1368321537
 11
108.9237046578
 21
175.8175635418
  0
LWPOLYLINE
  5
2AE
100
AcDbEntity
  8
0
100
AcDbPolyline
 62
7
  6
CONTINUOUS
 90
3
 70
0
 10
127.4165959454
 20
165.1405833659
 10
127.4795056163
 20
165.1023897454
 10
127.4091537639
 20
165.1125662863
  0
LWPOLYLINE
  5
2AF
100
AcDbEntity
  8
0
100
AcDbPolyline
 62
7
  6
CONTINUOUS
 90
3
 70
0
 10
119.1273287663
 20
169.8911679554
 10
119.0789368815
 20
169.9525945484
 10
119.1434807271
 20
169.9172046619
  0
LINE
  5
2B0
100
AcDbEntity
  8
0
100
AcDbLine
 62
7
  6
CONTINUOUS
 10
140.3471768601
 20
68.0833586884
 11
140.3471768601
 21
76.4116833432
  0
LINE
  5
2B1
100
AcDbEntity
  8
0
100
AcDbLine
 62
7
  6
CONTINUOUS
 10
140.3471768601
 20
102.5397606913
 11
140.3471768601
 21
110.868085346
  0
LINE
  5
2B2
100
AcDbEntity
  8
0
100
AcDbLine
 62
7
  6
CONTINUOUS
 10
182.2077240232
 20
140.5883556917
 11
186.450382374
 21
138.1389111646
  0
LINE
  5
2B3
100
AcDbEntity
  8
0
100
AcDbLine
 62
7
  6
CONTINUOUS
 10
189.8503246861
 20
138.4757007796
 11
185.6076663353
 21
140.9251453067
  0
LINE
  5
2B4
100
AcDbEntity
  8
0
100
AcDbLine
 62
7
  6
CONTINUOUS
 10
116.6586389598
 20
183.2495976267
 11
115.4867086564
 21
183.9261965961
  0
LINE
  5
2B5
100
AcDbEntity
  8
0
100
AcDbLine
 62
7
  6
CONTINUOUS
 10
144.589835211
 20
65.6339141613
 11
144.589835211
 21
108.4186408189
  0
LINE
  5
2B6
100
AcDbEntity
  8
0
100
AcDbLine
 62
7
  6
CONTINUOUS
 10
146.4283051877
 20
101.804952898
 11
146.4283051877
 21
74.3704716824
  0
LINE
  5
2B7
100
AcDbEntity
  8
0
100
AcDbLine
 62
7
  6
CONTINUOUS
 10
145.1554829531
 20
119.1963620288
 11
152.3679420927
 21
123.3604523983
  0
LINE
  5
2B8
100
AcDbEntity
  8
0
100
AcDbLine
 62
7
  6
CONTINUOUS
 10
174.9952648836
 20
136.4242653222
 11
182.2077240232
 21
140.5883556917
  0
LINE
  5
2B9
100
AcDbEntity
  8
0
100
AcDbLine
 62
7
  6
CONTINUOUS
 10
146.4283051877
 20
101.804952898
 11
156.0449173738
 21
118.4615062636
  0
LINE
  5
2BA
100
AcDbEntity
  8
0
100
AcDbLine
 62
7
  6
CONTINUOUS
 10
149.398141304
 20
116.7469175017
 11
186.450382374
 21
138.1389111646
  0
LINE
  5
2BB
100
AcDbEntity
  8
0
100
AcDbLine
 62
7
  6
CONTINUOUS
 10
179.8036063042
 20
132.1785098337
 11
156.0449173738
 21
118.4615062636
  0
LINE
  5
2BC
100
AcDbEntity
  8
0
100
AcDbLine
 62
7
  6
CONTINUOUS
 10
114.6434089211
 20
204.8257413788
 11
112.7342126632
 21
205.927991416
  0
LINE
  5
2BD
100
AcDbEntity
  8
0
100
AcDbLine
 62
7
  6
CONTINUOUS
 10
112.1331744016
 20
208.7245181912
 11
109.6582903636
 21
210.153360832
  0
LINE
  5
2BE
100
AcDbEntity
  8
0
100
AcDbLine
 62
7
  6
CONTINUOUS
 10
112.13313613
 20
214.0316700957
 11
107.3989763286
 21
216.7648766981
  0
LINE
  5
2BF
100
AcDbEntity
  8
0
100
AcDbLine
 62
7
  6
CONTINUOUS
 10
105.5534547945
 20
217.830364948
 11
74.6563206973
 21
235.6684300853
  0
LINE
  5
2C0
100
AcDbEntity
  8
0
100
AcDbLine
 62
7
  6
CONTINUOUS
 10
70.4136623464
 20
238.1178746124
 11
68.4693274317
 21
239.2404115036
  0
LINE
  5
2C1
100
AcDbEntity
  8
0
100
AcDbLine
 62
7
  6
CONTINUOUS
 10
188.8545307102
 20
126.952790057
 11
188.8545307102
 21
99.5183088414
  0
LINE
  5
2C2
100
AcDbEntity
  8
0
100
AcDbLine
 62
7
  6
CONTINUOUS
 10
189.4202184903
 20
99.1917162378
 11
189.4202184903
 21
126.6261974533
  0
LINE
  5
2C3
100
AcDbEntity
  8
0
100
AcDbLine
 62
7
  6
CONTINUOUS
 10
191.2586884671
 20
135.3627549744
 11
191.2586884671
 21
92.5780283168
  0
LINE
  5
2C4
100
AcDbEntity
  8
0
100
AcDbLine
 62
7
  6
CONTINUOUS
 10
181.9501940813
 20
87.5595806232
 11
188.8545307102
 21
99.5183088414
  0
LINE
  5
2C5
100
AcDbEntity
  8
0
100
AcDbLine
 62
7
  6
CONTINUOUS
 10
189.4202184903
 20
99.1917162378
 11
182.5158818614
 21
87.2329880195
  0
LINE
  5
2C6
100
AcDbEntity
  8
0
100
AcDbLine
 62
7
  6
CONTINUOUS
 10
174.6624526893
 20
80.2201248128
 11
155.4792295937
 21
69.1447519057
  0
LINE
  5
2C7
100
AcDbEntity
  8
0
100
AcDbLine
 62
7
  6
CONTINUOUS
 10
156.0449173738
 20
68.8181593021
 11
175.2281404694
 21
79.8935322092
  0
LINE
  5
2C8
100
AcDbEntity
  8
0
100
AcDbLine
 62
7
  6
CONTINUOUS
 10
177.0666575248
 20
78.8320879054
 11
149.398141304
 21
62.8577579712
  0
ARC
  5
2C9
100
AcDbEntity
  8
0
100
AcDbCircle
 62
7
  6
CONTINUOUS
 10
339.2795678229
 20
162.8711736912
 40
297.9491830736
100
AcDbArc
 50
179.6530319219
 51
180.0011073703
  0
ARC
  5
2CA
100
AcDbEntity
  8
0
100
AcDbCircle
 62
7
  6
CONTINUOUS
 10
110.1663254437
 20
143.0427185123
 40
7.0309348445
100
AcDbArc
 50
166.1327256526
 51
168.4823357328
  0
ARC
  5
2CB
100
AcDbEntity
  8
0
100
AcDbCircle
 62
7
  6
CONTINUOUS
 10
102.2003836816
 20
129.2455734633
 40
7.0307586258
100
AcDbArc
 50
131.5177707704
 51
133.8674724944
  0
ARC
  5
2CC
100
AcDbEntity
  8
0
100
AcDbCircle
 62
7
  6
CONTINUOUS
 10
97.3056393207
 20
141.6466025804
 40
5.2929459503
100
AcDbArc
 50
347.4052459263
 51
348.4927808566
  0
ARC
  5
2CD
100
AcDbEntity
  8
0
100
AcDbCircle
 62
7
  6
CONTINUOUS
 10
96.9792746593
 20
141.0810419498
 40
5.2928050117
100
AcDbArc
 50
311.507324046
 51
312.5948380578
  0
ARC
  5
2CE
100
AcDbEntity
  8
0
100
AcDbCircle
 62
7
  6
CONTINUOUS
 10
69.2089029156
 20
146.6270183486
 40
5.2295770912
100
AcDbArc
 50
177.3156593151
 51
179.9699383074
  0
ARC
  5
2CF
100
AcDbEntity
  8
0
100
AcDbCircle
 62
7
  6
CONTINUOUS
 10
76.2829922539
 20
189.0011589351
 40
5.1562245781
100
AcDbArc
 50
263.5258730156
 51
276.4737961813
  0
ARC
  5
2D0
100
AcDbEntity
  8
0
100
AcDbCircle
 62
7
  6
CONTINUOUS
 10
109.3969103361
 20
145.2106561239
 40
5.1290045337
100
AcDbArc
 50
120.0300887895
 51
122.6854494671
  0
ARC
  5
2D1
100
AcDbEntity
  8
0
100
AcDbCircle
 62
7
  6
CONTINUOUS
 10
34.5592209756
 20
217.2022256595
 40
5.1068003862
100
AcDbArc
 50
266.0731906643
 51
266.2771437935
  0
ARC
  5
2D2
100
AcDbEntity
  8
0
100
AcDbCircle
 62
7
  6
CONTINUOUS
 10
111.7838972098
 20
213.6098665042
 40
5.1067891922
100
AcDbArc
 50
273.7231339528
 51
273.9272435419
  0
ARC
  5
2D3
100
AcDbEntity
  8
0
100
AcDbCircle
 62
7
  6
CONTINUOUS
 10
34.558760213
 20
217.1955975464
 40
5.1001562796
100
AcDbArc
 50
265.6065755675
 51
266.0732555268
  0
ARC
  5
2D4
100
AcDbEntity
  8
0
100
AcDbCircle
 62
7
  6
CONTINUOUS
 10
111.7843582247
 20
213.6032354497
 40
5.1001421339
100
AcDbArc
 50
273.9271786807
 51
274.3938670824
  0
ARC
  5
2D5
100
AcDbEntity
  8
0
100
AcDbCircle
 62
7
  6
CONTINUOUS
 10
99.8626600528
 20
128.8295564024
 40
5.0533495739
100
AcDbArc
 50
177.294622138
 51
179.9896949563
  0
ARC
  5
2D6
100
AcDbEntity
  8
0
100
AcDbCircle
 62
7
  6
CONTINUOUS
 10
92.486607416
 20
104.6399413426
 40
1.5975181822
100
AcDbArc
 50
240.0064248873
 51
244.1898616722
  0
ARC
  5
2D7
100
AcDbEntity
  8
0
100
AcDbCircle
 62
7
  6
CONTINUOUS
 10
126.6177809638
 20
163.7572869316
 40
1.5974570214
100
AcDbArc
 50
55.8426551298
 51
59.9947687919
  0
ARC
  5
2D8
100
AcDbEntity
  8
0
100
AcDbCircle
 62
7
  6
CONTINUOUS
 10
68.4444869461
 20
234.1543180502
 40
1.4229332174
100
AcDbArc
 50
143.756465207
 51
147.9787180415
  0
SPLINE
  5
2D9
100
AcDbEntity
  8
0
100
AcDbSpline
 62
7
  6
CONTINUOUS
 70
0
 71
3
 72
12
 73
8
 74
0
 42
0.0000001
 43
0.0000001
 44
0.0000000001
 40
0.0
 40
0.0
 40
0.0
 40
0.0
 40
0.2895815875
 40
0.5486326666
 40
0.7816361232
 40
0.8918379233
 40
1.0
 40
1.0
 40
1.0
 40
1.0
 10
64.3375748981
 20
167.9377352227
 30
0.0
 10
64.5131526517
 20
167.8363676527
 30
0.0
 10
64.8623477112
 20
167.6702318031
 30
0.0
 10
65.3986845635
 20
167.5405694405
 30
0.0
 10
65.8269653236
 20
167.5519192924
 30
0.0
 10
66.1327167382
 20
167.6366122414
 30
0.0
 10
66.2719838878
 20
167.7017791432
 30
0.0
 10
66.3375624736
 20
167.7396441158
 30
0.0
  0
SPLINE
  5
2DA
100
AcDbEntity
  8
0
100
AcDbSpline
 62
7
  6
CONTINUOUS
 70
0
 71
3
 72
15
 73
11
 74
0
 42
0.0000001
 43
0.0000001
 44
0.0000000001
 40
0.0
 40
0.0
 40
0.0
 40
0.0
 40
0.1148263591
 40
0.2383901443
 40
0.3681607991
 40
0.501083093
 40
0.6338551732
 40
0.7631866601
 40
0.8860576628
 40
1.0
 40
1.0
 40
1.0
 40
1.0
 10
35.2663889779
 20
187.9306224777
 30
0.0
 10
35.2697261119
 20
187.7079345779
 30
0.0
 10
35.3162059948
 20
187.2457842189
 30
0.0
 10
35.4848723804
 20
186.5500716423
 30
0.0
 10
35.749165288
 20
185.8471929171
 30
0.0
 10
36.0994148653
 20
185.1630202219
 30
0.0
 10
36.5227781296
 20
184.5225289878
 30
0.0
 10
37.0038360137
 20
183.9491429886
 30
0.0
 10
37.5248619209
 20
183.4639089837
 30
0.0
 10
37.9030058801
 20
183.1993954963
 30
0.0
 10
38.0943970935
 20
183.0888982275
 30
0.0
  0
SPLINE
  5
2DB
100
AcDbEntity
  8
0
100
AcDbSpline
 62
7
  6
CONTINUOUS
 70
0
 71
3
 72
12
 73
8
 74
0
 42
0.0000001
 43
0.0000001
 44
0.0000000001
 40
0.0
 40
0.0
 40
0.0
 40
0.0
 40
0.288578566
 40
0.5472734103
 40
0.7806914594
 40
0.8913263451
 40
1.0
 40
1.0
 40
1.0
 40
1.0
 10
69.0747633742
 20
170.6162900686
 30
0.0
 10
69.0717655879
 20
170.4197084016
 30
0.0
 10
69.0363621165
 20
170.0460355083
 30
0.0
 10
68.8778850014
 20
169.5337541973
 30
0.0
 10
68.6561789059
 20
169.1805318159
 30
0.0
 10
68.4342115016
 20
168.9646868661
 30
0.0
 10
68.3108601392
 20
168.8789245699
 30
0.0
 10
68.2467428333
 20
168.8419033326
 30
0.0
  0
SPLINE
  5
2DC
100
AcDbEntity
  8
0
100
AcDbSpline
 62
7
  6
CONTINUOUS
 70
0
 71
3
 72
12
 73
8
 74
0
 42
0.0000001
 43
0.0000001
 44
0.0000000001
 40
0.0
 40
0.0
 40
0.0
 40
0.0
 40
0.1086736605
 40
0.2193085503
 40
0.4527266067
 40
0.7114214418
 40
1.0
 40
1.0
 40
1.0
 40
1.0
 10
66.3375624736
 20
167.7396441158
 30
0.0
 10
66.4016797853
 20
167.776665351
 30
0.0
 10
66.5250311473
 20
167.8624276603
 30
0.0
 10
66.7469985664
 20
168.0782726109
 30
0.0
 10
66.9687046476
 20
168.4314950059
 30
0.0
 10
67.1271817639
 20
168.9437763078
 30
0.0
 10
67.1625852275
 20
169.3174491913
 30
0.0
 10
67.1655830138
 20
169.5140308532
 30
0.0
  0
SPLINE
  5
2DD
100
AcDbEntity
  8
0
100
AcDbSpline
 62
7
  6
CONTINUOUS
 70
0
 71
3
 72
15
 73
11
 74
0
 42
0.0000001
 43
0.0000001
 44
0.0000000001
 40
0.0
 40
0.0
 40
0.0
 40
0.0
 40
0.113942031
 40
0.2368128637
 40
0.3661442943
 40
0.4989164145
 40
0.6318388157
 40
0.7616096149
 40
0.8851735401
 40
1.0
 40
1.0
 40
1.0
 40
1.0
 10
111.536855499
 20
181.3948685765
 30
0.0
 10
111.7282452856
 20
181.5053668617
 30
0.0
 10
112.1063863286
 20
181.7698824017
 30
0.0
 10
112.6274078437
 20
182.2551189445
 30
0.0
 10
113.1084616533
 20
182.8285072707
 30
0.0
 10
113.5318213167
 20
183.4690005099
 30
0.0
 10
113.8820679004
 20
184.1531748211
 30
0.0
 10
114.1463585266
 20
184.8560546964
 30
0.0
 10
114.3150234587
 20
185.5517679133
 30
0.0
 10
114.3615029597
 20
186.0139184611
 30
0.0
 10
114.3648400665
 20
186.2366064221
 30
0.0
  0
SPLINE
  5
2DE
100
AcDbEntity
  8
0
100
AcDbSpline
 62
7
  6
CONTINUOUS
 70
0
 71
3
 72
12
 73
8
 74
0
 42
0.0000001
 43
0.0000001
 44
0.0000000001
 40
0.0
 40
0.0
 40
0.0
 40
0.0
 40
0.1081618764
 40
0.2183635
 40
0.4513667606
 40
0.7104179405
 40
1.0
 40
1.0
 40
1.0
 40
1.0
 10
83.2939336204
 20
166.0454738825
 30
0.0
 10
83.3595115899
 20
166.0076098921
 30
0.0
 10
83.4987773658
 20
165.9424449059
 30
0.0
 10
83.8045255027
 20
165.8577554879
 30
0.0
 10
84.2328011774
 20
165.8464094298
 30
0.0
 10
84.7691309146
 20
165.9760748286
 30
0.0
 10
85.1183209575
 20
166.1422115934
 30
0.0
 10
85.2938962151
 20
166.2435794106
 30
0.0
  0
SPLINE
  5
2DF
100
AcDbEntity
  8
0
100
AcDbSpline
 62
7
  6
CONTINUOUS
 70
0
 71
3
 72
12
 73
8
 74
0
 42
0.0000001
 43
0.0000001
 44
0.0000000001
 40
0.0
 40
0.0
 40
0.0
 40
0.0
 40
0.1086732176
 40
0.2193077256
 40
0.4527253853
 40
0.7114204933
 40
1.0
 40
1.0
 40
1.0
 40
1.0
 10
81.3847373618
 20
167.1477239184
 30
0.0
 10
81.3206199639
 20
167.1847445855
 30
0.0
 10
81.1972683776
 20
167.2705059494
 30
0.0
 10
80.9753004251
 20
167.4863497546
 30
0.0
 10
80.7535938391
 20
167.8395721709
 30
0.0
 10
80.5951165832
 20
168.3518547385
 30
0.0
 10
80.5597131648
 20
168.7255289294
 30
0.0
 10
80.5567153897
 20
168.9221114829
 30
0.0
  0
SPLINE
  5
2E0
100
AcDbEntity
  8
0
100
AcDbSpline
 62
7
  6
CONTINUOUS
 70
0
 71
3
 72
12
 73
8
 74
0
 42
0.0000001
 43
0.0000001
 44
0.0000000001
 40
0.0
 40
0.0
 40
0.0
 40
0.0
 40
0.2885795145
 40
0.5472746317
 40
0.780692284
 40
0.891326788
 40
1.0
 40
1.0
 40
1.0
 40
1.0
 10
82.4659116476
 20
167.8198614457
 30
0.0
 10
82.4689094228
 20
167.623278887
 30
0.0
 10
82.504312849
 20
167.2496046863
 30
0.0
 10
82.6627901036
 20
166.7373221096
 30
0.0
 10
82.884496704
 20
166.384099707
 30
0.0
 10
83.1064646416
 20
166.1682559026
 30
0.0
 10
83.2298162284
 20
166.0824945518
 30
0.0
 10
83.2939336204
 20
166.0454738825
 30
0.0
  0
SPLINE
  5
2E1
100
AcDbEntity
  8
0
100
AcDbSpline
 62
7
  6
CONTINUOUS
 70
0
 71
3
 72
11
 73
7
 74
0
 42
0.0000001
 43
0.0000001
 44
0.0000000001
 40
0.0
 40
0.0
 40
0.0
 40
0.0
 40
0.22364517
 40
0.4615142525
 40
0.719615073
 40
1.0
 40
1.0
 40
1.0
 40
1.0
 10
27.3966366014
 20
142.4035949606
 30
0.0
 10
27.2824971308
 20
142.4694926179
 30
0.0
 10
27.0670885267
 20
142.642874973
 30
0.0
 10
26.8189879103
 20
142.9920943862
 30
0.0
 10
26.6456094364
 20
143.4191788642
 30
0.0
 10
26.5855807002
 20
143.7328225331
 30
0.0
 10
26.5676069212
 20
143.8970759101
 30
0.0
  0
SPLINE
  5
2E2
100
AcDbEntity
  8
0
100
AcDbSpline
 62
7
  6
CONTINUOUS
 70
0
 71
3
 72
11
 73
7
 74
0
 42
0.0000001
 43
0.0000001
 44
0.0000000001
 40
0.0
 40
0.0
 40
0.0
 40
0.0
 40
0.2368169205
 40
0.4825917025
 40
0.7371052518
 40
1.0
 40
1.0
 40
1.0
 40
1.0
 10
26.8646379734
 20
211.6585899369
 30
0.0
 10
26.1444209703
 20
206.3457890825
 30
0.0
 10
25.0633738799
 20
195.4638594732
 30
0.0
 10
24.4947520561
 20
178.7756058189
 30
0.0
 10
24.9502863087
 20
161.4939868184
 30
0.0
 10
25.9201849944
 20
149.8135410887
 30
0.0
 10
26.5676069212
 20
143.8970759101
 30
0.0
  0
SPLINE
  5
2E3
100
AcDbEntity
  8
0
100
AcDbSpline
 62
7
  6
CONTINUOUS
 70
0
 71
3
 72
9
 73
5
 74
0
 42
0.0000001
 43
0.0000001
 44
0.0000000001
 40
0.0
 40
0.0
 40
0.0
 40
0.0
 40
0.2603782916
 40
1.0
 40
1.0
 40
1.0
 40
1.0
 10
30.1397486685
 20
141.0665006126
 30
0.0
 10
30.1553819861
 20
141.0335294067
 30
0.0
 10
30.2201540877
 20
140.9092570669
 30
0.0
 10
30.3053581509
 20
140.7951883096
 30
0.0
 10
30.3788141783
 20
140.7220593313
 30
0.0
  0
SPLINE
  5
2E4
100
AcDbEntity
  8
0
100
AcDbSpline
 62
7
  6
CONTINUOUS
 70
0
 71
3
 72
9
 73
5
 74
0
 42
0.0000001
 43
0.0000001
 44
0.0000000001
 40
0.0
 40
0.0
 40
0.0
 40
0.0
 40
0.2527452273
 40
1.0
 40
1.0
 40
1.0
 40
1.0
 10
30.3788141783
 20
140.7220593313
 30
0.0
 10
30.3946351606
 20
140.7063087889
 30
0.0
 10
30.4591555538
 20
140.6459567069
 30
0.0
 10
30.5315097625
 20
140.5939552809
 30
0.0
 10
30.5886708459
 20
140.5609540576
 30
0.0
  0
SPLINE
  5
2E5
100
AcDbEntity
  8
0
100
AcDbSpline
 62
7
  6
CONTINUOUS
 70
0
 71
3
 72
13
 73
9
 74
0
 42
0.0000001
 43
0.0000001
 44
0.0000000001
 40
0.0
 40
0.0
 40
0.0
 40
0.0
 40
0.1142466307
 40
0.237544229
 40
0.5000005226
 40
0.7624565301
 40
0.8857537943
 40
1.0
 40
1.0
 40
1.0
 40
1.0
 10
113.9009133869
 20
211.4597223713
 30
0.0
 10
113.7557044253
 20
211.5435569077
 30
0.0
 10
113.4381239226
 20
211.6914505491
 30
0.0
 10
112.7342928299
 20
211.9052120559
 30
0.0
 10
111.7795897201
 20
212.0090535385
 30
0.0
 10
110.8248875283
 20
211.9052076417
 30
0.0
 10
110.1210590732
 20
211.6914426727
 30
0.0
 10
109.8034805165
 20
211.5435474449
 30
0.0
 10
109.6582726998
 20
211.4597121732
 30
0.0
  0
SPLINE
  5
2E6
100
AcDbEntity
  8
0
100
AcDbSpline
 62
7
  6
CONTINUOUS
 70
0
 71
3
 72
11
 73
7
 74
0
 42
0.0000001
 43
0.0000001
 44
0.0000000001
 40
0.0
 40
0.0
 40
0.0
 40
0.0
 40
0.2177753738
 40
0.4509336309
 40
0.7102261693
 40
1.0
 40
1.0
 40
1.0
 40
1.0
 10
107.8599760522
 20
215.7871540432
 30
0.0
 10
107.8599760502
 20
215.9395048638
 30
0.0
 10
107.8037105746
 20
216.2570894749
 30
0.0
 10
107.5629419254
 20
216.6994782247
 30
0.0
 10
107.1824447134
 20
217.0995175106
 30
0.0
 10
106.8639711824
 20
217.3187727065
 30
0.0
 10
106.6884100878
 20
217.4201306586
 30
0.0
  0
SPLINE
  5
2E7
100
AcDbEntity
  8
0
100
AcDbSpline
 62
7
  6
CONTINUOUS
 70
0
 71
3
 72
13
 73
9
 74
0
 42
0.0000001
 43
0.0000001
 44
0.0000000001
 40
0.0
 40
0.0
 40
0.0
 40
0.0
 40
0.1142483233
 40
0.2375469957
 40
0.4999994774
 40
0.7624522452
 40
0.8857512516
 40
1.0
 40
1.0
 40
1.0
 40
1.0
 10
78.4043213665
 20
184.3522575487
 30
0.0
 10
78.2591109416
 20
184.2684207713
 30
0.0
 10
77.9415265114
 20
184.1205260728
 30
0.0
 10
77.237697728
 20
183.9067639703
 30
0.0
 10
76.2830043462
 20
183.8029230289
 30
0.0
 10
75.3283100463
 20
183.9067595561
 30
0.0
 10
74.6244786254
 20
184.1205181964
 30
0.0
 10
74.3068922492
 20
184.2684113084
 30
0.0
 10
74.1616806794
 20
184.3522473507
 30
0.0
  0
SPLINE
  5
2E8
100
AcDbEntity
  8
0
100
AcDbSpline
 62
7
  6
CONTINUOUS
 70
0
 71
3
 72
11
 73
7
 74
0
 42
0.0000001
 43
0.0000001
 44
0.0000000001
 40
0.0
 40
0.0
 40
0.0
 40
0.0
 40
0.2177796924
 40
0.4509239527
 40
0.7102593987
 40
1.0
 40
1.0
 40
1.0
 40
1.0
 10
37.5634975537
 20
214.9704412892
 30
0.0
 10
37.5635177611
 20
214.8561781882
 30
0.0
 10
37.5212623695
 20
214.6180064326
 30
0.0
 10
37.3407327273
 20
214.2861880071
 30
0.0
 10
37.0553327362
 20
213.9861891613
 30
0.0
 10
36.8164971871
 20
213.8217282029
 30
0.0
 10
36.6848446389
 20
213.7457190224
 30
0.0
  0
SPLINE
  5
2E9
100
AcDbEntity
  8
0
100
AcDbSpline
 62
7
  6
CONTINUOUS
 70
0
 71
3
 72
15
 73
11
 74
0
 42
0.0000001
 43
0.0000001
 44
0.0000000001
 40
0.0
 40
0.0
 40
0.0
 40
0.0
 40
0.122681148
 40
0.2568619433
 40
0.397426131
 40
0.5383207409
 40
0.6734720337
 40
0.7372546802
 40
0.797743823
 40
1.0
 40
1.0
 40
1.0
 40
1.0
 10
72.181457267
 20
234.2395755468
 30
0.0
 10
71.9889455689
 20
234.1284295295
 30
0.0
 10
71.5584221127
 20
233.942218868
 30
0.0
 10
70.8551325892
 20
233.7749220016
 30
0.0
 10
70.1016377706
 20
233.7137809047
 30
0.0
 10
69.3456676583
 20
233.7629978073
 30
0.0
 10
68.7416411376
 20
233.8955292757
 30
0.0
 10
68.2985891834
 20
234.056523744
 30
0.0
 10
67.7666717891
 20
234.309232713
 30
0.0
 10
67.3660752037
 20
234.6306306912
 30
0.0
 10
67.1933958473
 20
234.9538784894
 30
0.0
  0
SPLINE
  5
2EA
100
AcDbEntity
  8
0
100
AcDbSpline
 62
7
  6
CONTINUOUS
 70
0
 71
3
 72
9
 73
5
 74
0
 42
0.0000001
 43
0.0000001
 44
0.0000000001
 40
0.0
 40
0.0
 40
0.0
 40
0.0
 40
0.5104125976
 40
1.0
 40
1.0
 40
1.0
 40
1.0
 10
67.1933958473
 20
234.9538784894
 30
0.0
 10
67.1507805586
 20
235.0336523461
 30
0.0
 10
67.0836836504
 20
235.1996438441
 30
0.0
 10
67.0601613436
 20
235.3775449745
 30
0.0
 10
67.0601460013
 20
235.4642978071
 30
0.0
  0
SPLINE
  5
2EB
100
AcDbEntity
  8
0
100
AcDbSpline
 62
7
  6
CONTINUOUS
 70
0
 71
3
 72
11
 73
7
 74
0
 42
0.0000001
 43
0.0000001
 44
0.0000000001
 40
0.0
 40
0.0
 40
0.0
 40
0.0
 40
0.2897781767
 40
0.5490726313
 40
0.7822276909
 40
1.0
 40
1.0
 40
1.0
 40
1.0
 10
109.6582903636
 20
210.153360832
 30
0.0
 10
109.5266180027
 20
210.2293801853
 30
0.0
 10
109.2877624859
 20
210.3938252851
 30
0.0
 10
109.0023911278
 20
210.6938568639
 30
0.0
 10
108.8218216139
 20
211.0256480568
 30
0.0
 10
108.7796239291
 20
211.2638321635
 30
0.0
 10
108.7796239276
 20
211.3780932936
 30
0.0
  0
SPLINE
  5
2EC
100
AcDbEntity
  8
0
100
AcDbSpline
 62
7
  6
CONTINUOUS
 70
0
 71
3
 72
10
 73
6
 74
0
 42
0.0000001
 43
0.0000001
 44
0.0000000001
 40
0.0
 40
0.0
 40
0.0
 40
0.0
 40
0.4588857921
 40
0.7187804199
 40
1.0
 40
1.0
 40
1.0
 40
1.0
 10
72.9931485239
 20
234.6850664419
 30
0.0
 10
72.9289863799
 20
234.857420973
 30
0.0
 10
72.7609980255
 20
235.1035859519
 30
0.0
 10
72.4608093067
 20
235.3695174194
 30
0.0
 10
72.2790462131
 20
235.4895749603
 30
0.0
 10
72.1814396032
 20
235.545926888
 30
0.0
  0
SPLINE
  5
2ED
100
AcDbEntity
  8
0
100
AcDbSpline
 62
7
  6
CONTINUOUS
 70
0
 71
3
 72
11
 73
7
 74
0
 42
0.0000001
 43
0.0000001
 44
0.0000000001
 40
0.0
 40
0.0
 40
0.0
 40
0.0
 40
0.2228964003
 40
0.4583021121
 40
0.7156030448
 40
1.0
 40
1.0
 40
1.0
 40
1.0
 10
115.4866866041
 20
208.9285877419
 30
0.0
 10
115.4866866028
 20
209.0292926946
 30
0.0
 10
115.454422037
 20
209.2375098739
 30
0.0
 10
115.3143670208
 20
209.5329890324
 30
0.0
 10
115.0900519615
 20
209.8067358751
 30
0.0
 10
114.8992472028
 20
209.9624247581
 30
0.0
 10
114.7937226026
 20
210.0357357155
 30
0.0
  0
SPLINE
  5
2EE
100
AcDbEntity
  8
0
100
AcDbSpline
 62
7
  6
CONTINUOUS
 70
0
 71
3
 72
11
 73
7
 74
0
 42
0.0000001
 43
0.0000001
 44
0.0000000001
 40
0.0
 40
0.0
 40
0.0
 40
0.0
 40
0.2177727701
 40
0.4509280213
 40
0.7102223029
 40
1.0
 40
1.0
 40
1.0
 40
1.0
 10
115.4866866041
 20
206.4790804905
 30
0.0
 10
115.4866866055
 20
206.3648205904
 30
0.0
 10
115.4444898843
 20
206.1266392319
 30
0.0
 10
115.2639242766
 20
205.7948512515
 30
0.0
 10
114.9785587143
 20
205.4948218967
 30
0.0
 10
114.7397077305
 20
205.3303774246
 30
0.0
 10
114.6080378319
 20
205.254358227
 30
0.0
  0
SPLINE
  5
2EF
100
AcDbEntity
  8
0
100
AcDbSpline
 62
7
  6
CONTINUOUS
 70
0
 71
3
 72
13
 73
9
 74
0
 42
0.0000001
 43
0.0000001
 44
0.0000000001
 40
0.0
 40
0.0
 40
0.0
 40
0.0
 40
0.1142466307
 40
0.237544229
 40
0.5000005226
 40
0.7624565301
 40
0.8857537943
 40
1.0
 40
1.0
 40
1.0
 40
1.0
 10
72.1814396032
 20
235.545926888
 30
0.0
 10
72.0362306417
 20
235.6297614244
 30
0.0
 10
71.7186501389
 20
235.7776550658
 30
0.0
 10
71.0148190463
 20
235.9914165726
 30
0.0
 10
70.0601159364
 20
236.0952580552
 30
0.0
 10
69.1054137447
 20
235.9914121584
 30
0.0
 10
68.4015852896
 20
235.7776471894
 30
0.0
 10
68.0840067329
 20
235.6297519616
 30
0.0
 10
67.9387989161
 20
235.5459166899
 30
0.0
  0
SPLINE
  5
2F0
100
AcDbEntity
  8
0
100
AcDbSpline
 62
7
  6
CONTINUOUS
 70
0
 71
3
 72
11
 73
7
 74
0
 42
0.0000001
 43
0.0000001
 44
0.0000000001
 40
0.0
 40
0.0
 40
0.0
 40
0.0
 40
0.2897733512
 40
0.5490657165
 40
0.7822241652
 40
1.0
 40
1.0
 40
1.0
 40
1.0
 10
74.1616600717
 20
190.9658556489
 30
0.0
 10
74.029991713
 20
190.8898373403
 30
0.0
 10
73.7911410976
 20
190.7253965712
 30
0.0
 10
73.5057739845
 20
190.4253693307
 30
0.0
 10
73.3252014039
 20
190.0935809808
 30
0.0
 10
73.2830032607
 20
189.8553952707
 30
0.0
 10
73.2830032622
 20
189.7411333853
 30
0.0
  0
SPLINE
  5
2F1
100
AcDbEntity
  8
0
100
AcDbSpline
 62
7
  6
CONTINUOUS
 70
0
 71
3
 72
11
 73
7
 74
0
 42
0.0000001
 43
0.0000001
 44
0.0000000001
 40
0.0
 40
0.0
 40
0.0
 40
0.0
 40
0.2897733512
 40
0.5490657165
 40
0.7822241652
 40
1.0
 40
1.0
 40
1.0
 40
1.0
 10
32.442186288
 20
215.0520601655
 30
0.0
 10
32.3105179293
 20
214.976041857
 30
0.0
 10
32.071667314
 20
214.8116010879
 30
0.0
 10
31.7863002008
 20
214.5115738474
 30
0.0
 10
31.6057276203
 20
214.1797854975
 30
0.0
 10
31.563529477
 20
213.9415997874
 30
0.0
 10
31.5635294785
 20
213.827337902
 30
0.0
  0
SPLINE
  5
2F2
100
AcDbEntity
  8
0
100
AcDbSpline
 62
7
  6
CONTINUOUS
 70
0
 71
3
 72
11
 73
7
 74
0
 42
0.0000001
 43
0.0000001
 44
0.0000000001
 40
0.0
 40
0.0
 40
0.0
 40
0.0
 40
0.2897733512
 40
0.5490657165
 40
0.7822241652
 40
1.0
 40
1.0
 40
1.0
 40
1.0
 10
101.0315558384
 20
217.4201170612
 30
0.0
 10
100.8559980268
 20
217.3187593165
 30
0.0
 10
100.5375305396
 20
217.0995049577
 30
0.0
 10
100.1570410554
 20
216.699468637
 30
0.0
 10
99.9162776147
 20
216.2570841705
 30
0.0
 10
99.8600134237
 20
215.9395032237
 30
0.0
 10
99.8600134257
 20
215.7871540432
 30
0.0
  0
SPLINE
  5
2F3
100
AcDbEntity
  8
0
100
AcDbSpline
 62
7
  6
CONTINUOUS
 70
0
 71
3
 72
15
 73
11
 74
0
 42
0.0000001
 43
0.0000001
 44
0.0000000001
 40
0.0
 40
0.0
 40
0.0
 40
0.0
 40
0.1141447985
 40
0.2373324971
 40
0.3669747555
 40
0.5000005214
 40
0.6330262147
 40
0.7626682613
 40
0.8858556261
 40
1.0
 40
1.0
 40
1.0
 40
1.0
 10
106.6884100878
 20
217.4201306586
 30
0.0
 10
106.4947981391
 20
217.5319100406
 30
0.0
 10
106.0713760729
 20
217.7290548506
 30
0.0
 10
105.3819028149
 20
217.9386562539
 30
0.0
 10
104.6353960712
 20
218.067599441
 30
0.0
 10
103.8599781931
 20
218.1111544012
 30
0.0
 10
103.0845609349
 20
218.0675957607
 30
0.0
 10
102.3380560225
 20
217.9386490291
 30
0.0
 10
101.6485857328
 20
217.7290443483
 30
0.0
 10
101.2251662607
 20
217.5318974234
 30
0.0
 10
101.0315558384
 20
217.4201170612
 30
0.0
  0
SPLINE
  5
2F4
100
AcDbEntity
  8
0
100
AcDbSpline
 62
7
  6
CONTINUOUS
 70
0
 71
3
 72
11
 73
7
 74
0
 42
0.0000001
 43
0.0000001
 44
0.0000000001
 40
0.0
 40
0.0
 40
0.0
 40
0.0
 40
0.2177753738
 40
0.4509336309
 40
0.7102261693
 40
1.0
 40
1.0
 40
1.0
 40
1.0
 10
114.7795878602
 20
210.2349899096
 30
0.0
 10
114.7795878587
 20
210.3492530251
 30
0.0
 10
114.737388752
 20
210.5874414835
 30
0.0
 10
114.5568122651
 20
210.9192330458
 30
0.0
 10
114.2714393561
 20
211.2192625102
 30
0.0
 10
114.0325842078
 20
211.3837039071
 30
0.0
 10
113.9009133869
 20
211.4597223713
 30
0.0
  0
SPLINE
  5
2F5
100
AcDbEntity
  8
0
100
AcDbSpline
 62
7
  6
CONTINUOUS
 70
0
 71
3
 72
11
 73
7
 74
0
 42
0.0000001
 43
0.0000001
 44
0.0000000001
 40
0.0
 40
0.0
 40
0.0
 40
0.0
 40
0.2177753738
 40
0.4509336309
 40
0.7102261693
 40
1.0
 40
1.0
 40
1.0
 40
1.0
 10
79.282975232
 20
189.7411333853
 30
0.0
 10
79.2829752306
 20
189.8553965008
 30
0.0
 10
79.2407761238
 20
190.0935849591
 30
0.0
 10
79.0601996369
 20
190.4253765215
 30
0.0
 10
78.7748267279
 20
190.7254059859
 30
0.0
 10
78.5359715797
 20
190.8898473828
 30
0.0
 10
78.4043007587
 20
190.9658658469
 30
0.0
  0
SPLINE
  5
2F6
100
AcDbEntity
  8
0
100
AcDbSpline
 62
7
  6
CONTINUOUS
 70
0
 71
3
 72
13
 73
9
 74
0
 42
0.0000001
 43
0.0000001
 44
0.0000000001
 40
0.0
 40
0.0
 40
0.0
 40
0.0
 40
0.1142487484
 40
0.2375477548
 40
0.5000005226
 40
0.7624530043
 40
0.8857516767
 40
1.0
 40
1.0
 40
1.0
 40
1.0
 10
74.1616806794
 20
186.8017546021
 30
0.0
 10
74.3068922492
 20
186.7179185598
 30
0.0
 10
74.6244786254
 20
186.5700254478
 30
0.0
 10
75.3283100463
 20
186.3562668075
 30
0.0
 10
76.2830043462
 20
186.2524302803
 30
0.0
 10
77.237697728
 20
186.3562712217
 30
0.0
 10
77.9415265114
 20
186.5700333242
 30
0.0
 10
78.2591109416
 20
186.7179280227
 30
0.0
 10
78.4043213665
 20
186.8017648001
 30
0.0
  0
SPLINE
  5
2F7
100
AcDbEntity
  8
0
100
AcDbSpline
 62
7
  6
CONTINUOUS
 70
0
 71
3
 72
17
 73
13
 74
0
 42
0.0000001
 43
0.0000001
 44
0.0000000001
 40
0.0
 40
0.0
 40
0.0
 40
0.0
 40
0.1286923651
 40
0.2702770074
 40
0.417433908
 40
0.5617794078
 40
0.6954504941
 40
0.8127129393
 40
0.8646788001
 40
0.9125109544
 40
0.9571403961
 40
1.0
 40
1.0
 40
1.0
 40
1.0
 10
78.4043184225
 20
187.2100072543
 30
0.0
 10
78.1822408414
 20
187.0817914684
 30
0.0
 10
77.6794384356
 20
186.8743288014
 30
0.0
 10
76.8599615048
 20
186.7104068797
 30
0.0
 10
75.9932229411
 20
186.686392795
 30
0.0
 10
75.14994605
 20
186.804880606
 30
0.0
 10
74.398491093
 20
187.0558613732
 30
0.0
 10
73.8759138851
 20
187.3740319991
 30
0.0
 10
73.5691475355
 20
187.6817916935
 30
0.0
 10
73.4062851788
 20
187.9214885522
 30
0.0
 10
73.3058210104
 20
188.1742481283
 30
0.0
 10
73.2830222602
 20
188.3493273651
 30
0.0
 10
73.2830071569
 20
188.4347295147
 30
0.0
  0
SPLINE
  5
2F8
100
AcDbEntity
  8
0
100
AcDbSpline
 62
7
  6
CONTINUOUS
 70
0
 71
3
 72
13
 73
9
 74
0
 42
0.0000001
 43
0.0000001
 44
0.0000000001
 40
0.0
 40
0.0
 40
0.0
 40
0.0
 40
0.1142483233
 40
0.2375469957
 40
0.4999994774
 40
0.7624522452
 40
0.8857512516
 40
1.0
 40
1.0
 40
1.0
 40
1.0
 10
74.1616600717
 20
192.1089590328
 30
0.0
 10
74.3068704966
 20
192.1927958103
 30
0.0
 10
74.6244549268
 20
192.3406905088
 30
0.0
 10
75.3282837101
 20
192.5544526113
 30
0.0
 10
76.282977092
 20
192.6582935527
 30
0.0
 10
77.2376713919
 20
192.5544570254
 30
0.0
 10
77.9415028128
 20
192.3406983852
 30
0.0
 10
78.259089189
 20
192.1928052731
 30
0.0
 10
78.4043007587
 20
192.1089692309
 30
0.0
  0
SPLINE
  5
2F9
100
AcDbEntity
  8
0
100
AcDbSpline
 62
7
  6
CONTINUOUS
 70
0
 71
3
 72
17
 73
13
 74
0
 42
0.0000001
 43
0.0000001
 44
0.0000000001
 40
0.0
 40
0.0
 40
0.0
 40
0.0
 40
0.1286923651
 40
0.2702770074
 40
0.417433908
 40
0.5617794078
 40
0.6954504941
 40
0.8127129393
 40
0.8646788001
 40
0.9125109544
 40
0.9571403961
 40
1.0
 40
1.0
 40
1.0
 40
1.0
 10
32.442186288
 20
216.1951635495
 30
0.0
 10
32.6642638691
 20
216.3233793354
 30
0.0
 10
33.1670662749
 20
216.5308420025
 30
0.0
 10
33.9865432057
 20
216.6947639241
 30
0.0
 10
34.8532817694
 20
216.7187780089
 30
0.0
 10
35.6965586606
 20
216.6002901979
 30
0.0
 10
36.4480136175
 20
216.3493094307
 30
0.0
 10
36.9705908254
 20
216.0311388047
 30
0.0
 10
37.277357175
 20
215.7233791103
 30
0.0
 10
37.4402195318
 20
215.4836822517
 30
0.0
 10
37.5406837001
 20
215.2309226755
 30
0.0
 10
37.5634824503
 20
215.0558434387
 30
0.0
 10
37.5634975537
 20
214.9704412892
 30
0.0
  0
SPLINE
  5
2FA
100
AcDbEntity
  8
0
100
AcDbSpline
 62
7
  6
CONTINUOUS
 70
0
 71
3
 72
11
 73
7
 74
0
 42
0.0000001
 43
0.0000001
 44
0.0000000001
 40
0.0
 40
0.0
 40
0.0
 40
0.0
 40
0.2177796924
 40
0.4509239527
 40
0.7102593987
 40
1.0
 40
1.0
 40
1.0
 40
1.0
 10
67.0601460013
 20
235.4642978071
 30
0.0
 10
67.0601257939
 20
235.5785609081
 30
0.0
 10
67.1023811855
 20
235.8167326636
 30
0.0
 10
67.2829108277
 20
236.1485510892
 30
0.0
 10
67.5683108188
 20
236.448549935
 30
0.0
 10
67.8071463678
 20
236.6130108934
 30
0.0
 10
67.9387989161
 20
236.6890200739
 30
0.0
  0
SPLINE
  5
2FB
100
AcDbEntity
  8
0
100
AcDbSpline
 62
7
  6
CONTINUOUS
 70
0
 71
3
 72
17
 73
13
 74
0
 42
0.0000001
 43
0.0000001
 44
0.0000000001
 40
0.0
 40
0.0
 40
0.0
 40
0.0
 40
0.1286902347
 40
0.2702748016
 40
0.4174293138
 40
0.5617764465
 40
0.6954484688
 40
0.8127147336
 40
0.8646780237
 40
0.9125120584
 40
0.9571415929
 40
1.0
 40
1.0
 40
1.0
 40
1.0
 10
106.6884336395
 20
211.2964325651
 30
0.0
 10
106.3923347752
 20
211.1254808265
 30
0.0
 10
105.7219344943
 20
210.8488728187
 30
0.0
 10
104.6293150619
 20
210.6302865097
 30
0.0
 10
103.473665143
 20
210.5982609357
 30
0.0
 10
102.3492878527
 20
210.7562556848
 30
0.0
 10
101.3473623745
 20
211.0909376013
 30
0.0
 10
100.6505072886
 20
211.5150808995
 30
0.0
 10
100.2415725268
 20
211.9255157478
 30
0.0
 10
100.0243367333
 20
212.2450536496
 30
0.0
 10
99.8904472456
 20
212.5820968984
 30
0.0
 10
99.8600269551
 20
212.8155291071
 30
0.0
 10
99.860024271
 20
212.9293955868
 30
0.0
  0
SPLINE
  5
2FC
100
AcDbEntity
  8
0
100
AcDbSpline
 62
7
  6
CONTINUOUS
 70
0
 71
3
 72
11
 73
7
 74
0
 42
0.0000001
 43
0.0000001
 44
0.0000000001
 40
0.0
 40
0.0
 40
0.0
 40
0.0
 40
0.2177753738
 40
0.4509336309
 40
0.7102261693
 40
1.0
 40
1.0
 40
1.0
 40
1.0
 10
99.8600134257
 20
215.7871540432
 30
0.0
 10
99.8600134277
 20
215.6348032225
 30
0.0
 10
99.9162789033
 20
215.3172186114
 30
0.0
 10
100.1570475525
 20
214.8748298616
 30
0.0
 10
100.5375447645
 20
214.4747905757
 30
0.0
 10
100.8560182955
 20
214.2555353799
 30
0.0
 10
101.0315793901
 20
214.1541774277
 30
0.0
  0
SPLINE
  5
2FD
100
AcDbEntity
  8
0
100
AcDbSpline
 62
7
  6
CONTINUOUS
 70
0
 71
3
 72
11
 73
7
 74
0
 42
0.0000001
 43
0.0000001
 44
0.0000000001
 40
0.0
 40
0.0
 40
0.0
 40
0.0
 40
0.2897776971
 40
0.5490719787
 40
0.7822272299
 40
1.0
 40
1.0
 40
1.0
 40
1.0
 10
114.6080378319
 20
207.7038654783
 30
0.0
 10
114.7397077305
 20
207.779884676
 30
0.0
 10
114.9785587143
 20
207.9443291481
 30
0.0
 10
115.2639242766
 20
208.2443585029
 30
0.0
 10
115.4444898843
 20
208.5761464833
 30
0.0
 10
115.4866866055
 20
208.8143278418
 30
0.0
 10
115.4866866041
 20
208.9285877419
 30
0.0
  0
SPLINE
  5
2FE
100
AcDbEntity
  8
0
100
AcDbSpline
 62
7
  6
CONTINUOUS
 70
0
 71
3
 72
9
 73
5
 74
0
 42
0.0000001
 43
0.0000001
 44
0.0000000001
 40
0.0
 40
0.0
 40
0.0
 40
0.0
 40
0.2709897213
 40
1.0
 40
1.0
 40
1.0
 40
1.0
 10
67.9387989161
 20
235.5459166899
 30
0.0
 10
67.8724050537
 20
235.5075844044
 30
0.0
 10
67.6335819632
 20
235.3564514576
 30
0.0
 10
67.4187199306
 20
235.1619849147
 30
0.0
 10
67.2968751958
 20
234.9955827005
 30
0.0
  0
SPLINE
  5
2FF
100
AcDbEntity
  8
0
100
AcDbSpline
 62
7
  6
CONTINUOUS
 70
0
 71
3
 72
9
 73
5
 74
0
 42
0.0000001
 43
0.0000001
 44
0.0000000001
 40
0.0
 40
0.0
 40
0.0
 40
0.0
 40
0.4750938762
 40
1.0
 40
1.0
 40
1.0
 40
1.0
 10
113.9009310507
 20
207.7038637787
 30
0.0
 10
113.6476635441
 20
207.5576405884
 30
0.0
 10
113.0677117957
 20
207.3300828063
 30
0.0
 10
112.4560454629
 20
207.2308042874
 30
0.0
 10
112.1336943415
 20
207.2086722333
 30
0.0
  0
SPLINE
  5
300
100
AcDbEntity
  8
0
100
AcDbSpline
 62
7
  6
CONTINUOUS
 70
0
 71
3
 72
13
 73
9
 74
0
 42
0.0000001
 43
0.0000001
 44
0.0000000001
 40
0.0
 40
0.0
 40
0.0
 40
0.0
 40
0.1142466307
 40
0.237544229
 40
0.5000005226
 40
0.7624565301
 40
0.8857537943
 40
1.0
 40
1.0
 40
1.0
 40
1.0
 10
78.4043007587
 20
190.9658658469
 30
0.0
 10
78.2590917972
 20
191.0497003833
 30
0.0
 10
77.9415112945
 20
191.1975940248
 30
0.0
 10
77.2376802018
 20
191.4113555315
 30
0.0
 10
76.282977092
 20
191.5151970141
 30
0.0
 10
75.3282749002
 20
191.4113511174
 30
0.0
 10
74.6244464451
 20
191.1975861484
 30
0.0
 10
74.3068678884
 20
191.0496909205
 30
0.0
 10
74.1616600717
 20
190.9658556489
 30
0.0
  0
SPLINE
  5
301
100
AcDbEntity
  8
0
100
AcDbSpline
 62
7
  6
CONTINUOUS
 70
0
 71
3
 72
11
 73
7
 74
0
 42
0.0000001
 43
0.0000001
 44
0.0000000001
 40
0.0
 40
0.0
 40
0.0
 40
0.0
 40
0.2897733512
 40
0.5490657165
 40
0.7822241652
 40
1.0
 40
1.0
 40
1.0
 40
1.0
 10
78.4043184225
 20
188.5164111217
 30
0.0
 10
78.5359867812
 20
188.5924294303
 30
0.0
 10
78.7748373966
 20
188.7568701994
 30
0.0
 10
79.0602045097
 20
189.0568974399
 30
0.0
 10
79.2407770903
 20
189.3886857897
 30
0.0
 10
79.2829752335
 20
189.6268714999
 30
0.0
 10
79.282975232
 20
189.7411333853
 30
0.0
  0
SPLINE
  5
302
100
AcDbEntity
  8
0
100
AcDbSpline
 62
7
  6
CONTINUOUS
 70
0
 71
3
 72
13
 73
9
 74
0
 42
0.0000001
 43
0.0000001
 44
0.0000000001
 40
0.0
 40
0.0
 40
0.0
 40
0.0
 40
0.1142466307
 40
0.237544229
 40
0.5000005226
 40
0.7624565301
 40
0.8857537943
 40
1.0
 40
1.0
 40
1.0
 40
1.0
 10
74.1616777355
 20
188.5164009237
 30
0.0
 10
74.306886697
 20
188.4325663872
 30
0.0
 10
74.6244671997
 20
188.2846727458
 30
0.0
 10
75.3282982924
 20
188.0709112391
 30
0.0
 10
76.2830014022
 20
187.9670697565
 30
0.0
 10
77.237703594
 20
188.0709156532
 30
0.0
 10
77.9415320491
 20
188.2846806222
 30
0.0
 10
78.2591106058
 20
188.4325758501
 30
0.0
 10
78.4043184225
 20
188.5164111217
 30
0.0
  0
SPLINE
  5
303
100
AcDbEntity
  8
0
100
AcDbSpline
 62
7
  6
CONTINUOUS
 70
0
 71
3
 72
11
 73
7
 74
0
 42
0.0000001
 43
0.0000001
 44
0.0000000001
 40
0.0
 40
0.0
 40
0.0
 40
0.0
 40
0.2897733512
 40
0.5490657165
 40
0.7822241652
 40
1.0
 40
1.0
 40
1.0
 40
1.0
 10
113.9009310507
 20
209.0102676461
 30
0.0
 10
114.0325994094
 20
209.0862859546
 30
0.0
 10
114.2714500247
 20
209.2507267237
 30
0.0
 10
114.5568171379
 20
209.5507539643
 30
0.0
 10
114.7373897184
 20
209.8825423141
 30
0.0
 10
114.7795878616
 20
210.1207280242
 30
0.0
 10
114.7795878602
 20
210.2349899096
 30
0.0
  0
SPLINE
  5
304
100
AcDbEntity
  8
0
100
AcDbSpline
 62
7
  6
CONTINUOUS
 70
0
 71
3
 72
14
 73
10
 74
0
 42
0.0000001
 43
0.0000001
 44
0.0000000001
 40
0.0
 40
0.0
 40
0.0
 40
0.0
 40
0.3072080201
 40
0.4497478615
 40
0.5815297174
 40
0.701315719
 40
0.8092838373
 40
0.9074709308
 40
1.0
 40
1.0
 40
1.0
 40
1.0
 10
34.2054163018
 20
210.8013031248
 30
0.0
 10
33.8561943464
 20
210.8255249942
 30
0.0
 10
33.3453337383
 20
210.912720922
 30
0.0
 10
32.7219752868
 20
211.1417382589
 30
0.0
 10
32.324330852
 20
211.3541802145
 30
0.0
 10
31.9977604036
 20
211.6052141851
 30
0.0
 10
31.7527558426
 20
211.8885617124
 30
0.0
 10
31.5990551253
 20
212.196866387
 30
0.0
 10
31.5635520196
 20
212.4154979366
 30
0.0
 10
31.5635333732
 20
212.5209340314
 30
0.0
  0
SPLINE
  5
305
100
AcDbEntity
  8
0
100
AcDbSpline
 62
7
  6
CONTINUOUS
 70
0
 71
3
 72
9
 73
5
 74
0
 42
0.0000001
 43
0.0000001
 44
0.0000000001
 40
0.0
 40
0.0
 40
0.0
 40
0.0
 40
0.2270441754
 40
1.0
 40
1.0
 40
1.0
 40
1.0
 10
37.4053078627
 20
214.3823675834
 30
0.0
 10
37.3674330006
 20
214.4470273542
 30
0.0
 10
37.1761865939
 20
214.7176318775
 30
0.0
 10
36.9057634414
 20
214.924515521
 30
0.0
 10
36.6848269751
 20
215.0520703636
 30
0.0
  0
SPLINE
  5
306
100
AcDbEntity
  8
0
100
AcDbSpline
 62
7
  6
CONTINUOUS
 70
0
 71
3
 72
11
 73
7
 74
0
 42
0.0000001
 43
0.0000001
 44
0.0000000001
 40
0.0
 40
0.0
 40
0.0
 40
0.0
 40
0.2177753738
 40
0.4509336309
 40
0.7102261693
 40
1.0
 40
1.0
 40
1.0
 40
1.0
 10
73.2830032622
 20
189.7411333853
 30
0.0
 10
73.2830032636
 20
189.6268702698
 30
0.0
 10
73.3252023704
 20
189.3886818115
 30
0.0
 10
73.5057788573
 20
189.0568902491
 30
0.0
 10
73.7911517663
 20
188.7568607847
 30
0.0
 10
74.0300069145
 20
188.5924193878
 30
0.0
 10
74.1616777355
 20
188.5164009237
 30
0.0
  0
SPLINE
  5
307
100
AcDbEntity
  8
0
100
AcDbSpline
 62
7
  6
CONTINUOUS
 70
0
 71
3
 72
13
 73
9
 74
0
 42
0.0000001
 43
0.0000001
 44
0.0000000001
 40
0.0
 40
0.0
 40
0.0
 40
0.0
 40
0.1142466307
 40
0.237544229
 40
0.5000005226
 40
0.7624565301
 40
0.8857537943
 40
1.0
 40
1.0
 40
1.0
 40
1.0
 10
36.6848269751
 20
215.0520703636
 30
0.0
 10
36.5396180135
 20
215.1359049
 30
0.0
 10
36.2220375108
 20
215.2837985415
 30
0.0
 10
35.5182064181
 20
215.4975600482
 30
0.0
 10
34.5635033083
 20
215.6014015308
 30
0.0
 10
33.6088011165
 20
215.4975556341
 30
0.0
 10
32.9049726614
 20
215.283790665
 30
0.0
 10
32.5873941047
 20
215.1358954372
 30
0.0
 10
32.442186288
 20
215.0520601655
 30
0.0
  0
SPLINE
  5
308
100
AcDbEntity
  8
0
100
AcDbSpline
 62
7
  6
CONTINUOUS
 70
0
 71
3
 72
9
 73
5
 74
0
 42
0.0000001
 43
0.0000001
 44
0.0000000001
 40
0.0
 40
0.0
 40
0.0
 40
0.0
 40
0.4752390475
 40
1.0
 40
1.0
 40
1.0
 40
1.0
 10
32.4422039518
 20
212.6026054404
 30
0.0
 10
32.6898889769
 20
212.4596076595
 30
0.0
 10
33.2559433627
 20
212.2354671884
 30
0.0
 10
33.8531899235
 20
212.1346202033
 30
0.0
 10
34.1680647784
 20
212.1104278193
 30
0.0
  0
SPLINE
  5
309
100
AcDbEntity
  8
0
100
AcDbSpline
 62
7
  6
CONTINUOUS
 70
0
 71
3
 72
11
 73
7
 74
0
 42
0.0000001
 43
0.0000001
 44
0.0000000001
 40
0.0
 40
0.0
 40
0.0
 40
0.0
 40
0.2177753738
 40
0.4509336309
 40
0.7102261693
 40
1.0
 40
1.0
 40
1.0
 40
1.0
 10
31.5635294785
 20
213.827337902
 30
0.0
 10
31.56352948
 20
213.7130747865
 30
0.0
 10
31.6057285867
 20
213.4748863282
 30
0.0
 10
31.7863050736
 20
213.1430947658
 30
0.0
 10
32.0716779826
 20
212.8430653014
 30
0.0
 10
32.3105331309
 20
212.6786239045
 30
0.0
 10
32.4422039518
 20
212.6026054404
 30
0.0
  0
SPLINE
  5
30A
100
AcDbEntity
  8
0
100
AcDbSpline
 62
7
  6
CONTINUOUS
 70
0
 71
3
 72
11
 73
7
 74
0
 42
0.0000001
 43
0.0000001
 44
0.0000000001
 40
0.0
 40
0.0
 40
0.0
 40
0.0
 40
0.2897733512
 40
0.5490657165
 40
0.7822241652
 40
1.0
 40
1.0
 40
1.0
 40
1.0
 10
106.6884336395
 20
214.1541910251
 30
0.0
 10
106.8639914511
 20
214.2555487698
 30
0.0
 10
107.1824589382
 20
214.4748031286
 30
0.0
 10
107.5629484225
 20
214.8748394493
 30
0.0
 10
107.8037118632
 20
215.3172239158
 30
0.0
 10
107.8599760541
 20
215.6348048626
 30
0.0
 10
107.8599760522
 20
215.7871540432
 30
0.0
  0
SPLINE
  5
30B
100
AcDbEntity
  8
0
100
AcDbSpline
 62
7
  6
CONTINUOUS
 70
0
 71
3
 72
15
 73
11
 74
0
 42
0.0000001
 43
0.0000001
 44
0.0000000001
 40
0.0
 40
0.0
 40
0.0
 40
0.0
 40
0.1141447985
 40
0.2373324971
 40
0.3669747555
 40
0.5000005214
 40
0.6330262147
 40
0.7626682613
 40
0.8858556261
 40
1.0
 40
1.0
 40
1.0
 40
1.0
 10
101.0315793901
 20
214.1541774277
 30
0.0
 10
101.2251913388
 20
214.0423980458
 30
0.0
 10
101.648613405
 20
213.8452532357
 30
0.0
 10
102.338086663
 20
213.6356518324
 30
0.0
 10
103.0845934067
 20
213.5067086453
 30
0.0
 10
103.8600112848
 20
213.4631536851
 30
0.0
 10
104.635428543
 20
213.5067123256
 30
0.0
 10
105.3819334554
 20
213.6356590572
 30
0.0
 10
106.071403745
 20
213.845263738
 30
0.0
 10
106.4948232172
 20
214.0424106629
 30
0.0
 10
106.6884336395
 20
214.1541910251
 30
0.0
  0
SPLINE
  5
30C
100
AcDbEntity
  8
0
100
AcDbSpline
 62
7
  6
CONTINUOUS
 70
0
 71
3
 72
11
 73
7
 74
0
 42
0.0000001
 43
0.0000001
 44
0.0000000001
 40
0.0
 40
0.0
 40
0.0
 40
0.0
 40
0.2177727366
 40
0.450931526
 40
0.7102279717
 40
1.0
 40
1.0
 40
1.0
 40
1.0
 10
107.8599652069
 20
212.9293955796
 30
0.0
 10
107.859968798
 20
212.777048944
 30
0.0
 10
107.8037047741
 20
212.4594703769
 30
0.0
 10
107.5629478016
 20
212.0170832207
 30
0.0
 10
107.1824574108
 20
211.6170457857
 30
0.0
 10
106.8639902148
 20
211.3977895961
 30
0.0
 10
106.6884336395
 20
211.2964325651
 30
0.0
  0
SPLINE
  5
30D
100
AcDbEntity
  8
0
100
AcDbSpline
 62
7
  6
CONTINUOUS
 70
0
 71
3
 72
9
 73
5
 74
0
 42
0.0000001
 43
0.0000001
 44
0.0000000001
 40
0.0
 40
0.0
 40
0.0
 40
0.0
 40
0.5247613351
 40
1.0
 40
1.0
 40
1.0
 40
1.0
 10
112.175091862
 20
208.5180828453
 30
0.0
 10
112.4899634504
 20
208.5422774253
 30
0.0
 10
113.0872029857
 20
208.6431276077
 30
0.0
 10
113.6532498591
 20
208.867269697
 30
0.0
 10
113.9009310507
 20
209.0102676461
 30
0.0
  0
SPLINE
  5
30E
100
AcDbEntity
  8
0
100
AcDbSpline
 62
7
  6
CONTINUOUS
 70
0
 71
3
 72
11
 73
7
 74
0
 42
0.0000001
 43
0.0000001
 44
0.0000000001
 40
0.0
 40
0.0
 40
0.0
 40
0.0
 40
0.2177796924
 40
0.4509239527
 40
0.7102593987
 40
1.0
 40
1.0
 40
1.0
 40
1.0
 10
114.7795839655
 20
208.9285860454
 30
0.0
 10
114.7796041729
 20
208.8143229444
 30
0.0
 10
114.7373487813
 20
208.5761511889
 30
0.0
 10
114.5568191391
 20
208.2443327633
 30
0.0
 10
114.271419148
 20
207.9443339175
 30
0.0
 10
114.032583599
 20
207.7798729591
 30
0.0
 10
113.9009310507
 20
207.7038637787
 30
0.0
  0
SPLINE
  5
30F
100
AcDbEntity
  8
0
100
AcDbSpline
 62
7
  6
CONTINUOUS
 70
0
 71
3
 72
11
 73
7
 74
0
 42
0.0000001
 43
0.0000001
 44
0.0000000001
 40
0.0
 40
0.0
 40
0.0
 40
0.0
 40
0.2177727701
 40
0.4509280213
 40
0.7102223029
 40
1.0
 40
1.0
 40
1.0
 40
1.0
 10
79.2829671947
 20
188.4347295179
 30
0.0
 10
79.2829671962
 20
188.3204696178
 30
0.0
 10
79.240770475
 20
188.0822882593
 30
0.0
 10
79.0602048673
 20
187.7505002789
 30
0.0
 10
78.774839305
 20
187.4504709241
 30
0.0
 10
78.5359883212
 20
187.286026452
 30
0.0
 10
78.4043184225
 20
187.2100072543
 30
0.0
  0
SPLINE
  5
310
100
AcDbEntity
  8
0
100
AcDbSpline
 62
7
  6
CONTINUOUS
 70
0
 71
3
 72
11
 73
7
 74
0
 42
0.0000001
 43
0.0000001
 44
0.0000000001
 40
0.0
 40
0.0
 40
0.0
 40
0.0
 40
0.2177727701
 40
0.4509280213
 40
0.7102223029
 40
1.0
 40
1.0
 40
1.0
 40
1.0
 10
108.7796239276
 20
211.3780932936
 30
0.0
 10
108.7796239261
 20
211.4923531937
 30
0.0
 10
108.8218206474
 20
211.7305345522
 30
0.0
 10
109.002386255
 20
212.0623225327
 30
0.0
 10
109.2877518174
 20
212.3623518874
 30
0.0
 10
109.5266028012
 20
212.5267963595
 30
0.0
 10
109.6582726998
 20
212.6028155572
 30
0.0
  0
SPLINE
  5
311
100
AcDbEntity
  8
0
100
AcDbSpline
 62
7
  6
CONTINUOUS
 70
0
 71
3
 72
9
 73
5
 74
0
 42
0.0000001
 43
0.0000001
 44
0.0000000001
 40
0.0
 40
0.0
 40
0.0
 40
0.0
 40
0.2744293402
 40
1.0
 40
1.0
 40
1.0
 40
1.0
 10
109.6582726998
 20
211.4597121732
 30
0.0
 10
109.5827099275
 20
211.4160862467
 30
0.0
 10
109.3153994802
 20
211.2449482093
 30
0.0
 10
109.0784677576
 20
211.0168326479
 30
0.0
 10
108.9565297943
 20
210.8210054913
 30
0.0
  0
SPLINE
  5
312
100
AcDbEntity
  8
0
100
AcDbSpline
 62
7
  6
CONTINUOUS
 70
0
 71
3
 72
9
 73
5
 74
0
 42
0.0000001
 43
0.0000001
 44
0.0000000001
 40
0.0
 40
0.0
 40
0.0
 40
0.0
 40
0.2532012083
 40
1.0
 40
1.0
 40
1.0
 40
1.0
 10
41.3364728184
 20
164.676261612
 30
0.0
 10
41.3959884717
 20
164.7653590718
 30
0.0
 10
41.6372126155
 20
165.1130683095
 30
0.0
 10
41.9032394935
 20
165.4436743434
 30
0.0
 10
42.1151518989
 20
165.6781166615
 30
0.0
  0
SPLINE
  5
313
100
AcDbEntity
  8
0
100
AcDbSpline
 62
7
  6
CONTINUOUS
 70
0
 71
3
 72
9
 73
5
 74
0
 42
0.0000001
 43
0.0000001
 44
0.0000000001
 40
0.0
 40
0.0
 40
0.0
 40
0.0
 40
0.4827606593
 40
1.0
 40
1.0
 40
1.0
 40
1.0
 10
65.0770385981
 20
118.0754471889
 30
0.0
 10
65.2519128058
 20
117.974451377
 30
0.0
 10
65.6536489555
 20
117.8284371249
 30
0.0
 10
66.0784597083
 20
117.8180829517
 30
0.0
 10
66.2937676057
 20
117.8394565807
 30
0.0
  0
SPLINE
  5
314
100
AcDbEntity
  8
0
100
AcDbSpline
 62
7
  6
CONTINUOUS
 70
0
 71
3
 72
9
 73
5
 74
0
 42
0.0000001
 43
0.0000001
 44
0.0000000001
 40
0.0
 40
0.0
 40
0.0
 40
0.0
 40
0.4818272763
 40
1.0
 40
1.0
 40
1.0
 40
1.0
 10
73.3501534322
 20
113.2988255598
 30
0.0
 10
73.5314521524
 20
113.1941907252
 30
0.0
 10
73.9502887671
 20
113.0451135224
 30
0.0
 10
74.3919645367
 20
113.0416474719
 30
0.0
 10
74.6155230512
 20
113.0680888442
 30
0.0
  0
SPLINE
  5
315
100
AcDbEntity
  8
0
100
AcDbSpline
 62
7
  6
CONTINUOUS
 70
0
 71
3
 72
11
 73
7
 74
0
 42
0.0000001
 43
0.0000001
 44
0.0000000001
 40
0.0
 40
0.0
 40
0.0
 40
0.0
 40
0.2453141499
 40
0.4999989983
 40
0.7546843623
 40
1.0
 40
1.0
 40
1.0
 40
1.0
 10
78.9221240842
 20
150.1764451936
 30
0.0
 10
79.1251274206
 20
150.3689986955
 30
0.0
 10
79.5074632618
 20
150.7954995662
 30
0.0
 10
79.9884474802
 20
151.512392269
 30
0.0
 10
80.3687995725
 20
152.2873865722
 30
0.0
 10
80.5469908387
 20
152.8317523652
 30
0.0
 10
80.6122451325
 20
153.1038369705
 30
0.0
  0
SPLINE
  5
316
100
AcDbEntity
  8
0
100
AcDbSpline
 62
7
  6
CONTINUOUS
 70
0
 71
3
 72
11
 73
7
 74
0
 42
0.0000001
 43
0.0000001
 44
0.0000000001
 40
0.0
 40
0.0
 40
0.0
 40
0.0
 40
0.2536823963
 40
0.5159684669
 40
0.7698313377
 40
1.0
 40
1.0
 40
1.0
 40
1.0
 10
81.6246652052
 20
157.3252283924
 30
0.0
 10
81.7496466755
 20
157.8463517096
 30
0.0
 10
82.1186067881
 20
158.8805786981
 30
0.0
 10
82.9345245643
 20
160.296810961
 30
0.0
 10
83.9578466566
 20
161.5071013971
 30
0.0
 10
84.7714313259
 20
162.1451616318
 30
0.0
 10
85.1925182038
 20
162.3882748029
 30
0.0
  0
SPLINE
  5
317
100
AcDbEntity
  8
0
100
AcDbSpline
 62
7
  6
CONTINUOUS
 70
0
 71
3
 72
11
 73
7
 74
0
 42
0.0000001
 43
0.0000001
 44
0.0000000001
 40
0.0
 40
0.0
 40
0.0
 40
0.0
 40
0.2897878736
 40
0.5490531256
 40
0.7822219697
 40
1.0
 40
1.0
 40
1.0
 40
1.0
 10
107.8198409946
 20
175.4520877268
 30
0.0
 10
108.0524666462
 20
175.5863934076
 30
0.0
 10
108.5150279508
 20
175.8065917273
 30
0.0
 10
109.2261384445
 20
175.9781025199
 30
0.0
 10
109.8932760705
 20
175.9613903088
 30
0.0
 10
110.2949435804
 20
175.8154613143
 30
0.0
 10
110.4697793402
 20
175.7145565247
 30
0.0
  0
SPLINE
  5
318
100
AcDbEntity
  8
0
100
AcDbSpline
 62
7
  6
CONTINUOUS
 70
0
 71
3
 72
9
 73
5
 74
0
 42
0.0000001
 43
0.0000001
 44
0.0000000001
 40
0.0
 40
0.0
 40
0.0
 40
0.0
 40
0.4911856761
 40
1.0
 40
1.0
 40
1.0
 40
1.0
 10
41.3303848049
 20
162.8654151508
 30
0.0
 10
41.3303848072
 20
157.6179776163
 30
0.0
 10
41.6085383004
 20
146.9334135657
 30
0.0
 10
42.3995916861
 20
136.2751324613
 30
0.0
 10
42.9260733402
 20
130.8649207415
 30
0.0
  0
SPLINE
  5
319
100
AcDbEntity
  8
0
100
AcDbSpline
 62
7
  6
CONTINUOUS
 70
0
 71
3
 72
8
 73
4
 74
0
 42
0.0000001
 43
0.0000001
 44
0.0000000001
 40
0.0
 40
0.0
 40
0.0
 40
0.0
 40
1.0
 40
1.0
 40
1.0
 40
1.0
 10
42.1151518989
 20
165.6781166615
 30
0.0
 10
42.2577606019
 20
165.8358871084
 30
0.0
 10
42.4218311831
 20
165.9751142257
 30
0.0
 10
42.594892114
 20
166.0987211442
 30
0.0
  0
SPLINE
  5
31A
100
AcDbEntity
  8
0
100
AcDbSpline
 62
7
  6
CONTINUOUS
 70
0
 71
3
 72
9
 73
5
 74
0
 42
0.0000001
 43
0.0000001
 44
0.0000000001
 40
0.0
 40
0.0
 40
0.0
 40
0.0
 40
0.4919174537
 40
1.0
 40
1.0
 40
1.0
 40
1.0
 10
43.2481739081
 20
130.6780232534
 30
0.0
 10
45.8358189083
 20
129.1840489582
 30
0.0
 10
51.2549548447
 20
126.4191777941
 30
0.0
 10
56.8608324384
 20
124.070879199
 30
0.0
 10
59.7366681933
 20
122.9511293585
 30
0.0
  0
SPLINE
  5
31B
100
AcDbEntity
  8
0
100
AcDbSpline
 62
7
  6
CONTINUOUS
 70
0
 71
3
 72
10
 73
6
 74
0
 42
0.0000001
 43
0.0000001
 44
0.0000000001
 40
0.0
 40
0.0
 40
0.0
 40
0.0
 40
0.2355377209
 40
0.4775238205
 40
1.0
 40
1.0
 40
1.0
 40
1.0
 10
110.4697793402
 20
175.7145565247
 30
0.0
 10
110.5748437533
 20
175.6539196018
 30
0.0
 10
110.7756234965
 20
175.5082806261
 30
0.0
 10
111.1253743388
 20
175.1266153045
 30
0.0
 10
111.3029804772
 20
174.7642222123
 30
0.0
 10
111.3876939931
 20
174.5088185028
 30
0.0
  0
SPLINE
  5
31C
100
AcDbEntity
  8
0
100
AcDbSpline
 62
7
  6
CONTINUOUS
 70
0
 71
3
 72
10
 73
6
 74
0
 42
0.0000001
 43
0.0000001
 44
0.0000000001
 40
0.0
 40
0.0
 40
0.0
 40
0.0
 40
0.5096141816
 40
0.7577375205
 40
1.0
 40
1.0
 40
1.0
 40
1.0
 10
59.7366681933
 20
149.0792067066
 30
0.0
 10
56.4818003351
 20
151.5701876682
 30
0.0
 10
51.7496911954
 20
155.4163427693
 30
0.0
 10
45.6899481698
 20
160.7048322461
 30
0.0
 10
42.7690240167
 20
163.3554462203
 30
0.0
 10
41.3358479185
 20
164.6754640676
 30
0.0
  0
SPLINE
  5
31D
100
AcDbEntity
  8
0
100
AcDbSpline
 62
7
  6
CONTINUOUS
 70
0
 71
3
 72
9
 73
5
 74
0
 42
0.0000001
 43
0.0000001
 44
0.0000000001
 40
0.0
 40
0.0
 40
0.0
 40
0.0
 40
0.5172504122
 40
1.0
 40
1.0
 40
1.0
 40
1.0
 10
72.5371893402
 20
114.23499131
 30
0.0
 10
72.6263362099
 20
114.0377443954
 30
0.0
 10
72.8477422411
 20
113.674843372
 30
0.0
 10
73.1751839906
 20
113.3998075114
 30
0.0
 10
73.3501534322
 20
113.2988255598
 30
0.0
  0
SPLINE
  5
31E
100
AcDbEntity
  8
0
100
AcDbSpline
 62
7
  6
CONTINUOUS
 70
0
 71
3
 72
11
 73
7
 74
0
 42
0.0000001
 43
0.0000001
 44
0.0000000001
 40
0.0
 40
0.0
 40
0.0
 40
0.0
 40
0.2897893463
 40
0.549055133
 40
0.7822233876
 40
1.0
 40
1.0
 40
1.0
 40
1.0
 10
63.9793265442
 20
120.5016848314
 30
0.0
 10
63.9793265442
 20
120.2330602604
 30
0.0
 10
64.0199105064
 20
119.7223490225
 30
0.0
 10
64.2269415126
 20
119.0207246146
 30
0.0
 10
64.5749991891
 20
118.4513023062
 30
0.0
 10
64.902226847
 20
118.1764069298
 30
0.0
 10
65.0770385981
 20
118.0754471889
 30
0.0
  0
SPLINE
  5
31F
100
AcDbEntity
  8
0
100
AcDbSpline
 62
7
  6
CONTINUOUS
 70
0
 71
3
 72
11
 73
7
 74
0
 42
0.0000001
 43
0.0000001
 44
0.0000000001
 40
0.0
 40
0.0
 40
0.0
 40
0.0
 40
0.2518429816
 40
0.5125646116
 40
0.7666884317
 40
1.0
 40
1.0
 40
1.0
 40
1.0
 10
66.5801080873
 20
152.251163519
 30
0.0
 10
66.2087726684
 20
151.8989430257
 30
0.0
 10
65.5257993747
 20
151.103014041
 30
0.0
 10
64.7261959131
 20
149.7573733871
 30
0.0
 10
64.1805320926
 20
148.3303675675
 30
0.0
 10
64.0071910473
 20
147.3455700842
 30
0.0
 10
63.9850641758
 20
146.8719374636
 30
0.0
  0
SPLINE
  5
320
100
AcDbEntity
  8
0
100
AcDbSpline
 62
7
  6
CONTINUOUS
 70
0
 71
3
 72
11
 73
7
 74
0
 42
0.0000001
 43
0.0000001
 44
0.0000000001
 40
0.0
 40
0.0
 40
0.0
 40
0.0
 40
0.2177825102
 40
0.4509091639
 40
0.7102957096
 40
1.0
 40
1.0
 40
1.0
 40
1.0
 10
30.5886673046
 20
140.5609479237
 30
0.0
 10
30.4897073806
 20
140.6180811814
 30
0.0
 10
30.3045571742
 20
140.7737351413
 30
0.0
 10
30.1074430972
 20
141.0960249768
 30
0.0
 10
29.9903689942
 20
141.4932070349
 30
0.0
 10
29.9673228577
 20
141.7822882837
 30
0.0
 10
29.9673228577
 20
141.934293403
 30
0.0
  0
SPLINE
  5
321
100
AcDbEntity
  8
0
100
AcDbSpline
 62
7
  6
CONTINUOUS
 70
0
 71
3
 72
11
 73
7
 74
0
 42
0.0000001
 43
0.0000001
 44
0.0000000001
 40
0.0
 40
0.0
 40
0.0
 40
0.0
 40
0.2372398078
 40
0.4999994051
 40
0.7627593222
 40
1.0
 40
1.0
 40
1.0
 40
1.0
 10
78.4043213665
 20
161.245239144
 30
0.0
 10
78.103154116
 20
161.0713611887
 30
0.0
 10
77.402793552
 20
160.8176321409
 30
0.0
 10
76.2830046157
 20
160.6960677005
 30
0.0
 10
75.1632138272
 20
160.8176269349
 30
0.0
 10
74.4628502882
 20
161.0713525248
 30
0.0
 10
74.1616806794
 20
161.2452289459
 30
0.0
  0
SPLINE
  5
322
100
AcDbEntity
  8
0
100
AcDbSpline
 62
7
  6
CONTINUOUS
 70
0
 71
3
 72
11
 73
7
 74
0
 42
0.0000001
 43
0.0000001
 44
0.0000000001
 40
0.0
 40
0.0
 40
0.0
 40
0.0
 40
0.2177821605
 40
0.4509085882
 40
0.7102951949
 40
1.0
 40
1.0
 40
1.0
 40
1.0
 10
115.4866936868
 20
183.3720620858
 30
0.0
 10
115.4866936548
 20
183.2577980752
 30
0.0
 10
115.444467981
 20
183.0196358894
 30
0.0
 10
115.2639181785
 20
182.6877991499
 30
0.0
 10
114.9784942629
 20
182.3878316706
 30
0.0
 10
114.739673669
 20
182.2233393546
 30
0.0
 10
114.6080378319
 20
182.1473398222
 30
0.0
  0
SPLINE
  5
323
100
AcDbEntity
  8
0
100
AcDbSpline
 62
7
  6
CONTINUOUS
 70
0
 71
3
 72
9
 73
5
 74
0
 42
0.0000001
 43
0.0000001
 44
0.0000000001
 40
0.0
 40
0.0
 40
0.0
 40
0.0
 40
0.2349022509
 40
1.0
 40
1.0
 40
1.0
 40
1.0
 10
74.1616806794
 20
184.3522473507
 30
0.0
 10
74.2351140141
 20
184.3098515543
 30
0.0
 10
74.5558832427
 20
184.1435770204
 30
0.0
 10
74.902617846
 20
184.0301253737
 30
0.0
 10
75.1717561662
 20
183.9681645531
 30
0.0
  0
SPLINE
  5
324
100
AcDbEntity
  8
0
100
AcDbSpline
 62
7
  6
CONTINUOUS
 70
0
 71
3
 72
9
 73
5
 74
0
 42
0.0000001
 43
0.0000001
 44
0.0000000001
 40
0.0
 40
0.0
 40
0.0
 40
0.0
 40
0.2465708886
 40
1.0
 40
1.0
 40
1.0
 40
1.0
 10
75.1717561662
 20
183.9681645531
 30
0.0
 10
75.2148199234
 20
183.9582504475
 30
0.0
 10
75.3900546155
 20
183.9206109522
 30
0.0
 10
75.5674437992
 20
183.8931038667
 30
0.0
 10
75.7016045457
 20
183.8778162535
 30
0.0
  0
SPLINE
  5
325
100
AcDbEntity
  8
0
100
AcDbSpline
 62
7
  6
CONTINUOUS
 70
0
 71
3
 72
9
 73
5
 74
0
 42
0.0000001
 43
0.0000001
 44
0.0000000001
 40
0.0
 40
0.0
 40
0.0
 40
0.0
 40
0.2532154778
 40
1.0
 40
1.0
 40
1.0
 40
1.0
 10
76.8643503819
 20
183.8778128969
 30
0.0
 10
76.9094356838
 20
183.8829500943
 30
0.0
 10
77.0872004924
 20
183.905653049
 30
0.0
 10
77.2637399207
 20
183.9381259274
 30
0.0
 10
77.3941551958
 20
183.9681477467
 30
0.0
  0
SPLINE
  5
326
100
AcDbEntity
  8
0
100
AcDbSpline
 62
7
  6
CONTINUOUS
 70
0
 71
3
 72
9
 73
5
 74
0
 42
0.0000001
 43
0.0000001
 44
0.0000000001
 40
0.0
 40
0.0
 40
0.0
 40
0.0
 40
0.2642673046
 40
1.0
 40
1.0
 40
1.0
 40
1.0
 10
77.3941551958
 20
183.9681477467
 30
0.0
 10
77.4871110483
 20
183.989546343
 30
0.0
 10
77.8360095573
 20
184.08163974
 30
0.0
 10
78.1743375135
 20
184.2194771019
 30
0.0
 10
78.4043213665
 20
184.3522575487
 30
0.0
  0
SPLINE
  5
327
100
AcDbEntity
  8
0
100
AcDbSpline
 62
7
  6
CONTINUOUS
 70
0
 71
3
 72
9
 73
5
 74
0
 42
0.0000001
 43
0.0000001
 44
0.0000000001
 40
0.0
 40
0.0
 40
0.0
 40
0.0
 40
0.2604112263
 40
1.0
 40
1.0
 40
1.0
 40
1.0
 10
115.273298262
 20
205.8375172442
 30
0.0
 10
115.2940399391
 20
205.8675481598
 30
0.0
 10
115.3693069405
 20
205.9857734864
 30
0.0
 10
115.4254805869
 20
206.1166230053
 30
0.0
 10
115.4520557483
 20
206.2168145031
 30
0.0
  0
SPLINE
  5
328
100
AcDbEntity
  8
0
100
AcDbSpline
 62
7
  6
CONTINUOUS
 70
0
 71
3
 72
9
 73
5
 74
0
 42
0.0000001
 43
0.0000001
 44
0.0000000001
 40
0.0
 40
0.0
 40
0.0
 40
0.0
 40
0.2527278947
 40
1.0
 40
1.0
 40
1.0
 40
1.0
 10
115.4520557483
 20
206.2168145031
 30
0.0
 10
115.4577783407
 20
206.2383893525
 30
0.0
 10
115.4777657938
 20
206.3244358202
 30
0.0
 10
115.486693699
 20
206.4130815254
 30
0.0
 10
115.4866936868
 20
206.4790804905
 30
0.0
  0
SPLINE
  5
329
100
AcDbEntity
  8
0
100
AcDbSpline
 62
7
  6
CONTINUOUS
 70
0
 71
3
 72
11
 73
7
 74
0
 42
0.0000001
 43
0.0000001
 44
0.0000000001
 40
0.0
 40
0.0
 40
0.0
 40
0.0
 40
0.289777178
 40
0.5490714024
 40
0.7822268829
 40
1.0
 40
1.0
 40
1.0
 40
1.0
 10
191.2586884671
 20
135.3627549744
 30
0.0
 10
191.2586884671
 20
135.7073890599
 30
0.0
 10
191.2065789178
 20
136.3626453271
 30
0.0
 10
190.9410233453
 20
137.2628802241
 30
0.0
 10
190.4943451136
 20
137.9933796818
 30
0.0
 10
190.0746007895
 20
138.3461601107
 30
0.0
 10
189.8502996939
 20
138.4756574908
 30
0.0
  0
SPLINE
  5
32A
100
AcDbEntity
  8
0
100
AcDbSpline
 62
7
  6
CONTINUOUS
 70
0
 71
3
 72
12
 73
8
 74
0
 42
0.0000001
 43
0.0000001
 44
0.0000000001
 40
0.0
 40
0.0
 40
0.0
 40
0.0
 40
0.2439584501
 40
0.5065909731
 40
0.7655398166
 40
0.8870120128
 40
1.0
 40
1.0
 40
1.0
 40
1.0
 10
187.0075749159
 20
84.6089375966
 30
0.0
 10
187.6246671841
 20
85.0483632465
 30
0.0
 10
188.7743994133
 20
86.1500265072
 30
0.0
 10
190.108703355
 20
88.1341715376
 30
0.0
 10
190.874247529
 20
89.9979165738
 30
0.0
 10
191.1993607442
 20
91.4984109955
 30
0.0
 10
191.2586884671
 20
92.2271684657
 30
0.0
 10
191.2586884671
 20
92.5780283168
 30
0.0
  0
SPLINE
  5
32B
100
AcDbEntity
  8
0
100
AcDbSpline
 62
7
  6
CONTINUOUS
 70
0
 71
3
 72
16
 73
12
 74
0
 42
0.0000001
 43
0.0000001
 44
0.0000000001
 40
0.0
 40
0.0
 40
0.0
 40
0.0
 40
0.1287350855
 40
0.2704098208
 40
0.4176147031
 40
0.5620215413
 40
0.6957477584
 40
0.8130620424
 40
0.912468719
 40
0.9571202732
 40
1.0
 40
1.0
 40
1.0
 40
1.0
 10
184.7533331647
 20
131.4436082754
 30
0.0
 10
184.7533331647
 20
131.6316373475
 30
0.0
 10
184.8059810209
 20
132.0270388937
 30
0.0
 10
185.002255112
 20
132.6075982861
 30
0.0
 10
185.3049189126
 20
133.1668480452
 30
0.0
 10
185.6891241917
 20
133.6589100027
 30
0.0
 10
186.1247402657
 20
134.0441862599
 30
0.0
 10
186.5779154314
 20
134.2927992165
 30
0.0
 10
186.9625953706
 20
134.3678561733
 30
0.0
 10
187.235143377
 20
134.328064106
 30
0.0
 10
187.3546625727
 20
134.2782548365
 30
0.0
 10
187.4089004805
 20
134.2469383192
 30
0.0
  0
SPLINE
  5
32C
100
AcDbEntity
  8
0
100
AcDbSpline
 62
7
  6
CONTINUOUS
 70
0
 71
3
 72
16
 73
12
 74
0
 42
0.0000001
 43
0.0000001
 44
0.0000000001
 40
0.0
 40
0.0
 40
0.0
 40
0.0
 40
0.1287350855
 40
0.2704098208
 40
0.4176147031
 40
0.5620215413
 40
0.6957477584
 40
0.8130620424
 40
0.912468719
 40
0.9571202732
 40
1.0
 40
1.0
 40
1.0
 40
1.0
 10
184.7533331647
 20
88.9854825846
 30
0.0
 10
184.7533331647
 20
89.1735116568
 30
0.0
 10
184.8059810209
 20
89.568913203
 30
0.0
 10
185.002255112
 20
90.1494725954
 30
0.0
 10
185.3049189126
 20
90.7087223544
 30
0.0
 10
185.6891241917
 20
91.200784312
 30
0.0
 10
186.1247402657
 20
91.5860605691
 30
0.0
 10
186.5779154314
 20
91.8346735257
 30
0.0
 10
186.9625953706
 20
91.9097304825
 30
0.0
 10
187.235143377
 20
91.8699384153
 30
0.0
 10
187.3546625727
 20
91.8201291458
 30
0.0
 10
187.4089004805
 20
91.7888126285
 30
0.0
  0
SPLINE
  5
32D
100
AcDbEntity
  8
0
100
AcDbSpline
 62
7
  6
CONTINUOUS
 70
0
 71
3
 72
16
 73
12
 74
0
 42
0.0000001
 43
0.0000001
 44
0.0000000001
 40
0.0
 40
0.0
 40
0.0
 40
0.0
 40
0.1287350855
 40
0.2704098208
 40
0.4176147031
 40
0.5620215413
 40
0.6957477584
 40
0.8130620424
 40
0.912468719
 40
0.9571202732
 40
1.0
 40
1.0
 40
1.0
 40
1.0
 10
147.9839336296
 20
110.2149122741
 30
0.0
 10
147.9839336296
 20
110.4029413462
 30
0.0
 10
148.0365814858
 20
110.7983428924
 30
0.0
 10
148.2328555769
 20
111.3789022848
 30
0.0
 10
148.5355193775
 20
111.9381520438
 30
0.0
 10
148.9197246566
 20
112.4302140014
 30
0.0
 10
149.3553407306
 20
112.8154902586
 30
0.0
 10
149.8085158963
 20
113.0641032152
 30
0.0
 10
150.1931958355
 20
113.139160172
 30
0.0
 10
150.4657438419
 20
113.0993681047
 30
0.0
 10
150.5852630376
 20
113.0495588352
 30
0.0
 10
150.6395009454
 20
113.0182423179
 30
0.0
  0
SPLINE
  5
32E
100
AcDbEntity
  8
0
100
AcDbSpline
 62
7
  6
CONTINUOUS
 70
0
 71
3
 72
16
 73
12
 74
0
 42
0.0000001
 43
0.0000001
 44
0.0000000001
 40
0.0
 40
0.0
 40
0.0
 40
0.0
 40
0.1287350855
 40
0.2704098208
 40
0.4176147031
 40
0.5620215413
 40
0.6957477584
 40
0.8130620424
 40
0.912468719
 40
0.9571202732
 40
1.0
 40
1.0
 40
1.0
 40
1.0
 10
147.9839336296
 20
67.7567865833
 30
0.0
 10
147.9839336296
 20
67.9448156555
 30
0.0
 10
148.0365814858
 20
68.3402172016
 30
0.0
 10
148.2328555769
 20
68.920776594
 30
0.0
 10
148.5355193775
 20
69.4800263531
 30
0.0
 10
148.9197246566
 20
69.9720883107
 30
0.0
 10
149.3553407306
 20
70.3573645678
 30
0.0
 10
149.8085158963
 20
70.6059775244
 30
0.0
 10
150.1931958355
 20
70.6810344812
 30
0.0
 10
150.4657438419
 20
70.641242414
 30
0.0
 10
150.5852630376
 20
70.5914331445
 30
0.0
 10
150.6395009454
 20
70.5601166271
 30
0.0
  0
SPLINE
  5
32F
100
AcDbEntity
  8
0
100
AcDbSpline
 62
7
  6
CONTINUOUS
 70
0
 71
3
 72
13
 73
9
 74
0
 42
0.0000001
 43
0.0000001
 44
0.0000000001
 40
0.0
 40
0.0
 40
0.0
 40
0.0
 40
0.1142494128
 40
0.2375488016
 40
0.500001607
 40
0.7624535328
 40
0.8857518943
 40
1.0
 40
1.0
 40
1.0
 40
1.0
 10
140.3471768601
 20
110.868085346
 30
0.0
 10
140.3471768601
 20
111.2481511906
 30
0.0
 10
140.4167878357
 20
112.0391877131
 30
0.0
 10
140.7948439614
 20
113.6630711302
 30
0.0
 10
141.672987966
 20
115.6548173613
 30
0.0
 10
142.9588078351
 20
117.4111897576
 30
0.0
 10
144.1760934507
 20
118.5505335343
 30
0.0
 10
144.8263395512
 20
119.0063321315
 30
0.0
 10
145.1554829531
 20
119.1963620288
 30
0.0
  0
SPLINE
  5
330
100
AcDbEntity
  8
0
100
AcDbSpline
 62
7
  6
CONTINUOUS
 70
0
 71
3
 72
11
 73
7
 74
0
 42
0.0000001
 43
0.0000001
 44
0.0000000001
 40
0.0
 40
0.0
 40
0.0
 40
0.0
 40
0.2177808404
 40
0.4509249954
 40
0.7102608114
 40
1.0
 40
1.0
 40
1.0
 40
1.0
 10
183.1020621283
 20
75.3476583305
 30
0.0
 10
183.2669714345
 20
75.2524116146
 30
0.0
 10
183.6459557967
 20
75.1149288552
 30
0.0
 10
184.2753349503
 20
75.098979792
 30
0.0
 10
184.9461770793
 20
75.2609181842
 30
0.0
 10
185.3825856992
 20
75.468591179
 30
0.0
 10
185.6020049677
 20
75.5952721965
 30
0.0
  0
SPLINE
  5
331
100
AcDbEntity
  8
0
100
AcDbSpline
 62
7
  6
CONTINUOUS
 70
0
 71
3
 72
11
 73
7
 74
0
 42
0.0000001
 43
0.0000001
 44
0.0000000001
 40
0.0
 40
0.0
 40
0.0
 40
0.0
 40
0.2177743796
 40
0.4509338355
 40
0.710229898
 40
1.0
 40
1.0
 40
1.0
 40
1.0
 10
166.7527981575
 20
81.3226488802
 30
0.0
 10
167.0166696036
 20
81.170297985
 30
0.0
 10
167.6229972967
 20
80.9501727256
 30
0.0
 10
168.629991167
 20
80.9247868695
 30
0.0
 10
169.7033634512
 20
81.1837693239
 30
0.0
 10
170.401590784
 20
81.5161085727
 30
0.0
 10
170.7527007396
 20
81.7188207901
 30
0.0
  0
SPLINE
  5
332
100
AcDbEntity
  8
0
100
AcDbSpline
 62
7
  6
CONTINUOUS
 70
0
 71
3
 72
11
 73
7
 74
0
 42
0.0000001
 43
0.0000001
 44
0.0000000001
 40
0.0
 40
0.0
 40
0.0
 40
0.0
 40
0.2177323041
 40
0.4508846271
 40
0.7104693585
 40
1.0
 40
1.0
 40
1.0
 40
1.0
 10
148.4396231975
 20
109.2078565073
 30
0.0
 10
148.3670722849
 20
109.2497468015
 30
0.0
 10
148.2312141367
 20
109.3637672367
 30
0.0
 10
148.0866485745
 20
109.600215789
 30
0.0
 10
148.0009428622
 20
109.8915266555
 30
0.0
 10
147.9839336296
 20
110.1035106038
 30
0.0
 10
147.9839336296
 20
110.2149122741
 30
0.0
  0
SPLINE
  5
333
100
AcDbEntity
  8
0
100
AcDbSpline
 62
7
  6
CONTINUOUS
 70
0
 71
3
 72
11
 73
7
 74
0
 42
0.0000001
 43
0.0000001
 44
0.0000000001
 40
0.0
 40
0.0
 40
0.0
 40
0.0
 40
0.2897789673
 40
0.5490582766
 40
0.7822197475
 40
1.0
 40
1.0
 40
1.0
 40
1.0
 10
129.4573985841
 20
162.7149699133
 30
0.0
 10
129.6856272457
 20
162.846737006
 30
0.0
 10
130.1394669585
 20
163.0627687514
 30
0.0
 10
130.8371542789
 20
163.231068182
 30
0.0
 10
131.4917045141
 20
163.2146352988
 30
0.0
 10
131.8857994949
 20
163.0714872
 30
0.0
 10
132.0573295571
 20
162.9724716702
 30
0.0
  0
SPLINE
  5
334
100
AcDbEntity
  8
0
100
AcDbSpline
 62
7
  6
CONTINUOUS
 70
0
 71
3
 72
11
 73
7
 74
0
 42
0.0000001
 43
0.0000001
 44
0.0000000001
 40
0.0
 40
0.0
 40
0.0
 40
0.0
 40
0.2522783684
 40
0.5129588436
 40
0.7668451895
 40
1.0
 40
1.0
 40
1.0
 40
1.0
 10
103.3403175
 20
144.7278476883
 30
0.0
 10
103.4598525764
 20
145.2125357676
 30
0.0
 10
103.8032771174
 20
146.1749194784
 30
0.0
 10
104.5532354008
 20
147.5020128434
 30
0.0
 10
105.4927881502
 20
148.6541113336
 30
0.0
 10
106.2387595744
 20
149.2783862069
 30
0.0
 10
106.6271114695
 20
149.5274722823
 30
0.0
  0
SPLINE
  5
335
100
AcDbEntity
  8
0
100
AcDbSpline
 62
7
  6
CONTINUOUS
 70
0
 71
3
 72
11
 73
7
 74
0
 42
0.0000001
 43
0.0000001
 44
0.0000000001
 40
0.0
 40
0.0
 40
0.0
 40
0.0
 40
0.2448890258
 40
0.499998908
 40
0.7551093523
 40
1.0
 40
1.0
 40
1.0
 40
1.0
 10
100.5614961659
 20
137.1847008495
 30
0.0
 10
100.7941418181
 20
137.3985677706
 30
0.0
 10
101.2319841291
 20
137.8767817624
 30
0.0
 10
101.779161041
 20
138.6868451545
 30
0.0
 10
102.2071051219
 20
139.5657497064
 30
0.0
 10
102.4023283229
 20
140.1840424941
 30
0.0
 10
102.4712196875
 20
140.4924551432
 30
0.0
  0
SPLINE
  5
336
100
AcDbEntity
  8
0
100
AcDbSpline
 62
7
  6
CONTINUOUS
 70
0
 71
3
 72
11
 73
7
 74
0
 42
0.0000001
 43
0.0000001
 44
0.0000000001
 40
0.0
 40
0.0
 40
0.0
 40
0.0
 40
0.2331564443
 40
0.4870434336
 40
0.7477233458
 40
1.0
 40
1.0
 40
1.0
 40
1.0
 10
94.8149426943
 20
129.0680755519
 30
0.0
 10
94.8364818243
 20
129.5289454463
 30
0.0
 10
95.0041322811
 20
130.4871198542
 30
0.0
 10
95.5320972211
 20
131.8768547236
 30
0.0
 10
96.3064067065
 20
133.1898891448
 30
0.0
 10
96.968137807
 20
133.9684971629
 30
0.0
 10
97.328119623
 20
134.3143612669
 30
0.0
  0
SPLINE
  5
337
100
AcDbEntity
  8
0
100
AcDbSpline
 62
7
  6
CONTINUOUS
 70
0
 71
3
 72
11
 73
7
 74
0
 42
0.0000001
 43
0.0000001
 44
0.0000000001
 40
0.0
 40
0.0
 40
0.0
 40
0.0
 40
0.2177750514
 40
0.4509118894
 40
0.7102736943
 40
1.0
 40
1.0
 40
1.0
 40
1.0
 10
65.3128795278
 20
118.483945491
 30
0.0
 10
65.1545548096
 20
118.5753654808
 30
0.0
 10
64.8583510672
 20
118.8244491773
 30
0.0
 10
64.5429185736
 20
119.3400533033
 30
0.0
 10
64.355596099
 20
119.9755581135
 30
0.0
 10
64.3187363861
 20
120.438085323
 30
0.0
 10
64.3187363861
 20
120.6813119769
 30
0.0
  0
SPLINE
  5
338
100
AcDbEntity
  8
0
100
AcDbSpline
 62
7
  6
CONTINUOUS
 70
0
 71
3
 72
11
 73
7
 74
0
 42
0.0000001
 43
0.0000001
 44
0.0000000001
 40
0.0
 40
0.0
 40
0.0
 40
0.0
 40
0.2177323041
 40
0.4508846271
 40
0.7104693585
 40
1.0
 40
1.0
 40
1.0
 40
1.0
 10
148.4396231975
 20
66.7497308166
 30
0.0
 10
148.3670722849
 20
66.7916211107
 30
0.0
 10
148.2312141367
 20
66.9056415459
 30
0.0
 10
148.0866485745
 20
67.1420900983
 30
0.0
 10
148.0009428622
 20
67.4334009647
 30
0.0
 10
147.9839336296
 20
67.6453849131
 30
0.0
 10
147.9839336296
 20
67.7567865833
 30
0.0
  0
SPLINE
  5
339
100
AcDbEntity
  8
0
100
AcDbSpline
 62
7
  6
CONTINUOUS
 70
0
 71
3
 72
11
 73
7
 74
0
 42
0.0000001
 43
0.0000001
 44
0.0000000001
 40
0.0
 40
0.0
 40
0.0
 40
0.0
 40
0.2177323041
 40
0.4508846271
 40
0.7104693585
 40
1.0
 40
1.0
 40
1.0
 40
1.0
 10
185.2090227326
 20
130.4365525086
 30
0.0
 10
185.13647182
 20
130.4784428028
 30
0.0
 10
185.0006136718
 20
130.592463238
 30
0.0
 10
184.8560481096
 20
130.8289117904
 30
0.0
 10
184.7703423973
 20
131.1202226568
 30
0.0
 10
184.7533331647
 20
131.3322066052
 30
0.0
 10
184.7533331647
 20
131.4436082754
 30
0.0
  0
SPLINE
  5
33A
100
AcDbEntity
  8
0
100
AcDbSpline
 62
7
  6
CONTINUOUS
 70
0
 71
3
 72
11
 73
7
 74
0
 42
0.0000001
 43
0.0000001
 44
0.0000000001
 40
0.0
 40
0.0
 40
0.0
 40
0.0
 40
0.2177731171
 40
0.4509285976
 40
0.710222822
 40
1.0
 40
1.0
 40
1.0
 40
1.0
 10
141.7555656333
 20
64.9704561721
 30
0.0
 10
141.5312645377
 20
65.0999535522
 30
0.0
 10
141.1115202136
 20
65.452733981
 30
0.0
 10
140.6648419819
 20
66.1832334388
 30
0.0
 10
140.3992864094
 20
67.0834683357
 30
0.0
 10
140.3471768601
 20
67.738724603
 30
0.0
 10
140.3471768601
 20
68.0833586884
 30
0.0
  0
SPLINE
  5
33B
100
AcDbEntity
  8
0
100
AcDbSpline
 62
7
  6
CONTINUOUS
 70
0
 71
3
 72
11
 73
7
 74
0
 42
0.0000001
 43
0.0000001
 44
0.0000000001
 40
0.0
 40
0.0
 40
0.0
 40
0.0
 40
0.2177745347
 40
0.4509306045
 40
0.7102242968
 40
1.0
 40
1.0
 40
1.0
 40
1.0
 10
145.9982239842
 20
62.521011645
 30
0.0
 10
146.2225176543
 20
62.3915185519
 30
0.0
 10
146.7378903468
 20
62.2044133772
 30
0.0
 10
147.5938279657
 20
62.1828327956
 30
0.0
 10
148.5061941034
 20
62.4029630114
 30
0.0
 10
149.0996923281
 20
62.6854494031
 30
0.0
 10
149.398141304
 20
62.8577579712
 30
0.0
  0
SPLINE
  5
33C
100
AcDbEntity
  8
0
100
AcDbSpline
 62
7
  6
CONTINUOUS
 70
0
 71
3
 72
11
 73
7
 74
0
 42
0.0000001
 43
0.0000001
 44
0.0000000001
 40
0.0
 40
0.0
 40
0.0
 40
0.0
 40
0.2177788117
 40
0.4509396746
 40
0.7102195427
 40
1.0
 40
1.0
 40
1.0
 40
1.0
 10
95.8863196163
 20
100.3219431553
 30
0.0
 10
95.7147970236
 20
100.4209846939
 30
0.0
 10
95.393764297
 20
100.6907123986
 30
0.0
 10
95.0522424785
 20
101.2493729396
 30
0.0
 10
94.8491421021
 20
101.9377663309
 30
0.0
 10
94.8093105606
 20
102.4388407743
 30
0.0
 10
94.8093105606
 20
102.7023879343
 30
0.0
  0
SPLINE
  5
33D
100
AcDbEntity
  8
0
100
AcDbSpline
 62
7
  6
CONTINUOUS
 70
0
 71
3
 72
11
 73
7
 74
0
 42
0.0000001
 43
0.0000001
 44
0.0000000001
 40
0.0
 40
0.0
 40
0.0
 40
0.0
 40
0.2177323041
 40
0.4508846271
 40
0.7104693585
 40
1.0
 40
1.0
 40
1.0
 40
1.0
 10
185.2090227326
 20
87.9784268179
 30
0.0
 10
185.13647182
 20
88.0203171121
 30
0.0
 10
185.0006136718
 20
88.1343375473
 30
0.0
 10
184.8560481096
 20
88.3707860996
 30
0.0
 10
184.7703423973
 20
88.6620969661
 30
0.0
 10
184.7533331647
 20
88.8740809144
 30
0.0
 10
184.7533331647
 20
88.9854825846
 30
0.0
  0
SPLINE
  5
33E
100
AcDbEntity
  8
0
100
AcDbSpline
 62
7
  6
CONTINUOUS
 70
0
 71
3
 72
17
 73
13
 74
0
 42
0.0000001
 43
0.0000001
 44
0.0000000001
 40
0.0
 40
0.0
 40
0.0
 40
0.0
 40
0.1286933939
 40
0.2702777728
 40
0.4174335319
 40
0.5617774387
 40
0.6954483946
 40
0.8127114533
 40
0.8646776739
 40
0.9125101708
 40
0.9571399481
 40
1.0
 40
1.0
 40
1.0
 40
1.0
 10
185.6020049677
 20
75.5952721965
 30
0.0
 10
185.9721399184
 20
75.8089684344
 30
0.0
 10
186.6905970711
 20
76.3618205632
 30
0.0
 10
187.6100957213
 20
77.4080439248
 30
0.0
 10
188.3670309973
 20
78.6390673758
 30
0.0
 10
188.8987259477
 20
79.9549790343
 30
0.0
 10
189.1626632013
 20
81.2487709475
 30
0.0
 10
189.138887801
 20
82.2681985189
 30
0.0
 10
188.9502989615
 20
82.9674500259
 30
0.0
 10
188.7400344394
 20
83.4022717768
 30
0.0
 10
188.4589166268
 20
83.7579122795
 30
0.0
 10
188.2252056338
 20
83.9367201751
 30
0.0
 10
188.1019478071
 20
84.0079102339
 30
0.0
  0
SPLINE
  5
33F
100
AcDbEntity
  8
0
100
AcDbSpline
 62
7
  6
CONTINUOUS
 70
0
 71
3
 72
9
 73
5
 74
0
 42
0.0000001
 43
0.0000001
 44
0.0000000001
 40
0.0
 40
0.0
 40
0.0
 40
0.0
 40
0.245483413
 40
1.0
 40
1.0
 40
1.0
 40
1.0
 10
170.7527007396
 20
81.7188207901
 30
0.0
 10
170.7983427928
 20
81.7451720845
 30
0.0
 10
170.9831319175
 20
81.8544804712
 30
0.0
 10
171.1633916821
 20
81.971409002
 30
0.0
 10
171.2967799865
 20
82.0633187025
 30
0.0
  0
SPLINE
  5
340
100
AcDbEntity
  8
0
100
AcDbSpline
 62
7
  6
CONTINUOUS
 70
0
 71
3
 72
12
 73
8
 74
0
 42
0.0000001
 43
0.0000001
 44
0.0000000001
 40
0.0
 40
0.0
 40
0.0
 40
0.0
 40
0.2945314753
 40
0.5555702188
 40
0.7865409527
 40
0.8945096384
 40
1.0
 40
1.0
 40
1.0
 40
1.0
 10
176.3850324791
 20
90.8960436393
 30
0.0
 10
176.4214561699
 20
91.3678020062
 30
0.0
 10
176.41775291
 20
92.2666372093
 30
0.0
 10
176.1438921514
 20
93.5117187456
 30
0.0
 10
175.6768916049
 20
94.3755529515
 30
0.0
 10
175.1805828911
 20
94.8937752413
 30
0.0
 10
174.8993670045
 20
95.0942947389
 30
0.0
 10
174.7526033217
 20
95.179031374
 30
0.0
  0
SPLINE
  5
341
100
AcDbEntity
  8
0
100
AcDbSpline
 62
7
  6
CONTINUOUS
 70
0
 71
3
 72
11
 73
7
 74
0
 42
0.0000001
 43
0.0000001
 44
0.0000000001
 40
0.0
 40
0.0
 40
0.0
 40
0.0
 40
0.2897757032
 40
0.5490693955
 40
0.7822254653
 40
1.0
 40
1.0
 40
1.0
 40
1.0
 10
182.2077240232
 20
140.5883556917
 30
0.0
 10
182.506172999
 20
140.7606642597
 30
0.0
 10
183.0996712238
 20
141.0431506515
 30
0.0
 10
184.0120373615
 20
141.2632808672
 30
0.0
 10
184.8679749803
 20
141.2417002857
 30
0.0
 10
185.3833476729
 20
141.0545951109
 30
0.0
 10
185.607641343
 20
140.9251020179
 30
0.0
  0
SPLINE
  5
342
100
AcDbEntity
  8
0
100
AcDbSpline
 62
7
  6
CONTINUOUS
 70
0
 71
3
 72
11
 73
7
 74
0
 42
0.0000001
 43
0.0000001
 44
0.0000000001
 40
0.0
 40
0.0
 40
0.0
 40
0.0
 40
0.2302618135
 40
0.484248122
 40
0.7465435933
 40
1.0
 40
1.0
 40
1.0
 40
1.0
 10
64.3187363861
 20
146.8420494217
 30
0.0
 10
64.3187363861
 20
147.284417328
 30
0.0
 10
64.4519126145
 20
148.2157455427
 30
0.0
 10
64.9418110309
 20
149.5718203698
 30
0.0
 10
65.6884126003
 20
150.8569753881
 30
0.0
 10
66.3371010637
 20
151.615791
 30
0.0
 10
66.6915952999
 20
151.9496067412
 30
0.0
  0
SPLINE
  5
343
100
AcDbEntity
  8
0
100
AcDbSpline
 62
7
  6
CONTINUOUS
 70
0
 71
3
 72
11
 73
7
 74
0
 42
0.0000001
 43
0.0000001
 44
0.0000000001
 40
0.0
 40
0.0
 40
0.0
 40
0.0
 40
0.2177323041
 40
0.4508846271
 40
0.7104693585
 40
1.0
 40
1.0
 40
1.0
 40
1.0
 10
187.4089004805
 20
91.7888126285
 30
0.0
 10
187.4814513932
 20
91.7469223343
 30
0.0
 10
187.6173095414
 20
91.6329018991
 30
0.0
 10
187.7618751036
 20
91.3964533467
 30
0.0
 10
187.8475808159
 20
91.1051424803
 30
0.0
 10
187.8645900485
 20
90.8931585319
 30
0.0
 10
187.8645900485
 20
90.7817568617
 30
0.0
  0
SPLINE
  5
344
100
AcDbEntity
  8
0
100
AcDbSpline
 62
7
  6
CONTINUOUS
 70
0
 71
3
 72
17
 73
13
 74
0
 42
0.0000001
 43
0.0000001
 44
0.0000000001
 40
0.0
 40
0.0
 40
0.0
 40
0.0
 40
0.1286933939
 40
0.2702777728
 40
0.4174335319
 40
0.5617774387
 40
0.6954483946
 40
0.8127114533
 40
0.8646776739
 40
0.9125101708
 40
0.9571399481
 40
1.0
 40
1.0
 40
1.0
 40
1.0
 10
185.6020049677
 20
83.7602963678
 30
0.0
 10
185.231870017
 20
83.54660013
 30
0.0
 10
184.5134128643
 20
82.9937480012
 30
0.0
 10
183.5939142141
 20
81.9475246396
 30
0.0
 10
182.8369789381
 20
80.7165011886
 30
0.0
 10
182.3052839878
 20
79.40058953
 30
0.0
 10
182.0413467341
 20
78.1067976168
 30
0.0
 10
182.0651221345
 20
77.0873700455
 30
0.0
 10
182.2537109739
 20
76.3881185385
 30
0.0
 10
182.463975496
 20
75.9532967876
 30
0.0
 10
182.7450933086
 20
75.5976562849
 30
0.0
 10
182.9788043016
 20
75.4188483893
 30
0.0
 10
183.1020621283
 20
75.3476583305
 30
0.0
  0
SPLINE
  5
345
100
AcDbEntity
  8
0
100
AcDbSpline
 62
7
  6
CONTINUOUS
 70
0
 71
3
 72
11
 73
7
 74
0
 42
0.0000001
 43
0.0000001
 44
0.0000000001
 40
0.0
 40
0.0
 40
0.0
 40
0.0
 40
0.2897466868
 40
0.5490798097
 40
0.78222196
 40
1.0
 40
1.0
 40
1.0
 40
1.0
 10
170.7527007396
 20
92.3333522128
 30
0.0
 10
170.9721258542
 20
92.4600366055
 30
0.0
 10
171.4085388147
 20
92.6677121105
 30
0.0
 10
172.079384294
 20
92.8296470095
 30
0.0
 10
172.7087582188
 20
92.8136989195
 30
0.0
 10
173.0877360879
 20
92.6762113474
 30
0.0
 10
173.2526440381
 20
92.5809668889
 30
0.0
  0
SPLINE
  5
346
100
AcDbEntity
  8
0
100
AcDbSpline
 62
7
  6
CONTINUOUS
 70
0
 71
3
 72
17
 73
13
 74
0
 42
0.0000001
 43
0.0000001
 44
0.0000000001
 40
0.0
 40
0.0
 40
0.0
 40
0.0
 40
0.1286895443
 40
0.2702735659
 40
0.417427863
 40
0.5617749798
 40
0.6954466718
 40
0.8127129962
 40
0.8646764954
 40
0.9125109079
 40
0.9571409944
 40
1.0
 40
1.0
 40
1.0
 40
1.0
 10
170.7527007396
 20
94.7828594641
 30
0.0
 10
170.1605018786
 20
94.4409553332
 30
0.0
 10
169.0109969108
 20
93.5563958301
 30
0.0
 10
167.5397718811
 20
91.882500427
 30
0.0
 10
166.32865778
 20
89.9128625801
 30
0.0
 10
165.4779505557
 20
87.8073680386
 30
0.0
 10
165.055736261
 20
85.7372804961
 30
0.0
 10
165.0935457907
 20
84.1061376964
 30
0.0
 10
165.3955262632
 20
82.9874004803
 30
0.0
 10
165.7317629155
 20
82.2915941598
 30
0.0
 10
166.1816660727
 20
81.7226436956
 30
0.0
 10
166.5555729432
 20
81.4365203824
 30
0.0
 10
166.7527981575
 20
81.3226488802
 30
0.0
  0
SPLINE
  5
347
100
AcDbEntity
  8
0
100
AcDbSpline
 62
7
  6
CONTINUOUS
 70
0
 71
3
 72
11
 73
7
 74
0
 42
0.0000001
 43
0.0000001
 44
0.0000000001
 40
0.0
 40
0.0
 40
0.0
 40
0.0
 40
0.2177764723
 40
0.4509139006
 40
0.7102751756
 40
1.0
 40
1.0
 40
1.0
 40
1.0
 10
119.1435208037
 20
169.9172740816
 30
0.0
 10
118.9851898492
 20
170.0086711706
 30
0.0
 10
118.6213866977
 20
170.1406395921
 30
0.0
 10
118.0171671557
 20
170.1560069171
 30
0.0
 10
117.3731693984
 20
170.0004871548
 30
0.0
 10
116.9541969627
 20
169.8011545608
 30
0.0
 10
116.7435656082
 20
169.6795472175
 30
0.0
  0
SPLINE
  5
348
100
AcDbEntity
  8
0
100
AcDbSpline
 62
7
  6
CONTINUOUS
 70
0
 71
3
 72
11
 73
7
 74
0
 42
0.0000001
 43
0.0000001
 44
0.0000000001
 40
0.0
 40
0.0
 40
0.0
 40
0.0
 40
0.2177743476
 40
0.4509121667
 40
0.7102711418
 40
1.0
 40
1.0
 40
1.0
 40
1.0
 10
83.4290302334
 20
108.0574765431
 30
0.0
 10
83.2707046738
 20
108.1488939619
 30
0.0
 10
82.9745032771
 20
108.3979820612
 30
0.0
 10
82.659071053
 20
108.9135825432
 30
0.0
 10
82.4717441067
 20
109.549087301
 30
0.0
 10
82.4348874266
 20
110.0116147507
 30
0.0
 10
82.4348874266
 20
110.2548435926
 30
0.0
  0
SPLINE
  5
349
100
AcDbEntity
  8
0
100
AcDbSpline
 62
7
  6
CONTINUOUS
 70
0
 71
3
 72
11
 73
7
 74
0
 42
0.0000001
 43
0.0000001
 44
0.0000000001
 40
0.0
 40
0.0
 40
0.0
 40
0.0
 40
0.289777178
 40
0.5490714024
 40
0.7822268829
 40
1.0
 40
1.0
 40
1.0
 40
1.0
 10
144.589835211
 20
65.6339141613
 30
0.0
 10
144.589835211
 20
65.2892800759
 30
0.0
 10
144.6419447603
 20
64.6340238086
 30
0.0
 10
144.9075003328
 20
63.7337889117
 30
0.0
 10
145.3541785644
 20
63.0032894539
 30
0.0
 10
145.7739228885
 20
62.6505090251
 30
0.0
 10
145.9982239842
 20
62.521011645
 30
0.0
  0
SPLINE
  5
34A
100
AcDbEntity
  8
0
100
AcDbSpline
 62
7
  6
CONTINUOUS
 70
0
 71
3
 72
11
 73
7
 74
0
 42
0.0000001
 43
0.0000001
 44
0.0000000001
 40
0.0
 40
0.0
 40
0.0
 40
0.0
 40
0.2177323041
 40
0.4508846271
 40
0.7104693585
 40
1.0
 40
1.0
 40
1.0
 40
1.0
 10
150.6395009454
 20
70.5601166271
 30
0.0
 10
150.7120518581
 20
70.518226333
 30
0.0
 10
150.8479100063
 20
70.4042058977
 30
0.0
 10
150.9924755685
 20
70.1677573454
 30
0.0
 10
151.0781812807
 20
69.876446479
 30
0.0
 10
151.0951905133
 20
69.6644625306
 30
0.0
 10
151.0951905133
 20
69.5530608604
 30
0.0
  0
SPLINE
  5
34B
100
AcDbEntity
  8
0
100
AcDbSpline
 62
7
  6
CONTINUOUS
 70
0
 71
3
 72
16
 73
12
 74
0
 42
0.0000001
 43
0.0000001
 44
0.0000000001
 40
0.0
 40
0.0
 40
0.0
 40
0.0
 40
0.1287350855
 40
0.2704098208
 40
0.4176147031
 40
0.5620215413
 40
0.6957477584
 40
0.8130620424
 40
0.912468719
 40
0.9571202732
 40
1.0
 40
1.0
 40
1.0
 40
1.0
 10
187.8645900485
 20
133.2398825524
 30
0.0
 10
187.8645900485
 20
133.0518534803
 30
0.0
 10
187.8119421923
 20
132.6564519341
 30
0.0
 10
187.6156681011
 20
132.0758925417
 30
0.0
 10
187.3130043006
 20
131.5166427826
 30
0.0
 10
186.9287990215
 20
131.0245808251
 30
0.0
 10
186.4931829475
 20
130.6393045679
 30
0.0
 10
186.0400077818
 20
130.3906916113
 30
0.0
 10
185.6553278426
 20
130.3156346545
 30
0.0
 10
185.3827798362
 20
130.3554267218
 30
0.0
 10
185.2632606405
 20
130.4052359913
 30
0.0
 10
185.2090227326
 20
130.4365525086
 30
0.0
  0
SPLINE
  5
34C
100
AcDbEntity
  8
0
100
AcDbSpline
 62
7
  6
CONTINUOUS
 70
0
 71
3
 72
11
 73
7
 74
0
 42
0.0000001
 43
0.0000001
 44
0.0000000001
 40
0.0
 40
0.0
 40
0.0
 40
0.0
 40
0.289772897
 40
0.549065992
 40
0.7822255
 40
1.0
 40
1.0
 40
1.0
 40
1.0
 10
167.3585740589
 20
96.7424150858
 30
0.0
 10
167.7096876778
 20
96.9451294182
 30
0.0
 10
168.4079149103
 20
97.2774714357
 30
0.0
 10
169.4812877011
 20
97.53644819
 30
0.0
 10
170.4882805553
 20
97.5110731303
 30
0.0
 10
171.0946044056
 20
97.2909373246
 30
0.0
 10
171.3584784765
 20
97.1385901586
 30
0.0
  0
SPLINE
  5
34D
100
AcDbEntity
  8
0
100
AcDbSpline
 62
7
  6
CONTINUOUS
 70
0
 71
3
 72
11
 73
7
 74
0
 42
0.0000001
 43
0.0000001
 44
0.0000000001
 40
0.0
 40
0.0
 40
0.0
 40
0.0
 40
0.2177323041
 40
0.4508846271
 40
0.7104693585
 40
1.0
 40
1.0
 40
1.0
 40
1.0
 10
187.4089004805
 20
134.2469383192
 30
0.0
 10
187.4814513932
 20
134.205048025
 30
0.0
 10
187.6173095414
 20
134.0910275898
 30
0.0
 10
187.7618751036
 20
133.8545790374
 30
0.0
 10
187.8475808159
 20
133.563268171
 30
0.0
 10
187.8645900485
 20
133.3512842227
 30
0.0
 10
187.8645900485
 20
133.2398825524
 30
0.0
  0
SPLINE
  5
34E
100
AcDbEntity
  8
0
100
AcDbSpline
 62
7
  6
CONTINUOUS
 70
0
 71
3
 72
13
 73
9
 74
0
 42
0.0000001
 43
0.0000001
 44
0.0000000001
 40
0.0
 40
0.0
 40
0.0
 40
0.0
 40
0.1142481057
 40
0.2375464672
 40
0.499998393
 40
0.7624511984
 40
0.8857505872
 40
1.0
 40
1.0
 40
1.0
 40
1.0
 10
149.398141304
 20
116.7469175017
 30
0.0
 10
149.0689979021
 20
116.5568876043
 30
0.0
 10
148.4187518016
 20
116.1010890072
 30
0.0
 10
147.201466186
 20
114.9617452305
 30
0.0
 10
145.9156463169
 20
113.2053728342
 30
0.0
 10
145.0375023123
 20
111.2136266031
 30
0.0
 10
144.6594461866
 20
109.589743186
 30
0.0
 10
144.589835211
 20
108.7987066635
 30
0.0
 10
144.589835211
 20
108.4186408189
 30
0.0
  0
SPLINE
  5
34F
100
AcDbEntity
  8
0
100
AcDbSpline
 62
7
  6
CONTINUOUS
 70
0
 71
3
 72
16
 73
12
 74
0
 42
0.0000001
 43
0.0000001
 44
0.0000000001
 40
0.0
 40
0.0
 40
0.0
 40
0.0
 40
0.1287350855
 40
0.2704098208
 40
0.4176147031
 40
0.5620215413
 40
0.6957477584
 40
0.8130620424
 40
0.912468719
 40
0.9571202732
 40
1.0
 40
1.0
 40
1.0
 40
1.0
 10
187.8645900485
 20
90.7817568617
 30
0.0
 10
187.8645900485
 20
90.5937277895
 30
0.0
 10
187.8119421923
 20
90.1983262434
 30
0.0
 10
187.6156681011
 20
89.617766851
 30
0.0
 10
187.3130043006
 20
89.0585170919
 30
0.0
 10
186.9287990215
 20
88.5664551343
 30
0.0
 10
186.4931829475
 20
88.1811788772
 30
0.0
 10
186.0400077818
 20
87.9325659206
 30
0.0
 10
185.6553278426
 20
87.8575089638
 30
0.0
 10
185.3827798362
 20
87.897301031
 30
0.0
 10
185.2632606405
 20
87.9471103005
 30
0.0
 10
185.2090227326
 20
87.9784268179
 30
0.0
  0
SPLINE
  5
350
100
AcDbEntity
  8
0
100
AcDbSpline
 62
7
  6
CONTINUOUS
 70
0
 71
3
 72
11
 73
7
 74
0
 42
0.0000001
 43
0.0000001
 44
0.0000000001
 40
0.0
 40
0.0
 40
0.0
 40
0.0
 40
0.2897263218
 40
0.5490881948
 40
0.7822249946
 40
1.0
 40
1.0
 40
1.0
 40
1.0
 10
82.4207453498
 20
110.2303486612
 30
0.0
 10
82.4207453498
 20
109.987121994
 30
0.0
 10
82.4576051429
 20
109.5245947214
 30
0.0
 10
82.6449275862
 20
108.8890898697
 30
0.0
 10
82.9603600871
 20
108.3734857457
 30
0.0
 10
83.2565638183
 20
108.1244021645
 30
0.0
 10
83.4148884904
 20
108.0329821725
 30
0.0
  0
SPLINE
  5
351
100
AcDbEntity
  8
0
100
AcDbSpline
 62
7
  6
CONTINUOUS
 70
0
 71
3
 72
11
 73
7
 74
0
 42
0.0000001
 43
0.0000001
 44
0.0000000001
 40
0.0
 40
0.0
 40
0.0
 40
0.0
 40
0.2534565129
 40
0.5157520151
 40
0.769738286
 40
1.0
 40
1.0
 40
1.0
 40
1.0
 10
84.7936042637
 20
141.4986434255
 30
0.0
 10
84.4391098789
 20
141.1648275444
 30
0.0
 10
83.790421272
 20
140.406011698
 30
0.0
 10
83.0438197119
 20
139.1208564512
 30
0.0
 10
82.5539214857
 20
137.7647817723
 30
0.0
 10
82.4207453498
 20
136.8334538212
 30
0.0
 10
82.4207453498
 20
136.391086106
 30
0.0
  0
SPLINE
  5
352
100
AcDbEntity
  8
0
100
AcDbSpline
 62
7
  6
CONTINUOUS
 70
0
 71
3
 72
11
 73
7
 74
0
 42
0.0000001
 43
0.0000001
 44
0.0000000001
 40
0.0
 40
0.0
 40
0.0
 40
0.0
 40
0.2301779987
 40
0.4840360075
 40
0.7463112613
 40
1.0
 40
1.0
 40
1.0
 40
1.0
 10
82.4348874266
 20
136.3829209407
 30
0.0
 10
82.4348874266
 20
136.8232971333
 30
0.0
 10
82.5668829125
 20
137.7503666006
 30
0.0
 10
83.0528896147
 20
139.1009739489
 30
0.0
 10
83.7940485161
 20
140.3822942069
 30
0.0
 10
84.4381692757
 20
141.1399854251
 30
0.0
 10
84.7903122203
 20
141.4740013992
 30
0.0
  0
SPLINE
  5
353
100
AcDbEntity
  8
0
100
AcDbSpline
 62
7
  6
CONTINUOUS
 70
0
 71
3
 72
11
 73
7
 74
0
 42
0.0000001
 43
0.0000001
 44
0.0000000001
 40
0.0
 40
0.0
 40
0.0
 40
0.0
 40
0.2177808404
 40
0.4509249954
 40
0.7102608114
 40
1.0
 40
1.0
 40
1.0
 40
1.0
 10
188.1019478071
 20
84.0079102339
 30
0.0
 10
187.9370385009
 20
84.1031569498
 30
0.0
 10
187.5580541387
 20
84.2406397092
 30
0.0
 10
186.9286749851
 20
84.2565887723
 30
0.0
 10
186.2578328561
 20
84.0946503802
 30
0.0
 10
185.8214242362
 20
83.8869773854
 30
0.0
 10
185.6020049677
 20
83.7602963678
 30
0.0
  0
SPLINE
  5
354
100
AcDbEntity
  8
0
100
AcDbSpline
 62
7
  6
CONTINUOUS
 70
0
 71
3
 72
11
 73
7
 74
0
 42
0.0000001
 43
0.0000001
 44
0.0000000001
 40
0.0
 40
0.0
 40
0.0
 40
0.0
 40
0.2177743796
 40
0.4509338355
 40
0.710229898
 40
1.0
 40
1.0
 40
1.0
 40
1.0
 10
174.7526033217
 20
95.179031374
 30
0.0
 10
174.4887318756
 20
95.3313822693
 30
0.0
 10
173.8824041826
 20
95.5515075286
 30
0.0
 10
172.8754103123
 20
95.5768933847
 30
0.0
 10
171.8020380281
 20
95.3179109303
 30
0.0
 10
171.1038106953
 20
94.9855716815
 30
0.0
 10
170.7527007396
 20
94.7828594641
 30
0.0
  0
SPLINE
  5
355
100
AcDbEntity
  8
0
100
AcDbSpline
 62
7
  6
CONTINUOUS
 70
0
 71
3
 72
11
 73
7
 74
0
 42
0.0000001
 43
0.0000001
 44
0.0000000001
 40
0.0
 40
0.0
 40
0.0
 40
0.0
 40
0.2177745347
 40
0.4509306045
 40
0.7102242968
 40
1.0
 40
1.0
 40
1.0
 40
1.0
 10
189.8502996939
 20
138.4756574908
 30
0.0
 10
189.6260060238
 20
138.6051505838
 30
0.0
 10
189.1106333312
 20
138.7922557586
 30
0.0
 10
188.2546957124
 20
138.8138363401
 30
0.0
 10
187.3423295747
 20
138.5937061244
 30
0.0
 10
186.7488313499
 20
138.3112197326
 30
0.0
 10
186.450382374
 20
138.1389111646
 30
0.0
  0
SPLINE
  5
356
100
AcDbEntity
  8
0
100
AcDbSpline
 62
7
  6
CONTINUOUS
 70
0
 71
3
 72
16
 73
12
 74
0
 42
0.0000001
 43
0.0000001
 44
0.0000000001
 40
0.0
 40
0.0
 40
0.0
 40
0.0
 40
0.1287350855
 40
0.2704098208
 40
0.4176147031
 40
0.5620215413
 40
0.6957477584
 40
0.8130620424
 40
0.912468719
 40
0.9571202732
 40
1.0
 40
1.0
 40
1.0
 40
1.0
 10
151.0951905133
 20
112.0111865511
 30
0.0
 10
151.0951905133
 20
111.823157479
 30
0.0
 10
151.0425426572
 20
111.4277559328
 30
0.0
 10
150.846268566
 20
110.8471965404
 30
0.0
 10
150.5436047655
 20
110.2879467813
 30
0.0
 10
150.1593994864
 20
109.7958848237
 30
0.0
 10
149.7237834124
 20
109.4106085666
 30
0.0
 10
149.2706082467
 20
109.16199561
 30
0.0
 10
148.8859283075
 20
109.0869386532
 30
0.0
 10
148.6133803011
 20
109.1267307204
 30
0.0
 10
148.4938611054
 20
109.1765399899
 30
0.0
 10
148.4396231975
 20
109.2078565073
 30
0.0
  0
SPLINE
  5
357
100
AcDbEntity
  8
0
100
AcDbSpline
 62
7
  6
CONTINUOUS
 70
0
 71
3
 72
17
 73
13
 74
0
 42
0.0000001
 43
0.0000001
 44
0.0000000001
 40
0.0
 40
0.0
 40
0.0
 40
0.0
 40
0.0428582834
 40
0.0874880601
 40
0.1353226824
 40
0.1872862678
 40
0.3045517183
 40
0.4382206982
 40
0.5825657569
 40
0.729721693
 40
0.8713086775
 40
1.0
 40
1.0
 40
1.0
 40
1.0
 10
163.3586696414
 20
83.282201339
 30
0.0
 10
163.1614460524
 20
83.3960679829
 30
0.0
 10
162.7875517328
 20
83.682198117
 30
0.0
 10
162.3376355551
 20
84.2511311796
 30
0.0
 10
162.0014067694
 20
84.9469430935
 30
0.0
 10
161.6994223298
 20
86.0656746016
 30
0.0
 10
161.6616095072
 20
87.6967992083
 30
0.0
 10
162.0838033721
 20
89.7668594687
 30
0.0
 10
162.9344965644
 20
91.872341992
 30
0.0
 10
164.1456058935
 20
93.8419982431
 30
0.0
 10
165.6168428709
 20
95.5159291031
 30
0.0
 10
166.7663670134
 20
96.4005062296
 30
0.0
 10
167.3585740589
 20
96.7424150858
 30
0.0
  0
SPLINE
  5
358
100
AcDbEntity
  8
0
100
AcDbSpline
 62
7
  6
CONTINUOUS
 70
0
 71
3
 72
16
 73
12
 74
0
 42
0.0000001
 43
0.0000001
 44
0.0000000001
 40
0.0
 40
0.0
 40
0.0
 40
0.0
 40
0.1287350855
 40
0.2704098208
 40
0.4176147031
 40
0.5620215413
 40
0.6957477584
 40
0.8130620424
 40
0.912468719
 40
0.9571202732
 40
1.0
 40
1.0
 40
1.0
 40
1.0
 10
151.0951905133
 20
69.5530608604
 30
0.0
 10
151.0951905133
 20
69.3650317882
 30
0.0
 10
151.0425426572
 20
68.969630242
 30
0.0
 10
150.846268566
 20
68.3890708497
 30
0.0
 10
150.5436047655
 20
67.8298210906
 30
0.0
 10
150.1593994864
 20
67.337759133
 30
0.0
 10
149.7237834124
 20
66.9524828759
 30
0.0
 10
149.2706082467
 20
66.7038699193
 30
0.0
 10
148.8859283075
 20
66.6288129625
 30
0.0
 10
148.6133803011
 20
66.6686050297
 30
0.0
 10
148.4938611054
 20
66.7184142992
 30
0.0
 10
148.4396231975
 20
66.7497308166
 30
0.0
  0
SPLINE
  5
359
100
AcDbEntity
  8
0
100
AcDbSpline
 62
7
  6
CONTINUOUS
 70
0
 71
3
 72
11
 73
7
 74
0
 42
0.0000001
 43
0.0000001
 44
0.0000000001
 40
0.0
 40
0.0
 40
0.0
 40
0.0
 40
0.2536908235
 40
0.5159667458
 40
0.7698239726
 40
1.0
 40
1.0
 40
1.0
 40
1.0
 10
90.8708376476
 20
152.0058388395
 30
0.0
 10
90.9840320111
 20
152.4778145814
 30
0.0
 10
91.3181483538
 20
153.4144891649
 30
0.0
 10
92.0572182702
 20
154.6970158089
 30
0.0
 10
92.9838657192
 20
155.7932120115
 30
0.0
 10
93.7207273835
 20
156.3710546662
 30
0.0
 10
94.1021007406
 20
156.5912393622
 30
0.0
  0
SPLINE
  5
35A
100
AcDbEntity
  8
0
100
AcDbSpline
 62
7
  6
CONTINUOUS
 70
0
 71
3
 72
11
 73
7
 74
0
 42
0.0000001
 43
0.0000001
 44
0.0000000001
 40
0.0
 40
0.0
 40
0.0
 40
0.0
 40
0.2897273936
 40
0.5490859051
 40
0.7822242763
 40
1.0
 40
1.0
 40
1.0
 40
1.0
 10
116.7294235315
 20
169.6550522861
 30
0.0
 10
116.9400567926
 20
169.7766607302
 30
0.0
 10
117.3590280126
 20
169.975996034
 30
0.0
 10
118.0030279814
 20
170.131511945
 30
0.0
 10
118.6072442313
 20
170.1161430167
 30
0.0
 10
118.9710499246
 20
169.9841787934
 30
0.0
 10
119.1293790506
 20
169.8927797262
 30
0.0
  0
SPLINE
  5
35B
100
AcDbEntity
  8
0
100
AcDbSpline
 62
7
  6
CONTINUOUS
 70
0
 71
3
 72
11
 73
7
 74
0
 42
0.0000001
 43
0.0000001
 44
0.0000000001
 40
0.0
 40
0.0
 40
0.0
 40
0.0
 40
0.2177323041
 40
0.4508846271
 40
0.7104693585
 40
1.0
 40
1.0
 40
1.0
 40
1.0
 10
150.6395009454
 20
113.0182423179
 30
0.0
 10
150.7120518581
 20
112.9763520237
 30
0.0
 10
150.8479100063
 20
112.8623315885
 30
0.0
 10
150.9924755685
 20
112.6258830361
 30
0.0
 10
151.0781812807
 20
112.3345721697
 30
0.0
 10
151.0951905133
 20
112.1225882213
 30
0.0
 10
151.0951905133
 20
112.0111865511
 30
0.0
  0
SPLINE
  5
35C
100
AcDbEntity
  8
0
100
AcDbSpline
 62
7
  6
CONTINUOUS
 70
0
 71
3
 72
17
 73
13
 74
0
 42
0.0000001
 43
0.0000001
 44
0.0000000001
 40
0.0
 40
0.0
 40
0.0
 40
0.0
 40
0.0428577901
 40
0.0874862846
 40
0.1353177438
 40
0.1872830729
 40
0.3045439381
 40
0.4382117514
 40
0.5825553621
 40
0.7297160591
 40
0.8713055062
 40
1.0
 40
1.0
 40
1.0
 40
1.0
 10
168.2527574411
 20
83.9207133653
 30
0.0
 10
168.1295056269
 20
83.9918988497
 30
0.0
 10
167.895797553
 20
84.1706910573
 30
0.0
 10
167.6146906291
 20
84.5263218797
 30
0.0
 10
167.404425281
 20
84.9611300954
 30
0.0
 10
167.2158195451
 20
85.6603631569
 30
0.0
 10
167.192034585
 20
86.67977135
 30
0.0
 10
167.4559557884
 20
87.9735465635
 30
0.0
 10
167.9876338849
 20
89.2894705626
 30
0.0
 10
168.744572441
 20
90.5205307962
 30
0.0
 10
169.6640897586
 20
91.5667879927
 30
0.0
 10
170.3825625807
 20
92.1196541227
 30
0.0
 10
170.7527007396
 20
92.3333522128
 30
0.0
  0
SPLINE
  5
35D
100
AcDbEntity
  8
0
100
AcDbSpline
 62
7
  6
CONTINUOUS
 70
0
 71
3
 72
11
 73
7
 74
0
 42
0.0000001
 43
0.0000001
 44
0.0000000001
 40
0.0
 40
0.0
 40
0.0
 40
0.0
 40
0.2302599317
 40
0.4842454922
 40
0.7465416055
 40
1.0
 40
1.0
 40
1.0
 40
1.0
 10
94.0879586639
 20
156.5994045275
 30
0.0
 10
93.7048602818
 20
156.3782238937
 30
0.0
 10
92.964900644
 20
155.7972290967
 30
0.0
 10
92.0354640711
 20
154.6949285629
 30
0.0
 10
91.2957946864
 20
153.4057710774
 30
0.0
 10
90.9629885505
 20
152.4645787289
 30
0.0
 10
90.8511432615
 20
151.990666981
 30
0.0
  0
ELLIPSE
  5
35E
100
AcDbEntity
  8
0
100
AcDbEllipse
 62
7
  6
CONTINUOUS
 10
42.3622622098
 20
165.4082350043
 30
0.0
 11
1.1250924179
 21
1.0230995198
 31
0.0
 40
0.2565808008
 41
0.3809969543
 42
1.1388330116
  0
ENDSEC
  0
SECTION
  2
OBJECTS
  0
DICTIONARY
  5
C
100
AcDbDictionary
280
0
281
1
  3
ACAD_GROUP
350
D
  3
ACAD_MLINESTYLE
350
17
  3
ACAD_LAYOUT
350
1A
  3
ACAD_PLOTSETTINGS
350
19
  3
ACAD_PLOTSTYLENAME
350
E
  0
DICTIONARY
  5
D
102
{ACAD_REACTORS
330
C
102
}
100
AcDbDictionary
280
0
281
1
  0
ACDBDICTIONARYWDFLT
  5
E
102
{ACAD_REACTORS
330
C
102
}
100
AcDbDictionary
281
1
  3
Normal
350
F
100
AcDbDictionaryWithDefault
340
F
  0
DICTIONARY
  5
17
102
{ACAD_REACTORS
330
C
102
}
100
AcDbDictionary
280
0
281
1
  3
Standard
350
18
  0
DICTIONARY
  5
19
102
{ACAD_REACTORS
330
C
102
}
100
AcDbDictionary
281
1
  0
DICTIONARY
  5
1A
102
{ACAD_REACTORS
330
C
102
}
100
AcDbDictionary
281
1
  3
Model
350
35F
  3
Layout1
350
360
  0
ACDBPLACEHOLDER
  5
F
102
{ACAD_REACTORS
330
E
102
}
  0
MLINESTYLE
  5
18
102
{ACAD_REACTORS
330
17
102
}
100
AcDbMlineStyle
  2
STANDARD
 70
0
  3

 62
256
 51
90.0
 52
90.0
 71
2
 49
0.5
 62
256
  6
BYLAYER
 49
-0.5
 62
256
  6
BYLAYER
  0
LAYOUT
  5
35F
102
{ACAD_REACTORS
330
1A
102
}
100
AcDbPlotSettings
  1

  2
none_device
  4

  6

 40
0.0
 41
0.0
 42
0.0
 43
0.0
 44
210.0
 45
297.0
 46
0.0
 47
0.0
 48
0.0
 49
0.0
140
0.0
141
0.0
142
1.0
143
1.0
 70
1024
 72
1
 73
0
 74
0
  7

 75
0
147
1.0
148
0.0
149
0.0
100
AcDbLayout
  1
Model
 70
0
 71
0
 10
0.0
 20
0.0
 11
210.0
 21
297.0
 12
0.0
 22
0.0
 32
0.0
 14
0.0
 24
0.0
 34
0.0
 15
0.0
 25
0.0
 35
0.0
146
0.0
 13
0.0
 23
0.0
 33
0.0
 16
1.0
 26
0.0
 36
0.0
 17
0.0
 27
1.0
 37
0.0
 76
0
330
210
345
0
346
0
  0
LAYOUT
  5
360
102
{ACAD_REACTORS
330
1A
102
}
100
AcDbPlotSettings
  1

  2
none_device
  4

  6

 40
0.0
 41
0.0
 42
0.0
 43
0.0
 44
210.0
 45
297.0
 46
0.0
 47
0.0
 48
0.0
 49
0.0
140
0.0
141
0.0
142
1.0
143
1.0
 70
0
 72
1
 73
0
 74
0
  7

 75
0
147
1.0
148
0.0
149
0.0
100
AcDbLayout
  1
Layout1
 70
0
 71
1
 10
0.0
 20
0.0
 11
210.0
 21
297.0
 12
0.0
 22
0.0
 32
0.0
 14
0.0
 24
0.0
 34
0.0
 15
0.0
 25
0.0
 35
0.0
146
0.0
 13
0.0
 23
0.0
 33
0.0
 16
1.0
 26
0.0
 36
0.0
 17
0.0
 27
1.0
 37
0.0
 76
0
330
211
345
0
346
0
  0
ENDSEC
  0
EOF
