999
DXF file: C:\Users\sesa63760\Dev\_Creo\CAD\MCADID0004237_3D-CAD\drw0001_4.dxf
999
Pro/ENGINEER 2019471 by Parametric Technology Corporation
  0
SECTION
  2
HEADER
  9
$ACADVER
  1
AC1024
  9
$DWGCODEPAGE
  3
ANSI_1252
  9
$EXTMAX
 10
179.7219208756
 20
254.1781452383
 30
0.0
  9
$EXTMIN
 10
0.0
 20
0.0
 30
0.0
  9
$LIMMIN
 10
0.0
 20
0.0
  9
$LIMMAX
 10
179.7219208756
 20
254.1781452383
  9
$VIEWCTR
 10
89.8609604378
 20
127.0890726192
  9
$VIEWSIZE
 40
254.1781452383
  9
$CLAYER
  8
0
  9
$LTSCALE
 40
16.5686494674
  9
$CELTYPE
  6
BYLAYER
  9
$DIMSCALE
 40
1.0
  9
$DIMASZ
 40
2.1395466771
  9
$DIMEXO
 40
1.0
  9
$DIMDLI
 40
11.4474305411
  9
$DIMEXE
 40
1.0
  9
$DIMCEN
 40
2.7112335492
  9
$DIMLFAC
 40
1.0
  9
$DIMBLK
  1
_FILLED
  9
$DIMALT
 70
0
  9
$DIMALTF
 40
0.0393700787
  9
$DIMTXT
 40
2.9953653479
  9
$DIMTOL
 70
1
  9
$DIMLIM
 70
0
  9
$DIMTFAC
 40
1.0
  9
$DIMTP
 40
0.01
  9
$DIMTM
 40
0.01
  9
$DIMGAP
 40
0.625
  9
$DIMDSEP
 70
46
  9
$AUNITS
 70
0
  9
$PDMODE
 70
3
  9
$PDSIZE
 40
0.3125
  9
$HANDSEED
  5
2F5
  9
$TILEMODE
 70
1
  9
$MEASUREMENT
 70
1
  9
$INSUNITS
 70
4
  0
ENDSEC
  0
SECTION
  2
CLASSES
  0
CLASS
  1
ACDBDICTIONARYWDFLT
  2
AcDbDictionaryWithDefault
  3
AutoCAD 2000
 90
0
 91
1
280
0
281
0
  0
CLASS
  1
ACDBPLACEHOLDER
  2
AcDbPlaceHolder
  3
AutoCAD 2000
 90
0
 91
1
280
0
281
0
  0
CLASS
  1
LAYOUT
  2
AcDbLayout
  3
AutoCAD 2000
 90
0
 91
0
280
0
281
0
  0
ENDSEC
  0
SECTION
  2
TABLES
  0
TABLE
  2
VPORT
  5
8
100
AcDbSymbolTable
 70
2
  0
VPORT
  5
1F4
100
AcDbSymbolTableRecord
100
AcDbViewportTableRecord
  2
*ACTIVE
 70
0
 10
0.0
 20
0.0
 11
1.0
 21
1.0
 12
89.8609604378
 22
127.0890726192
 13
0.0
 23
0.0
 14
1.0
 24
1.0
 15
0.0
 25
0.0
 16
0.0
 26
0.0
 36
1.0
 17
0.0
 27
0.0
 37
0.0
 40
254.1781452383
 41
0.7070707071
 42
50.0
 43
0.0
 44
0.0
 50
0.0
 51
0.0
 71
0
 72
100
 73
1
 74
1
 75
0
 76
0
 77
0
 78
0
  0
ENDTAB
  0
TABLE
  2
LTYPE
  5
5
100
AcDbSymbolTable
 70
6
  0
LTYPE
  5
14
100
AcDbSymbolTableRecord
100
AcDbLinetypeTableRecord
  2
BYBLOCK
 70
0
  3

 72
65
 73
0
 40
0.0
  0
LTYPE
  5
15
100
AcDbSymbolTableRecord
100
AcDbLinetypeTableRecord
  2
BYLAYER
 70
0
  3

 72
65
 73
0
 40
0.0
  0
LTYPE
  5
16
100
AcDbSymbolTableRecord
100
AcDbLinetypeTableRecord
  2
CONTINUOUS
 70
64
  3
Solid line
 72
65
 73
0
 40
0.0
  0
LTYPE
  5
1F5
100
AcDbSymbolTableRecord
100
AcDbLinetypeTableRecord
  2
CENTER
 70
64
  3
____ _ ____ _ ____ _ ____ _ ____ _ ____ _ ____
 72
65
 73
4
 40
0.6
 49
0.375
 74
0
 49
-0.075
 74
0
 49
0.075
 74
0
 49
-0.075
 74
0
  0
LTYPE
  5
1F6
100
AcDbSymbolTableRecord
100
AcDbLinetypeTableRecord
  2
HIDDEN
 70
64
  3
- - - - - - - - - - - - - - - - - - - -
 72
65
 73
2
 40
0.2
 49
0.1
 74
0
 49
-0.1
 74
0
  0
LTYPE
  5
1F7
100
AcDbSymbolTableRecord
100
AcDbLinetypeTableRecord
  2
PHANTOM
 70
64
  3
_____ _ _ _____ _ _ _____ _ _ _____
 72
65
 73
6
 40
0.8
 49
0.45
 74
0
 49
-0.05
 74
0
 49
0.1
 74
0
 49
-0.05
 74
0
 49
0.1
 74
0
 49
-0.05
 74
0
  0
LTYPE
  5
1F8
100
AcDbSymbolTableRecord
100
AcDbLinetypeTableRecord
  2
DOT
 70
64
  3
. . . . . . . . . . . . . . . . . . . .
 72
65
 73
2
 40
0.2
 49
0.1
 74
0
 49
-0.1
 74
0
  0
LTYPE
  5
1F9
100
AcDbSymbolTableRecord
100
AcDbLinetypeTableRecord
  2
DASHED
 70
64
  3
- - - - - - - - - - - - - - - - - - - -
 72
65
 73
2
 40
0.2
 49
0.1
 74
0
 49
-0.1
 74
0
  0
ENDTAB
  0
TABLE
  2
LAYER
  5
2
100
AcDbSymbolTable
 70
36
  0
LAYER
  5
10
100
AcDbSymbolTableRecord
100
AcDbLayerTableRecord
  2
0
 70
0
 62
7
  6
CONTINUOUS
370
-3
390
F
  0
LAYER
  5
1FA
100
AcDbSymbolTableRecord
100
AcDbLayerTableRecord
  2
DEFAULT_1
 70
0
 62
7
  6
CENTER
370
-3
390
F
  0
LAYER
  5
1FB
100
AcDbSymbolTableRecord
100
AcDbLayerTableRecord
  2
DEFAULT_2
 70
0
 62
7
  6
HIDDEN
370
-3
390
F
  0
LAYER
  5
1FC
100
AcDbSymbolTableRecord
100
AcDbLayerTableRecord
  2
DEFAULT_3
 70
0
 62
7
  6
PHANTOM
370
-3
390
F
  0
LAYER
  5
1FD
100
AcDbSymbolTableRecord
100
AcDbLayerTableRecord
  2
00_COMPONENTS
 70
0
 62
7
  6
CONTINUOUS
370
-3
390
F
  0
LAYER
  5
1FE
100
AcDbSymbolTableRecord
100
AcDbLayerTableRecord
  2
01_1_DEFAULT_DATUMS
 70
0
 62
7
  6
CONTINUOUS
370
-3
390
F
  0
LAYER
  5
1FF
100
AcDbSymbolTableRecord
100
AcDbLayerTableRecord
  2
01_PLANES
 70
0
 62
7
  6
CONTINUOUS
370
-3
390
F
  0
LAYER
  5
200
100
AcDbSymbolTableRecord
100
AcDbLayerTableRecord
  2
02_COORD_SYS
 70
0
 62
7
  6
CONTINUOUS
370
-3
390
F
  0
LAYER
  5
201
100
AcDbSymbolTableRecord
100
AcDbLayerTableRecord
  2
03_AXES
 70
0
 62
7
  6
CONTINUOUS
370
-3
390
F
  0
LAYER
  5
202
100
AcDbSymbolTableRecord
100
AcDbLayerTableRecord
  2
04_POINTS
 70
0
 62
7
  6
CONTINUOUS
370
-3
390
F
  0
LAYER
  5
203
100
AcDbSymbolTableRecord
100
AcDbLayerTableRecord
  2
05_CURVES
 70
0
 62
7
  6
CONTINUOUS
370
-3
390
F
  0
LAYER
  5
204
100
AcDbSymbolTableRecord
100
AcDbLayerTableRecord
  2
06_SURFS
 70
0
 62
7
  6
CONTINUOUS
370
-3
390
F
  0
LAYER
  5
205
100
AcDbSymbolTableRecord
100
AcDbLayerTableRecord
  2
07_COSMETICS
 70
0
 62
7
  6
CONTINUOUS
370
-3
390
F
  0
LAYER
  5
206
100
AcDbSymbolTableRecord
100
AcDbLayerTableRecord
  2
10_NOTES
 70
0
 62
7
  6
CONTINUOUS
370
-3
390
F
  0
LAYER
  5
207
100
AcDbSymbolTableRecord
100
AcDbLayerTableRecord
  2
11_NOTES_PUB
 70
0
 62
7
  6
CONTINUOUS
370
-3
390
F
  0
LAYER
  5
208
100
AcDbSymbolTableRecord
100
AcDbLayerTableRecord
  2
13_REF_GTOL
 70
0
 62
7
  6
CONTINUOUS
370
-3
390
F
  0
LAYER
  5
209
100
AcDbSymbolTableRecord
100
AcDbLayerTableRecord
  2
16_MISC
 70
0
 62
7
  6
CONTINUOUS
370
-3
390
F
  0
LAYER
  5
20A
100
AcDbSymbolTableRecord
100
AcDbLayerTableRecord
  2
17_NO_PRINT
 70
0
 62
7
  6
CONTINUOUS
370
-3
390
F
  0
LAYER
  5
20B
100
AcDbSymbolTableRecord
100
AcDbLayerTableRecord
  2
18_DATUM_CAMS_JOINTS
 70
0
 62
7
  6
CONTINUOUS
370
-3
390
F
  0
LAYER
  5
20C
100
AcDbSymbolTableRecord
100
AcDbLayerTableRecord
  2
19_DATUM_FUNCTIONAL
 70
0
 62
7
  6
CONTINUOUS
370
-3
390
F
  0
LAYER
  5
20D
100
AcDbSymbolTableRecord
100
AcDbLayerTableRecord
  2
20_DATUM_KINEMATIC_SCHEME
 70
0
 62
7
  6
CONTINUOUS
370
-3
390
F
  0
LAYER
  5
20E
100
AcDbSymbolTableRecord
100
AcDbLayerTableRecord
  2
4
 70
0
 62
7
  6
CONTINUOUS
370
-3
390
F
  0
LAYER
  5
20F
100
AcDbSymbolTableRecord
100
AcDbLayerTableRecord
  2
7
 70
0
 62
7
  6
CONTINUOUS
370
-3
390
F
  0
ENDTAB
  0
TABLE
  2
STYLE
  5
3
100
AcDbSymbolTable
 70
1
  0
STYLE
  5
11
100
AcDbSymbolTableRecord
100
AcDbTextStyleTableRecord
  2
STANDARD
 70
0
 40
0.0
 41
1.0
 50
0.0
 71
0
 42
0.2
  3
ARIAL.TTF
  4

  0
STYLE
  5
210
100
AcDbSymbolTableRecord
100
AcDbTextStyleTableRecord
  2
TEXTSTYLE_1
 70
0
 40
0.0
 41
0.8
 50
0.0
 71
0
 42
0.2
  3
gdt
  4

  0
ENDTAB
  0
TABLE
  2
VIEW
  5
6
100
AcDbSymbolTable
 70
0
  0
ENDTAB
  0
TABLE
  2
UCS
  5
7
100
AcDbSymbolTable
 70
0
  0
ENDTAB
  0
TABLE
  2
APPID
  5
9
100
AcDbSymbolTable
 70
1
  0
APPID
  5
211
100
AcDbSymbolTableRecord
100
AcDbRegAppTableRecord
  2
ACAD
 70
0
  0
ENDTAB
  0
TABLE
  2
BLOCK_RECORD
  5
1
100
AcDbSymbolTable
 70
0
  0
BLOCK_RECORD
  5
212
100
AcDbSymbolTableRecord
100
AcDbBlockTableRecord
  2
*Model_Space
  0
BLOCK_RECORD
  5
213
100
AcDbSymbolTableRecord
100
AcDbBlockTableRecord
  2
*Paper_Space
  0
BLOCK_RECORD
  5
214
100
AcDbSymbolTableRecord
100
AcDbBlockTableRecord
  2
_FILLED
  0
ENDTAB
  0
TABLE
  2
DIMSTYLE
  5
A
100
AcDbSymbolTable
 70
1
100
AcDbDimStyleTable
 71
0
  0
DIMSTYLE
105
215
100
AcDbSymbolTableRecord
100
AcDbDimStyleTableRecord
  2
STANDARD
 70
0
  3

  4

 40
1.0
 41
2.1395466771
 42
1.0
 43
0.38
 44
1.0
 45
0.0
 46
0.0
 47
0.01
 48
0.01
140
2.9953653479
141
0.09
142
0.0
143
25.4
144
1.0
145
0.0
146
1.0
147
0.625
 71
1
 72
0
 73
0
 74
0
 75
0
 76
0
 77
1
 78
8
 79
2
170
0
171
1
172
0
173
0
174
0
175
0
176
0
177
0
178
0
270
2
179
2
271
2
272
2
273
2
274
2
275
0
280
0
281
0
282
0
283
1
284
8
285
0
286
0
287
3
288
0
340
11
278
46
341
214
342
214
343
214
344
214
  0
ENDTAB
  0
ENDSEC
  0
SECTION
  2
BLOCKS
  0
BLOCK
  5
20
100
AcDbEntity
  8
0
100
AcDbBlockBegin
  2
*Model_Space
 70
0
 10
0.0
 20
0.0
 30
0.0
  3
*Model_Space
  1

  0
ENDBLK
  5
21
100
AcDbEntity
  8
0
100
AcDbBlockEnd
  0
BLOCK
  5
1C
100
AcDbEntity
  8
0
100
AcDbBlockBegin
  2
*Paper_Space
 70
0
 10
0.0
 20
0.0
 30
0.0
  3
*Paper_Space
  1

  0
ENDBLK
  5
1D
100
AcDbEntity
  8
0
100
AcDbBlockEnd
  0
BLOCK
  5
216
100
AcDbEntity
  8
0
100
AcDbBlockBegin
  2
_FILLED
 70
64
 10
0.0
 20
0.0
  3
_FILLED
  1

  0
SOLID
  5
217
100
AcDbEntity
  8
0
  6
BYBLOCK
 62
0
100
AcDbTrace
 10
0.0
 20
0.0
 11
-1.0
 21
0.25
 12
-1.0
 22
-0.25
 13
-1.0
 23
-0.25
  0
ENDBLK
  5
218
100
AcDbEntity
  8
0
  6
BYBLOCK
 62
0
100
AcDbBlockEnd
  0
ENDSEC
  0
SECTION
  2
ENTITIES
  0
LINE
  5
219
100
AcDbEntity
  8
4
100
AcDbLine
 62
7
  6
BYLAYER
 10
39.791659466
 20
18.2000263114
 11
82.791659466
 21
18.2000263114
  0
LINE
  5
21A
100
AcDbEntity
  8
4
100
AcDbLine
 62
7
  6
BYLAYER
 10
39.791659466
 20
21.2000263114
 11
82.791659466
 21
21.2000263114
  0
LINE
  5
21B
100
AcDbEntity
  8
4
100
AcDbLine
 62
7
  6
BYLAYER
 10
136.1804723092
 20
28.3892470365
 11
121.5810217556
 21
28.3892470365
  0
LINE
  5
21C
100
AcDbEntity
  8
4
100
AcDbLine
 62
7
  6
BYLAYER
 10
112.5810217556
 20
28.3892470365
 11
93.5810044407
 21
28.3892470365
  0
LINE
  5
21D
100
AcDbEntity
  8
4
100
AcDbLine
 62
7
  6
BYLAYER
 10
109.5810217556
 20
30.3892470365
 11
112.5810217556
 21
30.3892470365
  0
LINE
  5
21E
100
AcDbEntity
  8
4
100
AcDbLine
 62
7
  6
BYLAYER
 10
121.5810217556
 20
30.3892470365
 11
124.5810217556
 21
30.3892470365
  0
LINE
  5
21F
100
AcDbEntity
  8
4
100
AcDbLine
 62
7
  6
BYLAYER
 10
124.5810217556
 20
32.8892470365
 11
109.5810217556
 21
32.8892470365
  0
LINE
  5
220
100
AcDbEntity
  8
4
100
AcDbLine
 62
7
  6
BYLAYER
 10
142.2310044407
 20
34.3902276155
 11
142.4629877668
 21
34.3902276155
  0
LINE
  5
221
100
AcDbEntity
  8
4
100
AcDbLine
 62
7
  6
BYLAYER
 10
92.0810044407
 20
45.3892470365
 11
93.5810044407
 21
45.3892470365
  0
LINE
  5
222
100
AcDbEntity
  8
4
100
AcDbLine
 62
7
  6
BYLAYER
 10
92.0810044407
 20
45.8892470365
 11
94.0810044407
 21
45.8892470365
  0
LINE
  5
223
100
AcDbEntity
  8
4
100
AcDbLine
 62
7
  6
BYLAYER
 10
85.4549447821
 20
47.0367470365
 11
86.6995440439
 21
47.0367470365
  0
LINE
  5
224
100
AcDbEntity
  8
4
100
AcDbLine
 62
7
  6
BYLAYER
 10
85.3514598482
 20
47.9892470365
 11
82.3514598482
 21
47.9892470365
  0
LINE
  5
225
100
AcDbEntity
  8
4
100
AcDbLine
 62
7
  6
BYLAYER
 10
90.0810044407
 20
49.3892470365
 11
91.0810044407
 21
49.3892470365
  0
LINE
  5
226
100
AcDbEntity
  8
4
100
AcDbLine
 62
7
  6
BYLAYER
 10
78.0810044407
 20
50.3892470365
 11
82.3514598482
 21
50.3892470365
  0
LINE
  5
227
100
AcDbEntity
  8
4
100
AcDbLine
 62
7
  6
BYLAYER
 10
85.3514598482
 20
50.3892470365
 11
85.4549447821
 21
50.3892470365
  0
LINE
  5
228
100
AcDbEntity
  8
4
100
AcDbLine
 62
7
  6
BYLAYER
 10
86.6995440439
 20
50.3892470365
 11
86.791659466
 21
50.3892470365
  0
LINE
  5
229
100
AcDbEntity
  8
4
100
AcDbLine
 62
7
  6
BYLAYER
 10
89.791659466
 20
50.3892470365
 11
92.0810044407
 21
50.3892470365
  0
LINE
  5
22A
100
AcDbEntity
  8
4
100
AcDbLine
 62
7
  6
BYLAYER
 10
85.3514598482
 20
50.6892470365
 11
82.3514598482
 21
50.6892470365
  0
LINE
  5
22B
100
AcDbEntity
  8
7
100
AcDbLine
 62
7
  6
BYLAYER
 10
142.6865945646
 20
228.4743669479
 11
143.4754489466
 21
228.8687941389
  0
LINE
  5
22C
100
AcDbEntity
  8
4
100
AcDbLine
 62
7
  6
BYLAYER
 10
85.3514598482
 20
56.0892470365
 11
82.3514598482
 21
56.0892470365
  0
LINE
  5
22D
100
AcDbEntity
  8
4
100
AcDbLine
 62
7
  6
BYLAYER
 10
78.0810044407
 20
56.3892470365
 11
82.3514598482
 21
56.3892470365
  0
LINE
  5
22E
100
AcDbEntity
  8
4
100
AcDbLine
 62
7
  6
BYLAYER
 10
85.3514598482
 20
56.3892470365
 11
85.4549447821
 21
56.3892470365
  0
LINE
  5
22F
100
AcDbEntity
  8
4
100
AcDbLine
 62
7
  6
BYLAYER
 10
86.6995440439
 20
56.3892470365
 11
86.791659466
 21
56.3892470365
  0
LINE
  5
230
100
AcDbEntity
  8
4
100
AcDbLine
 62
7
  6
BYLAYER
 10
89.791659466
 20
56.3892470365
 11
92.0810044407
 21
56.3892470365
  0
LINE
  5
231
100
AcDbEntity
  8
4
100
AcDbLine
 62
7
  6
BYLAYER
 10
91.0810044407
 20
57.3892470365
 11
90.0810044407
 21
57.3892470365
  0
LINE
  5
232
100
AcDbEntity
  8
4
100
AcDbLine
 62
7
  6
BYLAYER
 10
85.3514598482
 20
58.7892470365
 11
82.3514598482
 21
58.7892470365
  0
LINE
  5
233
100
AcDbEntity
  8
4
100
AcDbLine
 62
7
  6
BYLAYER
 10
85.4549447821
 20
59.7417470365
 11
86.6995440439
 21
59.7417470365
  0
LINE
  5
234
100
AcDbEntity
  8
4
100
AcDbLine
 62
7
  6
BYLAYER
 10
92.0810044407
 20
60.8892470365
 11
94.0810044407
 21
60.8892470365
  0
LINE
  5
235
100
AcDbEntity
  8
4
100
AcDbLine
 62
7
  6
BYLAYER
 10
93.5810044407
 20
61.3892470365
 11
92.0810044407
 21
61.3892470365
  0
LINE
  5
236
100
AcDbEntity
  8
4
100
AcDbLine
 62
7
  6
BYLAYER
 10
86.791659466
 20
63.2000263114
 11
89.5810044407
 21
63.2000263114
  0
LINE
  5
237
100
AcDbEntity
  8
4
100
AcDbLine
 62
7
  6
BYLAYER
 10
89.5810044407
 20
68.2000263114
 11
86.791659466
 21
68.2000263114
  0
LINE
  5
238
100
AcDbEntity
  8
4
100
AcDbLine
 62
7
  6
BYLAYER
 10
143.4754489466
 20
33.94301402
 11
142.6865945646
 21
34.337441211
  0
LINE
  5
239
100
AcDbEntity
  8
7
100
AcDbLine
 62
7
  6
BYLAYER
 10
39.791659466
 20
177.2333403974
 11
39.791659466
 21
174.2333403974
  0
LINE
  5
23A
100
AcDbEntity
  8
4
100
AcDbLine
 62
7
  6
BYLAYER
 10
39.791659466
 20
21.2000263114
 11
39.791659466
 21
18.2000263114
  0
LINE
  5
23B
100
AcDbEntity
  8
4
100
AcDbLine
 62
7
  6
BYLAYER
 10
44.791659466
 20
18.2000263114
 11
44.791659466
 21
21.2000263114
  0
LINE
  5
23C
100
AcDbEntity
  8
7
100
AcDbLine
 62
7
  6
BYLAYER
 10
44.791659466
 20
174.2333403974
 11
44.791659466
 21
177.2333403974
  0
LINE
  5
23D
100
AcDbEntity
  8
4
100
AcDbLine
 62
7
  6
BYLAYER
 10
142.4629877668
 20
72.3882664574
 11
142.2310044407
 21
72.3882664574
  0
LINE
  5
23E
100
AcDbEntity
  8
4
100
AcDbLine
 62
7
  6
BYLAYER
 10
109.5810217556
 20
73.8892470365
 11
124.5810217556
 21
73.8892470365
  0
LINE
  5
23F
100
AcDbEntity
  8
4
100
AcDbLine
 62
7
  6
BYLAYER
 10
124.5810217556
 20
76.3892470365
 11
121.5810217556
 21
76.3892470365
  0
LINE
  5
240
100
AcDbEntity
  8
4
100
AcDbLine
 62
7
  6
BYLAYER
 10
112.5810217556
 20
76.3892470365
 11
109.5810217556
 21
76.3892470365
  0
LINE
  5
241
100
AcDbEntity
  8
4
100
AcDbLine
 62
7
  6
BYLAYER
 10
93.5810044407
 20
78.3892470365
 11
112.5810217556
 21
78.3892470365
  0
LINE
  5
242
100
AcDbEntity
  8
4
100
AcDbLine
 62
7
  6
BYLAYER
 10
121.5810217556
 20
78.3892470365
 11
136.1804723092
 21
78.3892470365
  0
LINE
  5
243
100
AcDbEntity
  8
7
100
AcDbLine
 62
7
  6
BYLAYER
 10
138.9276835881
 20
184.807321646
 11
143.1304640114
 21
186.0081160527
  0
LINE
  5
244
100
AcDbEntity
  8
4
100
AcDbLine
 62
7
  6
BYLAYER
 10
143.1304640114
 20
76.8036921062
 11
138.9276835881
 21
78.0044865129
  0
LINE
  5
245
100
AcDbEntity
  8
4
100
AcDbLine
 62
7
  6
BYLAYER
 10
78.0810044407
 20
50.3892470365
 11
78.0810044407
 21
56.3892470365
  0
LINE
  5
246
100
AcDbEntity
  8
7
100
AcDbLine
 62
7
  6
BYLAYER
 10
78.0810044407
 20
206.4225611225
 11
78.0810044407
 21
212.4225611225
  0
LINE
  5
247
100
AcDbEntity
  8
4
100
AcDbLine
 62
7
  6
BYLAYER
 10
82.3514598482
 20
47.9892470365
 11
82.3514598482
 21
58.7892470365
  0
LINE
  5
248
100
AcDbEntity
  8
7
100
AcDbLine
 62
7
  6
BYLAYER
 10
82.3514598482
 20
204.0225611225
 11
82.3514598482
 21
214.8225611225
  0
LINE
  5
249
100
AcDbEntity
  8
4
100
AcDbLine
 62
7
  6
BYLAYER
 10
85.3514598482
 20
47.9892470365
 11
85.3514598482
 21
58.7892470365
  0
LINE
  5
24A
100
AcDbEntity
  8
7
100
AcDbLine
 62
7
  6
BYLAYER
 10
85.3514598482
 20
204.0225611225
 11
85.3514598482
 21
214.8225611225
  0
LINE
  5
24B
100
AcDbEntity
  8
4
100
AcDbLine
 62
7
  6
BYLAYER
 10
85.4549447821
 20
47.0367995545
 11
85.4549447821
 21
59.7416945185
  0
LINE
  5
24C
100
AcDbEntity
  8
7
100
AcDbLine
 62
7
  6
BYLAYER
 10
85.4549447821
 20
203.0701136405
 11
85.4549447821
 21
215.7750086045
  0
LINE
  5
24D
100
AcDbEntity
  8
7
100
AcDbLine
 62
7
  6
BYLAYER
 10
86.6995440439
 20
215.7750086045
 11
86.6995440439
 21
203.0701136405
  0
LINE
  5
24E
100
AcDbEntity
  8
4
100
AcDbLine
 62
7
  6
BYLAYER
 10
86.6995440439
 20
59.7416945185
 11
86.6995440439
 21
47.0367995545
  0
LINE
  5
24F
100
AcDbEntity
  8
4
100
AcDbLine
 62
7
  6
BYLAYER
 10
86.791659466
 20
25.2000263114
 11
86.791659466
 21
68.2000263114
  0
LINE
  5
250
100
AcDbEntity
  8
7
100
AcDbLine
 62
7
  6
BYLAYER
 10
86.791659466
 20
181.2333403974
 11
86.791659466
 21
224.2333403974
  0
LINE
  5
251
100
AcDbEntity
  8
4
100
AcDbLine
 62
7
  6
BYLAYER
 10
89.5810044407
 20
32.3892470365
 11
89.5810044407
 21
48.8892470365
  0
LINE
  5
252
100
AcDbEntity
  8
4
100
AcDbLine
 62
7
  6
BYLAYER
 10
89.5810044407
 20
57.8892470365
 11
89.5810044407
 21
74.3892470365
  0
LINE
  5
253
100
AcDbEntity
  8
7
100
AcDbLine
 62
7
  6
BYLAYER
 10
89.5810044407
 20
188.4225611225
 11
89.5810044407
 21
204.9225611225
  0
LINE
  5
254
100
AcDbEntity
  8
7
100
AcDbLine
 62
7
  6
BYLAYER
 10
89.5810044407
 20
213.9225611225
 11
89.5810044407
 21
230.4225611225
  0
LINE
  5
255
100
AcDbEntity
  8
4
100
AcDbLine
 62
7
  6
BYLAYER
 10
89.791659466
 20
25.2000263114
 11
89.791659466
 21
31.3314219458
  0
LINE
  5
256
100
AcDbEntity
  8
4
100
AcDbLine
 62
7
  6
BYLAYER
 10
89.791659466
 20
49.2951442025
 11
89.791659466
 21
57.4914820899
  0
LINE
  5
257
100
AcDbEntity
  8
7
100
AcDbLine
 62
7
  6
BYLAYER
 10
89.791659466
 20
181.2333403974
 11
89.791659466
 21
187.3647360318
  0
LINE
  5
258
100
AcDbEntity
  8
7
100
AcDbLine
 62
7
  6
BYLAYER
 10
89.791659466
 20
205.3284582885
 11
89.791659466
 21
213.5247961759
  0
LINE
  5
259
100
AcDbEntity
  8
7
100
AcDbLine
 62
7
  6
BYLAYER
 10
91.5810044407
 20
216.9225611225
 11
91.5810044407
 21
213.9225611225
  0
LINE
  5
25A
100
AcDbEntity
  8
7
100
AcDbLine
 62
7
  6
BYLAYER
 10
91.5810044407
 20
204.9225611225
 11
91.5810044407
 21
201.9225611225
  0
LINE
  5
25B
100
AcDbEntity
  8
4
100
AcDbLine
 62
7
  6
BYLAYER
 10
91.5810044407
 20
60.8892470365
 11
91.5810044407
 21
57.8892470365
  0
LINE
  5
25C
100
AcDbEntity
  8
4
100
AcDbLine
 62
7
  6
BYLAYER
 10
91.5810044407
 20
48.8892470365
 11
91.5810044407
 21
45.8892470365
  0
LINE
  5
25D
100
AcDbEntity
  8
7
100
AcDbLine
 62
7
  6
BYLAYER
 10
92.0810044407
 20
216.9225611225
 11
92.0810044407
 21
201.9225611225
  0
LINE
  5
25E
100
AcDbEntity
  8
4
100
AcDbLine
 62
7
  6
BYLAYER
 10
92.0810044407
 20
60.8892470365
 11
92.0810044407
 21
45.8892470365
  0
LINE
  5
25F
100
AcDbEntity
  8
4
100
AcDbLine
 62
7
  6
BYLAYER
 10
94.0810044407
 20
45.8892470365
 11
94.0810044407
 21
60.8892470365
  0
LINE
  5
260
100
AcDbEntity
  8
7
100
AcDbLine
 62
7
  6
BYLAYER
 10
94.0810044407
 20
201.9225611225
 11
94.0810044407
 21
216.9225611225
  0
LINE
  5
261
100
AcDbEntity
  8
7
100
AcDbLine
 62
7
  6
BYLAYER
 10
109.0810217556
 20
231.9225611225
 11
109.0810217556
 21
230.4225611225
  0
LINE
  5
262
100
AcDbEntity
  8
7
100
AcDbLine
 62
7
  6
BYLAYER
 10
109.0810217556
 20
188.4225611225
 11
109.0810217556
 21
186.9225611225
  0
LINE
  5
263
100
AcDbEntity
  8
4
100
AcDbLine
 62
7
  6
BYLAYER
 10
109.0810217556
 20
75.8892470365
 11
109.0810217556
 21
74.3892470365
  0
LINE
  5
264
100
AcDbEntity
  8
4
100
AcDbLine
 62
7
  6
BYLAYER
 10
109.0810217556
 20
32.3892470365
 11
109.0810217556
 21
30.8892470365
  0
LINE
  5
265
100
AcDbEntity
  8
7
100
AcDbLine
 62
7
  6
BYLAYER
 10
113.0810217556
 20
233.9225611225
 11
113.0810217556
 21
232.9225611225
  0
LINE
  5
266
100
AcDbEntity
  8
7
100
AcDbLine
 62
7
  6
BYLAYER
 10
113.0810217556
 20
185.9225611225
 11
113.0810217556
 21
184.9225611225
  0
LINE
  5
267
100
AcDbEntity
  8
4
100
AcDbLine
 62
7
  6
BYLAYER
 10
113.0810217556
 20
77.8892470365
 11
113.0810217556
 21
76.8892470365
  0
LINE
  5
268
100
AcDbEntity
  8
4
100
AcDbLine
 62
7
  6
BYLAYER
 10
113.0810217556
 20
29.8892470365
 11
113.0810217556
 21
28.8892470365
  0
LINE
  5
269
100
AcDbEntity
  8
4
100
AcDbLine
 62
7
  6
BYLAYER
 10
121.0810217556
 20
28.8892470365
 11
121.0810217556
 21
29.8892470365
  0
LINE
  5
26A
100
AcDbEntity
  8
4
100
AcDbLine
 62
7
  6
BYLAYER
 10
121.0810217556
 20
76.8892470365
 11
121.0810217556
 21
77.8892470365
  0
LINE
  5
26B
100
AcDbEntity
  8
7
100
AcDbLine
 62
7
  6
BYLAYER
 10
121.0810217556
 20
184.9225611225
 11
121.0810217556
 21
185.9225611225
  0
LINE
  5
26C
100
AcDbEntity
  8
7
100
AcDbLine
 62
7
  6
BYLAYER
 10
121.0810217556
 20
232.9225611225
 11
121.0810217556
 21
233.9225611225
  0
LINE
  5
26D
100
AcDbEntity
  8
4
100
AcDbLine
 62
7
  6
BYLAYER
 10
125.0810217556
 20
30.8892470365
 11
125.0810217556
 21
32.3892470365
  0
LINE
  5
26E
100
AcDbEntity
  8
4
100
AcDbLine
 62
7
  6
BYLAYER
 10
125.0810217556
 20
74.3892470365
 11
125.0810217556
 21
75.8892470365
  0
LINE
  5
26F
100
AcDbEntity
  8
7
100
AcDbLine
 62
7
  6
BYLAYER
 10
125.0810217556
 20
186.9225611225
 11
125.0810217556
 21
188.4225611225
  0
LINE
  5
270
100
AcDbEntity
  8
7
100
AcDbLine
 62
7
  6
BYLAYER
 10
125.0810217556
 20
230.4225611225
 11
125.0810217556
 21
231.9225611225
  0
LINE
  5
271
100
AcDbEntity
  8
7
100
AcDbLine
 62
7
  6
BYLAYER
 10
39.791659466
 20
174.2333403974
 11
82.791659466
 21
174.2333403974
  0
LINE
  5
272
100
AcDbEntity
  8
7
100
AcDbLine
 62
7
  6
BYLAYER
 10
142.2310044407
 20
228.4215805434
 11
142.2310044407
 21
190.4235417015
  0
LINE
  5
273
100
AcDbEntity
  8
4
100
AcDbLine
 62
7
  6
BYLAYER
 10
142.2310044407
 20
72.3882664574
 11
142.2310044407
 21
34.3902276155
  0
LINE
  5
274
100
AcDbEntity
  8
7
100
AcDbLine
 62
7
  6
BYLAYER
 10
142.3310044407
 20
228.4215805434
 11
142.3310044407
 21
190.4235417015
  0
LINE
  5
275
100
AcDbEntity
  8
4
100
AcDbLine
 62
7
  6
BYLAYER
 10
142.3310044407
 20
72.3882664574
 11
142.3310044407
 21
34.3902276155
  0
LINE
  5
276
100
AcDbEntity
  8
7
100
AcDbLine
 62
7
  6
BYLAYER
 10
144.5810217556
 20
230.9139582969
 11
144.5810217556
 21
230.6576485209
  0
LINE
  5
277
100
AcDbEntity
  8
7
100
AcDbLine
 62
7
  6
BYLAYER
 10
144.5810217556
 20
188.187473724
 11
144.5810217556
 21
187.931163948
  0
LINE
  5
278
100
AcDbEntity
  8
4
100
AcDbLine
 62
7
  6
BYLAYER
 10
144.5810217556
 20
74.8806442109
 11
144.5810217556
 21
74.6243344349
  0
LINE
  5
279
100
AcDbEntity
  8
4
100
AcDbLine
 62
7
  6
BYLAYER
 10
144.5810217556
 20
32.154159638
 11
144.5810217556
 21
31.897849862
  0
LINE
  5
27A
100
AcDbEntity
  8
7
100
AcDbLine
 62
7
  6
BYLAYER
 10
39.791659466
 20
177.2333403974
 11
82.791659466
 21
177.2333403974
  0
LINE
  5
27B
100
AcDbEntity
  8
7
100
AcDbLine
 62
7
  6
BYLAYER
 10
136.1804723092
 20
184.4225611225
 11
121.5810217556
 21
184.4225611225
  0
LINE
  5
27C
100
AcDbEntity
  8
7
100
AcDbLine
 62
7
  6
BYLAYER
 10
112.5810217556
 20
184.4225611225
 11
93.5810044407
 21
184.4225611225
  0
LINE
  5
27D
100
AcDbEntity
  8
7
100
AcDbLine
 62
7
  6
BYLAYER
 10
109.5810217556
 20
186.4225611225
 11
112.5810217556
 21
186.4225611225
  0
LINE
  5
27E
100
AcDbEntity
  8
7
100
AcDbLine
 62
7
  6
BYLAYER
 10
121.5810217556
 20
186.4225611225
 11
124.5810217556
 21
186.4225611225
  0
LINE
  5
27F
100
AcDbEntity
  8
7
100
AcDbLine
 62
7
  6
BYLAYER
 10
124.5810217556
 20
188.9225611225
 11
109.5810217556
 21
188.9225611225
  0
LINE
  5
280
100
AcDbEntity
  8
7
100
AcDbLine
 62
7
  6
BYLAYER
 10
142.2310044407
 20
190.4235417015
 11
142.4629877668
 21
190.4235417015
  0
LINE
  5
281
100
AcDbEntity
  8
4
100
AcDbLine
 62
7
  6
BYLAYER
 10
142.6865945646
 20
72.4410528619
 11
143.4754489466
 21
72.8354800529
  0
LINE
  5
282
100
AcDbEntity
  8
7
100
AcDbLine
 62
7
  6
BYLAYER
 10
92.0810044407
 20
201.4225611225
 11
93.5810044407
 21
201.4225611225
  0
LINE
  5
283
100
AcDbEntity
  8
7
100
AcDbLine
 62
7
  6
BYLAYER
 10
92.0810044407
 20
201.9225611225
 11
94.0810044407
 21
201.9225611225
  0
LINE
  5
284
100
AcDbEntity
  8
7
100
AcDbLine
 62
7
  6
BYLAYER
 10
85.4549447821
 20
203.0700611225
 11
86.6995440439
 21
203.0700611225
  0
LINE
  5
285
100
AcDbEntity
  8
7
100
AcDbLine
 62
7
  6
BYLAYER
 10
85.3514598482
 20
204.0225611225
 11
82.3514598482
 21
204.0225611225
  0
LINE
  5
286
100
AcDbEntity
  8
7
100
AcDbLine
 62
7
  6
BYLAYER
 10
90.0810044407
 20
205.4225611225
 11
91.0810044407
 21
205.4225611225
  0
LINE
  5
287
100
AcDbEntity
  8
7
100
AcDbLine
 62
7
  6
BYLAYER
 10
78.0810044407
 20
206.4225611225
 11
82.3514598482
 21
206.4225611225
  0
LINE
  5
288
100
AcDbEntity
  8
7
100
AcDbLine
 62
7
  6
BYLAYER
 10
85.3514598482
 20
206.4225611225
 11
85.4549447821
 21
206.4225611225
  0
LINE
  5
289
100
AcDbEntity
  8
7
100
AcDbLine
 62
7
  6
BYLAYER
 10
86.6995440439
 20
206.4225611225
 11
86.791659466
 21
206.4225611225
  0
LINE
  5
28A
100
AcDbEntity
  8
7
100
AcDbLine
 62
7
  6
BYLAYER
 10
89.791659466
 20
206.4225611225
 11
92.0810044407
 21
206.4225611225
  0
LINE
  5
28B
100
AcDbEntity
  8
7
100
AcDbLine
 62
7
  6
BYLAYER
 10
85.3514598482
 20
206.7225611225
 11
82.3514598482
 21
206.7225611225
  0
LINE
  5
28C
100
AcDbEntity
  8
7
100
AcDbLine
 62
7
  6
BYLAYER
 10
143.4754489466
 20
189.976328106
 11
142.6865945646
 21
190.370755297
  0
LINE
  5
28D
100
AcDbEntity
  8
7
100
AcDbLine
 62
7
  6
BYLAYER
 10
85.3514598482
 20
212.1225611225
 11
82.3514598482
 21
212.1225611225
  0
LINE
  5
28E
100
AcDbEntity
  8
7
100
AcDbLine
 62
7
  6
BYLAYER
 10
78.0810044407
 20
212.4225611225
 11
82.3514598482
 21
212.4225611225
  0
LINE
  5
28F
100
AcDbEntity
  8
7
100
AcDbLine
 62
7
  6
BYLAYER
 10
85.3514598482
 20
212.4225611225
 11
85.4549447821
 21
212.4225611225
  0
LINE
  5
290
100
AcDbEntity
  8
7
100
AcDbLine
 62
7
  6
BYLAYER
 10
86.6995440439
 20
212.4225611225
 11
86.791659466
 21
212.4225611225
  0
LINE
  5
291
100
AcDbEntity
  8
7
100
AcDbLine
 62
7
  6
BYLAYER
 10
89.791659466
 20
212.4225611225
 11
92.0810044407
 21
212.4225611225
  0
LINE
  5
292
100
AcDbEntity
  8
7
100
AcDbLine
 62
7
  6
BYLAYER
 10
91.0810044407
 20
213.4225611225
 11
90.0810044407
 21
213.4225611225
  0
LINE
  5
293
100
AcDbEntity
  8
7
100
AcDbLine
 62
7
  6
BYLAYER
 10
85.3514598482
 20
214.8225611225
 11
82.3514598482
 21
214.8225611225
  0
LINE
  5
294
100
AcDbEntity
  8
7
100
AcDbLine
 62
7
  6
BYLAYER
 10
85.4549447821
 20
215.7750611225
 11
86.6995440439
 21
215.7750611225
  0
LINE
  5
295
100
AcDbEntity
  8
7
100
AcDbLine
 62
7
  6
BYLAYER
 10
92.0810044407
 20
216.9225611225
 11
94.0810044407
 21
216.9225611225
  0
LINE
  5
296
100
AcDbEntity
  8
7
100
AcDbLine
 62
7
  6
BYLAYER
 10
93.5810044407
 20
217.4225611225
 11
92.0810044407
 21
217.4225611225
  0
LINE
  5
297
100
AcDbEntity
  8
7
100
AcDbLine
 62
7
  6
BYLAYER
 10
86.791659466
 20
219.2333403974
 11
89.5810044407
 21
219.2333403974
  0
LINE
  5
298
100
AcDbEntity
  8
7
100
AcDbLine
 62
7
  6
BYLAYER
 10
89.5810044407
 20
224.2333403974
 11
86.791659466
 21
224.2333403974
  0
LINE
  5
299
100
AcDbEntity
  8
7
100
AcDbLine
 62
7
  6
BYLAYER
 10
142.4629877668
 20
228.4215805434
 11
142.2310044407
 21
228.4215805434
  0
LINE
  5
29A
100
AcDbEntity
  8
7
100
AcDbLine
 62
7
  6
BYLAYER
 10
109.5810217556
 20
229.9225611225
 11
124.5810217556
 21
229.9225611225
  0
LINE
  5
29B
100
AcDbEntity
  8
4
100
AcDbLine
 62
7
  6
BYLAYER
 10
138.9276835881
 20
28.77400756
 11
143.1304640114
 21
29.9748019667
  0
LINE
  5
29C
100
AcDbEntity
  8
7
100
AcDbLine
 62
7
  6
BYLAYER
 10
124.5810217556
 20
232.4225611225
 11
121.5810217556
 21
232.4225611225
  0
LINE
  5
29D
100
AcDbEntity
  8
7
100
AcDbLine
 62
7
  6
BYLAYER
 10
112.5810217556
 20
232.4225611225
 11
109.5810217556
 21
232.4225611225
  0
LINE
  5
29E
100
AcDbEntity
  8
7
100
AcDbLine
 62
7
  6
BYLAYER
 10
93.5810044407
 20
234.4225611225
 11
112.5810217556
 21
234.4225611225
  0
LINE
  5
29F
100
AcDbEntity
  8
7
100
AcDbLine
 62
7
  6
BYLAYER
 10
121.5810217556
 20
234.4225611225
 11
136.1804723092
 21
234.4225611225
  0
LINE
  5
2A0
100
AcDbEntity
  8
7
100
AcDbLine
 62
7
  6
BYLAYER
 10
143.1304640114
 20
232.8370061922
 11
138.9276835882
 21
234.0378005989
  0
ARC
  5
2A1
100
AcDbEntity
  8
4
100
AcDbCircle
 62
7
  6
BYLAYER
 10
82.791659466
 20
25.2000263114
 40
7.0
100
AcDbArc
 50
269.9999999999
 51
360.0
  0
ARC
  5
2A2
100
AcDbEntity
  8
4
100
AcDbCircle
 62
7
  6
BYLAYER
 10
82.791659466
 20
25.2000263114
 40
4.0
100
AcDbArc
 50
270.0
 51
360.0
  0
ARC
  5
2A3
100
AcDbEntity
  8
4
100
AcDbCircle
 62
7
  6
BYLAYER
 10
93.5810044407
 20
32.3892470365
 40
4.0
100
AcDbArc
 50
180.0
 51
270.0
  0
ARC
  5
2A4
100
AcDbEntity
  8
4
100
AcDbCircle
 62
7
  6
BYLAYER
 10
93.5810044407
 20
74.3892470365
 40
4.0
100
AcDbArc
 50
90.0
 51
180.0
  0
ARC
  5
2A5
100
AcDbEntity
  8
4
100
AcDbCircle
 62
7
  6
BYLAYER
 10
93.5810044407
 20
60.8892470365
 40
0.5
100
AcDbArc
 50
0.0
 51
90.0
  0
ARC
  5
2A6
100
AcDbEntity
  8
4
100
AcDbCircle
 62
7
  6
BYLAYER
 10
93.5810044407
 20
45.8892470365
 40
0.5
100
AcDbArc
 50
270.0
 51
360.0
  0
ARC
  5
2A7
100
AcDbEntity
  8
4
100
AcDbCircle
 62
7
  6
BYLAYER
 10
92.0810044407
 20
45.8892470365
 40
0.5
100
AcDbArc
 50
180.0
 51
270.0
  0
ARC
  5
2A8
100
AcDbEntity
  8
4
100
AcDbCircle
 62
7
  6
BYLAYER
 10
91.0810044407
 20
48.8892470365
 40
0.5
100
AcDbArc
 50
0.0
 51
90.0
  0
ARC
  5
2A9
100
AcDbEntity
  8
4
100
AcDbCircle
 62
7
  6
BYLAYER
 10
90.0810044407
 20
48.8892470365
 40
0.5
100
AcDbArc
 50
90.0
 51
180.0
  0
ARC
  5
2AA
100
AcDbEntity
  8
4
100
AcDbCircle
 62
7
  6
BYLAYER
 10
112.5810217556
 20
28.8892470365
 40
0.5
100
AcDbArc
 50
270.0
 51
360.0
  0
ARC
  5
2AB
100
AcDbEntity
  8
4
100
AcDbCircle
 62
7
  6
BYLAYER
 10
112.5810217556
 20
29.8892470365
 40
0.5
100
AcDbArc
 50
0.0
 51
90.0
  0
ARC
  5
2AC
100
AcDbEntity
  8
4
100
AcDbCircle
 62
7
  6
BYLAYER
 10
109.5810217556
 20
30.8892470365
 40
0.5
100
AcDbArc
 50
180.0
 51
270.0
  0
ARC
  5
2AD
100
AcDbEntity
  8
4
100
AcDbCircle
 62
7
  6
BYLAYER
 10
109.5810217556
 20
32.3892470365
 40
0.5
100
AcDbArc
 50
90.0
 51
180.0
  0
ARC
  5
2AE
100
AcDbEntity
  8
4
100
AcDbCircle
 62
7
  6
BYLAYER
 10
109.5810217556
 20
74.3892470365
 40
0.5
100
AcDbArc
 50
180.0
 51
270.0
  0
ARC
  5
2AF
100
AcDbEntity
  8
4
100
AcDbCircle
 62
7
  6
BYLAYER
 10
109.5810217556
 20
75.8892470365
 40
0.5
100
AcDbArc
 50
90.0
 51
180.0
  0
ARC
  5
2B0
100
AcDbEntity
  8
4
100
AcDbCircle
 62
7
  6
BYLAYER
 10
112.5810217556
 20
76.8892470365
 40
0.5
100
AcDbArc
 50
270.0
 51
360.0
  0
ARC
  5
2B1
100
AcDbEntity
  8
4
100
AcDbCircle
 62
7
  6
BYLAYER
 10
112.5810217556
 20
77.8892470365
 40
0.5
100
AcDbArc
 50
0.0
 51
90.0
  0
ARC
  5
2B2
100
AcDbEntity
  8
4
100
AcDbCircle
 62
7
  6
BYLAYER
 10
90.0810044407
 20
57.8892470365
 40
0.5
100
AcDbArc
 50
180.0
 51
270.0
  0
ARC
  5
2B3
100
AcDbEntity
  8
4
100
AcDbCircle
 62
7
  6
BYLAYER
 10
91.0810044407
 20
57.8892470365
 40
0.5
100
AcDbArc
 50
269.9999999999
 51
359.9999999999
  0
ARC
  5
2B4
100
AcDbEntity
  8
4
100
AcDbCircle
 62
7
  6
BYLAYER
 10
92.0810044407
 20
60.8892470365
 40
0.5
100
AcDbArc
 50
90.0
 51
180.0
  0
ARC
  5
2B5
100
AcDbEntity
  8
7
100
AcDbCircle
 62
7
  6
BYLAYER
 10
82.791659466
 20
181.2333403974
 40
7.0
100
AcDbArc
 50
270.0
 51
360.0
  0
ARC
  5
2B6
100
AcDbEntity
  8
7
100
AcDbCircle
 62
7
  6
BYLAYER
 10
82.791659466
 20
181.2333403974
 40
4.0
100
AcDbArc
 50
270.0
 51
360.0
  0
ARC
  5
2B7
100
AcDbEntity
  8
7
100
AcDbCircle
 62
7
  6
BYLAYER
 10
93.5810044407
 20
230.4225611225
 40
4.0
100
AcDbArc
 50
90.0
 51
180.0
  0
ARC
  5
2B8
100
AcDbEntity
  8
7
100
AcDbCircle
 62
7
  6
BYLAYER
 10
93.5810044407
 20
188.4225611225
 40
4.0
100
AcDbArc
 50
180.0
 51
270.0
  0
ARC
  5
2B9
100
AcDbEntity
  8
7
100
AcDbCircle
 62
7
  6
BYLAYER
 10
92.0810044407
 20
216.9225611225
 40
0.5
100
AcDbArc
 50
90.0
 51
180.0
  0
ARC
  5
2BA
100
AcDbEntity
  8
7
100
AcDbCircle
 62
7
  6
BYLAYER
 10
91.0810044407
 20
213.9225611225
 40
0.5
100
AcDbArc
 50
270.0
 51
359.9999999999
  0
ARC
  5
2BB
100
AcDbEntity
  8
7
100
AcDbCircle
 62
7
  6
BYLAYER
 10
90.0810044407
 20
213.9225611225
 40
0.5
100
AcDbArc
 50
180.0
 51
270.0
  0
ARC
  5
2BC
100
AcDbEntity
  8
7
100
AcDbCircle
 62
7
  6
BYLAYER
 10
112.5810217556
 20
233.9225611225
 40
0.5
100
AcDbArc
 50
0.0
 51
90.0
  0
ARC
  5
2BD
100
AcDbEntity
  8
7
100
AcDbCircle
 62
7
  6
BYLAYER
 10
112.5810217556
 20
232.9225611225
 40
0.5
100
AcDbArc
 50
270.0
 51
360.0
  0
ARC
  5
2BE
100
AcDbEntity
  8
7
100
AcDbCircle
 62
7
  6
BYLAYER
 10
109.5810217556
 20
231.9225611225
 40
0.5
100
AcDbArc
 50
90.0
 51
180.0
  0
ARC
  5
2BF
100
AcDbEntity
  8
7
100
AcDbCircle
 62
7
  6
BYLAYER
 10
109.5810217556
 20
230.4225611225
 40
0.5
100
AcDbArc
 50
180.0
 51
270.0
  0
ARC
  5
2C0
100
AcDbEntity
  8
7
100
AcDbCircle
 62
7
  6
BYLAYER
 10
109.5810217556
 20
188.4225611225
 40
0.5
100
AcDbArc
 50
90.0
 51
180.0
  0
ARC
  5
2C1
100
AcDbEntity
  8
7
100
AcDbCircle
 62
7
  6
BYLAYER
 10
109.5810217556
 20
186.9225611225
 40
0.5
100
AcDbArc
 50
180.0
 51
270.0
  0
ARC
  5
2C2
100
AcDbEntity
  8
7
100
AcDbCircle
 62
7
  6
BYLAYER
 10
112.5810217556
 20
185.9225611225
 40
0.5
100
AcDbArc
 50
0.0
 51
90.0
  0
ARC
  5
2C3
100
AcDbEntity
  8
7
100
AcDbCircle
 62
7
  6
BYLAYER
 10
112.5810217556
 20
184.9225611225
 40
0.5
100
AcDbArc
 50
270.0
 51
360.0
  0
ARC
  5
2C4
100
AcDbEntity
  8
7
100
AcDbCircle
 62
7
  6
BYLAYER
 10
90.0810044407
 20
204.9225611225
 40
0.5
100
AcDbArc
 50
90.0
 51
180.0
  0
ARC
  5
2C5
100
AcDbEntity
  8
7
100
AcDbCircle
 62
7
  6
BYLAYER
 10
91.0810044407
 20
204.9225611225
 40
0.5
100
AcDbArc
 50
0.0
 51
90.0
  0
ARC
  5
2C6
100
AcDbEntity
  8
7
100
AcDbCircle
 62
7
  6
BYLAYER
 10
92.0810044407
 20
201.9225611225
 40
0.5
100
AcDbArc
 50
180.0
 51
270.0
  0
ARC
  5
2C7
100
AcDbEntity
  8
7
100
AcDbCircle
 62
7
  6
BYLAYER
 10
93.5810044407
 20
201.9225611225
 40
0.5
100
AcDbArc
 50
270.0
 51
360.0
  0
ARC
  5
2C8
100
AcDbEntity
  8
7
100
AcDbCircle
 62
7
  6
BYLAYER
 10
93.5810044407
 20
216.9225611225
 40
0.5
100
AcDbArc
 50
0.0
 51
90.0
  0
ARC
  5
2C9
100
AcDbEntity
  8
4
100
AcDbCircle
 62
7
  6
BYLAYER
 10
136.1804723095
 20
38.3892470362
 40
9.9999999997
100
AcDbArc
 50
269.9999999984
 51
285.9453958992
  0
ARC
  5
2CA
100
AcDbEntity
  8
4
100
AcDbCircle
 62
7
  6
BYLAYER
 10
136.1804723092
 20
68.3892470367
 40
9.9999999998
100
AcDbArc
 50
74.0546040987
 51
89.9999999996
  0
ARC
  5
2CB
100
AcDbEntity
  8
4
100
AcDbCircle
 62
7
  6
BYLAYER
 10
142.5810217556
 20
31.897849862
 40
2.0
100
AcDbArc
 50
285.9453959008
 51
360.0
  0
ARC
  5
2CC
100
AcDbEntity
  8
4
100
AcDbCircle
 62
7
  6
BYLAYER
 10
142.5810217556
 20
32.154159638
 40
2.0
100
AcDbArc
 50
0.0
 51
63.4349488229
  0
ARC
  5
2CD
100
AcDbEntity
  8
4
100
AcDbCircle
 62
7
  6
BYLAYER
 10
142.5810217556
 20
74.6243344349
 40
2.0
100
AcDbArc
 50
296.5650511769
 51
360.0
  0
ARC
  5
2CE
100
AcDbEntity
  8
4
100
AcDbCircle
 62
7
  6
BYLAYER
 10
142.5810217556
 20
74.8806442109
 40
2.0
100
AcDbArc
 50
0.0
 51
74.0546040992
  0
ARC
  5
2CF
100
AcDbEntity
  8
4
100
AcDbCircle
 62
7
  6
BYLAYER
 10
142.5969400419
 20
74.8761672233
 40
2.0
100
AcDbArc
 50
352.7663205404
 51
45.8608706157
  0
ARC
  5
2D0
100
AcDbEntity
  8
4
100
AcDbCircle
 62
7
  6
BYLAYER
 10
142.5965368944
 20
32.1464858114
 40
2.0
100
AcDbArc
 50
352.8586286031
 51
40.1808214997
  0
ARC
  5
2D1
100
AcDbEntity
  8
4
100
AcDbCircle
 62
7
  6
BYLAYER
 10
124.5810217556
 20
32.3892470365
 40
0.5
100
AcDbArc
 50
0.0
 51
90.0
  0
ARC
  5
2D2
100
AcDbEntity
  8
4
100
AcDbCircle
 62
7
  6
BYLAYER
 10
124.5810217556
 20
30.8892470365
 40
0.5
100
AcDbArc
 50
270.0
 51
360.0
  0
ARC
  5
2D3
100
AcDbEntity
  8
4
100
AcDbCircle
 62
7
  6
BYLAYER
 10
121.5810217556
 20
29.8892470365
 40
0.5
100
AcDbArc
 50
90.0
 51
180.0
  0
ARC
  5
2D4
100
AcDbEntity
  8
4
100
AcDbCircle
 62
7
  6
BYLAYER
 10
121.5810217556
 20
28.8892470365
 40
0.5
100
AcDbArc
 50
180.0
 51
270.0
  0
ARC
  5
2D5
100
AcDbEntity
  8
4
100
AcDbCircle
 62
7
  6
BYLAYER
 10
142.4629877668
 20
33.8902276155
 40
0.5
100
AcDbArc
 50
63.4349488225
 51
90.0000000013
  0
ARC
  5
2D6
100
AcDbEntity
  8
4
100
AcDbCircle
 62
7
  6
BYLAYER
 10
142.4629877668
 20
72.8882664574
 40
0.5
100
AcDbArc
 50
270.0000000001
 51
296.5650511771
  0
ARC
  5
2D7
100
AcDbEntity
  8
4
100
AcDbCircle
 62
7
  6
BYLAYER
 10
121.5810217556
 20
77.8892470365
 40
0.5
100
AcDbArc
 50
90.0
 51
180.0
  0
ARC
  5
2D8
100
AcDbEntity
  8
4
100
AcDbCircle
 62
7
  6
BYLAYER
 10
121.5810217556
 20
76.8892470365
 40
0.5
100
AcDbArc
 50
180.0
 51
270.0
  0
ARC
  5
2D9
100
AcDbEntity
  8
4
100
AcDbCircle
 62
7
  6
BYLAYER
 10
124.5810217556
 20
75.8892470365
 40
0.5
100
AcDbArc
 50
0.0
 51
90.0
  0
ARC
  5
2DA
100
AcDbEntity
  8
4
100
AcDbCircle
 62
7
  6
BYLAYER
 10
124.5810217556
 20
74.3892470365
 40
0.5
100
AcDbArc
 50
270.0
 51
360.0
  0
ARC
  5
2DB
100
AcDbEntity
  8
7
100
AcDbCircle
 62
7
  6
BYLAYER
 10
121.5810217556
 20
184.9225611225
 40
0.5
100
AcDbArc
 50
180.0
 51
270.0
  0
ARC
  5
2DC
100
AcDbEntity
  8
7
100
AcDbCircle
 62
7
  6
BYLAYER
 10
121.5810217556
 20
185.9225611225
 40
0.5
100
AcDbArc
 50
90.0
 51
180.0
  0
ARC
  5
2DD
100
AcDbEntity
  8
7
100
AcDbCircle
 62
7
  6
BYLAYER
 10
124.5810217556
 20
186.9225611225
 40
0.5
100
AcDbArc
 50
270.0
 51
360.0
  0
ARC
  5
2DE
100
AcDbEntity
  8
7
100
AcDbCircle
 62
7
  6
BYLAYER
 10
124.5810217556
 20
188.4225611225
 40
0.5
100
AcDbArc
 50
0.0
 51
90.0
  0
CIRCLE
  5
2DF
100
AcDbEntity
  8
7
100
AcDbCircle
 62
7
  6
BYLAYER
 10
116.5863971096
 20
209.4225611225
 40
17.5
  0
CIRCLE
  5
2E0
100
AcDbEntity
  8
7
100
AcDbCircle
 62
7
  6
BYLAYER
 10
116.5863971096
 20
209.4225611225
 40
16.5
  0
CIRCLE
  5
2E1
100
AcDbEntity
  8
7
100
AcDbCircle
 62
7
  6
BYLAYER
 10
116.5863971096
 20
209.4225611225
 40
15.5
  0
CIRCLE
  5
2E2
100
AcDbEntity
  8
7
100
AcDbCircle
 62
7
  6
BYLAYER
 10
116.5863971096
 20
209.4225611225
 40
15.0
  0
CIRCLE
  5
2E3
100
AcDbEntity
  8
7
100
AcDbCircle
 62
7
  6
BYLAYER
 10
116.5863971096
 20
209.4225611225
 40
10.7121426428
  0
CIRCLE
  5
2E4
100
AcDbEntity
  8
7
100
AcDbCircle
 62
7
  6
BYLAYER
 10
116.5863971096
 20
209.4225611225
 40
7.1414284285
  0
ARC
  5
2E5
100
AcDbEntity
  8
7
100
AcDbCircle
 62
7
  6
BYLAYER
 10
124.5810217556
 20
230.4225611225
 40
0.5
100
AcDbArc
 50
270.0
 51
360.0
  0
ARC
  5
2E6
100
AcDbEntity
  8
7
100
AcDbCircle
 62
7
  6
BYLAYER
 10
124.5810217556
 20
231.9225611225
 40
0.5
100
AcDbArc
 50
0.0
 51
90.0
  0
ARC
  5
2E7
100
AcDbEntity
  8
7
100
AcDbCircle
 62
7
  6
BYLAYER
 10
121.5810217556
 20
232.9225611225
 40
0.5
100
AcDbArc
 50
180.0
 51
270.0
  0
ARC
  5
2E8
100
AcDbEntity
  8
7
100
AcDbCircle
 62
7
  6
BYLAYER
 10
121.5810217556
 20
233.9225611225
 40
0.5
100
AcDbArc
 50
90.0
 51
180.0
  0
ARC
  5
2E9
100
AcDbEntity
  8
7
100
AcDbCircle
 62
7
  6
BYLAYER
 10
136.1804723095
 20
194.4225611222
 40
9.9999999997
100
AcDbArc
 50
269.9999999989
 51
285.9453958987
  0
ARC
  5
2EA
100
AcDbEntity
  8
7
100
AcDbCircle
 62
7
  6
BYLAYER
 10
142.5810217556
 20
188.187473724
 40
2.0
100
AcDbArc
 50
0.0
 51
63.4349488229
  0
ARC
  5
2EB
100
AcDbEntity
  8
7
100
AcDbCircle
 62
7
  6
BYLAYER
 10
142.5810217556
 20
187.931163948
 40
2.0
100
AcDbArc
 50
285.9453959009
 51
360.0
  0
ARC
  5
2EC
100
AcDbEntity
  8
7
100
AcDbCircle
 62
7
  6
BYLAYER
 10
142.5965368944
 20
188.1797998974
 40
2.0
100
AcDbArc
 50
352.8586286033
 51
40.1808215006
  0
ARC
  5
2ED
100
AcDbEntity
  8
7
100
AcDbCircle
 62
7
  6
BYLAYER
 10
142.4629877668
 20
189.9235417015
 40
0.5
100
AcDbArc
 50
63.4349488224
 51
90.0000000015
  0
ARC
  5
2EE
100
AcDbEntity
  8
7
100
AcDbCircle
 62
7
  6
BYLAYER
 10
136.1804723092
 20
224.4225611227
 40
9.9999999998
100
AcDbArc
 50
74.0546040983
 51
90.0000000002
  0
ARC
  5
2EF
100
AcDbEntity
  8
7
100
AcDbCircle
 62
7
  6
BYLAYER
 10
142.5810217556
 20
230.9139582969
 40
2.0
100
AcDbArc
 50
0.0
 51
74.0546040987
  0
ARC
  5
2F0
100
AcDbEntity
  8
7
100
AcDbCircle
 62
7
  6
BYLAYER
 10
142.5810217556
 20
230.6576485209
 40
2.0
100
AcDbArc
 50
296.565051177
 51
360.0
  0
ARC
  5
2F1
100
AcDbEntity
  8
7
100
AcDbCircle
 62
7
  6
BYLAYER
 10
142.5969400419
 20
230.9094813093
 40
2.0
100
AcDbArc
 50
352.7663205402
 51
45.8608706156
  0
ARC
  5
2F2
100
AcDbEntity
  8
7
100
AcDbCircle
 62
7
  6
BYLAYER
 10
142.4629877668
 20
228.9215805434
 40
0.5
100
AcDbArc
 50
269.9999999986
 51
296.5650511782
  0
ENDSEC
  0
SECTION
  2
OBJECTS
  0
DICTIONARY
  5
C
100
AcDbDictionary
280
0
281
1
  3
ACAD_GROUP
350
D
  3
ACAD_MLINESTYLE
350
17
  3
ACAD_LAYOUT
350
1A
  3
ACAD_PLOTSETTINGS
350
19
  3
ACAD_PLOTSTYLENAME
350
E
  0
DICTIONARY
  5
D
102
{ACAD_REACTORS
330
C
102
}
100
AcDbDictionary
280
0
281
1
  0
ACDBDICTIONARYWDFLT
  5
E
102
{ACAD_REACTORS
330
C
102
}
100
AcDbDictionary
281
1
  3
Normal
350
F
100
AcDbDictionaryWithDefault
340
F
  0
DICTIONARY
  5
17
102
{ACAD_REACTORS
330
C
102
}
100
AcDbDictionary
280
0
281
1
  3
Standard
350
18
  0
DICTIONARY
  5
19
102
{ACAD_REACTORS
330
C
102
}
100
AcDbDictionary
281
1
  0
DICTIONARY
  5
1A
102
{ACAD_REACTORS
330
C
102
}
100
AcDbDictionary
281
1
  3
Model
350
2F3
  3
Layout1
350
2F4
  0
ACDBPLACEHOLDER
  5
F
102
{ACAD_REACTORS
330
E
102
}
  0
MLINESTYLE
  5
18
102
{ACAD_REACTORS
330
17
102
}
100
AcDbMlineStyle
  2
STANDARD
 70
0
  3

 62
256
 51
90.0
 52
90.0
 71
2
 49
0.5
 62
256
  6
BYLAYER
 49
-0.5
 62
256
  6
BYLAYER
  0
LAYOUT
  5
2F3
102
{ACAD_REACTORS
330
1A
102
}
100
AcDbPlotSettings
  1

  2
none_device
  4

  6

 40
0.0
 41
0.0
 42
0.0
 43
0.0
 44
210.0
 45
297.0
 46
0.0
 47
0.0
 48
0.0
 49
0.0
140
0.0
141
0.0
142
1.0
143
1.0
 70
1024
 72
1
 73
0
 74
0
  7

 75
0
147
1.0
148
0.0
149
0.0
100
AcDbLayout
  1
Model
 70
0
 71
0
 10
0.0
 20
0.0
 11
210.0
 21
297.0
 12
0.0
 22
0.0
 32
0.0
 14
0.0
 24
0.0
 34
0.0
 15
0.0
 25
0.0
 35
0.0
146
0.0
 13
0.0
 23
0.0
 33
0.0
 16
1.0
 26
0.0
 36
0.0
 17
0.0
 27
1.0
 37
0.0
 76
0
330
212
345
0
346
0
  0
LAYOUT
  5
2F4
102
{ACAD_REACTORS
330
1A
102
}
100
AcDbPlotSettings
  1

  2
none_device
  4

  6

 40
0.0
 41
0.0
 42
0.0
 43
0.0
 44
210.0
 45
297.0
 46
0.0
 47
0.0
 48
0.0
 49
0.0
140
0.0
141
0.0
142
1.0
143
1.0
 70
0
 72
1
 73
0
 74
0
  7

 75
0
147
1.0
148
0.0
149
0.0
100
AcDbLayout
  1
Layout1
 70
0
 71
1
 10
0.0
 20
0.0
 11
210.0
 21
297.0
 12
0.0
 22
0.0
 32
0.0
 14
0.0
 24
0.0
 34
0.0
 15
0.0
 25
0.0
 35
0.0
146
0.0
 13
0.0
 23
0.0
 33
0.0
 16
1.0
 26
0.0
 36
0.0
 17
0.0
 27
1.0
 37
0.0
 76
0
330
213
345
0
346
0
  0
ENDSEC
  0
EOF
