999
DXF file: C:\Users\sesa63760\Dev\_Creo\CAD\MCADID0003831_3D-CAD\drw0001_1.dxf
999
Pro/ENGINEER 2019471 by Parametric Technology Corporation
  0
SECTION
  2
HEADER
  9
$ACADVER
  1
AC1024
  9
$DWGCODEPAGE
  3
ANSI_1252
  9
$EXTMAX
 10
53.8501800667
 20
76.1595403801
 30
0.0
  9
$EXTMIN
 10
0.0
 20
0.0
 30
0.0
  9
$LIMMIN
 10
0.0
 20
0.0
  9
$LIMMAX
 10
53.8501800667
 20
76.1595403801
  9
$VIEWCTR
 10
26.9250900334
 20
38.07977019
  9
$VIEWSIZE
 40
76.1595403801
  9
$CLAYER
  8
0
  9
$LTSCALE
 40
4.9644737433
  9
$CELTYPE
  6
BYLAYER
  9
$DIMSCALE
 40
1.0
  9
$DIMASZ
 40
0.6410735722
  9
$DIMEXO
 40
1.0
  9
$DIMDLI
 40
3.4300000408
  9
$DIMEXE
 40
1.0
  9
$DIMCEN
 40
0.8123684307
  9
$DIMLFAC
 40
1.0
  9
$DIMBLK
  1
_FILLED
  9
$DIMALT
 70
0
  9
$DIMALTF
 40
0.0393700787
  9
$DIMTXT
 40
0.8975030011
  9
$DIMTOL
 70
1
  9
$DIMLIM
 70
0
  9
$DIMTFAC
 40
1.0
  9
$DIMTP
 40
0.01
  9
$DIMTM
 40
0.01
  9
$DIMGAP
 40
0.625
  9
$DIMDSEP
 70
46
  9
$AUNITS
 70
0
  9
$PDMODE
 70
3
  9
$PDSIZE
 40
0.3125
  9
$HANDSEED
  5
3AF
  9
$TILEMODE
 70
1
  9
$MEASUREMENT
 70
1
  9
$INSUNITS
 70
4
  0
ENDSEC
  0
SECTION
  2
CLASSES
  0
CLASS
  1
ACDBDICTIONARYWDFLT
  2
AcDbDictionaryWithDefault
  3
AutoCAD 2000
 90
0
 91
1
280
0
281
0
  0
CLASS
  1
ACDBPLACEHOLDER
  2
AcDbPlaceHolder
  3
AutoCAD 2000
 90
0
 91
1
280
0
281
0
  0
CLASS
  1
LAYOUT
  2
AcDbLayout
  3
AutoCAD 2000
 90
0
 91
0
280
0
281
0
  0
ENDSEC
  0
SECTION
  2
TABLES
  0
TABLE
  2
VPORT
  5
8
100
AcDbSymbolTable
 70
2
  0
VPORT
  5
1F4
100
AcDbSymbolTableRecord
100
AcDbViewportTableRecord
  2
*ACTIVE
 70
0
 10
0.0
 20
0.0
 11
1.0
 21
1.0
 12
26.9250900334
 22
38.07977019
 13
0.0
 23
0.0
 14
1.0
 24
1.0
 15
0.0
 25
0.0
 16
0.0
 26
0.0
 36
1.0
 17
0.0
 27
0.0
 37
0.0
 40
76.1595403801
 41
0.7070707071
 42
50.0
 43
0.0
 44
0.0
 50
0.0
 51
0.0
 71
0
 72
100
 73
1
 74
1
 75
0
 76
0
 77
0
 78
0
  0
ENDTAB
  0
TABLE
  2
LTYPE
  5
5
100
AcDbSymbolTable
 70
6
  0
LTYPE
  5
14
100
AcDbSymbolTableRecord
100
AcDbLinetypeTableRecord
  2
BYBLOCK
 70
0
  3

 72
65
 73
0
 40
0.0
  0
LTYPE
  5
15
100
AcDbSymbolTableRecord
100
AcDbLinetypeTableRecord
  2
BYLAYER
 70
0
  3

 72
65
 73
0
 40
0.0
  0
LTYPE
  5
16
100
AcDbSymbolTableRecord
100
AcDbLinetypeTableRecord
  2
CONTINUOUS
 70
64
  3
Solid line
 72
65
 73
0
 40
0.0
  0
LTYPE
  5
1F5
100
AcDbSymbolTableRecord
100
AcDbLinetypeTableRecord
  2
CENTER
 70
64
  3
____ _ ____ _ ____ _ ____ _ ____ _ ____ _ ____
 72
65
 73
4
 40
0.6
 49
0.375
 74
0
 49
-0.075
 74
0
 49
0.075
 74
0
 49
-0.075
 74
0
  0
LTYPE
  5
1F6
100
AcDbSymbolTableRecord
100
AcDbLinetypeTableRecord
  2
HIDDEN
 70
64
  3
- - - - - - - - - - - - - - - - - - - -
 72
65
 73
2
 40
0.2
 49
0.1
 74
0
 49
-0.1
 74
0
  0
LTYPE
  5
1F7
100
AcDbSymbolTableRecord
100
AcDbLinetypeTableRecord
  2
PHANTOM
 70
64
  3
_____ _ _ _____ _ _ _____ _ _ _____
 72
65
 73
6
 40
0.8
 49
0.45
 74
0
 49
-0.05
 74
0
 49
0.1
 74
0
 49
-0.05
 74
0
 49
0.1
 74
0
 49
-0.05
 74
0
  0
LTYPE
  5
1F8
100
AcDbSymbolTableRecord
100
AcDbLinetypeTableRecord
  2
DOT
 70
64
  3
. . . . . . . . . . . . . . . . . . . .
 72
65
 73
2
 40
0.2
 49
0.1
 74
0
 49
-0.1
 74
0
  0
LTYPE
  5
1F9
100
AcDbSymbolTableRecord
100
AcDbLinetypeTableRecord
  2
DASHED
 70
64
  3
- - - - - - - - - - - - - - - - - - - -
 72
65
 73
2
 40
0.2
 49
0.1
 74
0
 49
-0.1
 74
0
  0
ENDTAB
  0
TABLE
  2
LAYER
  5
2
100
AcDbSymbolTable
 70
36
  0
LAYER
  5
10
100
AcDbSymbolTableRecord
100
AcDbLayerTableRecord
  2
0
 70
0
 62
7
  6
CONTINUOUS
370
-3
390
F
  0
LAYER
  5
1FA
100
AcDbSymbolTableRecord
100
AcDbLayerTableRecord
  2
DEFAULT_1
 70
0
 62
7
  6
CENTER
370
-3
390
F
  0
LAYER
  5
1FB
100
AcDbSymbolTableRecord
100
AcDbLayerTableRecord
  2
DEFAULT_2
 70
0
 62
7
  6
HIDDEN
370
-3
390
F
  0
LAYER
  5
1FC
100
AcDbSymbolTableRecord
100
AcDbLayerTableRecord
  2
DEFAULT_3
 70
0
 62
7
  6
PHANTOM
370
-3
390
F
  0
LAYER
  5
1FD
100
AcDbSymbolTableRecord
100
AcDbLayerTableRecord
  2
00_COMPONENTS
 70
0
 62
7
  6
CONTINUOUS
370
-3
390
F
  0
LAYER
  5
1FE
100
AcDbSymbolTableRecord
100
AcDbLayerTableRecord
  2
01_1_DEFAULT_DATUMS
 70
0
 62
7
  6
CONTINUOUS
370
-3
390
F
  0
LAYER
  5
1FF
100
AcDbSymbolTableRecord
100
AcDbLayerTableRecord
  2
01_PLANES
 70
0
 62
7
  6
CONTINUOUS
370
-3
390
F
  0
LAYER
  5
200
100
AcDbSymbolTableRecord
100
AcDbLayerTableRecord
  2
02_COORD_SYS
 70
0
 62
7
  6
CONTINUOUS
370
-3
390
F
  0
LAYER
  5
201
100
AcDbSymbolTableRecord
100
AcDbLayerTableRecord
  2
03_AXES
 70
0
 62
7
  6
CONTINUOUS
370
-3
390
F
  0
LAYER
  5
202
100
AcDbSymbolTableRecord
100
AcDbLayerTableRecord
  2
04_POINTS
 70
0
 62
7
  6
CONTINUOUS
370
-3
390
F
  0
LAYER
  5
203
100
AcDbSymbolTableRecord
100
AcDbLayerTableRecord
  2
05_CURVES
 70
0
 62
7
  6
CONTINUOUS
370
-3
390
F
  0
LAYER
  5
204
100
AcDbSymbolTableRecord
100
AcDbLayerTableRecord
  2
06_SURFS
 70
0
 62
7
  6
CONTINUOUS
370
-3
390
F
  0
LAYER
  5
205
100
AcDbSymbolTableRecord
100
AcDbLayerTableRecord
  2
07_COSMETICS
 70
0
 62
7
  6
CONTINUOUS
370
-3
390
F
  0
LAYER
  5
206
100
AcDbSymbolTableRecord
100
AcDbLayerTableRecord
  2
10_NOTES
 70
0
 62
7
  6
CONTINUOUS
370
-3
390
F
  0
LAYER
  5
207
100
AcDbSymbolTableRecord
100
AcDbLayerTableRecord
  2
11_NOTES_PUB
 70
0
 62
7
  6
CONTINUOUS
370
-3
390
F
  0
LAYER
  5
208
100
AcDbSymbolTableRecord
100
AcDbLayerTableRecord
  2
13_REF_GTOL
 70
0
 62
7
  6
CONTINUOUS
370
-3
390
F
  0
LAYER
  5
209
100
AcDbSymbolTableRecord
100
AcDbLayerTableRecord
  2
16_MISC
 70
0
 62
7
  6
CONTINUOUS
370
-3
390
F
  0
LAYER
  5
20A
100
AcDbSymbolTableRecord
100
AcDbLayerTableRecord
  2
17_NO_PRINT
 70
0
 62
7
  6
CONTINUOUS
370
-3
390
F
  0
LAYER
  5
20B
100
AcDbSymbolTableRecord
100
AcDbLayerTableRecord
  2
18_DATUM_CAMS_JOINTS
 70
0
 62
7
  6
CONTINUOUS
370
-3
390
F
  0
LAYER
  5
20C
100
AcDbSymbolTableRecord
100
AcDbLayerTableRecord
  2
19_DATUM_FUNCTIONAL
 70
0
 62
7
  6
CONTINUOUS
370
-3
390
F
  0
LAYER
  5
20D
100
AcDbSymbolTableRecord
100
AcDbLayerTableRecord
  2
20_DATUM_KINEMATIC_SCHEME
 70
0
 62
7
  6
CONTINUOUS
370
-3
390
F
  0
ENDTAB
  0
TABLE
  2
STYLE
  5
3
100
AcDbSymbolTable
 70
1
  0
STYLE
  5
11
100
AcDbSymbolTableRecord
100
AcDbTextStyleTableRecord
  2
STANDARD
 70
0
 40
0.0
 41
1.0
 50
0.0
 71
0
 42
0.2
  3
ARIAL.TTF
  4

  0
STYLE
  5
20E
100
AcDbSymbolTableRecord
100
AcDbTextStyleTableRecord
  2
TEXTSTYLE_1
 70
0
 40
0.0
 41
0.8
 50
0.0
 71
0
 42
0.2
  3
gdt
  4

  0
ENDTAB
  0
TABLE
  2
VIEW
  5
6
100
AcDbSymbolTable
 70
0
  0
ENDTAB
  0
TABLE
  2
UCS
  5
7
100
AcDbSymbolTable
 70
0
  0
ENDTAB
  0
TABLE
  2
APPID
  5
9
100
AcDbSymbolTable
 70
1
  0
APPID
  5
20F
100
AcDbSymbolTableRecord
100
AcDbRegAppTableRecord
  2
ACAD
 70
0
  0
ENDTAB
  0
TABLE
  2
BLOCK_RECORD
  5
1
100
AcDbSymbolTable
 70
0
  0
BLOCK_RECORD
  5
210
100
AcDbSymbolTableRecord
100
AcDbBlockTableRecord
  2
*Model_Space
  0
BLOCK_RECORD
  5
211
100
AcDbSymbolTableRecord
100
AcDbBlockTableRecord
  2
*Paper_Space
  0
BLOCK_RECORD
  5
212
100
AcDbSymbolTableRecord
100
AcDbBlockTableRecord
  2
_FILLED
  0
ENDTAB
  0
TABLE
  2
DIMSTYLE
  5
A
100
AcDbSymbolTable
 70
1
100
AcDbDimStyleTable
 71
0
  0
DIMSTYLE
105
213
100
AcDbSymbolTableRecord
100
AcDbDimStyleTableRecord
  2
STANDARD
 70
0
  3

  4

 40
1.0
 41
0.6410735722
 42
1.0
 43
0.38
 44
1.0
 45
0.0
 46
0.0
 47
0.01
 48
0.01
140
0.8975030011
141
0.09
142
0.0
143
25.4
144
1.0
145
0.0
146
1.0
147
0.625
 71
1
 72
0
 73
0
 74
0
 75
0
 76
0
 77
1
 78
8
 79
2
170
0
171
1
172
0
173
0
174
0
175
0
176
0
177
0
178
0
270
2
179
2
271
2
272
2
273
2
274
2
275
0
280
0
281
0
282
0
283
1
284
8
285
0
286
0
287
3
288
0
340
11
278
46
341
212
342
212
343
212
344
212
  0
ENDTAB
  0
ENDSEC
  0
SECTION
  2
BLOCKS
  0
BLOCK
  5
20
100
AcDbEntity
  8
0
100
AcDbBlockBegin
  2
*Model_Space
 70
0
 10
0.0
 20
0.0
 30
0.0
  3
*Model_Space
  1

  0
ENDBLK
  5
21
100
AcDbEntity
  8
0
100
AcDbBlockEnd
  0
BLOCK
  5
1C
100
AcDbEntity
  8
0
100
AcDbBlockBegin
  2
*Paper_Space
 70
0
 10
0.0
 20
0.0
 30
0.0
  3
*Paper_Space
  1

  0
ENDBLK
  5
1D
100
AcDbEntity
  8
0
100
AcDbBlockEnd
  0
BLOCK
  5
214
100
AcDbEntity
  8
0
100
AcDbBlockBegin
  2
_FILLED
 70
64
 10
0.0
 20
0.0
  3
_FILLED
  1

  0
SOLID
  5
215
100
AcDbEntity
  8
0
  6
BYBLOCK
 62
0
100
AcDbTrace
 10
0.0
 20
0.0
 11
-1.0
 21
0.25
 12
-1.0
 22
-0.25
 13
-1.0
 23
-0.25
  0
ENDBLK
  5
216
100
AcDbEntity
  8
0
  6
BYBLOCK
 62
0
100
AcDbBlockEnd
  0
ENDSEC
  0
SECTION
  2
ENTITIES
  0
LINE
  5
217
100
AcDbEntity
  8
0
100
AcDbLine
 62
7
  6
BYLAYER
 10
9.8314239248
 20
24.3393710672
 11
9.8314239248
 21
24.7936709283
  0
LINE
  5
218
100
AcDbEntity
  8
0
100
AcDbLine
 62
7
  6
BYLAYER
 10
10.679955595
 20
24.3037820229
 11
10.679955595
 21
23.8494821618
  0
LINE
  5
219
100
AcDbEntity
  8
0
100
AcDbLine
 62
7
  6
BYLAYER
 10
7.0145760795
 20
31.5001587161
 11
7.8058028736
 21
32.2195914345
  0
LINE
  5
21A
100
AcDbEntity
  8
0
100
AcDbLine
 62
7
  6
BYLAYER
 10
31.3361792395
 20
50.4157571624
 11
30.0923938918
 21
49.6976616436
  0
LINE
  5
21B
100
AcDbEntity
  8
0
100
AcDbLine
 62
7
  6
BYLAYER
 10
35.0421207523
 20
52.5553707206
 11
36.2859060441
 21
53.2734662072
  0
LINE
  5
21C
100
AcDbEntity
  8
0
100
AcDbLine
 62
7
  6
BYLAYER
 10
19.8723334463
 20
28.631272664
 11
19.8723372735
 21
28.1005618929
  0
LINE
  5
21D
100
AcDbEntity
  8
0
100
AcDbLine
 62
7
  6
BYLAYER
 10
16.0893932906
 20
35.1835563273
 11
15.6297875662
 21
35.4489174031
  0
LINE
  5
21E
100
AcDbEntity
  8
0
100
AcDbLine
 62
7
  6
BYLAYER
 10
8.1213849172
 20
32.4504495387
 11
7.8058028736
 21
32.2195914345
  0
LINE
  5
21F
100
AcDbEntity
  8
0
100
AcDbLine
 62
7
  6
BYLAYER
 10
36.734236915
 20
50.8979734707
 11
35.4904516292
 21
50.1798779876
  0
LINE
  5
220
100
AcDbEntity
  8
0
100
AcDbLine
 62
7
  6
BYLAYER
 10
40.4401784338
 20
53.0375870324
 11
41.6839637755
 21
53.7556825478
  0
LINE
  5
221
100
AcDbEntity
  8
0
100
AcDbLine
 62
7
  6
BYLAYER
 10
37.1858860054
 20
50.6747021867
 11
36.0186025344
 21
50.0007747833
  0
LINE
  5
222
100
AcDbEntity
  8
0
100
AcDbLine
 62
7
  6
BYLAYER
 10
40.9683293199
 20
52.8584838171
 11
42.1356128877
 21
53.5324112764
  0
LINE
  5
223
100
AcDbEntity
  8
0
100
AcDbLine
 62
7
  6
BYLAYER
 10
32.7331878096
 20
47.3528150334
 11
20.7613864813
 21
40.4409335722
  0
LINE
  5
224
100
AcDbEntity
  8
0
100
AcDbLine
 62
7
  6
BYLAYER
 10
12.6296923534
 20
35.7461258027
 11
8.7406212487
 21
33.5007829564
  0
LINE
  5
225
100
AcDbEntity
  8
0
100
AcDbLine
 62
7
  6
BYLAYER
 10
19.8369415275
 20
39.1566539853
 11
14.2607166776
 21
35.9372382845
  0
LINE
  5
226
100
AcDbEntity
  8
0
100
AcDbLine
 62
7
  6
BYLAYER
 10
8.1213849172
 20
32.4504495387
 11
8.2666210246
 21
32.5342857918
  0
LINE
  5
227
100
AcDbEntity
  8
0
100
AcDbLine
 62
7
  6
BYLAYER
 10
43.3589533465
 20
37.7255224676
 11
43.3999727791
 21
37.7338820699
  0
LINE
  5
228
100
AcDbEntity
  8
0
100
AcDbLine
 62
7
  6
BYLAYER
 10
35.6960586403
 20
50.9621327004
 11
35.7363857455
 21
51.0076834136
  0
LINE
  5
229
100
AcDbEntity
  8
0
100
AcDbLine
 62
7
  6
BYLAYER
 10
8.2628320415
 20
32.5320527039
 11
8.2668355433
 21
32.5339135215
  0
LINE
  5
22A
100
AcDbEntity
  8
0
100
AcDbLine
 62
7
  6
BYLAYER
 10
10.8106295494
 20
30.0480871418
 11
10.6117439124
 21
29.9332611511
  0
LINE
  5
22B
100
AcDbEntity
  8
0
100
AcDbLine
 62
7
  6
BYLAYER
 10
43.3672631871
 20
46.9488674345
 11
43.453140955
 21
46.9940969226
  0
LINE
  5
22C
100
AcDbEntity
  8
0
100
AcDbLine
 62
7
  6
BYLAYER
 10
44.1278912015
 20
46.8025623735
 11
43.7924030124
 21
46.6258698552
  0
LINE
  5
22D
100
AcDbEntity
  8
0
100
AcDbLine
 62
7
  6
BYLAYER
 10
26.6585379179
 20
32.0686402713
 11
26.3109901361
 21
31.2186400454
  0
LINE
  5
22E
100
AcDbEntity
  8
0
100
AcDbLine
 62
7
  6
BYLAYER
 10
11.7611115786
 20
28.8937852768
 11
10.1117461508
 21
27.9415293873
  0
LINE
  5
22F
100
AcDbEntity
  8
0
100
AcDbLine
 62
7
  6
BYLAYER
 10
12.2659261973
 20
28.0305395778
 11
10.6117439124
 21
27.0755026911
  0
LINE
  5
230
100
AcDbEntity
  8
0
100
AcDbLine
 62
7
  6
BYLAYER
 10
43.9417980748
 20
46.121813232
 11
43.8559203069
 21
46.0765837438
  0
LINE
  5
231
100
AcDbEntity
  8
0
100
AcDbLine
 62
7
  6
BYLAYER
 10
7.9332127064
 20
30.8984353916
 11
8.4813919483
 21
31.0796283716
  0
LINE
  5
232
100
AcDbEntity
  8
0
100
AcDbLine
 62
7
  6
BYLAYER
 10
22.4593646927
 20
39.3418650621
 11
21.5494696541
 21
39.4658846706
  0
LINE
  5
233
100
AcDbEntity
  8
0
100
AcDbLine
 62
7
  6
BYLAYER
 10
29.3474433172
 20
45.4100239323
 11
29.3486480521
 21
45.3987617575
  0
LINE
  5
234
100
AcDbEntity
  8
0
100
AcDbLine
 62
7
  6
BYLAYER
 10
29.3474433172
 20
45.4100239323
 11
29.3480773416
 21
45.3984322596
  0
LINE
  5
235
100
AcDbEntity
  8
0
100
AcDbLine
 62
7
  6
BYLAYER
 10
29.3474433172
 20
45.4100239323
 11
29.3474484929
 21
45.39806847
  0
LINE
  5
236
100
AcDbEntity
  8
0
100
AcDbLine
 62
7
  6
BYLAYER
 10
9.955691103
 20
25.0683424933
 11
12.7548800686
 21
26.6844453493
  0
LINE
  5
237
100
AcDbEntity
  8
0
100
AcDbLine
 62
7
  6
BYLAYER
 10
12.7695437894
 20
26.6182913326
 11
12.5866301888
 21
26.5126867465
  0
LINE
  5
238
100
AcDbEntity
  8
0
100
AcDbLine
 62
7
  6
BYLAYER
 10
42.8288936771
 20
43.6547675487
 11
41.661610111
 21
42.9808400904
  0
LINE
  5
239
100
AcDbEntity
  8
0
100
AcDbLine
 62
7
  6
BYLAYER
 10
46.6113369933
 20
45.8385491801
 11
47.7786204629
 21
46.5124765827
  0
LINE
  5
23A
100
AcDbEntity
  8
0
100
AcDbLine
 62
7
  6
BYLAYER
 10
43.0508568257
 20
43.0400608113
 11
41.8070720346
 21
42.3219656137
  0
LINE
  5
23B
100
AcDbEntity
  8
0
100
AcDbLine
 62
7
  6
BYLAYER
 10
46.7567988359
 20
45.1796746567
 11
48.0005836743
 21
45.8977698815
  0
LINE
  5
23C
100
AcDbEntity
  8
0
100
AcDbLine
 62
7
  6
BYLAYER
 10
10.679955595
 20
24.3037820229
 11
12.9180012091
 21
25.5959105477
  0
LINE
  5
23D
100
AcDbEntity
  8
0
100
AcDbLine
 62
7
  6
BYLAYER
 10
44.4930223614
 20
44.8880352943
 11
44.3938638149
 21
44.8697032372
  0
LINE
  5
23E
100
AcDbEntity
  8
0
100
AcDbLine
 62
7
  6
BYLAYER
 10
34.51792312
 20
50.9097616997
 11
34.5160854424
 21
50.897892201
  0
LINE
  5
23F
100
AcDbEntity
  8
0
100
AcDbLine
 62
7
  6
BYLAYER
 10
34.527332287
 20
50.9130569327
 11
34.5252113454
 21
50.9010961103
  0
LINE
  5
240
100
AcDbEntity
  8
0
100
AcDbLine
 62
7
  6
BYLAYER
 10
42.6159583421
 20
48.0433763192
 11
42.6857951491
 21
48.1140495254
  0
LINE
  5
241
100
AcDbEntity
  8
0
100
AcDbLine
 62
7
  6
BYLAYER
 10
43.3878903561
 20
47.9763307712
 11
43.1150674298
 21
47.7002403866
  0
LINE
  5
242
100
AcDbEntity
  8
0
100
AcDbLine
 62
7
  6
BYLAYER
 10
43.2578589337
 20
47.303847738
 11
43.1880221266
 21
47.2331745318
  0
LINE
  5
243
100
AcDbEntity
  8
0
100
AcDbLine
 62
7
  6
BYLAYER
 10
12.879497015
 20
25.1193804125
 11
10.679955595
 21
23.8494821618
  0
LINE
  5
244
100
AcDbEntity
  8
0
100
AcDbLine
 62
7
  6
BYLAYER
 10
44.7405594559
 20
45.5617313581
 11
44.3531888705
 21
45.4901157491
  0
LINE
  5
245
100
AcDbEntity
  8
0
100
AcDbLine
 62
7
  6
BYLAYER
 10
44.0043192017
 20
45.7760329155
 11
44.1034777483
 21
45.7943649726
  0
LINE
  5
246
100
AcDbEntity
  8
0
100
AcDbLine
 62
7
  6
BYLAYER
 10
25.1869175762
 20
29.8901683366
 11
19.5990224866
 21
26.6640148599
  0
LINE
  5
247
100
AcDbEntity
  8
0
100
AcDbLine
 62
7
  6
BYLAYER
 10
13.6627815095
 20
23.1790100511
 11
13.5213607421
 21
23.0973612203
  0
LINE
  5
248
100
AcDbEntity
  8
0
100
AcDbLine
 62
7
  6
BYLAYER
 10
38.6043135181
 20
36.8861050252
 11
26.76135962
 21
30.0486132185
  0
LINE
  5
249
100
AcDbEntity
  8
0
100
AcDbLine
 62
7
  6
BYLAYER
 10
18.6296654921
 20
25.353805449
 11
14.7405943874
 21
23.1084626027
  0
LINE
  5
24A
100
AcDbEntity
  8
0
100
AcDbLine
 62
7
  6
BYLAYER
 10
12.6598516383
 20
26.5352895048
 11
12.5866301888
 21
26.5126867465
  0
LINE
  5
24B
100
AcDbEntity
  8
0
100
AcDbLine
 62
7
  6
BYLAYER
 10
44.8938149916
 20
43.642168563
 11
44.7845627036
 21
43.6513231443
  0
LINE
  5
24C
100
AcDbEntity
  8
0
100
AcDbLine
 62
7
  6
BYLAYER
 10
41.7745522225
 20
49.0243811536
 11
41.8261034564
 21
49.1182265829
  0
LINE
  5
24D
100
AcDbEntity
  8
0
100
AcDbLine
 62
7
  6
BYLAYER
 10
42.5443411556
 20
49.0453106691
 11
42.3429522454
 21
48.6786961903
  0
LINE
  5
24E
100
AcDbEntity
  8
0
100
AcDbLine
 62
7
  6
BYLAYER
 10
42.4631873049
 20
48.3961472507
 11
42.4116360711
 21
48.3023018215
  0
LINE
  5
24F
100
AcDbEntity
  8
0
100
AcDbLine
 62
7
  6
BYLAYER
 10
13.1636399212
 20
22.9394900549
 11
13.5213607421
 21
23.0973612203
  0
LINE
  5
250
100
AcDbEntity
  8
0
100
AcDbLine
 62
7
  6
BYLAYER
 10
45.2062034575
 20
44.2937190548
 11
44.779400885
 21
44.3294821396
  0
LINE
  5
251
100
AcDbEntity
  8
0
100
AcDbLine
 62
7
  6
BYLAYER
 10
44.5066508815
 20
44.5625686286
 11
44.6159031695
 21
44.5534140474
  0
LINE
  5
252
100
AcDbEntity
  8
0
100
AcDbLine
 62
7
  6
BYLAYER
 10
40.8700883135
 20
49.8603516351
 11
40.901697075
 21
49.9743530181
  0
LINE
  5
253
100
AcDbEntity
  8
0
100
AcDbLine
 62
7
  6
BYLAYER
 10
41.6243559655
 20
49.9751441737
 11
41.5008738767
 21
49.5297888918
  0
LINE
  5
254
100
AcDbEntity
  8
0
100
AcDbLine
 62
7
  6
BYLAYER
 10
41.5833245885
 20
49.363604365
 11
41.551715827
 21
49.2496029821
  0
LINE
  5
255
100
AcDbEntity
  8
0
100
AcDbLine
 62
7
  6
BYLAYER
 10
43.0508568257
 20
35.8426290929
 11
41.8070719872
 21
35.1245338681
  0
LINE
  5
256
100
AcDbEntity
  8
0
100
AcDbLine
 62
7
  6
BYLAYER
 10
46.7567988359
 20
37.9822429383
 11
48.000583627
 21
38.7003381358
  0
LINE
  5
257
100
AcDbEntity
  8
0
100
AcDbLine
 62
7
  6
BYLAYER
 10
42.828893678
 20
35.3958826886
 11
41.661610132
 21
34.7219552419
  0
LINE
  5
258
100
AcDbEntity
  8
0
100
AcDbLine
 62
7
  6
BYLAYER
 10
46.6113369925
 20
37.579664319
 11
47.7786205603
 21
38.2535917783
  0
LINE
  5
259
100
AcDbEntity
  8
0
100
AcDbLine
 62
7
  6
BYLAYER
 10
12.1449778311
 20
22.6139891762
 11
13.1636399212
 21
22.9394900549
  0
LINE
  5
25A
100
AcDbEntity
  8
0
100
AcDbLine
 62
7
  6
BYLAYER
 10
45.1312941603
 20
42.4242562199
 11
45.0154595893
 21
42.4606032038
  0
LINE
  5
25B
100
AcDbEntity
  8
0
100
AcDbLine
 62
7
  6
BYLAYER
 10
45.5098570248
 20
43.0392804223
 11
45.0573402511
 21
43.1812727459
  0
LINE
  5
25C
100
AcDbEntity
  8
0
100
AcDbLine
 62
7
  6
BYLAYER
 10
44.8581128728
 20
43.3474763146
 11
44.9739474438
 21
43.3111293307
  0
LINE
  5
25D
100
AcDbEntity
  8
0
100
AcDbLine
 62
7
  6
BYLAYER
 10
39.9316368292
 20
50.5244189845
 11
39.9422871868
 21
50.654912223
  0
LINE
  5
25E
100
AcDbEntity
  8
0
100
AcDbLine
 62
7
  6
BYLAYER
 10
40.6575038668
 20
50.7359456712
 11
40.6158974153
 21
50.2261636713
  0
LINE
  5
25F
100
AcDbEntity
  8
0
100
AcDbLine
 62
7
  6
BYLAYER
 10
40.646550296
 20
50.1751242133
 11
40.6358999384
 21
50.0446309749
  0
LINE
  5
260
100
AcDbEntity
  8
0
100
AcDbLine
 62
7
  6
BYLAYER
 10
37.2239709721
 20
51.3011881764
 11
37.2142598074
 21
51.299546903
  0
LINE
  5
261
100
AcDbEntity
  8
0
100
AcDbLine
 62
7
  6
BYLAYER
 10
37.2239709721
 20
51.3011881764
 11
37.2141586416
 21
51.2997922977
  0
LINE
  5
262
100
AcDbEntity
  8
0
100
AcDbLine
 62
7
  6
BYLAYER
 10
37.1719252882
 20
51.2997792429
 11
37.2136242398
 21
51.3033074597
  0
LINE
  5
263
100
AcDbEntity
  8
0
100
AcDbLine
 62
7
  6
BYLAYER
 10
45.1978270916
 20
41.2734429699
 11
45.0791332561
 21
41.3358141345
  0
LINE
  5
264
100
AcDbEntity
  8
0
100
AcDbLine
 62
7
  6
BYLAYER
 10
45.6417604824
 20
41.8387341505
 11
45.178073769
 21
42.0823919629
  0
LINE
  5
265
100
AcDbEntity
  8
0
100
AcDbLine
 62
7
  6
BYLAYER
 10
45.0474088982
 20
42.1698100402
 11
45.1661027338
 21
42.1074388756
  0
LINE
  5
266
100
AcDbEntity
  8
0
100
AcDbLine
 62
7
  6
BYLAYER
 10
45.0912753625
 20
40.2267168977
 11
44.9735371799
 21
40.3131075824
  0
LINE
  5
267
100
AcDbEntity
  8
0
100
AcDbLine
 62
7
  6
BYLAYER
 10
38.9893603724
 20
50.9952395309
 11
38.9787100148
 21
51.1380304648
  0
LINE
  5
268
100
AcDbEntity
  8
0
100
AcDbLine
 62
7
  6
BYLAYER
 10
39.6829731241
 20
50.8046238799
 11
39.6936234817
 21
50.661832946
  0
LINE
  5
269
100
AcDbEntity
  8
0
100
AcDbLine
 62
7
  6
BYLAYER
 10
45.0684548276
 20
41.0674209684
 11
45.1861930102
 21
40.9810302837
  0
LINE
  5
26A
100
AcDbEntity
  8
0
100
AcDbLine
 62
7
  6
BYLAYER
 10
44.8150636331
 20
39.3177206405
 11
44.7020653056
 21
39.4253541776
  0
LINE
  5
26B
100
AcDbEntity
  8
0
100
AcDbLine
 62
7
  6
BYLAYER
 10
44.9205742276
 20
40.075740791
 11
45.0335725551
 21
39.9681072539
  0
LINE
  5
26C
100
AcDbEntity
  8
0
100
AcDbLine
 62
7
  6
BYLAYER
 10
44.3780695758
 20
38.5756700859
 11
44.2734429625
 21
38.701087045
  0
LINE
  5
26D
100
AcDbEntity
  8
0
100
AcDbLine
 62
7
  6
BYLAYER
 10
44.6085201022
 20
39.2266429249
 11
44.7131467154
 21
39.1012259658
  0
LINE
  5
26E
100
AcDbEntity
  8
0
100
AcDbLine
 62
7
  6
BYLAYER
 10
43.794338539
 20
38.0244153493
 11
43.7014464254
 21
38.1635847261
  0
LINE
  5
26F
100
AcDbEntity
  8
0
100
AcDbLine
 62
7
  6
BYLAYER
 10
44.1423221278
 20
38.5474180742
 11
44.2352142414
 21
38.4082486974
  0
LINE
  5
270
100
AcDbEntity
  8
0
100
AcDbLine
 62
7
  6
BYLAYER
 10
36.4372381843
 20
51.1306532854
 11
36.3674013772
 21
51.281965266
  0
LINE
  5
271
100
AcDbEntity
  8
0
100
AcDbLine
 62
7
  6
BYLAYER
 10
37.2136242398
 20
51.3033074597
 11
37.162073006
 21
51.4566777798
  0
LINE
  5
272
100
AcDbEntity
  8
0
100
AcDbLine
 62
7
  6
BYLAYER
 10
37.7991568545
 20
51.4431326911
 11
37.8507080883
 21
51.289762371
  0
LINE
  5
273
100
AcDbEntity
  8
0
100
AcDbLine
 62
7
  6
BYLAYER
 10
38.0735444839
 20
51.2576807145
 11
38.0419357224
 21
51.4081799257
  0
LINE
  5
274
100
AcDbEntity
  8
0
100
AcDbLine
 62
7
  6
BYLAYER
 10
38.7235632359
 20
51.2318707276
 11
38.7551719974
 21
51.0813715164
  0
LINE
  5
275
100
AcDbEntity
  8
0
100
AcDbLine
 62
7
  6
BYLAYER
 10
37.8417424851
 20
51.2380384181
 11
37.8355273165
 21
51.2399318575
  0
LINE
  5
276
100
AcDbEntity
  8
0
100
AcDbLine
 62
7
  6
BYLAYER
 10
36.1721193559
 20
51.1977016046
 11
36.2579971238
 21
51.053311255
  0
LINE
  5
277
100
AcDbEntity
  8
0
100
AcDbLine
 62
7
  6
BYLAYER
 10
43.536964291
 20
38.0598970844
 11
43.615136276
 21
37.9114483081
  0
LINE
  5
278
100
AcDbEntity
  8
0
100
AcDbLine
 62
7
  6
BYLAYER
 10
36.9394651617
 20
51.4316196371
 11
37.0093019688
 21
51.2803076564
  0
LINE
  5
279
100
AcDbEntity
  8
0
100
AcDbLine
 62
7
  6
BYLAYER
 10
44.9274918863
 20
40.1040233417
 11
44.9375788085
 21
40.1711713167
  0
LINE
  5
27A
100
AcDbEntity
  8
0
100
AcDbLine
 62
7
  6
BYLAYER
 10
44.9145374478
 20
40.0193712429
 11
44.9230369045
 21
40.0753669873
  0
LINE
  5
27B
100
AcDbEntity
  8
0
100
AcDbLine
 62
7
  6
BYLAYER
 10
39.6875236609
 20
50.739743078
 11
39.6798524142
 21
50.7430292273
  0
LINE
  5
27C
100
AcDbEntity
  8
0
100
AcDbLine
 62
7
  6
BYLAYER
 10
39.6885362902
 20
50.7300376815
 11
39.6808260788
 21
50.7338062672
  0
LINE
  5
27D
100
AcDbEntity
  8
0
100
AcDbLine
 62
7
  6
BYLAYER
 10
39.6862094609
 20
50.7612338297
 11
39.6658660055
 21
50.7718538284
  0
LINE
  5
27E
100
AcDbEntity
  8
0
100
AcDbLine
 62
7
  6
BYLAYER
 10
44.9375788085
 20
40.1711713167
 11
44.9414479034
 21
40.1627631505
  0
ARC
  5
27F
100
AcDbEntity
  8
0
100
AcDbCircle
 62
7
  6
BYLAYER
 10
12.8453177534
 20
-11.8256975376
 40
62.8688278297
100
AcDbArc
 50
59.0631709568
 51
59.1887989989
  0
ARC
  5
280
100
AcDbEntity
  8
0
100
AcDbCircle
 62
7
  6
BYLAYER
 10
4.7240599911
 20
27.8448914126
 40
40.1676170157
100
AcDbArc
 50
14.8857566909
 51
15.3054562474
  0
ARC
  5
281
100
AcDbEntity
  8
0
100
AcDbCircle
 62
7
  6
BYLAYER
 10
11.4184399105
 20
26.6699080523
 40
34.8421948184
100
AcDbArc
 50
44.1089188661
 51
44.324534048
  0
ARC
  5
282
100
AcDbEntity
  8
0
100
AcDbCircle
 62
7
  6
BYLAYER
 10
27.6737246888
 20
24.5533300357
 40
28.7694087657
100
AcDbArc
 50
67.3555332528
 51
68.1006904201
  0
ARC
  5
283
100
AcDbEntity
  8
0
100
AcDbCircle
 62
7
  6
BYLAYER
 10
29.4111763976
 20
23.8311400304
 40
28.6742487419
100
AcDbArc
 50
72.9146946331
 51
73.5264404868
  0
ARC
  5
284
100
AcDbEntity
  8
0
100
AcDbCircle
 62
7
  6
BYLAYER
 10
26.5119403129
 20
25.6101482591
 40
28.3926501567
100
AcDbArc
 50
62.4005020116
 51
63.1941645113
  0
ARC
  5
285
100
AcDbEntity
  8
0
100
AcDbCircle
 62
7
  6
BYLAYER
 10
29.7156297364
 20
24.8235438838
 40
27.6361942009
100
AcDbArc
 50
72.5795049185
 51
72.9000927993
  0
ARC
  5
286
100
AcDbEntity
  8
0
100
AcDbCircle
 62
7
  6
BYLAYER
 10
31.7697974135
 20
24.144481119
 40
27.5055980211
100
AcDbArc
 50
78.5770153585
 51
79.5494648535
  0
ARC
  5
287
100
AcDbEntity
  8
0
100
AcDbCircle
 62
7
  6
BYLAYER
 10
26.2214846201
 20
27.3458066879
 40
27.0316454439
100
AcDbArc
 50
57.8253198592
 51
58.7386294253
  0
ARC
  5
288
100
AcDbEntity
  8
0
100
AcDbCircle
 62
7
  6
BYLAYER
 10
32.0418561626
 20
22.9449345817
 40
24.0939856651
100
AcDbArc
 50
57.447037983
 51
57.8642101754
  0
ARC
  5
289
100
AcDbEntity
  8
0
100
AcDbCircle
 62
7
  6
BYLAYER
 10
33.472667177
 20
27.9957050294
 40
22.0342664383
100
AcDbArc
 50
64.7310658639
 51
65.483339768
  0
ARC
  5
28A
100
AcDbEntity
  8
0
100
AcDbCircle
 62
7
  6
BYLAYER
 10
33.2063429049
 20
27.4552338671
 40
21.982858109
100
AcDbArc
 50
61.7719742854
 51
62.4695363198
  0
ARC
  5
28B
100
AcDbEntity
  8
0
100
AcDbCircle
 62
7
  6
BYLAYER
 10
34.0005434628
 20
28.7291603052
 40
21.7331820377
100
AcDbArc
 50
68.2339718525
 51
69.0408479628
  0
ARC
  5
28C
100
AcDbEntity
  8
0
100
AcDbCircle
 62
7
  6
BYLAYER
 10
33.1296739547
 20
26.0584508005
 40
21.7218318885
100
AcDbArc
 50
57.8608881213
 51
58.4153495077
  0
ARC
  5
28D
100
AcDbEntity
  8
0
100
AcDbCircle
 62
7
  6
BYLAYER
 10
33.1685527406
 20
26.9602945496
 40
21.7128037124
100
AcDbArc
 50
59.4265001579
 51
60.0628566822
  0
ARC
  5
28E
100
AcDbEntity
  8
0
100
AcDbCircle
 62
7
  6
BYLAYER
 10
4.9529146511
 20
24.4014330309
 40
8.692134828
100
AcDbArc
 50
31.5734887505
 51
39.5509131344
  0
ARC
  5
28F
100
AcDbEntity
  8
0
100
AcDbCircle
 62
7
  6
BYLAYER
 10
8.127102498
 20
27.4379125745
 40
3.7594481387
100
AcDbArc
 50
60.6153201533
 51
61.8690809777
  0
ARC
  5
290
100
AcDbEntity
  8
0
100
AcDbCircle
 62
7
  6
BYLAYER
 10
12.751323879
 20
24.7558693698
 40
1.8213236515
100
AcDbArc
 50
300.3077254195
 51
311.6328640502
  0
ARC
  5
291
100
AcDbEntity
  8
0
100
AcDbCircle
 62
7
  6
BYLAYER
 10
12.6195923625
 20
24.6593133703
 40
1.8035678196
100
AcDbArc
 50
299.9993090506
 51
305.0461129682
  0
ARC
  5
292
100
AcDbEntity
  8
0
100
AcDbCircle
 62
7
  6
BYLAYER
 10
12.7620363888
 20
24.7392285047
 40
1.8015513315
100
AcDbArc
 50
299.9986939535
 51
300.2806703929
  0
ARC
  5
293
100
AcDbEntity
  8
0
100
AcDbCircle
 62
7
  6
BYLAYER
 10
10.3617450316
 20
27.5085160392
 40
0.5
100
AcDbArc
 50
119.9998519061
 51
299.9998519061
  0
ARC
  5
294
100
AcDbEntity
  8
0
100
AcDbCircle
 62
7
  6
BYLAYER
 10
12.8366290696
 20
26.0796733984
 40
0.5
100
AcDbArc
 50
119.9998519061
 51
281.6127000014
  0
ARC
  5
295
100
AcDbEntity
  8
0
100
AcDbCircle
 62
7
  6
BYLAYER
 10
16.9368479401
 20
41.5509109083
 40
28.2462725279
100
AcDbArc
 50
0.192720002
 51
0.573984332
  0
ARC
  5
296
100
AcDbEntity
  8
0
100
AcDbCircle
 62
7
  6
BYLAYER
 10
17.8486920918
 20
41.5589897977
 40
27.3343932196
100
AcDbArc
 50
0.5761981167
 51
1.097173355
  0
ARC
  5
297
100
AcDbEntity
  8
0
100
AcDbCircle
 62
7
  6
BYLAYER
 10
9.1875790615
 20
30.9144077806
 40
1.8639057371
100
AcDbArc
 50
108.3525349277
 51
109.8912942899
  0
ARC
  5
298
100
AcDbEntity
  8
0
100
AcDbCircle
 62
7
  6
BYLAYER
 10
9.1693883887
 20
30.9611223274
 40
1.8137894584
100
AcDbArc
 50
109.8530269991
 51
119.8495648009
  0
ARC
  5
299
100
AcDbEntity
  8
0
100
AcDbCircle
 62
7
  6
BYLAYER
 10
9.0247443815
 20
30.885427101
 40
1.8070223179
100
AcDbArc
 50
114.8349056642
 51
119.9943252193
  0
ARC
  5
29A
100
AcDbEntity
  8
0
100
AcDbCircle
 62
7
  6
BYLAYER
 10
10.3617450316
 20
30.3662744992
 40
0.5
100
AcDbArc
 50
134.521519979
 51
299.9998519061
  0
ARC
  5
29B
100
AcDbEntity
  8
0
100
AcDbCircle
 62
7
  6
BYLAYER
 10
10.2795429998
 20
30.1616190824
 40
0.4357572228
100
AcDbArc
 50
355.4845087213
 51
0.0703499897
  0
ARC
  5
29C
100
AcDbEntity
  8
0
100
AcDbCircle
 62
7
  6
BYLAYER
 10
2.8942821156
 20
49.1268204689
 40
37.7527759511
100
AcDbArc
 50
1.3930591452
 51
1.6167982486
  0
ARC
  5
29D
100
AcDbEntity
  8
0
100
AcDbCircle
 62
7
  6
BYLAYER
 10
16.2408727488
 20
44.4530432243
 40
29.0144187347
100
AcDbArc
 50
350.5970237724
 51
351.2102371971
  0
ARC
  5
29E
100
AcDbEntity
  8
0
100
AcDbCircle
 62
7
  6
BYLAYER
 10
16.4021146863
 20
42.8100267265
 40
28.7883586352
100
AcDbArc
 50
355.6275515561
 51
356.4328930586
  0
ARC
  5
29F
100
AcDbEntity
  8
0
100
AcDbCircle
 62
7
  6
BYLAYER
 10
16.9463247852
 20
46.3278895051
 40
28.4879268591
100
AcDbArc
 50
345.0267666404
 51
345.6560356069
  0
ARC
  5
2A0
100
AcDbEntity
  8
0
100
AcDbCircle
 62
7
  6
BYLAYER
 10
17.930668795
 20
46.0754539272
 40
27.4717298609
100
AcDbArc
 50
345.6575003344
 51
345.9802641592
  0
ARC
  5
2A1
100
AcDbEntity
  8
0
100
AcDbCircle
 62
7
  6
BYLAYER
 10
19.333195123
 20
40.809407665
 40
25.8332612447
100
AcDbArc
 50
4.3564598513
 51
5.2679961385
  0
ARC
  5
2A2
100
AcDbEntity
  8
0
100
AcDbCircle
 62
7
  6
BYLAYER
 10
26.7847795422
 20
29.4712761615
 40
24.8778488904
100
AcDbArc
 50
53.7340562947
 51
54.6629709731
  0
ARC
  5
2A3
100
AcDbEntity
  8
0
100
AcDbCircle
 62
7
  6
BYLAYER
 10
22.1097380482
 20
40.6874169674
 40
22.9603626245
100
AcDbArc
 50
8.1855053213
 51
9.1270388312
  0
ARC
  5
2A4
100
AcDbEntity
  8
0
100
AcDbCircle
 62
7
  6
BYLAYER
 10
23.2118895529
 20
31.8222011781
 40
22.024526711
100
AcDbArc
 50
17.955982715
 51
18.5792220469
  0
ARC
  5
2A5
100
AcDbEntity
  8
0
100
AcDbCircle
 62
7
  6
BYLAYER
 10
28.3221498045
 20
32.0025999645
 40
21.7870394138
100
AcDbArc
 50
49.9438015614
 51
50.9105929723
  0
ARC
  5
2A6
100
AcDbEntity
  8
0
100
AcDbCircle
 62
7
  6
BYLAYER
 10
25.5850145972
 20
41.2508888554
 40
19.2409825687
100
AcDbArc
 50
11.7284513541
 51
12.7279924967
  0
ARC
  5
2A7
100
AcDbEntity
  8
0
100
AcDbCircle
 62
7
  6
BYLAYER
 10
23.1330995809
 20
39.0241285847
 40
18.5558058626
100
AcDbArc
 50
40.6222659992
 51
41.3170027362
  0
ARC
  5
2A8
100
AcDbEntity
  8
0
100
AcDbCircle
 62
7
  6
BYLAYER
 10
25.603991262
 20
37.0876366962
 40
18.4343285976
100
AcDbArc
 50
18.838327952
 51
20.8697451085
  0
ARC
  5
2A9
100
AcDbEntity
  8
0
100
AcDbCircle
 62
7
  6
BYLAYER
 10
30.5787023347
 20
39.9543684183
 40
18.4077692936
100
AcDbArc
 50
18.8368589304
 51
20.8712074081
  0
ARC
  5
2AA
100
AcDbEntity
  8
0
100
AcDbCircle
 62
7
  6
BYLAYER
 10
30.761632905
 20
34.7289286236
 40
17.9126288805
100
AcDbArc
 50
46.397634376
 51
47.434228822
  0
ARC
  5
2AB
100
AcDbEntity
  8
0
100
AcDbCircle
 62
7
  6
BYLAYER
 10
29.7671493252
 20
39.5109305382
 40
13.7445132851
100
AcDbArc
 50
11.6340532846
 51
14.8782825404
  0
ARC
  5
2AC
100
AcDbEntity
  8
0
100
AcDbCircle
 62
7
  6
BYLAYER
 10
33.9005449077
 20
37.3868044983
 40
13.5354787664
100
AcDbArc
 50
43.0456895732
 51
44.2026638104
  0
ARC
  5
2AD
100
AcDbEntity
  8
0
100
AcDbCircle
 62
7
  6
BYLAYER
 10
32.2416122862
 20
40.1422354992
 40
13.1394969483
100
AcDbArc
 50
31.4309485672
 51
33.0277134702
  0
ARC
  5
2AE
100
AcDbEntity
  8
0
100
AcDbCircle
 62
7
  6
BYLAYER
 10
30.4151472355
 20
39.08836919
 40
13.1253067701
100
AcDbArc
 50
31.4300853551
 51
33.0285766823
  0
ARC
  5
2AF
100
AcDbEntity
  8
0
100
AcDbCircle
 62
7
  6
BYLAYER
 10
32.3535128849
 20
40.1963839454
 40
13.0153396372
100
AcDbArc
 50
25.4743134789
 51
27.0819894851
  0
ARC
  5
2B0
100
AcDbEntity
  8
0
100
AcDbCircle
 62
7
  6
BYLAYER
 10
31.2629046771
 20
39.2617224272
 40
12.8583752786
100
AcDbArc
 50
62.5720920914
 51
64.8172234514
  0
ARC
  5
2B1
100
AcDbEntity
  8
0
100
AcDbCircle
 62
7
  6
BYLAYER
 10
32.4194665638
 20
40.2454971943
 40
12.837033282
100
AcDbArc
 50
31.4792664563
 51
32.979395581
  0
ARC
  5
2B2
100
AcDbEntity
  8
0
100
AcDbCircle
 62
7
  6
BYLAYER
 10
32.4975935388
 20
40.2814253498
 40
12.7512920044
100
AcDbArc
 50
25.5250676052
 51
27.0312353588
  0
ARC
  5
2B3
100
AcDbEntity
  8
0
100
AcDbCircle
 62
7
  6
BYLAYER
 10
32.8122882338
 20
40.5515872688
 40
12.4369198032
100
AcDbArc
 50
37.4497593884
 51
39.1053164896
  0
ARC
  5
2B4
100
AcDbEntity
  8
0
100
AcDbCircle
 62
7
  6
BYLAYER
 10
31.0124107648
 20
39.5206064362
 40
12.3877637317
100
AcDbArc
 50
37.446474438
 51
39.10860144
  0
ARC
  5
2B5
100
AcDbEntity
  8
0
100
AcDbCircle
 62
7
  6
BYLAYER
 10
33.0027867639
 20
40.6675480258
 40
12.1167615643
100
AcDbArc
 50
37.4976827159
 51
39.057393162
  0
ARC
  5
2B6
100
AcDbEntity
  8
0
100
AcDbCircle
 62
7
  6
BYLAYER
 10
33.2087373231
 20
40.5543068992
 40
12.0878571562
100
AcDbArc
 50
19.3195695256
 51
21.0092803961
  0
ARC
  5
2B7
100
AcDbEntity
  8
0
100
AcDbCircle
 62
7
  6
BYLAYER
 10
33.3035043989
 20
40.62278555
 40
11.8757055292
100
AcDbArc
 50
19.3751187087
 51
20.9537312131
  0
ARC
  5
2B8
100
AcDbEntity
  8
0
100
AcDbCircle
 62
7
  6
BYLAYER
 10
33.8585055817
 20
41.4778100062
 40
11.0389574398
100
AcDbArc
 50
43.799119358
 51
45.5908083923
  0
ARC
  5
2B9
100
AcDbEntity
  8
0
100
AcDbCircle
 62
7
  6
BYLAYER
 10
32.0733825393
 20
40.4691571174
 40
10.9639211855
100
AcDbArc
 50
43.7929877605
 51
45.5969399898
  0
ARC
  5
2BA
100
AcDbEntity
  8
0
100
AcDbCircle
 62
7
  6
BYLAYER
 10
34.039972143
 20
41.5945707655
 40
10.7250086905
100
AcDbArc
 50
43.8486404008
 51
45.5412873495
  0
ARC
  5
2BB
100
AcDbEntity
  8
0
100
AcDbCircle
 62
7
  6
BYLAYER
 10
25.7270521036
 20
33.0652381057
 40
3.3021601646
100
AcDbArc
 50
258.8621477342
 51
259.4608785419
  0
ARC
  5
2BC
100
AcDbEntity
  8
0
100
AcDbCircle
 62
7
  6
BYLAYER
 10
25.7153851607
 20
33.0022911413
 40
3.2381411363
100
AcDbArc
 50
259.4601122775
 51
260.72994344
  0
ARC
  5
2BD
100
AcDbEntity
  8
0
100
AcDbCircle
 62
7
  6
BYLAYER
 10
25.4660761678
 20
32.6741375225
 40
2.8060166339
100
AcDbArc
 50
264.5487311347
 51
265.6310393144
  0
ARC
  5
2BE
100
AcDbEntity
  8
0
100
AcDbCircle
 62
7
  6
BYLAYER
 10
18.4931304938
 20
48.2436824727
 40
27.2683865865
100
AcDbArc
 50
338.8467333589
 51
339.8259710936
  0
ARC
  5
2BF
100
AcDbEntity
  8
0
100
AcDbCircle
 62
7
  6
BYLAYER
 10
20.7427643583
 20
50.0135515081
 40
25.4982375668
100
AcDbArc
 50
332.8132202277
 51
333.0255659806
  0
ARC
  5
2C0
100
AcDbEntity
  8
0
100
AcDbCircle
 62
7
  6
BYLAYER
 10
18.581715761
 20
48.3946687819
 40
22.9859047139
100
AcDbArc
 50
2.1315420488
 51
2.5912645337
  0
ARC
  5
2C1
100
AcDbEntity
  8
0
100
AcDbCircle
 62
7
  6
BYLAYER
 10
21.8430252456
 20
47.2954630194
 40
22.0466146078
100
AcDbArc
 50
356.8307032387
 51
357.5415131619
  0
ARC
  5
2C2
100
AcDbEntity
  8
0
100
AcDbCircle
 62
7
  6
BYLAYER
 10
22.5127889421
 20
47.294126532
 40
22.0149782171
100
AcDbArc
 50
353.6774163114
 51
354.4424410425
  0
ARC
  5
2C3
100
AcDbEntity
  8
0
100
AcDbCircle
 62
7
  6
BYLAYER
 10
21.3838451315
 20
47.4619633069
 40
21.8053772895
100
AcDbArc
 50
359.3988238969
 51
0.0510158927
  0
ARC
  5
2C4
100
AcDbEntity
  8
0
100
AcDbCircle
 62
7
  6
BYLAYER
 10
20.7603782405
 20
47.8268991818
 40
21.6564764751
100
AcDbArc
 50
1.2578571121
 51
1.8354826429
  0
ARC
  5
2C5
100
AcDbEntity
  8
0
100
AcDbCircle
 62
7
  6
BYLAYER
 10
23.4906081887
 20
47.4106299772
 40
21.6232487556
100
AcDbArc
 50
349.9879752101
 51
350.8080540096
  0
ARC
  5
2C6
100
AcDbEntity
  8
0
100
AcDbCircle
 62
7
  6
BYLAYER
 10
24.7535504175
 20
47.5982227584
 40
20.90311216
100
AcDbArc
 50
345.7719171455
 51
346.6500548847
  0
ARC
  5
2C7
100
AcDbEntity
  8
0
100
AcDbCircle
 62
7
  6
BYLAYER
 10
26.1608233167
 20
47.8425165377
 40
20.0059897813
100
AcDbArc
 50
341.0200225007
 51
341.7110461847
  0
ARC
  5
2C8
100
AcDbEntity
  8
0
100
AcDbCircle
 62
7
  6
BYLAYER
 10
29.731395803
 20
53.8753819518
 40
19.9504534917
100
AcDbArc
 50
321.474183719
 51
322.8914481008
  0
ARC
  5
2C9
100
AcDbEntity
  8
0
100
AcDbCircle
 62
7
  6
BYLAYER
 10
26.3486339189
 20
47.7802421008
 40
19.8081239414
100
AcDbArc
 50
341.7116014705
 51
341.9596198529
  0
ARC
  5
2CA
100
AcDbEntity
  8
0
100
AcDbCircle
 62
7
  6
BYLAYER
 10
30.022236086
 20
53.6445716006
 40
19.5791569269
100
AcDbArc
 50
320.8131108498
 51
321.4724701325
  0
ARC
  5
2CB
100
AcDbEntity
  8
0
100
AcDbCircle
 62
7
  6
BYLAYER
 10
25.6819248218
 20
44.1937602713
 40
19.2722907542
100
AcDbArc
 50
332.838254726
 51
334.3213540288
  0
ARC
  5
2CC
100
AcDbEntity
  8
0
100
AcDbCircle
 62
7
  6
BYLAYER
 10
27.7579005221
 20
48.0809964009
 40
18.8869860547
100
AcDbArc
 50
335.7145684813
 51
336.7161195576
  0
ARC
  5
2CD
100
AcDbEntity
  8
0
100
AcDbCircle
 62
7
  6
BYLAYER
 10
31.0043073092
 20
46.8663168351
 40
18.8562090026
100
AcDbArc
 50
332.8218932444
 51
334.3377204569
  0
ARC
  5
2CE
100
AcDbEntity
  8
0
100
AcDbCircle
 62
7
  6
BYLAYER
 10
29.283099983
 20
48.3809259576
 40
17.8310615928
100
AcDbArc
 50
329.851322424
 51
330.9136006127
  0
ARC
  5
2CF
100
AcDbEntity
  8
0
100
AcDbCircle
 62
7
  6
BYLAYER
 10
30.6814513761
 20
48.7781016574
 40
16.9200608387
100
AcDbArc
 50
323.4470015267
 51
324.5621806627
  0
ARC
  5
2D0
100
AcDbEntity
  8
0
100
AcDbCircle
 62
7
  6
BYLAYER
 10
31.892048945
 20
49.347975348
 40
16.2650687804
100
AcDbArc
 50
316.5570048571
 51
317.7101099612
  0
ARC
  5
2D1
100
AcDbEntity
  8
0
100
AcDbCircle
 62
7
  6
BYLAYER
 10
29.4553707987
 20
42.4817246299
 40
14.9239549834
100
AcDbArc
 50
15.0215972364
 51
16.122033936
  0
ARC
  5
2D2
100
AcDbEntity
  8
0
100
AcDbCircle
 62
7
  6
BYLAYER
 10
33.3230638994
 20
44.260897488
 40
10.3784590722
100
AcDbArc
 50
18.0775742952
 51
19.3533128698
  0
ARC
  5
2D3
100
AcDbEntity
  8
0
100
AcDbCircle
 62
7
  6
BYLAYER
 10
31.2210782959
 20
45.9981175255
 40
8.5316109881
100
AcDbArc
 50
37.5027409598
 51
38.2601419253
  0
ARC
  5
2D4
100
AcDbEntity
  8
0
100
AcDbCircle
 62
7
  6
BYLAYER
 10
34.7482882147
 20
29.6796313124
 40
21.0888100469
100
AcDbArc
 50
72.2607269943
 51
73.1248816631
  0
ARC
  5
2D5
100
AcDbEntity
  8
0
100
AcDbCircle
 62
7
  6
BYLAYER
 10
35.646754626
 20
30.8025274687
 40
20.1820023897
100
AcDbArc
 50
76.8173994363
 51
77.742121493
  0
ARC
  5
2D6
100
AcDbEntity
  8
0
100
AcDbCircle
 62
7
  6
BYLAYER
 10
36.6274845317
 20
32.0118798342
 40
19.1297256348
100
AcDbArc
 50
81.920440773
 51
82.9078066602
  0
ARC
  5
2D7
100
AcDbEntity
  8
0
100
AcDbCircle
 62
7
  6
BYLAYER
 10
37.6415089681
 20
33.1767992222
 40
18.0860424147
100
AcDbArc
 50
87.5836160861
 51
88.6312004645
  0
ARC
  5
2D8
100
AcDbEntity
  8
0
100
AcDbCircle
 62
7
  6
BYLAYER
 10
38.6777536647
 20
34.2382144381
 40
17.127786629
100
AcDbArc
 50
93.8007166496
 51
94.9037825006
  0
ARC
  5
2D9
100
AcDbEntity
  8
0
100
AcDbCircle
 62
7
  6
BYLAYER
 10
39.757243032
 20
35.0709218701
 40
16.3993111233
100
AcDbArc
 50
100.5346888975
 51
101.6801377246
  0
ARC
  5
2DA
100
AcDbEntity
  8
0
100
AcDbCircle
 62
7
  6
BYLAYER
 10
34.7026603271
 20
35.4831107512
 40
10.636897902
100
AcDbArc
 50
20.937671381
 51
21.7242952897
  0
ARC
  5
2DB
100
AcDbEntity
  8
0
100
AcDbCircle
 62
7
  6
BYLAYER
 10
40.4619628335
 20
38.3101519564
 40
3.08516798
100
AcDbArc
 50
355.3473137477
 51
357.2782914415
  0
ARC
  5
2DC
100
AcDbEntity
  8
0
100
AcDbCircle
 62
7
  6
BYLAYER
 10
36.1503527354
 20
41.9934451815
 40
12.9988875535
100
AcDbArc
 50
62.5842364332
 51
64.8050960711
  0
ARC
  5
2DD
100
AcDbEntity
  8
0
100
AcDbCircle
 62
7
  6
BYLAYER
 10
34.701576666
 20
40.9997834402
 40
10.5291937594
100
AcDbArc
 50
12.6807151143
 51
14.5342073217
  0
ARC
  5
2DE
100
AcDbEntity
  8
0
100
AcDbCircle
 62
7
  6
BYLAYER
 10
34.7406674841
 20
41.0592393106
 40
10.3729807568
100
AcDbArc
 50
12.7440353457
 51
14.4708870903
  0
ARC
  5
2DF
100
AcDbEntity
  8
0
100
AcDbCircle
 62
7
  6
BYLAYER
 10
38.7003952742
 20
43.9538824934
 40
9.682729574
100
AcDbArc
 50
38.2506621923
 51
39.2478571572
  0
ARC
  5
2E0
100
AcDbEntity
  8
0
100
AcDbCircle
 62
7
  6
BYLAYER
 10
38.7865524963
 20
44.0241507868
 40
9.5715509282
100
AcDbArc
 50
39.2484122193
 51
39.6146187178
  0
ARC
  5
2E1
100
AcDbEntity
  8
0
100
AcDbCircle
 62
7
  6
BYLAYER
 10
39.0708768283
 20
44.1761739513
 40
9.2979441662
100
AcDbArc
 50
38.5786516045
 51
39.6139589108
  0
ARC
  5
2E2
100
AcDbEntity
  8
0
100
AcDbCircle
 62
7
  6
BYLAYER
 10
35.0870150968
 20
42.8473699875
 40
9.1980657546
100
AcDbArc
 50
50.7900730526
 51
52.8125678705
  0
ARC
  5
2E3
100
AcDbEntity
  8
0
100
AcDbCircle
 62
7
  6
BYLAYER
 10
37.403893244
 20
39.6910534111
 40
9.0510680974
100
AcDbArc
 50
39.8443911531
 51
41.2137210373
  0
ARC
  5
2E4
100
AcDbEntity
  8
0
100
AcDbCircle
 62
7
  6
BYLAYER
 10
35.2423265274
 20
42.9493498139
 40
8.9125556881
100
AcDbArc
 50
50.8434106921
 51
52.759230231
  0
ARC
  5
2E5
100
AcDbEntity
  8
0
100
AcDbCircle
 62
7
  6
BYLAYER
 10
36.5854079698
 20
41.3250028265
 40
8.6162943777
100
AcDbArc
 50
5.2101431069
 51
7.3296819247
  0
ARC
  5
2E6
100
AcDbEntity
  8
0
100
AcDbCircle
 62
7
  6
BYLAYER
 10
36.5727806152
 20
41.3858583024
 40
8.5108110579
100
AcDbArc
 50
5.2851470274
 51
7.2546780041
  0
ARC
  5
2E7
100
AcDbEntity
  8
0
100
AcDbCircle
 62
7
  6
BYLAYER
 10
36.201278613
 20
44.4745821879
 40
7.2243771006
100
AcDbArc
 50
58.8131086128
 51
61.1880139136
  0
ARC
  5
2E8
100
AcDbEntity
  8
0
100
AcDbCircle
 62
7
  6
BYLAYER
 10
36.3216115815
 20
44.5463676322
 40
6.9835077332
100
AcDbArc
 50
58.8730645802
 51
61.1280579461
  0
ARC
  5
2E9
100
AcDbEntity
  8
0
100
AcDbCircle
 62
7
  6
BYLAYER
 10
38.5368569331
 20
41.3920219694
 40
6.6620255502
100
AcDbArc
 50
356.4630799932
 51
358.9801247459
  0
ARC
  5
2EA
100
AcDbEntity
  8
0
100
AcDbCircle
 62
7
  6
BYLAYER
 10
38.4851868044
 20
41.4637552654
 40
6.595187544
100
AcDbArc
 50
356.5547647415
 51
358.8884399975
  0
ARC
  5
2EB
100
AcDbEntity
  8
0
100
AcDbCircle
 62
7
  6
BYLAYER
 10
36.7301742508
 20
46.3586361409
 40
6.0733808912
100
AcDbArc
 50
20.8526313437
 51
22.4579138318
  0
ARC
  5
2EC
100
AcDbEntity
  8
0
100
AcDbCircle
 62
7
  6
BYLAYER
 10
39.148208256
 20
41.9737088627
 40
6.0347994519
100
AcDbArc
 50
356.7263340732
 51
358.5915721594
  0
ARC
  5
2ED
100
AcDbEntity
  8
0
100
AcDbCircle
 62
7
  6
BYLAYER
 10
36.9837722968
 20
46.1076844048
 40
5.4114838983
100
AcDbArc
 50
68.367682945
 51
71.2463498774
  0
ARC
  5
2EE
100
AcDbEntity
  8
0
100
AcDbCircle
 62
7
  6
BYLAYER
 10
37.6082738675
 20
45.8966152894
 40
5.2705944382
100
AcDbArc
 50
66.855925156
 51
67.1635698223
  0
ARC
  5
2EF
100
AcDbEntity
  8
0
100
AcDbCircle
 62
7
  6
BYLAYER
 10
37.0699715961
 20
46.1379605601
 40
5.2227590673
100
AcDbArc
 50
68.4381890438
 51
71.1758437786
  0
ARC
  5
2F0
100
AcDbEntity
  8
0
100
AcDbCircle
 62
7
  6
BYLAYER
 10
40.240598206
 20
41.1732918407
 40
4.9421729026
100
AcDbArc
 50
345.8856904512
 51
348.9579065762
  0
ARC
  5
2F1
100
AcDbEntity
  8
0
100
AcDbCircle
 62
7
  6
BYLAYER
 10
40.1673970803
 20
41.2608953243
 40
4.8987023038
100
AcDbArc
 50
345.999382994
 51
348.8442140334
  0
ARC
  5
2F2
100
AcDbEntity
  8
0
100
AcDbCircle
 62
7
  6
BYLAYER
 10
37.3544207196
 20
47.4933973511
 40
3.9746948921
100
AcDbArc
 50
80.0392777256
 51
83.5756135845
  0
ARC
  5
2F3
100
AcDbEntity
  8
0
100
AcDbCircle
 62
7
  6
BYLAYER
 10
37.4156380246
 20
47.477861614
 40
3.8366487123
100
AcDbArc
 50
80.1261507196
 51
83.4887405905
  0
ARC
  5
2F4
100
AcDbEntity
  8
0
100
AcDbCircle
 62
7
  6
BYLAYER
 10
37.3887200719
 20
48.4419094031
 40
3.0232759148
100
AcDbArc
 50
94.29934788
 51
98.5457286614
  0
ARC
  5
2F5
100
AcDbEntity
  8
0
100
AcDbCircle
 62
7
  6
BYLAYER
 10
37.436858147
 20
48.3982696706
 40
2.9135797976
100
AcDbArc
 50
95.2171322713
 51
98.4383992269
  0
ARC
  5
2F6
100
AcDbEntity
  8
0
100
AcDbCircle
 62
7
  6
BYLAYER
 10
37.616503034
 20
48.5062079052
 40
2.8224093905
100
AcDbArc
 50
98.1956344818
 51
99.0457614208
  0
ARC
  5
2F7
100
AcDbEntity
  8
0
100
AcDbCircle
 62
7
  6
BYLAYER
 10
37.6091104808
 20
48.5521416364
 40
2.7758846531
100
AcDbArc
 50
99.0441357455
 51
101.2034143054
  0
ARC
  5
2F8
100
AcDbEntity
  8
0
100
AcDbCircle
 62
7
  6
BYLAYER
 10
37.2905659162
 20
48.8741046297
 40
2.5787643572
100
AcDbArc
 50
110.9766322279
 51
115.7035006716
  0
ARC
  5
2F9
100
AcDbEntity
  8
0
100
AcDbCircle
 62
7
  6
BYLAYER
 10
39.1987028549
 20
48.4341236302
 40
2.5496026708
100
AcDbArc
 50
23.0865590026
 51
25.4510363798
  0
ARC
  5
2FA
100
AcDbEntity
  8
0
100
AcDbCircle
 62
7
  6
BYLAYER
 10
37.3429204305
 20
48.7853564397
 40
2.5140957869
100
AcDbArc
 50
111.1150429772
 51
115.5650899223
  0
ARC
  5
2FB
100
AcDbEntity
  8
0
100
AcDbCircle
 62
7
  6
BYLAYER
 10
37.5350168105
 20
48.8253568946
 40
2.49236286
100
AcDbArc
 50
108.1424382961
 51
118.5376946034
  0
ARC
  5
2FC
100
AcDbEntity
  8
0
100
AcDbCircle
 62
7
  6
BYLAYER
 10
35.3650442117
 20
48.9299896834
 40
2.3034451153
100
AcDbArc
 50
64.8406819263
 51
67.1910408575
  0
ARC
  5
2FD
100
AcDbEntity
  8
0
100
AcDbCircle
 62
7
  6
BYLAYER
 10
46.9277257072
 20
31.4016742136
 40
24.86305598
100
AcDbArc
 50
132.619183233
 51
133.4640162454
  0
ARC
  5
2FE
100
AcDbEntity
  8
0
100
AcDbCircle
 62
7
  6
BYLAYER
 10
41.1230174075
 20
46.7111121105
 40
5.9962985233
100
AcDbArc
 50
57.5195869224
 51
58.3920849611
  0
ARC
  5
2FF
100
AcDbEntity
  8
0
100
AcDbCircle
 62
7
  6
BYLAYER
 10
42.5517403607
 20
44.5519039176
 40
5.8168733038
100
AcDbArc
 50
0.0088863977
 51
1.5267855846
  0
ARC
  5
300
100
AcDbEntity
  8
0
100
AcDbCircle
 62
7
  6
BYLAYER
 10
41.2389272801
 20
46.9011014061
 40
5.7737445639
100
AcDbArc
 50
58.3835616918
 51
59.9968758138
  0
ARC
  5
301
100
AcDbEntity
  8
0
100
AcDbCircle
 62
7
  6
BYLAYER
 10
41.4822496481
 20
47.3330625022
 40
5.2779970299
100
AcDbArc
 50
59.939512384
 51
63.9966613779
  0
ARC
  5
302
100
AcDbEntity
  8
0
100
AcDbCircle
 62
7
  6
BYLAYER
 10
40.8163283872
 20
41.3694224212
 40
4.9465035287
100
AcDbArc
 50
36.7564328507
 51
38.5431365201
  0
ARC
  5
303
100
AcDbEntity
  8
0
100
AcDbCircle
 62
7
  6
BYLAYER
 10
41.471003057
 20
40.7597323013
 40
3.6417219508
100
AcDbArc
 50
332.9081569458
 51
336.6735325743
  0
ARC
  5
304
100
AcDbEntity
  8
0
100
AcDbCircle
 62
7
  6
BYLAYER
 10
41.3935687729
 20
40.8614859711
 40
3.606746988
100
AcDbArc
 50
333.0460930694
 51
336.5355964506
  0
ARC
  5
305
100
AcDbEntity
  8
0
100
AcDbCircle
 62
7
  6
BYLAYER
 10
43.0072051349
 20
40.4738322872
 40
3.4352408853
100
AcDbArc
 50
274.2671100148
 51
275.104030971
  0
ARC
  5
306
100
AcDbEntity
  8
0
100
AcDbCircle
 62
7
  6
BYLAYER
 10
42.1477647172
 20
40.3340604863
 40
2.8401050266
100
AcDbArc
 50
317.3063928641
 51
321.7474679943
  0
ARC
  5
307
100
AcDbEntity
  8
0
100
AcDbCircle
 62
7
  6
BYLAYER
 10
42.0783942168
 20
40.4412770741
 40
2.8011605333
100
AcDbArc
 50
317.4605265953
 51
321.5933342632
  0
ARC
  5
308
100
AcDbEntity
  8
0
100
AcDbCircle
 62
7
  6
BYLAYER
 10
42.8522661413
 20
40.4390125656
 40
2.7600149495
100
AcDbArc
 50
281.4458967162
 51
289.7008823388
  0
ARC
  5
309
100
AcDbEntity
  8
0
100
AcDbCircle
 62
7
  6
BYLAYER
 10
42.9027615006
 20
40.3022993526
 40
2.6142821212
100
AcDbArc
 50
289.6690536647
 51
307.5076045126
  0
ARC
  5
30A
100
AcDbEntity
  8
0
100
AcDbCircle
 62
7
  6
BYLAYER
 10
42.3500189133
 20
40.1169535027
 40
2.5425922018
100
AcDbArc
 50
299.8393560806
 51
304.6143613957
  0
ARC
  5
30B
100
AcDbEntity
  8
0
100
AcDbCircle
 62
7
  6
BYLAYER
 10
42.2928363002
 20
40.2157912049
 40
2.489123122
100
AcDbArc
 50
299.9884766235
 51
304.4652408528
  0
ARC
  5
30C
100
AcDbEntity
  8
0
100
AcDbCircle
 62
7
  6
BYLAYER
 10
42.4260639271
 20
40.3582145788
 40
2.4627426196
100
AcDbArc
 50
296.9875992239
 51
307.4661182524
  0
ARC
  5
30D
100
AcDbEntity
  8
0
100
AcDbCircle
 62
7
  6
BYLAYER
 10
46.0618910812
 20
50.2879586077
 40
18.9503510942
100
AcDbArc
 50
236.09280971
 51
237.9959621918
  0
ARC
  5
30E
100
AcDbEntity
  8
0
100
AcDbCircle
 62
7
  6
BYLAYER
 10
46.3892840139
 20
69.7124117561
 40
17.7042830063
100
AcDbArc
 50
250.3650382208
 51
252.1699556008
  0
ARC
  5
30F
100
AcDbEntity
  8
0
100
AcDbCircle
 62
7
  6
BYLAYER
 10
41.3509241508
 20
66.593329473
 40
17.4283254457
100
AcDbArc
 50
250.3507407786
 51
252.1842391824
  0
ARC
  5
310
100
AcDbEntity
  8
0
100
AcDbCircle
 62
7
  6
BYLAYER
 10
41.8965934449
 20
52.9039357106
 40
15.9148604453
100
AcDbArc
 50
274.8922216793
 51
275.1053764247
  0
ARC
  5
311
100
AcDbEntity
  8
0
100
AcDbCircle
 62
7
  6
BYLAYER
 10
52.382088542
 20
33.7190161705
 40
25.6023970692
100
AcDbArc
 50
132.6313844727
 51
133.4518199833
  0
ARC
  5
312
100
AcDbEntity
  8
0
100
AcDbCircle
 62
7
  6
BYLAYER
 10
61.5636826921
 20
47.029191359
 40
20.3096440396
100
AcDbArc
 50
191.4978681421
 51
193.4014742393
  0
ARC
  5
313
100
AcDbEntity
  8
0
100
AcDbCircle
 62
7
  6
BYLAYER
 10
53.1906399062
 20
30.7837930828
 40
12.1830886531
100
AcDbArc
 50
159.1273321937
 51
161.1405202283
  0
ARC
  5
314
100
AcDbEntity
  8
0
100
AcDbCircle
 62
7
  6
BYLAYER
 10
57.9215396937
 20
33.7205706834
 40
11.9504514069
100
AcDbArc
 50
159.1077383674
 51
161.1601207726
  0
ARC
  5
315
100
AcDbEntity
  8
0
100
AcDbCircle
 62
7
  6
BYLAYER
 10
53.1592425848
 20
56.212534486
 40
27.9465044611
100
AcDbArc
 50
229.7929651585
 51
230.7847040543
  0
ARC
  5
316
100
AcDbEntity
  8
0
100
AcDbCircle
 62
7
  6
BYLAYER
 10
66.3678123523
 20
49.8547553347
 40
20.1605612642
100
AcDbArc
 50
191.4908259565
 51
193.4085101316
  0
SPLINE
  5
317
100
AcDbEntity
  8
0
100
AcDbSpline
 62
7
  6
BYLAYER
 70
0
 71
3
 72
13
 73
9
 74
0
 42
0.0000001
 43
0.0000001
 44
0.0000000001
 40
0.0
 40
0.0
 40
0.0
 40
0.0
 40
0.1080962395
 40
0.2182384117
 40
0.3322530688
 40
0.4516807472
 40
0.7106591577
 40
1.0
 40
1.0
 40
1.0
 40
1.0
 10
9.955692903
 20
25.0683393757
 30
0.0
 10
9.9458546359
 20
25.0626616106
 30
0.0
 10
9.9269408286
 20
25.0494614866
 30
0.0
 10
9.9019579762
 20
25.024860949
 30
0.0
 10
9.8804543689
 20
24.9956802973
 30
0.0
 10
9.8560853122
 20
24.9498528282
 30
0.0
 10
9.8360109331
 20
24.8818672378
 30
0.0
 10
9.8314239248
 20
24.8240757184
 30
0.0
 10
9.8314239248
 20
24.7936709283
 30
0.0
  0
SPLINE
  5
318
100
AcDbEntity
  8
0
100
AcDbSpline
 62
7
  6
BYLAYER
 70
0
 71
3
 72
9
 73
5
 74
0
 42
0.0000001
 43
0.0000001
 44
0.0000000001
 40
0.0
 40
0.0
 40
0.0
 40
0.0
 40
0.5180960765
 40
1.0
 40
1.0
 40
1.0
 40
1.0
 10
9.8314239248
 20
24.3393710672
 30
0.0
 10
9.9673163739
 20
24.2379878235
 30
0.0
 10
10.2402131583
 20
24.0559670269
 30
0.0
 10
10.5339720449
 20
23.909133872
 30
0.0
 10
10.679955595
 20
23.8494821618
 30
0.0
  0
SPLINE
  5
319
100
AcDbEntity
  8
0
100
AcDbSpline
 62
7
  6
BYLAYER
 70
0
 71
3
 72
22
 73
18
 74
0
 42
0.0000001
 43
0.0000001
 44
0.0000000001
 40
0.0
 40
0.0
 40
0.0
 40
0.0
 40
0.0623723762
 40
0.1287691697
 40
0.1983773216
 40
0.2703689161
 40
0.4173897834
 40
0.4904342226
 40
0.5617427099
 40
0.6303587685
 40
0.6954667374
 40
0.7564318543
 40
0.8128854303
 40
0.8648032571
 40
0.9125911014
 40
0.9571796485
 40
1.0
 40
1.0
 40
1.0
 40
1.0
 10
10.7152998942
 20
27.304395662
 30
0.0
 10
10.7152998942
 20
27.3251289709
 30
0.0
 10
10.7124787762
 20
27.3679611833
 30
0.0
 10
10.7009320803
 20
27.4329951403
 30
0.0
 10
10.6821243975
 20
27.4996453891
 30
0.0
 10
10.6477109322
 20
27.5893037605
 30
0.0
 10
10.6012377759
 20
27.6751872667
 30
0.0
 10
10.5446997728
 20
27.7539369966
 30
0.0
 10
10.498454181
 20
27.8076737764
 30
0.0
 10
10.4492830518
 20
27.8550217152
 30
0.0
 10
10.3982291776
 20
27.8949988222
 30
0.0
 10
10.3463398364
 20
27.9267398429
 30
0.0
 10
10.2946774325
 20
27.9495710009
 30
0.0
 10
10.2442689349
 20
27.9629709866
 30
0.0
 10
10.196101969
 20
27.9665064551
 30
0.0
 10
10.1512456897
 20
27.9599429196
 30
0.0
 10
10.1240753803
 20
27.9486425081
 30
0.0
 10
10.1117471129
 20
27.9415277206
 30
0.0
  0
SPLINE
  5
31A
100
AcDbEntity
  8
0
100
AcDbSpline
 62
7
  6
BYLAYER
 70
0
 71
3
 72
9
 73
5
 74
0
 42
0.0000001
 43
0.0000001
 44
0.0000000001
 40
0.0
 40
0.0
 40
0.0
 40
0.0
 40
0.5285436111
 40
1.0
 40
1.0
 40
1.0
 40
1.0
 10
12.7943439453
 20
26.509407127
 30
0.0
 10
12.772069738
 20
26.5191678609
 30
0.0
 10
12.728051955
 20
26.5338372399
 30
0.0
 10
12.6814579119
 20
26.5372196245
 30
0.0
 10
12.6598516383
 20
26.5352895048
 30
0.0
  0
SPLINE
  5
31B
100
AcDbEntity
  8
0
100
AcDbSpline
 62
7
  6
BYLAYER
 70
0
 71
3
 72
22
 73
18
 74
0
 42
0.0000001
 43
0.0000001
 44
0.0000000001
 40
0.0
 40
0.0
 40
0.0
 40
0.0
 40
0.0623733404
 40
0.1287715891
 40
0.1983811323
 40
0.2703737487
 40
0.4173924854
 40
0.490435588
 40
0.5617443409
 40
0.630360647
 40
0.6954682792
 40
0.7564328602
 40
0.812885679
 40
0.86480325
 40
0.912591202
 40
0.9571796562
 40
1.0
 40
1.0
 40
1.0
 40
1.0
 10
10.679955595
 20
24.3037820229
 30
0.0
 10
10.679955595
 20
24.3286623178
 30
0.0
 10
10.6765699988
 20
24.3800618054
 30
0.0
 10
10.6627135503
 20
24.4581038295
 30
0.0
 10
10.6401434663
 20
24.5380852992
 30
0.0
 10
10.5988464015
 20
24.6456747926
 30
0.0
 10
10.5430793267
 20
24.7487339633
 30
0.0
 10
10.4752335995
 20
24.8432316289
 30
0.0
 10
10.4197393866
 20
24.9077154583
 30
0.0
 10
10.3607338799
 20
24.9645326932
 30
0.0
 10
10.2994692416
 20
25.0125044584
 30
0.0
 10
10.2372029631
 20
25.0505936681
 30
0.0
 10
10.1752084758
 20
25.0779899903
 30
0.0
 10
10.1147189873
 20
25.0940704416
 30
0.0
 10
10.0569187541
 20
25.0983129431
 30
0.0
 10
10.003091569
 20
25.0904363026
 30
0.0
 10
9.9704867945
 20
25.0768770826
 30
0.0
 10
9.955692903
 20
25.0683393757
 30
0.0
  0
SPLINE
  5
31C
100
AcDbEntity
  8
0
100
AcDbSpline
 62
7
  6
BYLAYER
 70
0
 71
3
 72
12
 73
8
 74
0
 42
0.0000001
 43
0.0000001
 44
0.0000000001
 40
0.0
 40
0.0
 40
0.0
 40
0.0
 40
0.1081588022
 40
0.2183521463
 40
0.4513532897
 40
0.710426048
 40
1.0
 40
1.0
 40
1.0
 40
1.0
 10
10.6117443164
 20
27.0755019914
 30
0.0
 10
10.6199416835
 20
27.0802349981
 30
0.0
 10
10.6357026107
 20
27.0912345094
 30
0.0
 10
10.6639729122
 20
27.1190473376
 30
0.0
 10
10.6919785936
 20
27.1646962565
 30
0.0
 10
10.7114581335
 20
27.2308665863
 30
0.0
 10
10.7152998942
 20
27.2790532924
 30
0.0
 10
10.7152998942
 20
27.304395662
 30
0.0
  0
SPLINE
  5
31D
100
AcDbEntity
  8
0
100
AcDbSpline
 62
7
  6
BYLAYER
 70
0
 71
3
 72
12
 73
8
 74
0
 42
0.0000001
 43
0.0000001
 44
0.0000000001
 40
0.0
 40
0.0
 40
0.0
 40
0.0
 40
0.1107321365
 40
0.2231111773
 40
0.4582798086
 40
0.7155187351
 40
1.0
 40
1.0
 40
1.0
 40
1.0
 10
10.6117443164
 20
29.9332604514
 30
0.0
 10
10.6190261998
 20
29.9374648748
 30
0.0
 10
10.6330761692
 20
29.9470705221
 30
0.0
 10
10.6586380221
 20
29.9708446742
 30
0.0
 10
10.6850233383
 20
30.0091847794
 30
0.0
 10
10.705772293
 20
30.0648876915
 30
0.0
 10
10.7122375522
 20
30.1057780612
 30
0.0
 10
10.7139476688
 20
30.1273125118
 30
0.0
  0
SPLINE
  5
31E
100
AcDbEntity
  8
0
100
AcDbSpline
 62
7
  6
BYLAYER
 70
0
 71
3
 72
9
 73
5
 74
0
 42
0.0000001
 43
0.0000001
 44
0.0000000001
 40
0.0
 40
0.0
 40
0.0
 40
0.0
 40
0.2553986663
 40
1.0
 40
1.0
 40
1.0
 40
1.0
 10
44.1636816677
 20
38.6120600881
 30
0.0
 10
44.1620745076
 20
38.6064907105
 30
0.0
 10
44.1555802108
 20
38.5847430356
 30
0.0
 10
44.1482652525
 20
38.5632383633
 30
0.0
 10
44.1423221278
 20
38.5474180742
 30
0.0
  0
SPLINE
  5
31F
100
AcDbEntity
  8
0
100
AcDbSpline
 62
7
  6
BYLAYER
 70
0
 71
3
 72
9
 73
5
 74
0
 42
0.0000001
 43
0.0000001
 44
0.0000000001
 40
0.0
 40
0.0
 40
0.0
 40
0.0
 40
0.2676262465
 40
1.0
 40
1.0
 40
1.0
 40
1.0
 10
40.6320281535
 20
50.192004017
 30
0.0
 10
40.6307297012
 20
50.1951146772
 30
0.0
 10
40.6257624453
 20
50.2066880549
 30
0.0
 10
40.6203018515
 20
50.2180587796
 30
0.0
 10
40.6158974153
 20
50.2261636713
 30
0.0
  0
SPLINE
  5
320
100
AcDbEntity
  8
0
100
AcDbSpline
 62
7
  6
BYLAYER
 70
0
 71
3
 72
9
 73
5
 74
0
 42
0.0000001
 43
0.0000001
 44
0.0000000001
 40
0.0
 40
0.0
 40
0.0
 40
0.0
 40
0.2428857083
 40
1.0
 40
1.0
 40
1.0
 40
1.0
 10
45.0573402511
 20
43.1812727459
 30
0.0
 10
45.0533612675
 20
43.1872345897
 30
0.0
 10
45.0368084409
 20
43.2116663985
 30
0.0
 10
45.0196194864
 20
43.2356648492
 30
0.0
 10
45.0063233291
 20
43.2536208099
 30
0.0
  0
SPLINE
  5
321
100
AcDbEntity
  8
0
100
AcDbSpline
 62
7
  6
BYLAYER
 70
0
 71
3
 72
9
 73
5
 74
0
 42
0.0000001
 43
0.0000001
 44
0.0000000001
 40
0.0
 40
0.0
 40
0.0
 40
0.0
 40
0.2171700394
 40
1.0
 40
1.0
 40
1.0
 40
1.0
 10
45.178073769
 20
42.0823919629
 30
0.0
 10
45.1773054566
 20
42.0836844121
 30
0.0
 10
45.1735697836
 20
42.0895181682
 30
0.0
 10
45.1692410594
 20
42.094950158
 30
0.0
 10
45.1657231861
 20
42.0990732579
 30
0.0
  0
SPLINE
  5
322
100
AcDbEntity
  8
0
100
AcDbSpline
 62
7
  6
BYLAYER
 70
0
 71
3
 72
11
 73
7
 74
0
 42
0.0000001
 43
0.0000001
 44
0.0000000001
 40
0.0
 40
0.0
 40
0.0
 40
0.0
 40
0.2369362209
 40
0.4817765332
 40
0.7358502298
 40
1.0
 40
1.0
 40
1.0
 40
1.0
 10
48.0005836284
 20
45.897769855
 30
0.0
 10
48.0691335289
 20
45.6395095678
 30
0.0
 10
48.1937943234
 20
45.1103105867
 30
0.0
 10
48.3333759912
 20
44.2916959951
 30
0.0
 10
48.4204267806
 20
43.4349083868
 30
0.0
 10
48.4393470169
 20
42.8502655601
 30
0.0
 10
48.4393470169
 20
42.5523726442
 30
0.0
  0
SPLINE
  5
323
100
AcDbEntity
  8
0
100
AcDbSpline
 62
7
  6
BYLAYER
 70
0
 71
3
 72
11
 73
7
 74
0
 42
0.0000001
 43
0.0000001
 44
0.0000000001
 40
0.0
 40
0.0
 40
0.0
 40
0.0
 40
0.2543809818
 40
0.505829403
 40
0.7542971266
 40
1.0
 40
1.0
 40
1.0
 40
1.0
 10
45.4341286627
 20
50.2978452105
 30
0.0
 10
45.6711844761
 20
50.0029496017
 30
0.0
 10
46.1234643649
 20
49.4009015187
 30
0.0
 10
46.7382514821
 20
48.4615646973
 30
0.0
 10
47.2893684565
 20
47.4985090802
 30
0.0
 10
47.6210136927
 20
46.8422006717
 30
0.0
 10
47.7786204629
 20
46.5124765827
 30
0.0
  0
SPLINE
  5
324
100
AcDbEntity
  8
0
100
AcDbSpline
 62
7
  6
BYLAYER
 70
0
 71
3
 72
9
 73
5
 74
0
 42
0.0000001
 43
0.0000001
 44
0.0000000001
 40
0.0
 40
0.0
 40
0.0
 40
0.0
 40
0.2524686707
 40
1.0
 40
1.0
 40
1.0
 40
1.0
 10
34.7741842236
 20
52.3051518959
 30
0.0
 10
34.7497058162
 20
52.1882859943
 30
0.0
 10
34.6553447391
 20
51.7248595542
 30
0.0
 10
34.5721058877
 20
51.2591208237
 30
0.0
 10
34.51792312
 20
50.9097616997
 30
0.0
  0
SPLINE
  5
325
100
AcDbEntity
  8
0
100
AcDbSpline
 62
7
  6
BYLAYER
 70
0
 71
3
 72
11
 73
7
 74
0
 42
0.0000001
 43
0.0000001
 44
0.0000000001
 40
0.0
 40
0.0
 40
0.0
 40
0.0
 40
0.2389827885
 40
0.4861216545
 40
0.7402452202
 40
1.0
 40
1.0
 40
1.0
 40
1.0
 10
48.4393470169
 20
42.5523726442
 30
0.0
 10
48.4393470169
 20
42.2430454898
 30
0.0
 10
48.4182175009
 20
41.61369415
 30
0.0
 10
48.3295889346
 20
40.6592159201
 30
0.0
 10
48.1892564969
 20
39.6838975528
 30
0.0
 10
48.067522046
 20
39.0298205679
 30
0.0
 10
48.000583627
 20
38.7003381358
 30
0.0
  0
SPLINE
  5
326
100
AcDbEntity
  8
0
100
AcDbSpline
 62
7
  6
BYLAYER
 70
0
 71
3
 72
11
 73
7
 74
0
 42
0.0000001
 43
0.0000001
 44
0.0000000001
 40
0.0
 40
0.0
 40
0.0
 40
0.0
 40
0.2248493973
 40
0.4683883804
 40
0.7278160123
 40
1.0
 40
1.0
 40
1.0
 40
1.0
 10
43.3128212473
 20
37.0522139806
 30
0.0
 10
43.562316063
 20
37.0745014869
 30
0.0
 10
44.0810029876
 20
37.132917192
 30
0.0
 10
44.8831101529
 20
37.2521803469
 30
0.0
 10
45.7335112293
 20
37.402725034
 30
0.0
 10
46.3144109343
 20
37.5182030749
 30
0.0
 10
46.6113369925
 20
37.579664319
 30
0.0
  0
SPLINE
  5
327
100
AcDbEntity
  8
0
100
AcDbSpline
 62
7
  6
BYLAYER
 70
0
 71
3
 72
11
 73
7
 74
0
 42
0.0000001
 43
0.0000001
 44
0.0000000001
 40
0.0
 40
0.0
 40
0.0
 40
0.0
 40
0.2517023474
 40
0.5026364111
 40
0.752273952
 40
1.0
 40
1.0
 40
1.0
 40
1.0
 10
42.1356127908
 20
53.5324112204
 30
0.0
 10
42.4381231107
 20
53.2889271606
 30
0.0
 10
43.0330277495
 20
52.7910896445
 30
0.0
 10
43.8879230978
 20
52.0053964456
 30
0.0
 10
44.6939776232
 20
51.1780203995
 30
0.0
 10
45.1946777797
 20
50.5957267654
 30
0.0
 10
45.4341286627
 20
50.2978452105
 30
0.0
  0
SPLINE
  5
328
100
AcDbEntity
  8
0
100
AcDbSpline
 62
7
  6
BYLAYER
 70
0
 71
3
 72
11
 73
7
 74
0
 42
0.0000001
 43
0.0000001
 44
0.0000000001
 40
0.0
 40
0.0
 40
0.0
 40
0.0
 40
0.289032404
 40
0.5505025038
 40
0.7863777215
 40
1.0
 40
1.0
 40
1.0
 40
1.0
 10
39.4236959473
 20
53.767891673
 30
0.0
 10
39.6409952675
 20
53.7873035424
 30
0.0
 10
40.055700503
 20
53.8159575277
 30
0.0
 10
40.6494271986
 20
53.8274972765
 30
0.0
 10
41.1860056254
 20
53.8081185563
 30
0.0
 10
41.5239990567
 20
53.7759560666
 30
0.0
 10
41.6839637755
 20
53.7556825478
 30
0.0
  0
SPLINE
  5
329
100
AcDbEntity
  8
0
100
AcDbSpline
 62
7
  6
BYLAYER
 70
0
 71
3
 72
11
 73
7
 74
0
 42
0.0000001
 43
0.0000001
 44
0.0000000001
 40
0.0
 40
0.0
 40
0.0
 40
0.0
 40
0.2717549026
 40
0.5308665852
 40
0.7744631113
 40
1.0
 40
1.0
 40
1.0
 40
1.0
 10
36.2859061001
 20
53.2734662395
 30
0.0
 10
36.5679805687
 20
53.3309886802
 30
0.0
 10
37.1199108035
 20
53.4390090172
 30
0.0
 10
37.9282449691
 20
53.5797509213
 30
0.0
 10
38.6916704314
 20
53.6915200503
 30
0.0
 10
39.1857240958
 20
53.7466334831
 30
0.0
 10
39.4236959473
 20
53.767891673
 30
0.0
  0
SPLINE
  5
32A
100
AcDbEntity
  8
0
100
AcDbSpline
 62
7
  6
BYLAYER
 70
0
 71
3
 72
9
 73
5
 74
0
 42
0.0000001
 43
0.0000001
 44
0.0000000001
 40
0.0
 40
0.0
 40
0.0
 40
0.0
 40
0.2548460768
 40
1.0
 40
1.0
 40
1.0
 40
1.0
 10
37.0697760778
 20
51.2751277045
 30
0.0
 10
37.0646642437
 20
51.2758096493
 30
0.0
 10
37.0445758535
 20
51.2782542228
 30
0.0
 10
37.0243712526
 20
51.2797637112
 30
0.0
 10
37.0093019688
 20
51.2803076564
 30
0.0
  0
SPLINE
  5
32B
100
AcDbEntity
  8
0
100
AcDbSpline
 62
7
  6
BYLAYER
 70
0
 71
3
 72
9
 73
5
 74
0
 42
0.0000001
 43
0.0000001
 44
0.0000000001
 40
0.0
 40
0.0
 40
0.0
 40
0.0
 40
0.5038384335
 40
1.0
 40
1.0
 40
1.0
 40
1.0
 10
35.7363884538
 20
51.0076797166
 30
0.0
 10
35.8006015409
 20
51.0802045488
 30
0.0
 10
35.9354044546
 20
51.2178247521
 30
0.0
 10
36.0840158093
 20
51.3404570006
 30
0.0
 10
36.160788738
 20
51.3970726283
 30
0.0
  0
SPLINE
  5
32C
100
AcDbEntity
  8
0
100
AcDbSpline
 62
7
  6
BYLAYER
 70
0
 71
3
 72
32
 73
28
 74
0
 42
0.0000001
 43
0.0000001
 44
0.0000000001
 40
0.0
 40
0.0
 40
0.0
 40
0.0
 40
0.0214730033
 40
0.0430007103
 40
0.0648229872
 40
0.0871633082
 40
0.1102193177
 40
0.1341550937
 40
0.1590988484
 40
0.1851423042
 40
0.2123424957
 40
0.2407252585
 40
0.270287376
 40
0.3010016663
 40
0.3656417883
 40
0.4340698428
 40
0.5054549309
 40
0.5788121611
 40
0.6530613248
 40
0.7270809712
 40
0.7997595196
 40
0.8352752244
 40
0.8700709635
 40
0.9040328434
 40
0.9370660755
 40
0.9690862272
 40
1.0
 40
1.0
 40
1.0
 40
1.0
 10
36.1836284055
 20
51.4137267878
 30
0.0
 10
36.2755882348
 20
51.4800271305
 30
0.0
 10
36.4686135812
 20
51.6009802868
 30
0.0
 10
36.7807471632
 20
51.7435787392
 30
0.0
 10
37.113032974
 20
51.8461612464
 30
0.0
 10
37.4633289641
 20
51.9081980828
 30
0.0
 10
37.8295434376
 20
51.9294271871
 30
0.0
 10
38.2095274115
 20
51.9098754419
 30
0.0
 10
38.6011192095
 20
51.8497743518
 30
0.0
 10
39.0021193538
 20
51.7495503466
 30
0.0
 10
39.4103055625
 20
51.6098632478
 30
0.0
 10
39.8233925594
 20
51.4315154729
 30
0.0
 10
40.2391156631
 20
51.2155801421
 30
0.0
 10
40.8033293942
 20
50.8733256994
 30
0.0
 10
41.4993557412
 20
50.356661161
 30
0.0
 10
42.2934228871
 20
49.6228658916
 30
0.0
 10
43.0429525981
 20
48.7810769277
 30
0.0
 10
43.7311664967
 20
47.8501572942
 30
0.0
 10
44.3427329778
 20
46.8508720155
 30
0.0
 10
44.8639118868
 20
45.8056670355
 30
0.0
 10
45.2159946948
 20
44.9088294262
 30
0.0
 10
45.4416886034
 20
44.1881748019
 30
0.0
 10
45.5805807367
 20
43.6552231712
 30
0.0
 10
45.6895666686
 20
43.128734204
 30
0.0
 10
45.768057895
 20
42.6116292309
 30
0.0
 10
45.8155304604
 20
42.1069202682
 30
0.0
 10
45.8265942463
 20
41.7745788799
 30
0.0
 10
45.8265942463
 20
41.6113675069
 30
0.0
  0
SPLINE
  5
32D
100
AcDbEntity
  8
0
100
AcDbSpline
 62
7
  6
BYLAYER
 70
0
 71
3
 72
9
 73
5
 74
0
 42
0.0000001
 43
0.0000001
 44
0.0000000001
 40
0.0
 40
0.0
 40
0.0
 40
0.0
 40
0.2579321655
 40
1.0
 40
1.0
 40
1.0
 40
1.0
 10
39.653800282
 20
50.754082471
 30
0.0
 10
39.5958014462
 20
50.7785060589
 30
0.0
 10
39.3692712329
 20
50.8691337062
 30
0.0
 10
39.1358920399
 20
50.9430224928
 30
0.0
 10
38.9600507288
 20
50.986151552
 30
0.0
  0
SPLINE
  5
32E
100
AcDbEntity
  8
0
100
AcDbSpline
 62
7
  6
BYLAYER
 70
0
 71
3
 72
13
 73
9
 74
0
 42
0.0000001
 43
0.0000001
 44
0.0000000001
 40
0.0
 40
0.0
 40
0.0
 40
0.0
 40
0.2711320084
 40
0.5252270584
 40
0.6471824417
 40
0.7664744439
 40
0.8838209395
 40
1.0
 40
1.0
 40
1.0
 40
1.0
 10
38.9600507288
 20
50.986151552
 30
0.0
 10
38.7789290266
 20
51.0305757465
 30
0.0
 10
38.421514404
 20
51.0928515367
 30
0.0
 10
37.9739885789
 20
51.0973582286
 30
0.0
 10
37.6356655607
 20
51.0534327196
 30
0.0
 10
37.3948556506
 20
50.9982184413
 30
0.0
 10
37.1645366294
 20
50.9205280907
 30
0.0
 10
37.0181077459
 20
50.8536836232
 30
0.0
 10
36.9472429671
 20
50.8167533379
 30
0.0
  0
SPLINE
  5
32F
100
AcDbEntity
  8
0
100
AcDbSpline
 62
7
  6
BYLAYER
 70
0
 71
3
 72
14
 73
10
 74
0
 42
0.0000001
 43
0.0000001
 44
0.0000000001
 40
0.0
 40
0.0
 40
0.0
 40
0.0
 40
0.1189879428
 40
0.2376664948
 40
0.3571398782
 40
0.4784745041
 40
0.6026565628
 40
0.7305557559
 40
1.0
 40
1.0
 40
1.0
 40
1.0
 10
43.4405132277
 20
38.6752968017
 30
0.0
 10
43.5252463159
 20
38.7084300925
 30
0.0
 10
43.6908024053
 20
38.7845626867
 30
0.0
 10
43.924171378
 20
38.9275499244
 30
0.0
 10
44.1404366231
 20
39.09824147
 30
0.0
 10
44.3385338128
 20
39.2956578864
 30
0.0
 10
44.517512057
 20
39.5188710869
 30
0.0
 10
44.7332421575
 20
39.8549037577
 30
0.0
 10
44.8580935235
 20
40.1344014391
 30
0.0
 10
44.9265315603
 20
40.3287252366
 30
0.0
  0
SPLINE
  5
330
100
AcDbEntity
  8
0
100
AcDbSpline
 62
7
  6
BYLAYER
 70
0
 71
3
 72
9
 73
5
 74
0
 42
0.0000001
 43
0.0000001
 44
0.0000000001
 40
0.0
 40
0.0
 40
0.0
 40
0.0
 40
0.2421692699
 40
1.0
 40
1.0
 40
1.0
 40
1.0
 10
44.9265315603
 20
40.3287252366
 30
0.0
 10
44.9459830605
 20
40.3839560638
 30
0.0
 10
45.0210038137
 20
40.6138769697
 30
0.0
 10
45.0752709358
 20
40.8503934181
 30
0.0
 10
45.1061749804
 20
41.0310104224
 30
0.0
  0
SPLINE
  5
331
100
AcDbEntity
  8
0
100
AcDbSpline
 62
7
  6
BYLAYER
 70
0
 71
3
 72
9
 73
5
 74
0
 42
0.0000001
 43
0.0000001
 44
0.0000000001
 40
0.0
 40
0.0
 40
0.0
 40
0.0
 40
0.246649246
 40
1.0
 40
1.0
 40
1.0
 40
1.0
 10
44.1636817951
 20
38.6120599874
 30
0.0
 10
44.1910631727
 20
38.6390458162
 30
0.0
 10
44.2996632029
 20
38.7508867213
 30
0.0
 10
44.3984446206
 20
38.8721885684
 30
0.0
 10
44.4669906615
 20
38.9675272283
 30
0.0
  0
SPLINE
  5
332
100
AcDbEntity
  8
0
100
AcDbSpline
 62
7
  6
BYLAYER
 70
0
 71
3
 72
15
 73
11
 74
0
 42
0.0000001
 43
0.0000001
 44
0.0000000001
 40
0.0
 40
0.0
 40
0.0
 40
0.0
 40
0.1108410465
 40
0.2280578197
 40
0.3507094003
 40
0.4776259691
 40
0.60747378
 40
0.7388131747
 40
0.8701524766
 40
1.0
 40
1.0
 40
1.0
 40
1.0
 10
46.3180355052
 20
41.3276401825
 30
0.0
 10
46.3180355052
 20
41.6399687873
 30
0.0
 10
46.2806252685
 20
42.2829563462
 30
0.0
 10
46.1250781057
 20
43.2602477054
 30
0.0
 10
45.8711241798
 20
44.2634481008
 30
0.0
 10
45.523070645
 20
45.2755487644
 30
0.0
 10
45.0868013266
 20
46.2795438872
 30
0.0
 10
44.5696745317
 20
47.2584789706
 30
0.0
 10
43.980493096
 20
48.1957289112
 30
0.0
 10
43.5420559551
 20
48.7879430783
 30
0.0
 10
43.3128191643
 20
49.0731140021
 30
0.0
  0
SPLINE
  5
333
100
AcDbEntity
  8
0
100
AcDbSpline
 62
7
  6
BYLAYER
 70
0
 71
3
 72
22
 73
18
 74
0
 42
0.0000001
 43
0.0000001
 44
0.0000000001
 40
0.0
 40
0.0
 40
0.0
 40
0.0
 40
0.0583081529
 40
0.1153047446
 40
0.1713679096
 40
0.2269530094
 40
0.2825406491
 40
0.3386013718
 40
0.3955853683
 40
0.4539070042
 40
0.5139331784
 40
0.5759708103
 40
0.6402675977
 40
0.7070030997
 40
0.8481639013
 40
0.9227833107
 40
1.0
 40
1.0
 40
1.0
 40
1.0
 10
43.3128191824
 20
37.0522127884
 30
0.0
 10
43.4247775009
 20
37.0622137054
 30
0.0
 10
43.6453831168
 20
37.0929698485
 30
0.0
 10
43.9665583636
 20
37.1728951939
 30
0.0
 10
44.272149369
 20
37.28582278
 30
0.0
 10
44.5606787876
 20
37.4311932922
 30
0.0
 10
44.8308221856
 20
37.6084001515
 30
0.0
 10
45.0813949304
 20
37.8165611548
 30
0.0
 10
45.3112212597
 20
38.0547573597
 30
0.0
 10
45.5193678132
 20
38.3218169455
 30
0.0
 10
45.7049203887
 20
38.6165609729
 30
0.0
 10
45.8671895119
 20
38.937633702
 30
0.0
 10
46.0054793545
 20
39.2836730853
 30
0.0
 10
46.1601047475
 20
39.7855807189
 30
0.0
 10
46.260037172
 20
40.3231546503
 30
0.0
 10
46.3098679014
 20
40.8859706935
 30
0.0
 10
46.3180355052
 20
41.1787849603
 30
0.0
 10
46.3180355052
 20
41.3276401825
 30
0.0
  0
SPLINE
  5
334
100
AcDbEntity
  8
0
100
AcDbSpline
 62
7
  6
BYLAYER
 70
0
 71
3
 72
15
 73
11
 74
0
 42
0.0000001
 43
0.0000001
 44
0.0000000001
 40
0.0
 40
0.0
 40
0.0
 40
0.0
 40
0.1274309344
 40
0.2517377626
 40
0.3740158589
 40
0.4955635692
 40
0.6177095162
 40
0.7417308445
 40
0.8688131364
 40
1.0
 40
1.0
 40
1.0
 40
1.0
 10
37.3023865096
 20
52.5431604043
 30
0.0
 10
37.1764757522
 20
52.5319131794
 30
0.0
 10
36.9287068569
 20
52.4958162396
 30
0.0
 10
36.5696948066
 20
52.3986964992
 30
0.0
 10
36.2309088881
 20
52.2597336998
 30
0.0
 10
35.9144676332
 20
52.0797638078
 30
0.0
 10
35.6222036236
 20
51.8598586735
 30
0.0
 10
35.3558264047
 20
51.6013260591
 30
0.0
 10
35.1168155305
 20
51.3058189383
 30
0.0
 10
34.9790044583
 20
51.0891215413
 30
0.0
 10
34.9149557163
 20
50.9758358074
 30
0.0
  0
SPLINE
  5
335
100
AcDbEntity
  8
0
100
AcDbSpline
 62
7
  6
BYLAYER
 70
0
 71
3
 72
19
 73
15
 74
0
 42
0.0000001
 43
0.0000001
 44
0.0000000001
 40
0.0
 40
0.0
 40
0.0
 40
0.0
 40
0.149097676
 40
0.2931847139
 40
0.4308869079
 40
0.4970074601
 40
0.5611450762
 40
0.6232178788
 40
0.6831753262
 40
0.7409958534
 40
0.7966954542
 40
0.8503287895
 40
0.9020057624
 40
1.0
 40
1.0
 40
1.0
 40
1.0
 10
43.3128191643
 20
49.0731140021
 30
0.0
 10
43.0887586082
 20
49.3518476121
 30
0.0
 10
42.626589485
 20
49.8830927462
 30
0.0
 10
41.8848674411
 20
50.604516597
 30
0.0
 10
41.2356449863
 20
51.1310618392
 30
0.0
 10
40.7069618362
 20
51.4970055081
 30
0.0
 10
40.314040865
 20
51.7391874311
 30
0.0
 10
39.9210320368
 20
51.9517175432
 30
0.0
 10
39.5296109555
 20
52.1337320686
 30
0.0
 10
39.1413968908
 20
52.2843873006
 30
0.0
 10
38.7580857649
 20
52.4030853101
 30
0.0
 10
38.3811519226
 20
52.4892388101
 30
0.0
 10
37.8982285401
 20
52.5589996874
 30
0.0
 10
37.5365026072
 20
52.564075175
 30
0.0
 10
37.3023865096
 20
52.5431604043
 30
0.0
  0
SPLINE
  5
336
100
AcDbEntity
  8
0
100
AcDbSpline
 62
7
  6
BYLAYER
 70
0
 71
3
 72
15
 73
11
 74
0
 42
0.0000001
 43
0.0000001
 44
0.0000000001
 40
0.0
 40
0.0
 40
0.0
 40
0.0
 40
0.1467895654
 40
0.2867837411
 40
0.4198772181
 40
0.5463382122
 40
0.6666659825
 40
0.7816257178
 40
0.8922902582
 40
1.0
 40
1.0
 40
1.0
 40
1.0
 10
45.8265942463
 20
41.6113675069
 30
0.0
 10
45.8265942463
 20
41.4272647436
 30
0.0
 10
45.8130980714
 20
41.0673850418
 30
0.0
 10
45.7492753067
 20
40.5439986686
 30
0.0
 10
45.6426322382
 20
40.053546228
 30
0.0
 10
45.4938938004
 20
39.5999374051
 30
0.0
 10
45.3040826464
 20
39.1866639168
 30
0.0
 10
45.0743530501
 20
38.8170872254
 30
0.0
 10
44.8064446005
 20
38.4944167861
 30
0.0
 10
44.6016884801
 20
38.3106925891
 30
0.0
 10
44.4945108822
 20
38.228461144
 30
0.0
  0
SPLINE
  5
337
100
AcDbEntity
  8
0
100
AcDbSpline
 62
7
  6
BYLAYER
 70
0
 71
3
 72
11
 73
7
 74
0
 42
0.0000001
 43
0.0000001
 44
0.0000000001
 40
0.0
 40
0.0
 40
0.0
 40
0.0
 40
0.238982068
 40
0.4861215604
 40
0.7402439331
 40
1.0
 40
1.0
 40
1.0
 40
1.0
 10
46.3180355052
 20
41.3276401825
 30
0.0
 10
46.3180355052
 20
41.6369664587
 30
0.0
 10
46.3391556878
 20
42.2663182965
 30
0.0
 10
46.4277981964
 20
43.2207935975
 30
0.0
 10
46.568108089
 20
44.1961163325
 30
0.0
 10
46.6898600702
 20
44.8501905347
 30
0.0
 10
46.7567988359
 20
45.1796746567
 30
0.0
  0
SPLINE
  5
338
100
AcDbEntity
  8
0
100
AcDbSpline
 62
7
  6
BYLAYER
 70
0
 71
3
 72
11
 73
7
 74
0
 42
0.0000001
 43
0.0000001
 44
0.0000000001
 40
0.0
 40
0.0
 40
0.0
 40
0.0
 40
0.2517021836
 40
0.5026363535
 40
0.7522743652
 40
1.0
 40
1.0
 40
1.0
 40
1.0
 10
46.6113369933
 20
45.8385491801
 30
0.0
 10
46.3088268891
 20
46.0820330594
 30
0.0
 10
45.7139311204
 20
46.5798813834
 30
0.0
 10
44.8590387406
 20
47.3655768955
 30
0.0
 10
44.0529514789
 20
48.1929224339
 30
0.0
 10
43.5522728859
 20
48.775235115
 30
0.0
 10
43.3128212292
 20
49.0731151943
 30
0.0
  0
SPLINE
  5
339
100
AcDbEntity
  8
0
100
AcDbSpline
 62
7
  6
BYLAYER
 70
0
 71
3
 72
11
 73
7
 74
0
 42
0.0000001
 43
0.0000001
 44
0.0000000001
 40
0.0
 40
0.0
 40
0.0
 40
0.0
 40
0.254381437
 40
0.5058288438
 40
0.7542965745
 40
1.0
 40
1.0
 40
1.0
 40
1.0
 10
43.3128212292
 20
49.0731151943
 30
0.0
 10
43.0757661847
 20
49.3680122554
 30
0.0
 10
42.6234632173
 20
49.9700423993
 30
0.0
 10
42.0087141397
 20
50.9094040605
 30
0.0
 10
41.4575956586
 20
51.8724564678
 30
0.0
 10
41.1259364279
 20
52.528759008
 30
0.0
 10
40.9683293199
 20
52.8584838171
 30
0.0
  0
SPLINE
  5
33A
100
AcDbEntity
  8
0
100
AcDbSpline
 62
7
  6
BYLAYER
 70
0
 71
3
 72
11
 73
7
 74
0
 42
0.0000001
 43
0.0000001
 44
0.0000000001
 40
0.0
 40
0.0
 40
0.0
 40
0.0
 40
0.2717549019
 40
0.5308665852
 40
0.7744631129
 40
1.0
 40
1.0
 40
1.0
 40
1.0
 10
40.4401784338
 20
53.0375870324
 30
0.0
 10
40.1581039654
 20
52.9800645844
 30
0.0
 10
39.6061737244
 20
52.8720442582
 30
0.0
 10
38.7978395526
 20
52.7313023484
 30
0.0
 10
38.0344140849
 20
52.6195332147
 30
0.0
 10
37.5403604168
 20
52.5644197852
 30
0.0
 10
37.3023885655
 20
52.5431615956
 30
0.0
  0
SPLINE
  5
33B
100
AcDbEntity
  8
0
100
AcDbSpline
 62
7
  6
BYLAYER
 70
0
 71
3
 72
11
 73
7
 74
0
 42
0.0000001
 43
0.0000001
 44
0.0000000001
 40
0.0
 40
0.0
 40
0.0
 40
0.0
 40
0.2890324015
 40
0.550502504
 40
0.7863777221
 40
1.0
 40
1.0
 40
1.0
 40
1.0
 10
37.3023885655
 20
52.5431615956
 30
0.0
 10
37.0850892486
 20
52.5237497268
 30
0.0
 10
36.6703840156
 20
52.4950957471
 30
0.0
 10
36.0766573233
 20
52.4835559893
 30
0.0
 10
35.5400788992
 20
52.5029347184
 30
0.0
 10
35.2020854679
 20
52.5350971882
 30
0.0
 10
35.0421207523
 20
52.5553707206
 30
0.0
  0
SPLINE
  5
33C
100
AcDbEntity
  8
0
100
AcDbSpline
 62
7
  6
BYLAYER
 70
0
 71
3
 72
11
 73
7
 74
0
 42
0.0000001
 43
0.0000001
 44
0.0000000001
 40
0.0
 40
0.0
 40
0.0
 40
0.0
 40
0.2369340669
 40
0.4817765276
 40
0.7358490029
 40
1.0
 40
1.0
 40
1.0
 40
1.0
 10
46.7567988359
 20
37.9822429383
 30
0.0
 10
46.6882495257
 20
38.2405009845
 30
0.0
 10
46.5635622206
 20
38.7696944386
 30
0.0
 10
46.424017582
 20
39.5883144558
 30
0.0
 10
46.3369398413
 20
40.4451016036
 30
0.0
 10
46.3180355052
 20
41.0297457585
 30
0.0
 10
46.3180355052
 20
41.3276401825
 30
0.0
  0
SPLINE
  5
33D
100
AcDbEntity
  8
0
100
AcDbSpline
 62
7
  6
BYLAYER
 70
0
 71
3
 72
11
 73
7
 74
0
 42
0.0000001
 43
0.0000001
 44
0.0000000001
 40
0.0
 40
0.0
 40
0.0
 40
0.0
 40
0.2599652468
 40
0.5142401001
 40
0.7613526697
 40
1.0
 40
1.0
 40
1.0
 40
1.0
 10
29.8244573631
 20
49.4474428188
 30
0.0
 10
29.7521130719
 20
49.1020534804
 30
0.0
 10
29.6202257414
 20
48.4163957035
 30
0.0
 10
29.4675119327
 20
47.3938806604
 30
0.0
 10
29.3706314509
 20
46.3935138733
 30
0.0
 10
29.3474433172
 20
45.7339708908
 30
0.0
 10
29.3474433172
 20
45.4100239323
 30
0.0
  0
SPLINE
  5
33E
100
AcDbEntity
  8
0
100
AcDbSpline
 62
7
  6
BYLAYER
 70
0
 71
3
 72
11
 73
7
 74
0
 42
0.0000001
 43
0.0000001
 44
0.0000000001
 40
0.0
 40
0.0
 40
0.0
 40
0.0
 40
0.2121825532
 40
0.4472994642
 40
0.709137791
 40
1.0
 40
1.0
 40
1.0
 40
1.0
 10
36.0186024602
 20
34.2178571946
 30
0.0
 10
36.1832084176
 20
34.1951581434
 30
0.0
 10
36.5318526212
 20
34.1586206951
 30
0.0
 10
37.0870098465
 20
34.1349329104
 30
0.0
 10
37.7041999554
 20
34.1447650359
 30
0.0
 10
38.1362188291
 20
34.1742375747
 30
0.0
 10
38.3630943868
 20
34.1945049035
 30
0.0
  0
SPLINE
  5
33F
100
AcDbEntity
  8
0
100
AcDbSpline
 62
7
  6
BYLAYER
 70
0
 71
3
 72
11
 73
7
 74
0
 42
0.0000001
 43
0.0000001
 44
0.0000000001
 40
0.0
 40
0.0
 40
0.0
 40
0.0
 40
0.2717549027
 40
0.5308665851
 40
0.7744631113
 40
1.0
 40
1.0
 40
1.0
 40
1.0
 10
31.3361792395
 20
50.4157571624
 30
0.0
 10
31.6182537069
 20
50.4732796102
 30
0.0
 10
32.1701839437
 20
50.5812999375
 30
0.0
 10
32.9785181086
 20
50.7220418448
 30
0.0
 10
33.7419435709
 20
50.8338109731
 30
0.0
 10
34.2359972353
 20
50.888924406
 30
0.0
 10
34.4739690868
 20
50.9101825959
 30
0.0
  0
SPLINE
  5
340
100
AcDbEntity
  8
0
100
AcDbSpline
 62
7
  6
BYLAYER
 70
0
 71
3
 72
11
 73
7
 74
0
 42
0.0000001
 43
0.0000001
 44
0.0000000001
 40
0.0
 40
0.0
 40
0.0
 40
0.0
 40
0.289032404
 40
0.5505025041
 40
0.7863777207
 40
1.0
 40
1.0
 40
1.0
 40
1.0
 10
34.4739690868
 20
50.9101825959
 30
0.0
 10
34.691268407
 20
50.9295944653
 30
0.0
 10
35.1059736426
 20
50.9582484494
 30
0.0
 10
35.699700338
 20
50.9697882028
 30
0.0
 10
36.2362787635
 20
50.95040947
 30
0.0
 10
36.5742721973
 20
50.9182470034
 30
0.0
 10
36.734236915
 20
50.8979734707
 30
0.0
  0
SPLINE
  5
341
100
AcDbEntity
  8
0
100
AcDbSpline
 62
7
  6
BYLAYER
 70
0
 71
3
 72
11
 73
7
 74
0
 42
0.0000001
 43
0.0000001
 44
0.0000000001
 40
0.0
 40
0.0
 40
0.0
 40
0.0
 40
0.2517021837
 40
0.5026363534
 40
0.752274365
 40
1.0
 40
1.0
 40
1.0
 40
1.0
 10
37.1858860054
 20
50.6747021867
 30
0.0
 10
37.4883961078
 20
50.4312183088
 30
0.0
 10
38.0832918785
 20
49.9333699949
 30
0.0
 10
38.9381842498
 20
49.147674484
 30
0.0
 10
39.7442714972
 20
48.3203289425
 30
0.0
 10
40.2449500948
 20
47.7380162717
 30
0.0
 10
40.4844017506
 20
47.4401361945
 30
0.0
  0
SPLINE
  5
342
100
AcDbEntity
  8
0
100
AcDbSpline
 62
7
  6
BYLAYER
 70
0
 71
3
 72
11
 73
7
 74
0
 42
0.0000001
 43
0.0000001
 44
0.0000000001
 40
0.0
 40
0.0
 40
0.0
 40
0.0
 40
0.2543814372
 40
0.5058288436
 40
0.7542965742
 40
1.0
 40
1.0
 40
1.0
 40
1.0
 10
40.4844017506
 20
47.4401361945
 30
0.0
 10
40.7214567973
 20
47.1452391317
 30
0.0
 10
41.1737597757
 20
46.5432089901
 30
0.0
 10
41.7885088468
 20
45.603847316
 30
0.0
 10
42.3396273264
 20
44.6407949006
 30
0.0
 10
42.671286568
 20
43.9844923603
 30
0.0
 10
42.8288936771
 20
43.6547675487
 30
0.0
  0
SPLINE
  5
343
100
AcDbEntity
  8
0
100
AcDbSpline
 62
7
  6
BYLAYER
 70
0
 71
3
 72
11
 73
7
 74
0
 42
0.0000001
 43
0.0000001
 44
0.0000000001
 40
0.0
 40
0.0
 40
0.0
 40
0.0
 40
0.239494155
 40
0.485622226
 40
0.7390194504
 40
1.0
 40
1.0
 40
1.0
 40
1.0
 10
43.2292893856
 20
42.2826503002
 30
0.0
 10
43.2711036685
 20
42.0789124151
 30
0.0
 10
43.3460501614
 20
41.6636970031
 30
0.0
 10
43.4282136258
 20
41.0269134008
 30
0.0
 10
43.4786443566
 20
40.3681026523
 30
0.0
 10
43.4896201564
 20
39.9213075703
 30
0.0
 10
43.4896201564
 20
39.6946635671
 30
0.0
  0
SPLINE
  5
344
100
AcDbEntity
  8
0
100
AcDbSpline
 62
7
  6
BYLAYER
 70
0
 71
3
 72
11
 73
7
 74
0
 42
0.0000001
 43
0.0000001
 44
0.0000000001
 40
0.0
 40
0.0
 40
0.0
 40
0.0
 40
0.2248493973
 40
0.4683883805
 40
0.7278160122
 40
1.0
 40
1.0
 40
1.0
 40
1.0
 10
38.3630943868
 20
34.1945049035
 30
0.0
 10
38.6125892025
 20
34.2167924098
 30
0.0
 10
39.1312761272
 20
34.2752081148
 30
0.0
 10
39.9333832922
 20
34.3944712702
 30
0.0
 10
40.7837843689
 20
34.5450159558
 30
0.0
 10
41.3646840733
 20
34.6604939995
 30
0.0
 10
41.661610132
 20
34.7219552419
 30
0.0
  0
SPLINE
  5
345
100
AcDbEntity
  8
0
100
AcDbSpline
 62
7
  6
BYLAYER
 70
0
 71
3
 72
11
 73
7
 74
0
 42
0.0000001
 43
0.0000001
 44
0.0000000001
 40
0.0
 40
0.0
 40
0.0
 40
0.0
 40
0.238982068
 40
0.4861215604
 40
0.7402439331
 40
1.0
 40
1.0
 40
1.0
 40
1.0
 10
43.4896201564
 20
39.6946635671
 30
0.0
 10
43.4896201564
 20
39.3853372909
 30
0.0
 10
43.4684999738
 20
38.7559854531
 30
0.0
 10
43.3798574652
 20
37.8015101521
 30
0.0
 10
43.2395475726
 20
36.8261874171
 30
0.0
 10
43.1177955914
 20
36.1721132149
 30
0.0
 10
43.0508568257
 20
35.8426290929
 30
0.0
  0
SPLINE
  5
346
100
AcDbEntity
  8
0
100
AcDbSpline
 62
7
  6
BYLAYER
 70
0
 71
3
 72
11
 73
7
 74
0
 42
0.0000001
 43
0.0000001
 44
0.0000000001
 40
0.0
 40
0.0
 40
0.0
 40
0.0
 40
0.2517023472
 40
0.502636411
 40
0.7522739523
 40
1.0
 40
1.0
 40
1.0
 40
1.0
 10
41.6616102076
 20
42.9808401461
 30
0.0
 10
41.3590998965
 20
43.224324199
 30
0.0
 10
40.7641952836
 20
43.722161712
 30
0.0
 10
39.9092999506
 20
44.5078548786
 30
0.0
 10
39.1032454245
 20
45.3352308803
 30
0.0
 10
38.6025452951
 20
45.9175245097
 30
0.0
 10
38.3630944168
 20
46.2154060541
 30
0.0
  0
SPLINE
  5
347
100
AcDbEntity
  8
0
100
AcDbSpline
 62
7
  6
BYLAYER
 70
0
 71
3
 72
11
 73
7
 74
0
 42
0.0000001
 43
0.0000001
 44
0.0000000001
 40
0.0
 40
0.0
 40
0.0
 40
0.0
 40
0.2389827885
 40
0.4861216545
 40
0.7402452202
 40
1.0
 40
1.0
 40
1.0
 40
1.0
 10
41.3683086447
 20
38.4699311054
 30
0.0
 10
41.3683086447
 20
38.7792582598
 30
0.0
 10
41.3894381607
 20
39.4086095996
 30
0.0
 10
41.478066727
 20
40.3630878295
 30
0.0
 10
41.6183991647
 20
41.3384061968
 30
0.0
 10
41.7401336156
 20
41.9924831817
 30
0.0
 10
41.8070720346
 20
42.3219656137
 30
0.0
  0
SPLINE
  5
348
100
AcDbEntity
  8
0
100
AcDbSpline
 62
7
  6
BYLAYER
 70
0
 71
3
 72
11
 73
7
 74
0
 42
0.0000001
 43
0.0000001
 44
0.0000000001
 40
0.0
 40
0.0
 40
0.0
 40
0.0
 40
0.2717549018
 40
0.5308665853
 40
0.7744631129
 40
1.0
 40
1.0
 40
1.0
 40
1.0
 10
35.4904515734
 20
50.1798779553
 30
0.0
 10
35.2083771036
 20
50.1223555143
 30
0.0
 10
34.6564468646
 20
50.0143351784
 30
0.0
 10
33.8481126921
 20
49.8735932719
 30
0.0
 10
33.0846872244
 20
49.7618241374
 30
0.0
 10
32.5906335563
 20
49.7067107081
 30
0.0
 10
32.352661705
 20
49.6854525185
 30
0.0
  0
SPLINE
  5
349
100
AcDbEntity
  8
0
100
AcDbSpline
 62
7
  6
BYLAYER
 70
0
 71
3
 72
19
 73
15
 74
0
 42
0.0000001
 43
0.0000001
 44
0.0000000001
 40
0.0
 40
0.0
 40
0.0
 40
0.0
 40
0.149097676
 40
0.293184714
 40
0.4308869079
 40
0.4970074601
 40
0.5611450761
 40
0.6232178787
 40
0.6831753262
 40
0.7409958534
 40
0.7966954542
 40
0.8503287895
 40
0.9020057624
 40
1.0
 40
1.0
 40
1.0
 40
1.0
 10
38.3630923038
 20
46.215404925
 30
0.0
 10
38.13903316
 20
46.4941396703
 30
0.0
 10
37.6768619906
 20
47.0253831603
 30
0.0
 10
36.9351407403
 20
47.7468076459
 30
0.0
 10
36.2859181166
 20
48.2733527615
 30
0.0
 10
35.7572349631
 20
48.6392964096
 30
0.0
 10
35.3643140065
 20
48.8814783578
 30
0.0
 10
34.9713051792
 20
49.0940084716
 30
0.0
 10
34.5798840947
 20
49.2760229905
 30
0.0
 10
34.1916700297
 20
49.426678222
 30
0.0
 10
33.8083589044
 20
49.5453762333
 30
0.0
 10
33.4314250622
 20
49.6315297334
 30
0.0
 10
32.9485016796
 20
49.7012906101
 30
0.0
 10
32.5867757467
 20
49.7063660979
 30
0.0
 10
32.3526596491
 20
49.6854513272
 30
0.0
  0
SPLINE
  5
34A
100
AcDbEntity
  8
0
100
AcDbSpline
 62
7
  6
BYLAYER
 70
0
 71
3
 72
22
 73
18
 74
0
 42
0.0000001
 43
0.0000001
 44
0.0000000001
 40
0.0
 40
0.0
 40
0.0
 40
0.0
 40
0.0583081537
 40
0.1153047451
 40
0.17136791
 40
0.2269530097
 40
0.2825406494
 40
0.3386013721
 40
0.3955853686
 40
0.4539070045
 40
0.5139331786
 40
0.5759708104
 40
0.6402675978
 40
0.7070030998
 40
0.8481639013
 40
0.9227833107
 40
1.0
 40
1.0
 40
1.0
 40
1.0
 10
32.3526596491
 20
49.6854513272
 30
0.0
 10
32.2407013269
 20
49.6754504309
 30
0.0
 10
32.0200957066
 20
49.6446942947
 30
0.0
 10
31.6989204663
 20
49.5647689181
 30
0.0
 10
31.3933294631
 20
49.4518413308
 30
0.0
 10
31.1048000398
 20
49.3064708271
 30
0.0
 10
30.8346566405
 20
49.1292639685
 30
0.0
 10
30.5840838963
 20
48.9211029636
 30
0.0
 10
30.3542575663
 20
48.6829067586
 30
0.0
 10
30.1461110118
 20
48.4158471731
 30
0.0
 10
29.9605584357
 20
48.1211031456
 30
0.0
 10
29.7982893121
 20
47.8000304162
 30
0.0
 10
29.6599994691
 20
47.4539910325
 30
0.0
 10
29.5053740754
 20
46.9520833983
 30
0.0
 10
29.4054416507
 20
46.4145094661
 30
0.0
 10
29.3556109211
 20
45.851693422
 30
0.0
 10
29.3474433172
 20
45.5588791548
 30
0.0
 10
29.3474433172
 20
45.4100239323
 30
0.0
  0
SPLINE
  5
34B
100
AcDbEntity
  8
0
100
AcDbSpline
 62
7
  6
BYLAYER
 70
0
 71
3
 72
11
 73
7
 74
0
 42
0.0000001
 43
0.0000001
 44
0.0000000001
 40
0.0
 40
0.0
 40
0.0
 40
0.0
 40
0.2543809815
 40
0.5058294033
 40
0.7542971272
 40
1.0
 40
1.0
 40
1.0
 40
1.0
 10
38.3630944168
 20
46.2154060541
 30
0.0
 10
38.1260385946
 20
46.5103016694
 30
0.0
 10
37.6737587067
 20
47.1123497808
 30
0.0
 10
37.058971545
 20
48.0516866122
 30
0.0
 10
36.5078545409
 20
49.0147422513
 30
0.0
 10
36.1762093089
 20
49.6710506855
 30
0.0
 10
36.0186025344
 20
50.0007747833
 30
0.0
  0
SPLINE
  5
34C
100
AcDbEntity
  8
0
100
AcDbSpline
 62
7
  6
BYLAYER
 70
0
 71
3
 72
13
 73
9
 74
0
 42
0.0000001
 43
0.0000001
 44
0.0000000001
 40
0.0
 40
0.0
 40
0.0
 40
0.0
 40
0.2780481281
 40
0.4098388373
 40
0.5367829049
 40
0.6590041594
 40
0.7767531724
 40
1.0
 40
1.0
 40
1.0
 40
1.0
 10
35.3486330807
 20
35.0050538025
 30
0.0
 10
35.6027331198
 20
34.8579005891
 30
0.0
 10
35.989796899
 20
34.6610474912
 30
0.0
 10
36.5183613471
 20
34.4552461587
 30
0.0
 10
36.9028915184
 20
34.3357640101
 30
0.0
 10
37.2810058368
 20
34.2490168134
 30
0.0
 10
37.7654096962
 20
34.1787299875
 30
0.0
 10
38.1282667196
 20
34.1735253879
 30
0.0
 10
38.3630923219
 20
34.1945037113
 30
0.0
  0
SPLINE
  5
34D
100
AcDbEntity
  8
0
100
AcDbSpline
 62
7
  6
BYLAYER
 70
0
 71
3
 72
22
 73
18
 74
0
 42
0.0000001
 43
0.0000001
 44
0.0000000001
 40
0.0
 40
0.0
 40
0.0
 40
0.0
 40
0.0583081529
 40
0.1153047446
 40
0.1713679096
 40
0.2269530094
 40
0.2825406491
 40
0.3386013718
 40
0.3955853683
 40
0.4539070042
 40
0.5139331784
 40
0.5759708103
 40
0.6402675977
 40
0.7070030997
 40
0.8481639013
 40
0.9227833107
 40
1.0
 40
1.0
 40
1.0
 40
1.0
 10
38.3630923219
 20
34.1945037113
 30
0.0
 10
38.4750506404
 20
34.2045046283
 30
0.0
 10
38.6956562563
 20
34.2352607714
 30
0.0
 10
39.0168315031
 20
34.3151861168
 30
0.0
 10
39.3224225085
 20
34.4281137029
 30
0.0
 10
39.6109519271
 20
34.5734842151
 30
0.0
 10
39.8810953251
 20
34.7506910744
 30
0.0
 10
40.1316680699
 20
34.9588520777
 30
0.0
 10
40.3614943992
 20
35.1970482826
 30
0.0
 10
40.5696409527
 20
35.4641078684
 30
0.0
 10
40.7551935282
 20
35.7588518958
 30
0.0
 10
40.9174626514
 20
36.0799246249
 30
0.0
 10
41.055752494
 20
36.4259640082
 30
0.0
 10
41.210377887
 20
36.9278716418
 30
0.0
 10
41.3103103115
 20
37.4654455732
 30
0.0
 10
41.3601410409
 20
38.0282616164
 30
0.0
 10
41.3683086447
 20
38.3210758832
 30
0.0
 10
41.3683086447
 20
38.4699311054
 30
0.0
  0
SPLINE
  5
34E
100
AcDbEntity
  8
0
100
AcDbSpline
 62
7
  6
BYLAYER
 70
0
 71
3
 72
15
 73
11
 74
0
 42
0.0000001
 43
0.0000001
 44
0.0000000001
 40
0.0
 40
0.0
 40
0.0
 40
0.0
 40
0.1108410465
 40
0.2280578197
 40
0.3507094003
 40
0.4776259691
 40
0.60747378
 40
0.7388131747
 40
0.8701524766
 40
1.0
 40
1.0
 40
1.0
 40
1.0
 10
41.3683086447
 20
38.4699311054
 30
0.0
 10
41.3683086447
 20
38.7822597102
 30
0.0
 10
41.3308984078
 20
39.425247269
 30
0.0
 10
41.175351246
 20
40.402538629
 30
0.0
 10
40.9213973161
 20
41.4057390212
 30
0.0
 10
40.573343797
 20
42.4178396974
 30
0.0
 10
40.1370744178
 20
43.4218347712
 30
0.0
 10
39.6199478537
 20
44.4007700403
 30
0.0
 10
39.030765558
 20
45.3380192895
 30
0.0
 10
38.5923305371
 20
45.9302351608
 30
0.0
 10
38.3630923038
 20
46.215404925
 30
0.0
  0
SPLINE
  5
34F
100
AcDbEntity
  8
0
100
AcDbSpline
 62
7
  6
BYLAYER
 70
0
 71
3
 72
11
 73
7
 74
0
 42
0.0000001
 43
0.0000001
 44
0.0000000001
 40
0.0
 40
0.0
 40
0.0
 40
0.0
 40
0.2369362209
 40
0.4817765332
 40
0.7358502298
 40
1.0
 40
1.0
 40
1.0
 40
1.0
 10
41.8070720331
 20
35.1245338946
 30
0.0
 10
41.7385221327
 20
35.3827941817
 30
0.0
 10
41.6138613383
 20
35.9119931629
 30
0.0
 10
41.4742796704
 20
36.7306077545
 30
0.0
 10
41.387228881
 20
37.5873953628
 30
0.0
 10
41.3683086447
 20
38.1720381895
 30
0.0
 10
41.3683086447
 20
38.4699311054
 30
0.0
  0
SPLINE
  5
350
100
AcDbEntity
  8
0
100
AcDbSpline
 62
7
  6
BYLAYER
 70
0
 71
3
 72
11
 73
7
 74
0
 42
0.0000001
 43
0.0000001
 44
0.0000000001
 40
0.0
 40
0.0
 40
0.0
 40
0.0
 40
0.2890324016
 40
0.5505025037
 40
0.786377723
 40
1.0
 40
1.0
 40
1.0
 40
1.0
 10
32.352661705
 20
49.6854525185
 30
0.0
 10
32.1353623881
 20
49.6660406497
 30
0.0
 10
31.7206571552
 20
49.6373866688
 30
0.0
 10
31.1269304627
 20
49.6258469156
 30
0.0
 10
30.5903520372
 20
49.645225632
 30
0.0
 10
30.2523586085
 20
49.6773881252
 30
0.0
 10
30.0923938918
 20
49.6976616436
 30
0.0
  0
SPLINE
  5
351
100
AcDbEntity
  8
0
100
AcDbSpline
 62
7
  6
BYLAYER
 70
0
 71
3
 72
11
 73
7
 74
0
 42
0.0000001
 43
0.0000001
 44
0.0000000001
 40
0.0
 40
0.0
 40
0.0
 40
0.0
 40
0.224337825
 40
0.4643547528
 40
0.7225623719
 40
1.0
 40
1.0
 40
1.0
 40
1.0
 10
8.4813919483
 20
31.0796283716
 30
0.0
 10
8.5909557351
 20
31.0934523682
 30
0.0
 10
8.8210878566
 20
31.0987694345
 30
0.0
 10
9.17408141
 20
31.0443000483
 30
0.0
 10
9.5394885997
 20
30.9292987302
 30
0.0
 10
9.7791958362
 20
30.8176542769
 30
0.0
 10
9.8996365897
 20
30.7532667338
 30
0.0
  0
SPLINE
  5
352
100
AcDbEntity
  8
0
100
AcDbSpline
 62
7
  6
BYLAYER
 70
0
 71
3
 72
18
 73
14
 74
0
 42
0.0000001
 43
0.0000001
 44
0.0000000001
 40
0.0
 40
0.0
 40
0.0
 40
0.0
 40
0.1533809514
 40
0.3005415434
 40
0.4398215915
 40
0.570019331
 40
0.6904944691
 40
0.7471383057
 40
0.8014689902
 40
0.8536534615
 40
0.9039228438
 40
0.9525824774
 40
1.0
 40
1.0
 40
1.0
 40
1.0
 10
8.1492117342
 20
24.5501075497
 30
0.0
 10
8.3018194947
 20
24.3657337406
 30
0.0
 10
8.6167147649
 20
24.0171854383
 30
0.0
 10
9.1233713711
 20
23.5526821347
 30
0.0
 10
9.6465041786
 20
23.1644295652
 30
0.0
 10
10.1753867784
 20
22.8605014968
 30
0.0
 10
10.6214353087
 20
22.6791555973
 30
0.0
 10
10.9704540035
 20
22.5848188863
 30
0.0
 10
11.2214405513
 20
22.5400204665
 30
0.0
 10
11.4656580297
 20
22.5199342928
 30
0.0
 10
11.7018599775
 20
22.5248141152
 30
0.0
 10
11.9287377349
 20
22.5546087632
 30
0.0
 10
12.0744947742
 20
22.5914726485
 30
0.0
 10
12.1449743508
 20
22.6139963417
 30
0.0
  0
SPLINE
  5
353
100
AcDbEntity
  8
0
100
AcDbSpline
 62
7
  6
BYLAYER
 70
0
 71
3
 72
15
 73
11
 74
0
 42
0.0000001
 43
0.0000001
 44
0.0000000001
 40
0.0
 40
0.0
 40
0.0
 40
0.0
 40
0.1293641776
 40
0.2605083571
 40
0.3918433631
 40
0.5218308571
 40
0.6489499397
 40
0.7718017985
 40
0.8891493744
 40
1.0
 40
1.0
 40
1.0
 40
1.0
 10
11.3598656229
 20
29.4827451089
 30
0.0
 10
11.4801651757
 20
29.3374046183
 30
0.0
 10
11.7104771523
 20
29.0346362915
 30
0.0
 10
12.0202427189
 20
28.553756537
 30
0.0
 10
12.2925755637
 20
28.0496553228
 30
0.0
 10
12.5226589075
 20
27.5313294933
 30
0.0
 10
12.7064195972
 20
27.0078851978
 30
0.0
 10
12.8406232052
 20
26.4885297597
 30
0.0
 10
12.9228871011
 20
25.9824582381
 30
0.0
 10
12.9427001242
 20
25.6494521606
 30
0.0
 10
12.942705644
 20
25.4877842806
 30
0.0
  0
SPLINE
  5
354
100
AcDbEntity
  8
0
100
AcDbSpline
 62
7
  6
BYLAYER
 70
0
 71
3
 72
24
 73
20
 74
0
 42
0.0000001
 43
0.0000001
 44
0.0000000001
 40
0.0
 40
0.0
 40
0.0
 40
0.0
 40
0.0723081758
 40
0.145569057
 40
0.2191747734
 40
0.2925701395
 40
0.3651758071
 40
0.4364380379
 40
0.5058376967
 40
0.5729013656
 40
0.6372219733
 40
0.6984768407
 40
0.7564476201
 40
0.8110448789
 40
0.8623370922
 40
0.9105774602
 40
0.9562261308
 40
0.9783021751
 40
1.0
 40
1.0
 40
1.0
 40
1.0
 10
12.7934284856
 20
30.6680213031
 30
0.0
 10
12.9158564724
 20
30.5201093346
 30
0.0
 10
13.1524517062
 20
30.2140248186
 30
0.0
 10
13.4785170009
 20
29.7315042236
 30
0.0
 10
13.7751481571
 20
29.2269741856
 30
0.0
 10
14.0388650649
 20
28.7064403752
 30
0.0
 10
14.2665853542
 20
28.1759321064
 30
0.0
 10
14.4556499997
 20
27.641669697
 30
0.0
 10
14.6038564036
 20
27.1098883615
 30
0.0
 10
14.709453197
 20
26.586776329
 30
0.0
 10
14.771201464
 20
26.0784103075
 30
0.0
 10
14.7883600183
 20
25.5906658822
 30
0.0
 10
14.7606559231
 20
25.1291494448
 30
0.0
 10
14.6882717978
 20
24.6991570153
 30
0.0
 10
14.5718153452
 20
24.3056079317
 30
0.0
 10
14.4123736215
 20
23.9531679946
 30
0.0
 10
14.2427932357
 20
23.6943032437
 30
0.0
 10
14.0878609903
 20
23.5140279163
 30
0.0
 10
14.0044260892
 20
23.432821005
 30
0.0
 10
13.9613294078
 20
23.3945808391
 30
0.0
  0
SPLINE
  5
355
100
AcDbEntity
  8
0
100
AcDbSpline
 62
7
  6
BYLAYER
 70
0
 71
3
 72
13
 73
9
 74
0
 42
0.0000001
 43
0.0000001
 44
0.0000000001
 40
0.0
 40
0.0
 40
0.0
 40
0.0
 40
0.1181428928
 40
0.2370014017
 40
0.3572689461
 40
0.4795977713
 40
0.7325427082
 40
1.0
 40
1.0
 40
1.0
 40
1.0
 10
8.7406249218
 20
33.5007765943
 30
0.0
 10
8.6853746193
 20
33.468879604
 30
0.0
 10
8.5775332601
 20
33.3995374287
 30
0.0
 10
8.4257306899
 20
33.2800358533
 30
0.0
 10
8.2840987071
 20
33.1453164949
 30
0.0
 10
8.1075192691
 20
32.9438341866
 30
0.0
 10
7.9143528628
 20
32.6533972079
 30
0.0
 10
7.7970907006
 20
32.3967393937
 30
0.0
 10
7.7460821645
 20
32.2616211432
 30
0.0
  0
SPLINE
  5
356
100
AcDbEntity
  8
0
100
AcDbSpline
 62
7
  6
BYLAYER
 70
0
 71
3
 72
15
 73
11
 74
0
 42
0.0000001
 43
0.0000001
 44
0.0000000001
 40
0.0
 40
0.0
 40
0.0
 40
0.0
 40
0.1080124997
 40
0.2180618382
 40
0.3319996243
 40
0.4513571054
 40
0.5772778255
 40
0.7105008922
 40
0.8513943405
 40
1.0
 40
1.0
 40
1.0
 40
1.0
 10
12.6296960265
 20
35.7461194406
 30
0.0
 10
12.728071851
 20
35.8029135681
 30
0.0
 10
12.9369330404
 20
35.9007357093
 30
0.0
 10
13.2748964614
 20
35.9941749451
 30
0.0
 10
13.6351663773
 20
36.0343521322
 30
0.0
 10
14.0139168515
 20
36.0211847822
 30
0.0
 10
14.4074947641
 20
35.9551412002
 30
0.0
 10
14.812214654
 20
35.8371415086
 30
0.0
 10
15.2243065285
 20
35.6685022046
 30
0.0
 10
15.494441809
 20
35.5270544392
 30
0.0
 10
15.6297875661
 20
35.4489132562
 30
0.0
  0
SPLINE
  5
357
100
AcDbEntity
  8
0
100
AcDbSpline
 62
7
  6
BYLAYER
 70
0
 71
3
 72
18
 73
14
 74
0
 42
0.0000001
 43
0.0000001
 44
0.0000000001
 40
0.0
 40
0.0
 40
0.0
 40
0.0
 40
0.1374486828
 40
0.2766427423
 40
0.4146238195
 40
0.548492486
 40
0.6130828852
 40
0.6757015495
 40
0.7361030811
 40
0.7940894913
 40
0.8495181198
 40
0.9023167694
 40
1.0
 40
1.0
 40
1.0
 40
1.0
 10
25.1793820031
 20
37.5589298658
 30
0.0
 10
25.3523815693
 20
37.3499195973
 30
0.0
 10
25.6776122687
 20
36.9097375185
 30
0.0
 10
26.0940640475
 20
36.2035588249
 30
0.0
 10
26.4327820086
 20
35.4646643307
 30
0.0
 10
26.6439028184
 20
34.833380369
 30
0.0
 10
26.7636312553
 20
34.3318419723
 30
0.0
 10
26.8271868645
 20
33.9667367921
 30
0.0
 10
26.8650754544
 20
33.6111639845
 30
0.0
 10
26.8769896102
 20
33.2679651427
 30
0.0
 10
26.8627656501
 20
32.9397352004
 30
0.0
 10
26.8105616752
 20
32.5364319065
 30
0.0
 10
26.7315177214
 20
32.2471216393
 30
0.0
 10
26.6585345577
 20
32.0686436943
 30
0.0
  0
SPLINE
  5
358
100
AcDbEntity
  8
0
100
AcDbSpline
 62
7
  6
BYLAYER
 70
0
 71
3
 72
14
 73
10
 74
0
 42
0.0000001
 43
0.0000001
 44
0.0000000001
 40
0.0
 40
0.0
 40
0.0
 40
0.0
 40
0.2120166724
 40
0.3283583058
 40
0.451412869
 40
0.580791857
 40
0.715884908
 40
0.8559630869
 40
1.0
 40
1.0
 40
1.0
 40
1.0
 10
22.4593674227
 20
39.3418552445
 30
0.0
 10
22.691868545
 20
39.3101687907
 30
0.0
 10
23.0455587955
 20
39.2074948919
 30
0.0
 10
23.497663445
 20
38.9942567714
 30
0.0
 10
23.8488404923
 20
38.7848869165
 30
0.0
 10
24.1970325439
 20
38.5336808937
 30
0.0
 10
24.5385331754
 20
38.2434237944
 30
0.0
 10
24.8692794575
 20
37.9175247603
 30
0.0
 10
25.0777362006
 20
37.681733737
 30
0.0
 10
25.1793820031
 20
37.5589298658
 30
0.0
  0
SPLINE
  5
359
100
AcDbEntity
  8
0
100
AcDbSpline
 62
7
  6
BYLAYER
 70
0
 71
3
 72
12
 73
8
 74
0
 42
0.0000001
 43
0.0000001
 44
0.0000000001
 40
0.0
 40
0.0
 40
0.0
 40
0.0
 40
0.2534576455
 40
0.5036320821
 40
0.7520626399
 40
0.8759705783
 40
1.0
 40
1.0
 40
1.0
 40
1.0
 10
26.3109901361
 20
31.2186400454
 30
0.0
 10
26.2543608136
 20
31.0801412851
 30
0.0
 10
26.1224395116
 20
30.812272451
 30
0.0
 10
25.8660928778
 20
30.4475545587
 30
0.0
 10
25.6060230159
 20
30.1850279498
 30
0.0
 10
25.3738843676
 20
30.0057032765
 30
0.0
 10
25.2503287632
 20
29.9267785839
 30
0.0
 10
25.1869175762
 20
29.8901683366
 30
0.0
  0
SPLINE
  5
35A
100
AcDbEntity
  8
0
100
AcDbSpline
 62
7
  6
BYLAYER
 70
0
 71
3
 72
11
 73
7
 74
0
 42
0.0000001
 43
0.0000001
 44
0.0000000001
 40
0.0
 40
0.0
 40
0.0
 40
0.0
 40
0.2325810675
 40
0.4780121557
 40
0.7345771936
 40
1.0
 40
1.0
 40
1.0
 40
1.0
 10
9.9022157073
 20
30.7540990693
 30
0.0
 10
10.0327062546
 20
30.6787606249
 30
0.0
 10
10.2924309957
 20
30.5089331819
 30
0.0
 10
10.6645079461
 20
30.211244292
 30
0.0
 10
11.0247261103
 20
29.867755447
 30
0.0
 10
11.2502238018
 20
29.615209409
 30
0.0
 10
11.3598656229
 20
29.4827451089
 30
0.0
  0
SPLINE
  5
35B
100
AcDbEntity
  8
0
100
AcDbSpline
 62
7
  6
BYLAYER
 70
0
 71
3
 72
12
 73
8
 74
0
 42
0.0000001
 43
0.0000001
 44
0.0000000001
 40
0.0
 40
0.0
 40
0.0
 40
0.0
 40
0.2534576455
 40
0.5036320821
 40
0.7520626399
 40
0.8759705783
 40
1.0
 40
1.0
 40
1.0
 40
1.0
 10
21.5494696541
 20
39.4658846706
 30
0.0
 10
21.4012116525
 20
39.4860923853
 30
0.0
 10
21.1032698881
 20
39.5057811437
 30
0.0
 10
20.6592414063
 20
39.4661396882
 30
0.0
 10
20.3018512771
 20
39.372177733
 30
0.0
 10
20.0304816546
 20
39.2608035059
 30
0.0
 10
19.9003527145
 20
39.1932642326
 30
0.0
 10
19.8369415275
 20
39.1566539853
 30
0.0
  0
SPLINE
  5
35C
100
AcDbEntity
  8
0
100
AcDbSpline
 62
7
  6
BYLAYER
 70
0
 71
3
 72
16
 73
12
 74
0
 42
0.0000001
 43
0.0000001
 44
0.0000000001
 40
0.0
 40
0.0
 40
0.0
 40
0.0
 40
0.1473989551
 40
0.2873542433
 40
0.4199865122
 40
0.4837054734
 40
0.545780924
 40
0.6653726199
 40
0.7799323523
 40
0.8909020113
 40
1.0
 40
1.0
 40
1.0
 40
1.0
 10
12.9407050018
 20
25.4863103413
 30
0.0
 10
12.9374135015
 20
25.3852219184
 30
0.0
 10
12.9229143062
 20
25.1882760971
 30
0.0
 10
12.8751820599
 20
24.9036418426
 30
0.0
 10
12.8136378708
 20
24.6807032125
 30
0.0
 10
12.7516740448
 20
24.5144501719
 30
0.0
 10
12.6833840884
 20
24.3604493635
 30
0.0
 10
12.5834371297
 20
24.1827098816
 30
0.0
 10
12.439052545
 20
23.9939299347
 30
0.0
 10
12.272849133
 20
23.8342044002
 30
0.0
 10
12.1480258545
 20
23.7478433586
 30
0.0
 10
12.0831921393
 20
23.7104172571
 30
0.0
  0
SPLINE
  5
35D
100
AcDbEntity
  8
0
100
AcDbSpline
 62
7
  6
BYLAYER
 70
0
 71
3
 72
16
 73
12
 74
0
 42
0.0000001
 43
0.0000001
 44
0.0000000001
 40
0.0
 40
0.0
 40
0.0
 40
0.0
 40
0.1485911951
 40
0.2894711072
 40
0.4226819458
 40
0.5485896231
 40
0.6679356729
 40
0.7818629491
 40
0.8919012321
 40
0.9460798507
 40
1.0
 40
1.0
 40
1.0
 40
1.0
 10
19.87233571
 20
28.1005627956
 30
0.0
 10
19.8723333909
 20
27.944279498
 30
0.0
 10
19.8597567831
 20
27.6396118701
 30
0.0
 10
19.7997558401
 20
27.1984106577
 30
0.0
 10
19.6995921809
 20
26.7889104022
 30
0.0
 10
19.5599894158
 20
26.4150479963
 30
0.0
 10
19.3820022308
 20
26.0804486025
 30
0.0
 10
19.1671407126
 20
25.7885583529
 30
0.0
 10
18.9575609574
 20
25.5823944039
 30
0.0
 10
18.7748743733
 20
25.4432394137
 30
0.0
 10
18.6787760433
 20
25.3821663335
 30
0.0
 10
18.629661819
 20
25.3538118111
 30
0.0
  0
SPLINE
  5
35E
100
AcDbEntity
  8
0
100
AcDbSpline
 62
7
  6
BYLAYER
 70
0
 71
3
 72
20
 73
16
 74
0
 42
0.0000001
 43
0.0000001
 44
0.0000000001
 40
0.0
 40
0.0
 40
0.0
 40
0.0
 40
0.0473909673
 40
0.0959967632
 40
0.1461978938
 40
0.198305191
 40
0.3090288335
 40
0.3680286942
 40
0.4294947459
 40
0.493418607
 40
0.5597405464
 40
0.6283619718
 40
0.6991387097
 40
0.8464275169
 40
1.0
 40
1.0
 40
1.0
 40
1.0
 10
8.6007043719
 20
32.6835100093
 30
0.0
 10
8.6743225913
 20
32.7079338214
 30
0.0
 10
8.8266705229
 20
32.7481645618
 30
0.0
 10
9.0640953843
 20
32.7816445581
 30
0.0
 10
9.3114892821
 20
32.7887381183
 30
0.0
 10
9.659679518
 20
32.7625996015
 30
0.0
 10
10.0161180957
 20
32.6824284205
 30
0.0
 10
10.3730357845
 20
32.556187101
 30
0.0
 10
10.6495568508
 20
32.4345722902
 30
0.0
 10
10.9276000505
 20
32.288691196
 30
0.0
 10
11.2058008305
 20
32.1193467604
 30
0.0
 10
11.4826573605
 20
31.9274012311
 30
0.0
 10
11.8529896727
 20
31.6389401841
 30
0.0
 10
12.3024579947
 20
31.2275221291
 30
0.0
 10
12.6331622329
 20
30.8616477567
 30
0.0
 10
12.7934284856
 20
30.6680213031
 30
0.0
  0
SPLINE
  5
35F
100
AcDbEntity
  8
0
100
AcDbSpline
 62
7
  6
BYLAYER
 70
0
 71
3
 72
23
 73
19
 74
0
 42
0.0000001
 43
0.0000001
 44
0.0000000001
 40
0.0
 40
0.0
 40
0.0
 40
0.0
 40
0.0437756402
 40
0.0895060787
 40
0.1378464783
 40
0.1892419339
 40
0.2439318906
 40
0.3019754987
 40
0.3632796667
 40
0.4276229531
 40
0.4946819687
 40
0.5640517485
 40
0.6352608174
 40
0.7077952144
 40
0.7811049383
 40
0.8546176114
 40
0.9277870731
 40
1.0
 40
1.0
 40
1.0
 40
1.0
 10
7.0145779058
 20
31.5001560219
 30
0.0
 10
6.9324625797
 20
31.4254942224
 30
0.0
 10
6.7784721858
 20
31.2569067372
 30
0.0
 10
6.5891277467
 20
30.9614592428
 30
0.0
 10
6.4392839299
 20
30.6230491221
 30
0.0
 10
6.3304194191
 20
30.2458830272
 30
0.0
 10
6.2634162671
 20
29.8343137181
 30
0.0
 10
6.2388440812
 20
29.393033849
 30
0.0
 10
6.2568872492
 20
28.9270552522
 30
0.0
 10
6.3172649625
 20
28.4416960654
 30
0.0
 10
6.4192395415
 20
27.9425186666
 30
0.0
 10
6.5616344761
 20
27.4352781405
 30
0.0
 10
6.7427932842
 20
26.9258319515
 30
0.0
 10
6.960611336
 20
26.4200768802
 30
0.0
 10
7.2125553942
 20
25.9238833096
 30
0.0
 10
7.4957337736
 20
25.4429534678
 30
0.0
 10
7.80683719
 20
24.98297621
 30
0.0
 10
8.0324757409
 20
24.6911427084
 30
0.0
 10
8.1492117342
 20
24.5501075497
 30
0.0
  0
SPLINE
  5
360
100
AcDbEntity
  8
0
100
AcDbSpline
 62
7
  6
BYLAYER
 70
0
 71
3
 72
13
 73
9
 74
0
 42
0.0000001
 43
0.0000001
 44
0.0000000001
 40
0.0
 40
0.0
 40
0.0
 40
0.0
 40
0.2675664856
 40
0.5205344316
 40
0.6428472526
 40
0.7630849367
 40
0.8819024681
 40
1.0
 40
1.0
 40
1.0
 40
1.0
 10
13.1633972207
 20
22.8678748222
 30
0.0
 10
13.306527632
 20
22.8440690359
 30
0.0
 10
13.5886426555
 20
22.8166101462
 30
0.0
 10
13.9383361262
 20
22.8381896012
 30
0.0
 10
14.2022786484
 20
22.8902789893
 30
0.0
 10
14.3905700534
 20
22.9456138515
 30
0.0
 10
14.5706995519
 20
23.0175252843
 30
0.0
 10
14.6851277438
 20
23.0764491975
 30
0.0
 10
14.7405907143
 20
23.1084689648
 30
0.0
  0
SPLINE
  5
361
100
AcDbEntity
  8
0
100
AcDbSpline
 62
7
  6
BYLAYER
 70
0
 71
3
 72
11
 73
7
 74
0
 42
0.0000001
 43
0.0000001
 44
0.0000000001
 40
0.0
 40
0.0
 40
0.0
 40
0.0
 40
0.2654226625
 40
0.5219876773
 40
0.7674185833
 40
1.0
 40
1.0
 40
1.0
 40
1.0
 10
17.9029809824
 20
33.6017500566
 30
0.0
 10
17.7665661628
 20
33.7665602852
 30
0.0
 10
17.4860053009
 20
34.080774846
 30
0.0
 10
17.0378270988
 20
34.5081391061
 30
0.0
 10
16.5748948144
 20
34.8785209836
 30
0.0
 10
16.2517483465
 20
35.0898177656
 30
0.0
 10
16.0893932906
 20
35.1835526296
 30
0.0
  0
SPLINE
  5
362
100
AcDbEntity
  8
0
100
AcDbSpline
 62
7
  6
BYLAYER
 70
0
 71
3
 72
22
 73
18
 74
0
 42
0.0000001
 43
0.0000001
 44
0.0000000001
 40
0.0
 40
0.0
 40
0.0
 40
0.0
 40
0.0474908422
 40
0.0955857632
 40
0.1448507595
 40
0.1957857369
 40
0.2488002694
 40
0.3042106708
 40
0.3622334131
 40
0.4229971256
 40
0.4865450606
 40
0.5528504358
 40
0.6218228361
 40
0.6933130131
 40
0.7671239191
 40
0.8430364123
 40
1.0
 40
1.0
 40
1.0
 40
1.0
 10
8.6060055747
 20
32.672501231
 30
0.0
 10
8.6777371241
 20
32.7139131407
 30
0.0
 10
8.8281463648
 20
32.7872706446
 30
0.0
 10
9.0690117768
 20
32.8658806482
 30
0.0
 10
9.324058131
 20
32.9130242588
 30
0.0
 10
9.5914803722
 20
32.9283918306
 30
0.0
 10
9.869511056
 20
32.9120895274
 30
0.0
 10
10.1563492969
 20
32.8642697612
 30
0.0
 10
10.4501890314
 20
32.7853791484
 30
0.0
 10
10.7491730697
 20
32.6759453843
 30
0.0
 10
11.0514340563
 20
32.5367322573
 30
0.0
 10
11.3550665129
 20
32.3686383792
 30
0.0
 10
11.6581474006
 20
32.1727458216
 30
0.0
 10
11.958752987
 20
31.9503394446
 30
0.0
 10
12.2549876698
 20
31.7028147693
 30
0.0
 10
12.6458743087
 20
31.3374177315
 30
0.0
 10
12.9201220449
 20
31.0365766793
 30
0.0
 10
13.0946748893
 20
30.8256898103
 30
0.0
  0
SPLINE
  5
363
100
AcDbEntity
  8
0
100
AcDbSpline
 62
7
  6
BYLAYER
 70
0
 71
3
 72
23
 73
19
 74
0
 42
0.0000001
 43
0.0000001
 44
0.0000000001
 40
0.0
 40
0.0
 40
0.0
 40
0.0
 40
0.0792482013
 40
0.1570060765
 40
0.2329147437
 40
0.3067219297
 40
0.3782085036
 40
0.4471774277
 40
0.5134794611
 40
0.5770241934
 40
0.6377848434
 40
0.6958046613
 40
0.75121227
 40
0.8042241307
 40
0.8551565409
 40
0.9044190543
 40
0.9525115513
 40
1.0
 40
1.0
 40
1.0
 40
1.0
 10
13.774646583
 20
31.4295862159
 30
0.0
 10
13.6758056618
 20
31.5490013562
 30
0.0
 10
13.4741925788
 20
31.7808686738
 30
0.0
 10
13.1581488434
 20
32.109289938
 30
0.0
 10
12.8329307796
 20
32.4132842266
 30
0.0
 10
12.5007181666
 20
32.6908738707
 30
0.0
 10
12.1635870333
 20
32.9403036588
 30
0.0
 10
11.8236840909
 20
33.1599957195
 30
0.0
 10
11.4831614932
 20
33.3485123515
 30
0.0
 10
11.1441772635
 20
33.5046391894
 30
0.0
 10
10.8088680481
 20
33.6273686529
 30
0.0
 10
10.4793281623
 20
33.7158441043
 30
0.0
 10
10.1576404147
 20
33.7694737492
 30
0.0
 10
9.8458303022
 20
33.787756706
 30
0.0
 10
9.5459175082
 20
33.770522046
 30
0.0
 10
9.2598842139
 20
33.717650707
 30
0.0
 10
8.9897547798
 20
33.6294899553
 30
0.0
 10
8.8210715193
 20
33.5472198575
 30
0.0
 10
8.7406249218
 20
33.5007765943
 30
0.0
  0
SPLINE
  5
364
100
AcDbEntity
  8
0
100
AcDbSpline
 62
7
  6
BYLAYER
 70
0
 71
3
 72
21
 73
17
 74
0
 42
0.0000001
 43
0.0000001
 44
0.0000000001
 40
0.0
 40
0.0
 40
0.0
 40
0.0
 40
0.1555179595
 40
0.3041914629
 40
0.3753980563
 40
0.4442487737
 40
0.5105947221
 40
0.574341003
 40
0.635443018
 40
0.6939186489
 40
0.7498525515
 40
0.803408193
 40
0.8548303126
 40
0.9044496907
 40
0.9526786525
 40
1.0
 40
1.0
 40
1.0
 40
1.0
 10
12.6520077182
 20
30.5863724723
 30
0.0
 10
12.4828241758
 20
30.7907723929
 30
0.0
 10
12.133285305
 20
31.1756297318
 30
0.0
 10
11.6563636356
 20
31.6050692816
 30
0.0
 10
11.2634029626
 20
31.9025505408
 30
0.0
 10
10.9702470785
 20
32.0980814353
 30
0.0
 10
10.6761449288
 20
32.2680277904
 30
0.0
 10
10.3828331108
 20
32.4114210677
 30
0.0
 10
10.0919957355
 20
32.5273656344
 30
0.0
 10
9.8053338589
 20
32.6151906594
 30
0.0
 10
9.5244951768
 20
32.6742981135
 30
0.0
 10
9.2511200327
 20
32.7043114241
 30
0.0
 10
8.9868155733
 20
32.7049399444
 30
0.0
 10
8.7331569807
 20
32.6760999232
 30
0.0
 10
8.4917733917
 20
32.6178654499
 30
0.0
 10
8.3390548222
 20
32.55925171
 30
0.0
 10
8.2657859012
 20
32.5253391969
 30
0.0
  0
SPLINE
  5
365
100
AcDbEntity
  8
0
100
AcDbSpline
 62
7
  6
BYLAYER
 70
0
 71
3
 72
19
 73
15
 74
0
 42
0.0000001
 43
0.0000001
 44
0.0000000001
 40
0.0
 40
0.0
 40
0.0
 40
0.0
 40
0.0976783893
 40
0.1504734061
 40
0.2058994142
 40
0.2638822865
 40
0.3242799464
 40
0.3868950649
 40
0.4514806802
 40
0.5177529778
 40
0.5853954973
 40
0.7233702686
 40
0.862557208
 40
1.0
 40
1.0
 40
1.0
 40
1.0
 10
26.3109859492
 20
31.2186443092
 30
0.0
 10
26.3937327811
 20
31.421028664
 30
0.0
 10
26.4833664091
 20
31.7490778472
 30
0.0
 10
26.5425780074
 20
32.2063890979
 30
0.0
 10
26.5586972685
 20
32.5785736492
 30
0.0
 10
26.5451870684
 20
32.9677301846
 30
0.0
 10
26.5022356025
 20
33.3709212442
 30
0.0
 10
26.4301530143
 20
33.7849047716
 30
0.0
 10
26.3295601576
 20
34.2064032039
 30
0.0
 10
26.2012385496
 20
34.6320633595
 30
0.0
 10
25.9932037658
 20
35.2042840287
 30
0.0
 10
25.6709030638
 20
35.9073391412
 30
0.0
 10
25.1987111376
 20
36.7080306187
 30
0.0
 10
24.8299171454
 20
37.2071783782
 30
0.0
 10
24.6337477822
 20
37.4441813496
 30
0.0
  0
SPLINE
  5
366
100
AcDbEntity
  8
0
100
AcDbSpline
 62
7
  6
BYLAYER
 70
0
 71
3
 72
24
 73
20
 74
0
 42
0.0000001
 43
0.0000001
 44
0.0000000001
 40
0.0
 40
0.0
 40
0.0
 40
0.0
 40
0.0808849043
 40
0.1600638421
 40
0.2371086343
 40
0.3117209893
 40
0.3836433169
 40
0.4526546802
 40
0.5186107355
 40
0.5814478623
 40
0.6411977659
 40
0.6699623444
 40
0.6980167529
 40
0.7521226384
 40
0.8039259683
 40
0.853945934
 40
0.902816305
 40
0.951251709
 40
1.0
 40
1.0
 40
1.0
 40
1.0
 10
11.6550639484
 20
29.9362684093
 30
0.0
 10
11.5616848693
 20
30.0490847984
 30
0.0
 10
11.3709034474
 20
30.2674641822
 30
0.0
 10
11.0707784738
 20
30.5747391796
 30
0.0
 10
10.7615504097
 20
30.8562910566
 30
0.0
 10
10.4456890461
 20
31.1099150911
 30
0.0
 10
10.1255846816
 20
31.3337029079
 30
0.0
 10
9.8036599201
 20
31.5259103144
 30
0.0
 10
9.482372512
 20
31.6850674295
 30
0.0
 10
9.164153564
 20
31.8098745513
 30
0.0
 10
8.9002103408
 20
31.8854226239
 30
0.0
 10
8.6932046679
 20
31.9270807541
 30
0.0
 10
8.4943387369
 20
31.9557463044
 30
0.0
 10
8.2515331826
 20
31.9695530519
 30
0.0
 10
7.9691029302
 20
31.9493480214
 30
0.0
 10
7.7013586455
 20
31.892169663
 30
0.0
 10
7.4505804976
 20
31.7983061504
 30
0.0
 10
7.2190529
 20
31.6684888598
 30
0.0
 10
7.0798824475
 20
31.5595329353
 30
0.0
 10
7.0145779058
 20
31.5001560219
 30
0.0
  0
SPLINE
  5
367
100
AcDbEntity
  8
0
100
AcDbSpline
 62
7
  6
BYLAYER
 70
0
 71
3
 72
22
 73
18
 74
0
 42
0.0000001
 43
0.0000001
 44
0.0000000001
 40
0.0
 40
0.0
 40
0.0
 40
0.0
 40
0.0474908422
 40
0.0955857632
 40
0.1448507595
 40
0.1957857369
 40
0.2488002694
 40
0.3042106708
 40
0.3622334131
 40
0.4229971256
 40
0.4865450606
 40
0.5528504358
 40
0.6218228361
 40
0.6933130131
 40
0.7671239191
 40
0.8430364123
 40
1.0
 40
1.0
 40
1.0
 40
1.0
 10
19.8369448027
 20
39.1566483124
 30
0.0
 10
19.9086763521
 20
39.1980602222
 30
0.0
 10
20.0590855928
 20
39.271417726
 30
0.0
 10
20.2999510049
 20
39.3500277296
 30
0.0
 10
20.554997359
 20
39.3971713402
 30
0.0
 10
20.8224196002
 20
39.412538912
 30
0.0
 10
21.1004502841
 20
39.3962366088
 30
0.0
 10
21.3872885249
 20
39.3484168426
 30
0.0
 10
21.6811282594
 20
39.2695262298
 30
0.0
 10
21.9801122977
 20
39.1600924658
 30
0.0
 10
22.2823732843
 20
39.0208793387
 30
0.0
 10
22.5860057409
 20
38.8527854607
 30
0.0
 10
22.8890866286
 20
38.656892903
 30
0.0
 10
23.189692215
 20
38.4344865261
 30
0.0
 10
23.4859268978
 20
38.1869618507
 30
0.0
 10
23.8768135367
 20
37.8215648129
 30
0.0
 10
24.1510612729
 20
37.5207237607
 30
0.0
 10
24.3256141173
 20
37.3098368917
 30
0.0
  0
SPLINE
  5
368
100
AcDbEntity
  8
0
100
AcDbSpline
 62
7
  6
BYLAYER
 70
0
 71
3
 72
25
 73
21
 74
0
 42
0.0000001
 43
0.0000001
 44
0.0000000001
 40
0.0
 40
0.0
 40
0.0
 40
0.0
 40
0.0738329985
 40
0.1486561008
 40
0.2237741785
 40
0.2985350056
 40
0.3722689335
 40
0.4443426094
 40
0.5141697824
 40
0.5812322132
 40
0.6451032142
 40
0.7054736344
 40
0.7621835835
 40
0.8152567539
 40
0.8649374603
 40
0.9117232373
 40
0.9342834602
 40
0.9564274162
 40
0.9782862422
 40
1.0
 40
1.0
 40
1.0
 40
1.0
 10
13.0946748893
 20
30.8256898103
 30
0.0
 10
13.2242540869
 20
30.6691380717
 30
0.0
 10
13.4739946672
 20
30.3445349494
 30
0.0
 10
13.8157998676
 20
29.8316225659
 30
0.0
 10
14.1238350532
 20
29.2947687282
 30
0.0
 10
14.3939961975
 20
28.741229595
 30
0.0
 10
14.6226753552
 20
28.1783147729
 30
0.0
 10
14.8068302783
 20
27.6135353021
 30
0.0
 10
14.9440167149
 20
27.0543858256
 30
0.0
 10
15.032401549
 20
26.5082636531
 30
0.0
 10
15.0707819818
 20
25.9823630272
 30
0.0
 10
15.0585703203
 20
25.4835696922
 30
0.0
 10
14.9957997254
 20
25.0183860616
 30
0.0
 10
14.8830095721
 20
24.5928436753
 30
0.0
 10
14.7213383927
 20
24.2126477326
 30
0.0
 10
14.5448250095
 20
23.9344911908
 30
0.0
 10
14.3816623059
 20
23.7422553949
 30
0.0
 10
14.2501885997
 20
23.614232754
 30
0.0
 10
14.1086548494
 20
23.5011484922
 30
0.0
 10
14.0077348141
 20
23.4359087547
 30
0.0
 10
13.955975073
 20
23.4060269281
 30
0.0
  0
SPLINE
  5
369
100
AcDbEntity
  8
0
100
AcDbSpline
 62
7
  6
BYLAYER
 70
0
 71
3
 72
21
 73
17
 74
0
 42
0.0000001
 43
0.0000001
 44
0.0000000001
 40
0.0
 40
0.0
 40
0.0
 40
0.0
 40
0.0474937594
 40
0.0955911404
 40
0.1448595599
 40
0.1957967317
 40
0.2488152288
 40
0.3042279469
 40
0.3622551225
 40
0.4230210505
 40
0.4865734884
 40
0.5528829295
 40
0.6218605143
 40
0.6933512284
 40
0.8430310187
 40
1.0
 40
1.0
 40
1.0
 40
1.0
 10
12.0831921393
 20
23.7104172571
 30
0.0
 10
12.027548432
 20
23.6782962066
 30
0.0
 10
11.9108729822
 20
23.6214015117
 30
0.0
 10
11.7240386125
 20
23.5604045931
 30
0.0
 10
11.5261957488
 20
23.5238576145
 30
0.0
 10
11.318756839
 20
23.5119132997
 30
0.0
 10
11.1030903331
 20
23.5245819304
 30
0.0
 10
10.8805852104
 20
23.5616544388
 30
0.0
 10
10.6526600375
 20
23.6228695437
 30
0.0
 10
10.4207310376
 20
23.7077391746
 30
0.0
 10
10.1862732113
 20
23.8157409017
 30
0.0
 10
9.9507385574
 20
23.9461227538
 30
0.0
 10
9.7156434471
 20
24.0980856722
 30
0.0
 10
9.3999254137
 20
24.3316685148
 30
0.0
 10
9.0167347789
 20
24.6722731227
 30
0.0
 10
8.7367241164
 20
24.9794103956
 30
0.0
 10
8.6013266044
 20
25.1429915591
 30
0.0
  0
SPLINE
  5
36A
100
AcDbEntity
  8
0
100
AcDbSpline
 62
7
  6
BYLAYER
 70
0
 71
3
 72
15
 73
11
 74
0
 42
0.0000001
 43
0.0000001
 44
0.0000000001
 40
0.0
 40
0.0
 40
0.0
 40
0.0
 40
0.1293672771
 40
0.2605099173
 40
0.3918460899
 40
0.52183356
 40
0.6489544628
 40
0.7718007184
 40
0.8891544134
 40
1.0
 40
1.0
 40
1.0
 40
1.0
 10
8.4444100597
 20
25.0036308501
 30
0.0
 10
8.3241067605
 20
25.1489758669
 30
0.0
 10
8.0937911809
 20
25.4517478304
 30
0.0
 10
7.7840242179
 20
25.9326363241
 30
0.0
 10
7.5116898978
 20
26.4367406399
 30
0.0
 10
7.2816045841
 20
26.9550750997
 30
0.0
 10
7.0978525887
 20
27.4785203796
 30
0.0
 10
6.9636395202
 20
27.9978813065
 30
0.0
 10
6.8813924797
 20
28.503952099
 30
0.0
 10
6.8615660232
 20
28.8369615319
 30
0.0
 10
6.8615660232
 20
28.9986232239
 30
0.0
  0
SPLINE
  5
36B
100
AcDbEntity
  8
0
100
AcDbSpline
 62
7
  6
BYLAYER
 70
0
 71
3
 72
15
 73
11
 74
0
 42
0.0000001
 43
0.0000001
 44
0.0000000001
 40
0.0
 40
0.0
 40
0.0
 40
0.0
 40
0.1508617861
 40
0.2925483158
 40
0.4252230941
 40
0.5496037671
 40
0.6670385823
 40
0.7795156031
 40
0.8895618502
 40
1.0
 40
1.0
 40
1.0
 40
1.0
 10
12.942705644
 20
25.4877842806
 30
0.0
 10
12.942710082
 20
25.3578001729
 30
0.0
 10
12.9306209171
 20
25.1054900774
 30
0.0
 10
12.8724593677
 20
24.7429227125
 30
0.0
 10
12.775330737
 20
24.4122789778
 30
0.0
 10
12.640119125
 20
24.1179002014
 30
0.0
 10
12.4681587776
 20
23.8638256091
 30
0.0
 10
12.2613128437
 20
23.6539068894
 30
0.0
 10
12.0224625604
 20
23.4917179624
 30
0.0
 10
11.8458545397
 20
23.4178833191
 30
0.0
 10
11.7549706603
 20
23.3896958604
 30
0.0
  0
SPLINE
  5
36C
100
AcDbEntity
  8
0
100
AcDbSpline
 62
7
  6
BYLAYER
 70
0
 71
3
 72
17
 73
13
 74
0
 42
0.0000001
 43
0.0000001
 44
0.0000000001
 40
0.0
 40
0.0
 40
0.0
 40
0.0
 40
0.0474415646
 40
0.0961445848
 40
0.146469206
 40
0.1987137181
 40
0.3096948892
 40
0.4302428863
 40
0.560457628
 40
0.6996935998
 40
0.8467574373
 40
1.0
 40
1.0
 40
1.0
 40
1.0
 10
11.7549706603
 20
23.3896958604
 30
0.0
 10
11.6963721533
 20
23.3715216472
 30
0.0
 10
11.5752483298
 20
23.3419391297
 30
0.0
 10
11.3868972552
 20
23.3185871265
 30
0.0
 10
11.1909151421
 20
23.315774785
 30
0.0
 10
10.9154029572
 20
23.339927134
 30
0.0
 10
10.5561425465
 20
23.4243261843
 30
0.0
 10
10.1218587005
 20
23.6023870277
 30
0.0
 10
9.6838814907
 20
23.8551404984
 30
0.0
 10
9.2508734814
 20
24.1773073981
 30
0.0
 10
8.831481852
 20
24.5622856993
 30
0.0
 10
8.5707715148
 20
24.8509666428
 30
0.0
 10
8.4444100597
 20
25.0036308501
 30
0.0
  0
SPLINE
  5
36D
100
AcDbEntity
  8
0
100
AcDbSpline
 62
7
  6
BYLAYER
 70
0
 71
3
 72
23
 73
19
 74
0
 42
0.0000001
 43
0.0000001
 44
0.0000000001
 40
0.0
 40
0.0
 40
0.0
 40
0.0
 40
0.0457630154
 40
0.0913681574
 40
0.137879805
 40
0.1862615489
 40
0.237289772
 40
0.2915121003
 40
0.3492471845
 40
0.4106088844
 40
0.47553448
 40
0.5438135887
 40
0.6151189795
 40
0.6890284037
 40
0.7650413739
 40
0.8426069467
 40
0.9211343394
 40
1.0
 40
1.0
 40
1.0
 40
1.0
 10
12.1449743508
 20
22.6139963417
 30
0.0
 10
12.2487929442
 20
22.6471744377
 30
0.0
 10
12.4505831689
 20
22.7325669744
 30
0.0
 10
12.7248022808
 20
22.9166535902
 30
0.0
 10
12.9643898594
 20
23.1529280255
 30
0.0
 10
13.1662887298
 20
23.4377951519
 30
0.0
 10
13.3284203584
 20
23.7673483183
 30
0.0
 10
13.4492852745
 20
24.1374232641
 30
0.0
 10
13.5278490701
 20
24.5436185106
 30
0.0
 10
13.5634211669
 20
24.9812320534
 30
0.0
 10
13.5557169525
 20
25.4452149267
 30
0.0
 10
13.5049269399
 20
25.9301992537
 30
0.0
 10
13.411677626
 20
26.4305488343
 30
0.0
 10
13.2770597855
 20
26.9404107525
 30
0.0
 10
13.102687654
 20
27.453812547
 30
0.0
 10
12.8906023476
 20
27.9647286797
 30
0.0
 10
12.6433095225
 20
28.4671059874
 30
0.0
 10
12.4568087203
 20
28.7926090258
 30
0.0
 10
12.358346639
 20
28.9525631039
 30
0.0
  0
SPLINE
  5
36E
100
AcDbEntity
  8
0
100
AcDbSpline
 62
7
  6
BYLAYER
 70
0
 71
3
 72
15
 73
11
 74
0
 42
0.0000001
 43
0.0000001
 44
0.0000000001
 40
0.0
 40
0.0
 40
0.0
 40
0.0
 40
0.1293679291
 40
0.260508229
 40
0.3918455681
 40
0.5218335887
 40
0.6489536195
 40
0.7718037832
 40
0.8891499055
 40
1.0
 40
1.0
 40
1.0
 40
1.0
 10
17.6637176877
 20
33.6749290622
 30
0.0
 10
17.8315824773
 20
33.4721223992
 30
0.0
 10
18.1529509591
 20
33.049657005
 30
0.0
 10
18.5851787646
 20
32.3786542661
 30
0.0
 10
18.9651834368
 20
31.6752620484
 30
0.0
 10
19.2862270572
 20
30.9520062632
 30
0.0
 10
19.5426360541
 20
30.2216188246
 30
0.0
 10
19.7298935079
 20
29.4969395363
 30
0.0
 10
19.8446706264
 20
28.7908004487
 30
0.0
 10
19.8723390575
 20
28.3261449115
 30
0.0
 10
19.87233571
 20
28.1005627956
 30
0.0
  0
SPLINE
  5
36F
100
AcDbEntity
  8
0
100
AcDbSpline
 62
7
  6
BYLAYER
 70
0
 71
3
 72
25
 73
21
 74
0
 42
0.0000001
 43
0.0000001
 44
0.0000000001
 40
0.0
 40
0.0
 40
0.0
 40
0.0
 40
0.021643647
 40
0.0435425398
 40
0.0658211238
 40
0.0885936763
 40
0.1359678083
 40
0.1863345324
 40
0.2400767514
 40
0.2973538502
 40
0.3581343998
 40
0.4222291674
 40
0.4893204607
 40
0.5589880951
 40
0.6307327156
 40
0.7039969751
 40
0.7781822145
 40
0.8526584023
 40
0.9268164787
 40
1.0
 40
1.0
 40
1.0
 40
1.0
 10
13.6552650727
 20
23.1827501589
 30
0.0
 10
13.7035592034
 20
23.2166188435
 30
0.0
 10
13.7974397029
 20
23.2895629703
 30
0.0
 10
13.9281114757
 20
23.412827613
 30
0.0
 10
14.0488242372
 20
23.5500034001
 30
0.0
 10
14.1978500519
 20
23.7534330969
 30
0.0
 10
14.3569241671
 20
24.0425924127
 30
0.0
 10
14.4993770345
 20
24.4315008987
 30
0.0
 10
14.5947829684
 20
24.8620399917
 30
0.0
 10
14.6422250719
 20
25.3287803299
 30
0.0
 10
14.6413311129
 20
25.8259914134
 30
0.0
 10
14.5922059471
 20
26.3475260186
 30
0.0
 10
14.4955106847
 20
26.8869062259
 30
0.0
 10
14.3524898124
 20
27.4373963044
 30
0.0
 10
14.164952933
 20
27.9920975445
 30
0.0
 10
13.9352555965
 20
28.54403933
 30
0.0
 10
13.6662863099
 20
29.0862474502
 30
0.0
 10
13.3614444166
 20
29.6119510735
 30
0.0
 10
13.0245753693
 20
30.1144169852
 30
0.0
 10
12.7791822368
 20
30.4327259582
 30
0.0
 10
12.6520077182
 20
30.5863724723
 30
0.0
  0
SPLINE
  5
370
100
AcDbEntity
  8
0
100
AcDbSpline
 62
7
  6
BYLAYER
 70
0
 71
3
 72
14
 73
10
 74
0
 42
0.0000001
 43
0.0000001
 44
0.0000000001
 40
0.0
 40
0.0
 40
0.0
 40
0.0
 40
0.1440436499
 40
0.2841122197
 40
0.4192056572
 40
0.5485876543
 40
0.6716411137
 40
0.7879822935
 40
1.0
 40
1.0
 40
1.0
 40
1.0
 10
24.6337477822
 20
37.4441813496
 30
0.0
 10
24.5184841745
 20
37.5834376386
 30
0.0
 10
24.2821173211
 20
37.8508067825
 30
0.0
 10
23.9070744479
 20
38.220343123
 30
0.0
 10
23.5198442782
 20
38.5494636186
 30
0.0
 10
23.1250278537
 20
38.8343241097
 30
0.0
 10
22.7268157756
 20
39.0717277906
 30
0.0
 10
22.2141633755
 20
39.3135182346
 30
0.0
 10
21.8131076237
 20
39.4299385164
 30
0.0
 10
21.549470447
 20
39.4658818155
 30
0.0
  0
SPLINE
  5
371
100
AcDbEntity
  8
0
100
AcDbSpline
 62
7
  6
BYLAYER
 70
0
 71
3
 72
24
 73
20
 74
0
 42
0.0000001
 43
0.0000001
 44
0.0000000001
 40
0.0
 40
0.0
 40
0.0
 40
0.0
 40
0.0738332233
 40
0.1486655354
 40
0.2237864171
 40
0.2985508114
 40
0.3722890972
 40
0.4443664231
 40
0.5141977312
 40
0.5812634946
 40
0.6451373255
 40
0.7055112391
 40
0.7622245534
 40
0.815300072
 40
0.8649828906
 40
0.9117714915
 40
0.9564283643
 40
0.9782868583
 40
1.0
 40
1.0
 40
1.0
 40
1.0
 10
8.6013266044
 20
25.1429915591
 30
0.0
 10
8.5008166524
 20
25.2644231471
 30
0.0
 10
8.3070939965
 20
25.5162242788
 30
0.0
 10
8.041948598
 20
25.914088739
 30
0.0
 10
7.8030005598
 20
26.3305347158
 30
0.0
 10
7.593440053
 20
26.7599161381
 30
0.0
 10
7.4160558478
 20
27.1965717329
 30
0.0
 10
7.273204623
 20
27.634673704
 30
0.0
 10
7.1667827473
 20
28.0684064344
 30
0.0
 10
7.0982293478
 20
28.4920357026
 30
0.0
 10
7.0684659598
 20
28.8999779499
 30
0.0
 10
7.0779310593
 20
29.2868923661
 30
0.0
 10
7.1266223072
 20
29.647741874
 30
0.0
 10
7.214109599
 20
29.9778203715
 30
0.0
 10
7.3395757607
 20
30.2727760928
 30
0.0
 10
7.5017263493
 20
30.5284582942
 30
0.0
 10
7.667413104
 20
30.706924082
 30
0.0
 10
7.8147876412
 20
30.8246442402
 30
0.0
 10
7.8930665277
 20
30.8752565711
 30
0.0
 10
7.9332126649
 20
30.8984354635
 30
0.0
  0
SPLINE
  5
372
100
AcDbEntity
  8
0
100
AcDbSpline
 62
7
  6
BYLAYER
 70
0
 71
3
 72
11
 73
7
 74
0
 42
0.0000001
 43
0.0000001
 44
0.0000000001
 40
0.0
 40
0.0
 40
0.0
 40
0.0
 40
0.2325814167
 40
0.4780123227
 40
0.7345773375
 40
1.0
 40
1.0
 40
1.0
 40
1.0
 10
15.6297875661
 20
35.4489132562
 30
0.0
 10
15.8118680027
 20
35.3437900443
 30
0.0
 10
16.1742752564
 20
35.1068216906
 30
0.0
 10
16.6934516501
 20
34.6914401457
 30
0.0
 10
17.1960814094
 20
34.2121531251
 30
0.0
 10
17.5107291051
 20
33.8597629634
 30
0.0
 10
17.6637176877
 20
33.6749290622
 30
0.0
  0
SPLINE
  5
373
100
AcDbEntity
  8
0
100
AcDbSpline
 62
7
  6
BYLAYER
 70
0
 71
3
 72
15
 73
11
 74
0
 42
0.0000001
 43
0.0000001
 44
0.0000000001
 40
0.0
 40
0.0
 40
0.0
 40
0.0
 40
0.1108500945
 40
0.2281962168
 40
0.3510463805
 40
0.4781664113
 40
0.6081544319
 40
0.739491771
 40
0.8706320709
 40
1.0
 40
1.0
 40
1.0
 40
1.0
 10
19.8723320522
 20
28.6312734689
 30
0.0
 10
19.8723350371
 20
28.8324175222
 30
0.0
 10
19.8476640193
 20
29.2467353763
 30
0.0
 10
19.7453210887
 20
29.8763760627
 30
0.0
 10
19.5783498591
 20
30.5225484281
 30
0.0
 10
19.3497185035
 20
31.1738105609
 30
0.0
 10
19.0634546086
 20
31.818713636
 30
0.0
 10
18.7246171093
 20
32.44590503
 30
0.0
 10
18.3392139826
 20
33.0442158056
 30
0.0
 10
18.0526604198
 20
33.4209141154
 30
0.0
 10
17.9029809824
 20
33.6017500566
 30
0.0
  0
SPLINE
  5
374
100
AcDbEntity
  8
0
100
AcDbSpline
 62
7
  6
BYLAYER
 70
0
 71
3
 72
25
 73
21
 74
0
 42
0.0000001
 43
0.0000001
 44
0.0000000001
 40
0.0
 40
0.0
 40
0.0
 40
0.0
 40
0.0738329985
 40
0.1486561008
 40
0.2237741785
 40
0.2985350056
 40
0.3722689335
 40
0.4443426094
 40
0.5141697824
 40
0.5812322132
 40
0.6451032142
 40
0.7054736344
 40
0.7621835835
 40
0.8152567539
 40
0.8649374603
 40
0.9117232373
 40
0.9342834602
 40
0.9564274162
 40
0.9782862422
 40
1.0
 40
1.0
 40
1.0
 40
1.0
 10
24.3256141173
 20
37.3098368917
 30
0.0
 10
24.4551933149
 20
37.1532851531
 30
0.0
 10
24.7049338952
 20
36.8286820308
 30
0.0
 10
25.0467390956
 20
36.3157696473
 30
0.0
 10
25.3547742813
 20
35.7789158096
 30
0.0
 10
25.6249354255
 20
35.2253766764
 30
0.0
 10
25.8536145833
 20
34.6624618543
 30
0.0
 10
26.0377695064
 20
34.0976823835
 30
0.0
 10
26.1749559429
 20
33.538532907
 30
0.0
 10
26.2633407771
 20
32.9924107345
 30
0.0
 10
26.3017212098
 20
32.4665101086
 30
0.0
 10
26.2895095484
 20
31.9677167736
 30
0.0
 10
26.2267389535
 20
31.502533143
 30
0.0
 10
26.1139488001
 20
31.0769907567
 30
0.0
 10
25.9522776207
 20
30.696794814
 30
0.0
 10
25.7757642375
 20
30.4186382722
 30
0.0
 10
25.6126015339
 20
30.2264024764
 30
0.0
 10
25.4811278278
 20
30.0983798354
 30
0.0
 10
25.3395940774
 20
29.9852955737
 30
0.0
 10
25.2386740422
 20
29.9200558362
 30
0.0
 10
25.1869143011
 20
29.8901740095
 30
0.0
  0
SPLINE
  5
375
100
AcDbEntity
  8
0
100
AcDbSpline
 62
7
  6
BYLAYER
 70
0
 71
3
 72
25
 73
21
 74
0
 42
0.0000001
 43
0.0000001
 44
0.0000000001
 40
0.0
 40
0.0
 40
0.0
 40
0.0
 40
0.0217137578
 40
0.0435725838
 40
0.0657165398
 40
0.0882767627
 40
0.1350625397
 40
0.1847432461
 40
0.2378164165
 40
0.2945263656
 40
0.3548967858
 40
0.4187677868
 40
0.4858302176
 40
0.5556573906
 40
0.6277310665
 40
0.7014649944
 40
0.7762258215
 40
0.8513438992
 40
0.9261670015
 40
1.0
 40
1.0
 40
1.0
 40
1.0
 10
14.7405907143
 20
23.1084689648
 30
0.0
 10
14.7986390221
 20
23.1419812938
 30
0.0
 10
14.9118203701
 20
23.2151473545
 30
0.0
 10
15.0705498097
 20
23.3419708257
 30
0.0
 10
15.2179969568
 20
23.4855476193
 30
0.0
 10
15.4009831664
 20
23.701139166
 30
0.0
 10
15.5989421009
 20
24.0130904279
 30
0.0
 10
15.7802555731
 20
24.439478401
 30
0.0
 10
15.906749203
 20
24.9167221987
 30
0.0
 10
15.9771461318
 20
25.4384234667
 30
0.0
 10
15.9908414531
 20
25.9978178611
 30
0.0
 10
15.9477979771
 20
26.5876129555
 30
0.0
 10
15.8486747987
 20
27.20008642
 30
0.0
 10
15.6948208511
 20
27.827169945
 30
0.0
 10
15.4882919654
 20
28.4605674824
 30
0.0
 10
15.2318293585
 20
29.0918738249
 30
0.0
 10
14.9288448977
 20
29.7126653762
 30
0.0
 10
14.5833848765
 20
30.3147444465
 30
0.0
 10
14.2000519414
 20
30.8899732878
 30
0.0
 10
13.9199690476
 20
31.2540141726
 30
0.0
 10
13.774646583
 20
31.4295862159
 30
0.0
  0
SPLINE
  5
376
100
AcDbEntity
  8
0
100
AcDbSpline
 62
7
  6
BYLAYER
 70
0
 71
3
 72
11
 73
7
 74
0
 42
0.0000001
 43
0.0000001
 44
0.0000000001
 40
0.0
 40
0.0
 40
0.0
 40
0.0
 40
0.2224605835
 40
0.4617902292
 40
0.7206799047
 40
1.0
 40
1.0
 40
1.0
 40
1.0
 10
8.320140416
 20
31.1548448968
 30
0.0
 10
8.442168058
 20
31.170241496
 30
0.0
 10
8.6995072857
 20
31.1742138722
 30
0.0
 10
9.0939171415
 20
31.1058145337
 30
0.0
 10
9.5019433038
 20
30.9656717244
 30
0.0
 10
9.7684736246
 20
30.8313147808
 30
0.0
 10
9.9022157073
 20
30.7540990693
 30
0.0
  0
SPLINE
  5
377
100
AcDbEntity
  8
0
100
AcDbSpline
 62
7
  6
BYLAYER
 70
0
 71
3
 72
14
 73
10
 74
0
 42
0.0000001
 43
0.0000001
 44
0.0000000001
 40
0.0
 40
0.0
 40
0.0
 40
0.0
 40
0.1453015966
 40
0.2844524794
 40
0.543780744
 40
0.6647828738
 40
0.7805914055
 40
0.8919940685
 40
1.0
 40
1.0
 40
1.0
 40
1.0
 10
6.8615660232
 20
28.9986232239
 30
0.0
 10
6.8615660232
 20
29.0921215108
 30
0.0
 10
6.8679081184
 20
29.2752769009
 30
0.0
 10
6.9067378413
 20
29.6231982202
 30
0.0
 10
6.9847344738
 20
29.9506198581
 30
0.0
 10
7.1059508701
 20
30.2465390408
 30
0.0
 10
7.2136271346
 20
30.4436354959
 30
0.0
 10
7.339430112
 20
30.6195113636
 30
0.0
 10
7.4361276255
 20
30.7230699892
 30
0.0
 10
7.4869581598
 20
30.7704663959
 30
0.0
  0
SPLINE
  5
378
100
AcDbEntity
  8
0
100
AcDbSpline
 62
7
  6
BYLAYER
 70
0
 71
3
 72
11
 73
7
 74
0
 42
0.0000001
 43
0.0000001
 44
0.0000000001
 40
0.0
 40
0.0
 40
0.0
 40
0.0
 40
0.2485532177
 40
0.4952903941
 40
0.7444947395
 40
1.0
 40
1.0
 40
1.0
 40
1.0
 10
7.4869581598
 20
30.7704663959
 30
0.0
 10
7.54344065
 20
30.8231329104
 30
0.0
 10
7.6643217105
 20
30.9195891941
 30
0.0
 10
7.8668086659
 20
31.0334338902
 30
0.0
 10
8.0869110897
 20
31.1141296902
 30
0.0
 10
8.2413776764
 20
31.144907162
 30
0.0
 10
8.320140416
 20
31.1548448968
 30
0.0
  0
SPLINE
  5
379
100
AcDbEntity
  8
0
100
AcDbSpline
 62
7
  6
BYLAYER
 70
0
 71
3
 72
15
 73
11
 74
0
 42
0.0000001
 43
0.0000001
 44
0.0000000001
 40
0.0
 40
0.0
 40
0.0
 40
0.0
 40
0.1299844866
 40
0.2613769477
 40
0.3927056222
 40
0.5225157291
 40
0.649376049
 40
0.7719770616
 40
0.8891609607
 40
1.0
 40
1.0
 40
1.0
 40
1.0
 10
46.3395714172
 20
49.9742636964
 30
0.0
 10
46.4944980793
 20
49.7800597143
 30
0.0
 10
46.790753627
 20
49.3771113443
 30
0.0
 10
47.1887384172
 20
48.7399810829
 30
0.0
 10
47.5378660708
 20
48.0751453269
 30
0.0
 10
47.8323214526
 20
47.3937645484
 30
0.0
 10
48.067165028
 20
46.7071669329
 30
0.0
 10
48.2384820542
 20
46.0267770616
 30
0.0
 10
48.3433870875
 20
45.3639911879
 30
0.0
 10
48.3686089077
 20
44.9279423053
 30
0.0
 10
48.3686091195
 20
44.7161036347
 30
0.0
  0
SPLINE
  5
37A
100
AcDbEntity
  8
0
100
AcDbSpline
 62
7
  6
BYLAYER
 70
0
 71
3
 72
11
 73
7
 74
0
 42
0.0000001
 43
0.0000001
 44
0.0000000001
 40
0.0
 40
0.0
 40
0.0
 40
0.0
 40
0.2675484889
 40
0.5206126109
 40
0.7631067609
 40
1.0
 40
1.0
 40
1.0
 40
1.0
 10
25.1937592974
 20
29.8064400062
 30
0.0
 10
25.3360251223
 20
29.7832311267
 30
0.0
 10
25.6164660951
 20
29.7567534971
 30
0.0
 10
26.0286279531
 20
29.7831393079
 30
0.0
 10
26.4140828224
 20
29.8770037396
 30
0.0
 10
26.6508213539
 20
29.984810211
 30
0.0
 10
26.7613567458
 20
30.0486181971
 30
0.0
  0
SPLINE
  5
37B
100
AcDbEntity
  8
0
100
AcDbSpline
 62
7
  6
BYLAYER
 70
0
 71
3
 72
9
 73
5
 74
0
 42
0.0000001
 43
0.0000001
 44
0.0000000001
 40
0.0
 40
0.0
 40
0.0
 40
0.0
 40
0.2549167218
 40
1.0
 40
1.0
 40
1.0
 40
1.0
 10
48.3686135945
 20
44.5528060966
 30
0.0
 10
48.368613729
 20
44.5123058321
 30
0.0
 10
48.3669099827
 20
44.3534365126
 30
0.0
 10
48.3582675025
 20
44.194621472
 30
0.0
 10
48.3475008299
 20
44.0767359314
 30
0.0
  0
SPLINE
  5
37C
100
AcDbEntity
  8
0
100
AcDbSpline
 62
7
  6
BYLAYER
 70
0
 71
3
 72
11
 73
7
 74
0
 42
0.0000001
 43
0.0000001
 44
0.0000000001
 40
0.0
 40
0.0
 40
0.0
 40
0.0
 40
0.2325810675
 40
0.4780121557
 40
0.7345771936
 40
1.0
 40
1.0
 40
1.0
 40
1.0
 10
44.2674893585
 20
51.8195013741
 30
0.0
 10
44.4434998642
 20
51.717882077
 30
0.0
 10
44.793826259
 20
51.4888125028
 30
0.0
 10
45.2956974945
 20
51.0872786512
 30
0.0
 10
45.7815731579
 20
50.6239681161
 30
0.0
 10
46.0857328347
 20
50.283324623
 30
0.0
 10
46.2336218027
 20
50.1046518462
 30
0.0
  0
SPLINE
  5
37D
100
AcDbEntity
  8
0
100
AcDbSpline
 62
7
  6
BYLAYER
 70
0
 71
3
 72
13
 73
9
 74
0
 42
0.0000001
 43
0.0000001
 44
0.0000000001
 40
0.0
 40
0.0
 40
0.0
 40
0.0
 40
0.1181464874
 40
0.2370087836
 40
0.3572784213
 40
0.4796085698
 40
0.7325520087
 40
1.0
 40
1.0
 40
1.0
 40
1.0
 10
20.7613893556
 20
40.4409285936
 30
0.0
 10
20.706155688
 20
40.4090442439
 30
0.0
 10
20.5983515047
 20
40.3397205952
 30
0.0
 10
20.4465973718
 20
40.2202614716
 30
0.0
 10
20.3049960539
 20
40.0856051844
 30
0.0
 10
20.1284620397
 20
39.8842080188
 30
0.0
 10
19.9353282458
 20
39.5939063441
 30
0.0
 10
19.8180637758
 20
39.3373661657
 30
0.0
 10
19.7670535842
 20
39.2023087573
 30
0.0
  0
SPLINE
  5
37E
100
AcDbEntity
  8
0
100
AcDbSpline
 62
7
  6
BYLAYER
 70
0
 71
3
 72
15
 73
11
 74
0
 42
0.0000001
 43
0.0000001
 44
0.0000000001
 40
0.0
 40
0.0
 40
0.0
 40
0.0
 40
0.1296051988
 40
0.2605020472
 40
0.3913448679
 40
0.5207978722
 40
0.6475373273
 40
0.7703431852
 40
0.8881292402
 40
1.0
 40
1.0
 40
1.0
 40
1.0
 10
46.304337464
 20
49.9484896679
 30
0.0
 10
46.4573774033
 20
49.7543796348
 30
0.0
 10
46.7503724665
 20
49.3524761091
 30
0.0
 10
47.1454376451
 20
48.7185077076
 30
0.0
 10
47.4938282938
 20
48.058018564
 30
0.0
 10
47.7901905373
 20
47.3812400946
 30
0.0
 10
48.0299255598
 20
46.6985757196
 30
0.0
 10
48.2093309224
 20
46.0205332818
 30
0.0
 10
48.3256280192
 20
45.3576184865
 30
0.0
 10
48.3608742688
 20
44.9201756057
 30
0.0
 10
48.3665485471
 20
44.7068903295
 30
0.0
  0
SPLINE
  5
37F
100
AcDbEntity
  8
0
100
AcDbSpline
 62
7
  6
BYLAYER
 70
0
 71
3
 72
24
 73
20
 74
0
 42
0.0000001
 43
0.0000001
 44
0.0000000001
 40
0.0
 40
0.0
 40
0.0
 40
0.0
 40
0.0830189415
 40
0.1638564063
 40
0.241938233
 40
0.3168652853
 40
0.3883024936
 40
0.4560158885
 40
0.5199200676
 40
0.5800939407
 40
0.636804728
 40
0.6905418193
 40
0.7420182225
 40
0.7921460503
 40
0.8170548477
 40
0.8420243389
 40
0.8926299247
 40
0.9450123838
 40
1.0
 40
1.0
 40
1.0
 40
1.0
 10
25.5861897561
 20
38.1839225531
 30
0.0
 10
25.4620224756
 20
38.3339358577
 30
0.0
 10
25.2075238214
 20
38.6223832834
 30
0.0
 10
24.8042970279
 20
39.022325973
 30
0.0
 10
24.3880719816
 20
39.3803537498
 30
0.0
 10
23.963439842
 20
39.6925212689
 30
0.0
 10
23.5349246814
 20
39.9555410786
 30
0.0
 10
23.1070412467
 20
40.1664836729
 30
0.0
 10
22.6843097678
 20
40.3230008509
 30
0.0
 10
22.2711585896
 20
40.423301801
 30
0.0
 10
21.8719109505
 20
40.4659553011
 30
0.0
 10
21.4908714984
 20
40.4501081523
 30
0.0
 10
21.1324468682
 20
40.3754934538
 30
0.0
 10
20.8554624648
 20
40.2642121935
 30
0.0
 10
20.6514966975
 20
40.147770308
 30
0.0
 10
20.4579901859
 20
40.0126973694
 30
0.0
 10
20.2361264476
 20
39.8080076554
 30
0.0
 10
20.0097490783
 20
39.5126583802
 30
0.0
 10
19.8891065304
 20
39.2903349234
 30
0.0
 10
19.8354876531
 20
39.1730255978
 30
0.0
  0
SPLINE
  5
380
100
AcDbEntity
  8
0
100
AcDbSpline
 62
7
  6
BYLAYER
 70
0
 71
3
 72
28
 73
24
 74
0
 42
0.0000001
 43
0.0000001
 44
0.0000000001
 40
0.0
 40
0.0
 40
0.0
 40
0.0
 40
0.0251709539
 40
0.0495031313
 40
0.073150453
 40
0.0962926989
 40
0.1191323633
 40
0.141885758
 40
0.1647734901
 40
0.1880093388
 40
0.2117917609
 40
0.236295298
 40
0.2879644723
 40
0.3438931084
 40
0.4044266468
 40
0.4695198681
 40
0.5388176372
 40
0.6117267642
 40
0.6874742947
 40
0.7651680796
 40
0.843825502
 40
0.9224492682
 40
1.0
 40
1.0
 40
1.0
 40
1.0
 10
25.2523169765
 20
29.8762747028
 30
0.0
 10
25.3381925618
 20
29.8697183546
 30
0.0
 10
25.5078218699
 20
29.8646920231
 30
0.0
 10
25.7578980702
 20
29.8829542068
 30
0.0
 10
25.9977417779
 20
29.927057199
 30
0.0
 10
26.2260986752
 20
29.9968706376
 30
0.0
 10
26.4417613497
 20
30.0921037829
 30
0.0
 10
26.6436181456
 20
30.2122178694
 30
0.0
 10
26.8305497175
 20
30.3566620684
 30
0.0
 10
27.0016598103
 20
30.5245619644
 30
0.0
 10
27.1560513649
 20
30.7150929871
 30
0.0
 10
27.3419144872
 20
31.0028626333
 30
0.0
 10
27.5272926448
 20
31.4183505996
 30
0.0
 10
27.668476711
 20
31.9784036428
 30
0.0
 10
27.7310930519
 20
32.5983831028
 30
0.0
 10
27.7144445792
 20
33.2666418746
 30
0.0
 10
27.6191619248
 20
33.9707886194
 30
0.0
 10
27.4471504701
 20
34.6975497878
 30
0.0
 10
27.2017462771
 20
35.4331493648
 30
0.0
 10
26.8876305764
 20
36.1635146541
 30
0.0
 10
26.5108417974
 20
36.8747483417
 30
0.0
 10
26.0786021108
 20
37.5530612555
 30
0.0
 10
25.755382748
 20
37.9795112159
 30
0.0
 10
25.5861897561
 20
38.1839225531
 30
0.0
  0
SPLINE
  5
381
100
AcDbEntity
  8
0
100
AcDbSpline
 62
7
  6
BYLAYER
 70
0
 71
3
 72
21
 73
17
 74
0
 42
0.0000001
 43
0.0000001
 44
0.0000000001
 40
0.0
 40
0.0
 40
0.0
 40
0.0
 40
0.1569689813
 40
0.3066487716
 40
0.3781394857
 40
0.4471170705
 40
0.5134265116
 40
0.5769789495
 40
0.6377448775
 40
0.6957720531
 40
0.7511847712
 40
0.8042032683
 40
0.8551404401
 40
0.9044088596
 40
0.9525062406
 40
1.0
 40
1.0
 40
1.0
 40
1.0
 10
25.7954118157
 20
38.3697368318
 30
0.0
 10
25.5996563766
 20
38.6062397188
 30
0.0
 10
25.1948216839
 20
39.0502936072
 30
0.0
 10
24.6408111276
 20
39.5427340041
 30
0.0
 10
24.1843513202
 20
39.880444138
 30
0.0
 10
23.8444547752
 20
40.1001495622
 30
0.0
 10
23.5039227455
 20
40.2886534449
 30
0.0
 10
23.164947575
 20
40.4448005201
 30
0.0
 10
22.829628539
 20
40.5675036009
 30
0.0
 10
22.5000981685
 20
40.656007367
 30
0.0
 10
22.1784040152
 20
40.7096061744
 30
0.0
 10
21.8665970187
 20
40.7279222669
 30
0.0
 10
21.5666853419
 20
40.7106533781
 30
0.0
 10
21.2806474666
 20
40.6578143729
 30
0.0
 10
21.0105254864
 20
40.5696260568
 30
0.0
 10
20.8418380891
 20
40.4873686667
 30
0.0
 10
20.7613893556
 20
40.4409285936
 30
0.0
  0
SPLINE
  5
382
100
AcDbEntity
  8
0
100
AcDbSpline
 62
7
  6
BYLAYER
 70
0
 71
3
 72
11
 73
7
 74
0
 42
0.0000001
 43
0.0000001
 44
0.0000000001
 40
0.0
 40
0.0
 40
0.0
 40
0.0
 40
0.2350778768
 40
0.4811407813
 40
0.7367574577
 40
1.0
 40
1.0
 40
1.0
 40
1.0
 10
44.3430972226
 20
51.7694400917
 30
0.0
 10
44.5056011177
 20
51.6660026107
 30
0.0
 10
44.8283340648
 20
51.4384848878
 30
0.0
 10
45.2915815829
 20
51.0503948193
 30
0.0
 10
45.7402043594
 20
50.6118464356
 30
0.0
 10
46.0224602368
 20
50.2933406098
 30
0.0
 10
46.1600023274
 20
50.1271684633
 30
0.0
  0
SPLINE
  5
383
100
AcDbEntity
  8
0
100
AcDbSpline
 62
7
  6
BYLAYER
 70
0
 71
3
 72
25
 73
21
 74
0
 42
0.0000001
 43
0.0000001
 44
0.0000000001
 40
0.0
 40
0.0
 40
0.0
 40
0.0
 40
0.0217137206
 40
0.043572612
 40
0.0657164749
 40
0.0882767326
 40
0.1350625232
 40
0.1847433553
 40
0.2378162349
 40
0.2945261117
 40
0.3548971286
 40
0.4187678566
 40
0.485829875
 40
0.5556574069
 40
0.6277309674
 40
0.7014655428
 40
0.7762254525
 40
0.8513420377
 40
0.926172353
 40
1.0
 40
1.0
 40
1.0
 40
1.0
 10
26.7613567458
 20
30.0486181971
 30
0.0
 10
26.8194063186
 20
30.0821280646
 30
0.0
 10
26.9325837376
 20
30.1553010783
 30
0.0
 10
27.0913101898
 20
30.2821266558
 30
0.0
 10
27.2387646472
 20
30.4256961836
 30
0.0
 10
27.4217442965
 20
30.641293258
 30
0.0
 10
27.6197090261
 20
30.9532408236
 30
0.0
 10
27.8010139221
 20
31.3796323006
 30
0.0
 10
27.9275149445
 20
31.8568722844
 30
0.0
 10
27.9979182353
 20
32.3785741637
 30
0.0
 10
28.0115970781
 20
32.9379696808
 30
0.0
 10
27.9685569077
 20
33.5277637434
 30
0.0
 10
27.8694471284
 20
34.1402384647
 30
0.0
 10
27.7155869783
 20
34.7673201359
 30
0.0
 10
27.5090502558
 20
35.4007176096
 30
0.0
 10
27.2525894653
 20
36.0320228961
 30
0.0
 10
26.9496171004
 20
36.6528140715
 30
0.0
 10
26.6041473408
 20
37.2549049613
 30
0.0
 10
26.2208020778
 20
37.8301263488
 30
0.0
 10
25.9407237032
 20
38.1941775671
 30
0.0
 10
25.7954118157
 20
38.3697368318
 30
0.0
  0
ELLIPSE
  5
384
100
AcDbEntity
  8
0
100
AcDbEllipse
 62
7
  6
BYLAYER
 10
40.556873192
 20
45.1153893921
 30
0.0
 11
-3.6066470397
 21
7.2086009469
 31
0.0
 40
0.2453828282
 41
-3.3910696436
 42
-3.3283357449
  0
ELLIPSE
  5
385
100
AcDbEntity
  8
0
100
AcDbEllipse
 62
7
  6
BYLAYER
 10
40.7619046303
 20
44.7706603453
 30
0.0
 11
-4.71510858
 21
6.5698679073
 31
0.0
 40
0.2404175762
 41
-3.6158708971
 42
-3.5531369984
  0
ELLIPSE
  5
386
100
AcDbEntity
  8
0
100
AcDbEllipse
 62
7
  6
BYLAYER
 10
40.9986436598
 20
44.4535364281
 30
0.0
 11
5.7735913517
 21
-5.9750700875
 31
0.0
 40
0.1991620239
 41
-0.6858284081
 42
-0.6230945094
  0
ELLIPSE
  5
387
100
AcDbEntity
  8
0
100
AcDbEllipse
 62
7
  6
BYLAYER
 10
41.2594812932
 20
44.1742102641
 30
0.0
 11
6.7370164904
 21
-5.4620904007
 31
0.0
 40
0.1341060615
 41
-0.871821364
 42
-0.8090874652
  0
ELLIPSE
  5
388
100
AcDbEntity
  8
0
100
AcDbEllipse
 62
7
  6
BYLAYER
 10
41.5360339945
 20
43.941659626
 30
0.0
 11
7.6047994626
 21
-5.0265841444
 31
0.0
 40
0.0584246483
 41
-1.0319727013
 42
-0.9692388025
  0
ELLIPSE
  5
389
100
AcDbEntity
  8
0
100
AcDbEllipse
 62
7
  6
BYLAYER
 10
40.1725385987
 20
46.3755846582
 30
0.0
 11
-0.3625804779
 21
9.2253608163
 31
0.0
 40
0.0389576821
 41
1.0057702097
 42
1.0685041084
  0
ELLIPSE
  5
38A
100
AcDbEntity
  8
0
100
AcDbEllipse
 62
7
  6
BYLAYER
 10
40.2231888991
 20
46.0240573605
 30
0.0
 11
-1.1492953848
 21
8.7030773551
 31
0.0
 40
0.1157674235
 41
0.8513759714
 42
0.9141098701
  0
ELLIPSE
  5
38B
100
AcDbEntity
  8
0
100
AcDbEllipse
 62
7
  6
BYLAYER
 10
40.3228615575
 20
45.6598499809
 30
0.0
 11
-2.0445427629
 21
8.1361040132
 31
0.0
 40
0.1845627073
 41
0.6721415873
 42
0.734875486
  0
ELLIPSE
  5
38C
100
AcDbEntity
  8
0
100
AcDbEllipse
 62
7
  6
BYLAYER
 10
40.4683530127
 20
45.2946684444
 30
0.0
 11
-3.0619007789
 21
7.5264544388
 31
0.0
 40
0.2331297805
 41
0.46637588
 42
0.5291097787
  0
ELLIPSE
  5
38D
100
AcDbEntity
  8
0
100
AcDbEllipse
 62
7
  6
BYLAYER
 10
40.6549870496
 20
44.9402499859
 30
0.0
 11
-4.1619637824
 21
6.8874313125
 31
0.0
 40
0.247895524
 41
0.2430130202
 42
0.3057469189
  0
ELLIPSE
  5
38E
100
AcDbEntity
  8
0
100
AcDbEllipse
 62
7
  6
BYLAYER
 10
41.8194131322
 20
43.7633588827
 30
0.0
 11
8.3881569032
 21
-4.6404777574
 31
0.0
 40
0.0193745784
 41
1.1084034071
 42
1.1711373058
  0
ELLIPSE
  5
38F
100
AcDbEntity
  8
0
100
AcDbEllipse
 62
7
  6
BYLAYER
 10
42.1005106678
 20
43.6450387667
 30
0.0
 11
9.0946414578
 21
-4.2727747201
 31
0.0
 40
0.0951330741
 41
1.2316034705
 42
1.2943373693
  0
ELLIPSE
  5
390
100
AcDbEntity
  8
0
100
AcDbEllipse
 62
7
  6
BYLAYER
 10
42.3702918951
 20
43.5905021841
 30
0.0
 11
9.7265685199
 21
-3.8972910534
 31
0.0
 40
0.1672994674
 41
1.3425521994
 42
1.4052860981
  0
ELLIPSE
  5
391
100
AcDbEntity
  8
0
100
AcDbEllipse
 62
7
  6
BYLAYER
 10
42.6200858234
 20
43.6015019853
 30
0.0
 11
10.2828381498
 21
-3.4931435963
 31
0.0
 40
0.2356155066
 41
1.4436328327
 42
1.5063667315
  0
ELLIPSE
  5
392
100
AcDbEntity
  8
0
100
AcDbEllipse
 62
7
  6
BYLAYER
 10
42.8418638705
 20
43.6776846277
 30
0.0
 11
10.7605510813
 21
-3.0431127334
 31
0.0
 40
0.3003714379
 41
1.5361711941
 42
1.5989050928
  0
ELLIPSE
  5
393
100
AcDbEntity
  8
0
100
AcDbEllipse
 62
7
  6
BYLAYER
 10
43.0284979074
 20
43.8166015385
 30
0.0
 11
11.1558953492
 21
-2.5316571615
 31
0.0
 40
0.3620131256
 41
1.6206526796
 42
1.6833865783
  0
ELLIPSE
  5
394
100
AcDbEntity
  8
0
100
AcDbEllipse
 62
7
  6
BYLAYER
 10
43.1739893626
 20
44.013787814
 30
0.0
 11
11.4643549843
 21
-1.9428829031
 31
0.0
 40
0.4209211904
 41
1.6968203838
 42
1.7595542825
  0
ELLIPSE
  5
395
100
AcDbEntity
  8
0
100
AcDbEllipse
 62
7
  6
BYLAYER
 10
43.273662021
 20
44.2629057249
 30
0.0
 11
11.6801882444
 21
-1.258389704
 31
0.0
 40
0.4772521871
 41
1.7636596284
 42
1.8263935271
  0
ELLIPSE
  5
396
100
AcDbEntity
  8
0
100
AcDbEllipse
 62
7
  6
BYLAYER
 10
43.3243123214
 20
44.5559484167
 30
0.0
 11
11.7948571827
 21
-0.4550705746
 31
0.0
 40
0.5307714873
 41
1.8192944692
 42
1.8820283679
  0
ELLIPSE
  5
397
100
AcDbEntity
  8
0
100
AcDbEllipse
 62
7
  6
BYLAYER
 10
43.3243123214
 20
44.8834972561
 30
0.0
 11
11.7938114461
 21
0.4962090353
 31
0.0
 40
0.580625743
 41
1.860876915
 42
1.9236108137
  0
ELLIPSE
  5
398
100
AcDbEntity
  8
0
100
AcDbEllipse
 62
7
  6
BYLAYER
 10
43.273662021
 20
45.2350245538
 30
0.0
 11
11.6512877389
 21
1.6276594979
 31
0.0
 40
0.6250306916
 41
1.8847385249
 42
1.9474724236
  0
ELLIPSE
  5
399
100
AcDbEntity
  8
0
100
AcDbEllipse
 62
7
  6
BYLAYER
 10
43.1739893626
 20
45.5992319334
 30
0.0
 11
11.3258556974
 21
2.9590335292
 31
0.0
 40
0.660965281
 41
1.8875136536
 42
1.9502475523
  0
ELLIPSE
  5
39A
100
AcDbEntity
  8
0
100
AcDbEllipse
 62
7
  6
BYLAYER
 10
43.0284979074
 20
45.9644134699
 30
0.0
 11
10.769371867
 21
4.4600629322
 31
0.0
 40
0.6842910997
 41
1.8692829677
 42
1.9320168664
  0
ELLIPSE
  5
39B
100
AcDbEntity
  8
0
100
AcDbEllipse
 62
7
  6
BYLAYER
 10
42.8418638705
 20
46.3188319284
 30
0.0
 11
9.9686030449
 21
6.0103936778
 31
0.0
 40
0.691060192
 41
1.8379037458
 42
1.8914794756
  0
ELLIPSE
  5
39C
100
AcDbEntity
  8
0
100
AcDbEllipse
 62
7
  6
BYLAYER
 10
41.3963402523
 20
47.6140431475
 30
0.0
 11
4.9329537224
 21
10.6836207232
 31
0.0
 40
0.4909110334
 41
-1.8414411537
 42
-1.778707255
  0
ELLIPSE
  5
39D
100
AcDbEntity
  8
0
100
AcDbEllipse
 62
7
  6
BYLAYER
 10
41.126559025
 20
47.6685797302
 30
0.0
 11
4.2207639767
 21
10.8736638169
 31
0.0
 40
0.4352410711
 41
-1.7771894694
 42
-1.7144555707
  0
ELLIPSE
  5
39E
100
AcDbEntity
  8
0
100
AcDbEllipse
 62
7
  6
BYLAYER
 10
40.8767650967
 20
47.657579929
 30
0.0
 11
3.5488150597
 21
10.9314627358
 31
0.0
 40
0.3769795809
 41
-1.7032265171
 42
-1.6404926184
  0
ELLIPSE
  5
39F
100
AcDbEntity
  8
0
100
AcDbEllipse
 62
7
  6
BYLAYER
 10
40.6549870496
 20
47.5813972866
 30
0.0
 11
2.9034459426
 21
10.8721111763
 31
0.0
 40
0.3160505287
 41
-1.6207700752
 42
-1.5580361765
  0
ELLIPSE
  5
3A0
100
AcDbEntity
  8
0
100
AcDbEllipse
 62
7
  6
BYLAYER
 10
40.4683530127
 20
47.4424803758
 30
0.0
 11
2.2729000816
 21
10.7078704523
 31
0.0
 40
0.2521150975
 41
-1.530260916
 42
-1.4675270173
  0
ELLIPSE
  5
3A1
100
AcDbEntity
  8
0
100
AcDbEllipse
 62
7
  6
BYLAYER
 10
40.3228615575
 20
47.2452941003
 30
0.0
 11
1.6458003161
 21
10.4499067785
 31
0.0
 40
0.1847269141
 41
-1.4314036489
 42
-1.3686697502
  0
ELLIPSE
  5
3A2
100
AcDbEntity
  8
0
100
AcDbEllipse
 62
7
  6
BYLAYER
 10
42.9399777281
 20
46.1436925222
 30
0.0
 11
10.3972985764
 21
5.2400577578
 31
0.0
 40
0.6899187507
 41
-1.8670549939
 42
-1.8297334279
  0
ELLIPSE
  5
3A3
100
AcDbEntity
  8
0
100
AcDbEllipse
 62
7
  6
BYLAYER
 10
40.2231888991
 20
46.9961761894
 30
0.0
 11
1.0093513794
 21
10.1092829621
 31
0.0
 40
0.1135291806
 41
-1.3230983556
 42
-1.2603644569
  0
ELLIPSE
  5
3A4
100
AcDbEntity
  8
0
100
AcDbEllipse
 62
7
  6
BYLAYER
 10
40.1725385987
 20
46.7031334976
 30
0.0
 11
0.3472533399
 21
9.6973413751
 31
0.0
 40
0.0385908566
 41
-1.2032519168
 42
-1.1405180181
  0
ELLIPSE
  5
3A5
100
AcDbEntity
  8
0
100
AcDbEllipse
 62
7
  6
BYLAYER
 10
42.7349462898
 20
46.488421569
 30
0.0
 11
9.4954169501
 21
6.7472347875
 31
0.0
 40
0.6876505957
 41
-1.924895593
 42
-1.8621616943
  0
ELLIPSE
  5
3A6
100
AcDbEntity
  8
0
100
AcDbEllipse
 62
7
  6
BYLAYER
 10
42.4982072603
 20
46.8055454862
 30
0.0
 11
8.4813414634
 21
8.0475036784
 31
0.0
 40
0.6681503389
 41
-1.9475139678
 42
-1.8847800691
  0
ELLIPSE
  5
3A7
100
AcDbEntity
  8
0
100
AcDbEllipse
 62
7
  6
BYLAYER
 10
42.2373696269
 20
47.0848716502
 30
0.0
 11
7.4760303513
 21
9.0655838576
 31
0.0
 40
0.6349518649
 41
-1.9502324227
 42
-1.887498524
  0
ELLIPSE
  5
3A8
100
AcDbEntity
  8
0
100
AcDbEllipse
 62
7
  6
BYLAYER
 10
41.9608169256
 20
47.3174222883
 30
0.0
 11
6.5453965784
 21
9.8150588292
 31
0.0
 40
0.5923285981
 41
-1.9313869042
 42
-1.8686530055
  0
ELLIPSE
  5
3A9
100
AcDbEntity
  8
0
100
AcDbEllipse
 62
7
  6
BYLAYER
 10
37.3184373214
 20
40.5199162007
 30
0.0
 11
2.2729000816
 21
10.7078704523
 31
0.0
 40
0.2521150975
 41
-0.8755884233
 42
-0.8622656111
  0
ELLIPSE
  5
3AA
100
AcDbEntity
  8
0
100
AcDbEllipse
 62
7
  6
BYLAYER
 10
37.1318032845
 20
40.3809992898
 30
0.0
 11
2.9034459426
 21
10.8721111763
 31
0.0
 40
0.3160505287
 41
-0.96043821
 42
-0.9527747704
  0
ELLIPSE
  5
3AB
100
AcDbEntity
  8
0
100
AcDbEllipse
 62
7
  6
BYLAYER
 10
34.7582924267
 20
44.1457950379
 30
0.0
 11
11.1558953492
 21
-2.5316571615
 31
0.0
 40
0.3620131256
 41
1.0153912734
 42
1.0268759576
  0
ELLIPSE
  5
3AC
100
AcDbEntity
  8
0
100
AcDbEllipse
 62
7
  6
BYLAYER
 10
34.6128009715
 20
43.9486087624
 30
0.0
 11
11.4643549843
 21
-1.9428829031
 31
0.0
 40
0.4209211904
 41
1.0915589776
 42
1.1006845363
  0
ENDSEC
  0
SECTION
  2
OBJECTS
  0
DICTIONARY
  5
C
100
AcDbDictionary
280
0
281
1
  3
ACAD_GROUP
350
D
  3
ACAD_MLINESTYLE
350
17
  3
ACAD_LAYOUT
350
1A
  3
ACAD_PLOTSETTINGS
350
19
  3
ACAD_PLOTSTYLENAME
350
E
  0
DICTIONARY
  5
D
102
{ACAD_REACTORS
330
C
102
}
100
AcDbDictionary
280
0
281
1
  0
ACDBDICTIONARYWDFLT
  5
E
102
{ACAD_REACTORS
330
C
102
}
100
AcDbDictionary
281
1
  3
Normal
350
F
100
AcDbDictionaryWithDefault
340
F
  0
DICTIONARY
  5
17
102
{ACAD_REACTORS
330
C
102
}
100
AcDbDictionary
280
0
281
1
  3
Standard
350
18
  0
DICTIONARY
  5
19
102
{ACAD_REACTORS
330
C
102
}
100
AcDbDictionary
281
1
  0
DICTIONARY
  5
1A
102
{ACAD_REACTORS
330
C
102
}
100
AcDbDictionary
281
1
  3
Model
350
3AD
  3
Layout1
350
3AE
  0
ACDBPLACEHOLDER
  5
F
102
{ACAD_REACTORS
330
E
102
}
  0
MLINESTYLE
  5
18
102
{ACAD_REACTORS
330
17
102
}
100
AcDbMlineStyle
  2
STANDARD
 70
0
  3

 62
256
 51
90.0
 52
90.0
 71
2
 49
0.5
 62
256
  6
BYLAYER
 49
-0.5
 62
256
  6
BYLAYER
  0
LAYOUT
  5
3AD
102
{ACAD_REACTORS
330
1A
102
}
100
AcDbPlotSettings
  1

  2
none_device
  4

  6

 40
0.0
 41
0.0
 42
0.0
 43
0.0
 44
210.0
 45
297.0
 46
0.0
 47
0.0
 48
0.0
 49
0.0
140
0.0
141
0.0
142
1.0
143
1.0
 70
1024
 72
1
 73
0
 74
0
  7

 75
0
147
1.0
148
0.0
149
0.0
100
AcDbLayout
  1
Model
 70
0
 71
0
 10
0.0
 20
0.0
 11
210.0
 21
297.0
 12
0.0
 22
0.0
 32
0.0
 14
0.0
 24
0.0
 34
0.0
 15
0.0
 25
0.0
 35
0.0
146
0.0
 13
0.0
 23
0.0
 33
0.0
 16
1.0
 26
0.0
 36
0.0
 17
0.0
 27
1.0
 37
0.0
 76
0
330
210
345
0
346
0
  0
LAYOUT
  5
3AE
102
{ACAD_REACTORS
330
1A
102
}
100
AcDbPlotSettings
  1

  2
none_device
  4

  6

 40
0.0
 41
0.0
 42
0.0
 43
0.0
 44
210.0
 45
297.0
 46
0.0
 47
0.0
 48
0.0
 49
0.0
140
0.0
141
0.0
142
1.0
143
1.0
 70
0
 72
1
 73
0
 74
0
  7

 75
0
147
1.0
148
0.0
149
0.0
100
AcDbLayout
  1
Layout1
 70
0
 71
1
 10
0.0
 20
0.0
 11
210.0
 21
297.0
 12
0.0
 22
0.0
 32
0.0
 14
0.0
 24
0.0
 34
0.0
 15
0.0
 25
0.0
 35
0.0
146
0.0
 13
0.0
 23
0.0
 33
0.0
 16
1.0
 26
0.0
 36
0.0
 17
0.0
 27
1.0
 37
0.0
 76
0
330
211
345
0
346
0
  0
ENDSEC
  0
EOF
