999
DXF file: C:\Users\sesa63760\Dev\_Creo\CAD\MCADID0004061_3D-CAD\drw0001_1.dxf
999
Pro/ENGINEER 2019471 by Parametric Technology Corporation
  0
SECTION
  2
HEADER
  9
$ACADVER
  1
AC1024
  9
$DWGCODEPAGE
  3
ANSI_1252
  9
$EXTMAX
 10
140.1163163549
 20
198.1645045591
 30
0.0
  9
$EXTMIN
 10
0.0
 20
0.0
 30
0.0
  9
$LIMMIN
 10
0.0
 20
0.0
  9
$LIMMAX
 10
140.1163163549
 20
198.1645045591
  9
$VIEWCTR
 10
70.0581581775
 20
99.0822522796
  9
$VIEWSIZE
 40
198.1645045591
  9
$CLAYER
  8
0
  9
$LTSCALE
 40
12.9173899268
  9
$CELTYPE
  6
BYLAYER
  9
$DIMSCALE
 40
1.0
  9
$DIMASZ
 40
1.6680513852
  9
$DIMEXO
 40
1.0
  9
$DIMDLI
 40
8.9247421313
  9
$DIMEXE
 40
1.0
  9
$DIMCEN
 40
2.1137547153
  9
$DIMLFAC
 40
1.0
  9
$DIMBLK
  1
_FILLED
  9
$DIMALT
 70
0
  9
$DIMALTF
 40
0.0393700787
  9
$DIMTXT
 40
2.3352719392
  9
$DIMTOL
 70
1
  9
$DIMLIM
 70
0
  9
$DIMTFAC
 40
1.0
  9
$DIMTP
 40
0.01
  9
$DIMTM
 40
0.01
  9
$DIMGAP
 40
0.625
  9
$DIMDSEP
 70
46
  9
$AUNITS
 70
0
  9
$PDMODE
 70
3
  9
$PDSIZE
 40
0.3125
  9
$HANDSEED
  5
30D
  9
$TILEMODE
 70
1
  9
$MEASUREMENT
 70
1
  9
$INSUNITS
 70
4
  0
ENDSEC
  0
SECTION
  2
CLASSES
  0
CLASS
  1
ACDBDICTIONARYWDFLT
  2
AcDbDictionaryWithDefault
  3
AutoCAD 2000
 90
0
 91
1
280
0
281
0
  0
CLASS
  1
ACDBPLACEHOLDER
  2
AcDbPlaceHolder
  3
AutoCAD 2000
 90
0
 91
1
280
0
281
0
  0
CLASS
  1
LAYOUT
  2
AcDbLayout
  3
AutoCAD 2000
 90
0
 91
0
280
0
281
0
  0
ENDSEC
  0
SECTION
  2
TABLES
  0
TABLE
  2
VPORT
  5
8
100
AcDbSymbolTable
 70
2
  0
VPORT
  5
1F4
100
AcDbSymbolTableRecord
100
AcDbViewportTableRecord
  2
*ACTIVE
 70
0
 10
0.0
 20
0.0
 11
1.0
 21
1.0
 12
70.0581581775
 22
99.0822522796
 13
0.0
 23
0.0
 14
1.0
 24
1.0
 15
0.0
 25
0.0
 16
0.0
 26
0.0
 36
1.0
 17
0.0
 27
0.0
 37
0.0
 40
198.1645045591
 41
0.7070707071
 42
50.0
 43
0.0
 44
0.0
 50
0.0
 51
0.0
 71
0
 72
100
 73
1
 74
1
 75
0
 76
0
 77
0
 78
0
  0
ENDTAB
  0
TABLE
  2
LTYPE
  5
5
100
AcDbSymbolTable
 70
6
  0
LTYPE
  5
14
100
AcDbSymbolTableRecord
100
AcDbLinetypeTableRecord
  2
BYBLOCK
 70
0
  3

 72
65
 73
0
 40
0.0
  0
LTYPE
  5
15
100
AcDbSymbolTableRecord
100
AcDbLinetypeTableRecord
  2
BYLAYER
 70
0
  3

 72
65
 73
0
 40
0.0
  0
LTYPE
  5
16
100
AcDbSymbolTableRecord
100
AcDbLinetypeTableRecord
  2
CONTINUOUS
 70
64
  3
Solid line
 72
65
 73
0
 40
0.0
  0
LTYPE
  5
1F5
100
AcDbSymbolTableRecord
100
AcDbLinetypeTableRecord
  2
CENTER
 70
64
  3
____ _ ____ _ ____ _ ____ _ ____ _ ____ _ ____
 72
65
 73
4
 40
0.6
 49
0.375
 74
0
 49
-0.075
 74
0
 49
0.075
 74
0
 49
-0.075
 74
0
  0
LTYPE
  5
1F6
100
AcDbSymbolTableRecord
100
AcDbLinetypeTableRecord
  2
HIDDEN
 70
64
  3
- - - - - - - - - - - - - - - - - - - -
 72
65
 73
2
 40
0.2
 49
0.1
 74
0
 49
-0.1
 74
0
  0
LTYPE
  5
1F7
100
AcDbSymbolTableRecord
100
AcDbLinetypeTableRecord
  2
PHANTOM
 70
64
  3
_____ _ _ _____ _ _ _____ _ _ _____
 72
65
 73
6
 40
0.8
 49
0.45
 74
0
 49
-0.05
 74
0
 49
0.1
 74
0
 49
-0.05
 74
0
 49
0.1
 74
0
 49
-0.05
 74
0
  0
LTYPE
  5
1F8
100
AcDbSymbolTableRecord
100
AcDbLinetypeTableRecord
  2
DOT
 70
64
  3
. . . . . . . . . . . . . . . . . . . .
 72
65
 73
2
 40
0.2
 49
0.1
 74
0
 49
-0.1
 74
0
  0
LTYPE
  5
1F9
100
AcDbSymbolTableRecord
100
AcDbLinetypeTableRecord
  2
DASHED
 70
64
  3
- - - - - - - - - - - - - - - - - - - -
 72
65
 73
2
 40
0.2
 49
0.1
 74
0
 49
-0.1
 74
0
  0
ENDTAB
  0
TABLE
  2
LAYER
  5
2
100
AcDbSymbolTable
 70
36
  0
LAYER
  5
10
100
AcDbSymbolTableRecord
100
AcDbLayerTableRecord
  2
0
 70
0
 62
7
  6
CONTINUOUS
370
-3
390
F
  0
LAYER
  5
1FA
100
AcDbSymbolTableRecord
100
AcDbLayerTableRecord
  2
DEFAULT_1
 70
0
 62
7
  6
CENTER
370
-3
390
F
  0
LAYER
  5
1FB
100
AcDbSymbolTableRecord
100
AcDbLayerTableRecord
  2
DEFAULT_2
 70
0
 62
7
  6
HIDDEN
370
-3
390
F
  0
LAYER
  5
1FC
100
AcDbSymbolTableRecord
100
AcDbLayerTableRecord
  2
DEFAULT_3
 70
0
 62
7
  6
PHANTOM
370
-3
390
F
  0
LAYER
  5
1FD
100
AcDbSymbolTableRecord
100
AcDbLayerTableRecord
  2
00_COMPONENTS
 70
0
 62
7
  6
CONTINUOUS
370
-3
390
F
  0
LAYER
  5
1FE
100
AcDbSymbolTableRecord
100
AcDbLayerTableRecord
  2
01_1_DEFAULT_DATUMS
 70
0
 62
7
  6
CONTINUOUS
370
-3
390
F
  0
LAYER
  5
1FF
100
AcDbSymbolTableRecord
100
AcDbLayerTableRecord
  2
01_PLANES
 70
0
 62
7
  6
CONTINUOUS
370
-3
390
F
  0
LAYER
  5
200
100
AcDbSymbolTableRecord
100
AcDbLayerTableRecord
  2
02_COORD_SYS
 70
0
 62
7
  6
CONTINUOUS
370
-3
390
F
  0
LAYER
  5
201
100
AcDbSymbolTableRecord
100
AcDbLayerTableRecord
  2
03_AXES
 70
0
 62
7
  6
CONTINUOUS
370
-3
390
F
  0
LAYER
  5
202
100
AcDbSymbolTableRecord
100
AcDbLayerTableRecord
  2
04_POINTS
 70
0
 62
7
  6
CONTINUOUS
370
-3
390
F
  0
LAYER
  5
203
100
AcDbSymbolTableRecord
100
AcDbLayerTableRecord
  2
05_CURVES
 70
0
 62
7
  6
CONTINUOUS
370
-3
390
F
  0
LAYER
  5
204
100
AcDbSymbolTableRecord
100
AcDbLayerTableRecord
  2
06_SURFS
 70
0
 62
7
  6
CONTINUOUS
370
-3
390
F
  0
LAYER
  5
205
100
AcDbSymbolTableRecord
100
AcDbLayerTableRecord
  2
07_COSMETICS
 70
0
 62
7
  6
CONTINUOUS
370
-3
390
F
  0
LAYER
  5
206
100
AcDbSymbolTableRecord
100
AcDbLayerTableRecord
  2
10_NOTES
 70
0
 62
7
  6
CONTINUOUS
370
-3
390
F
  0
LAYER
  5
207
100
AcDbSymbolTableRecord
100
AcDbLayerTableRecord
  2
11_NOTES_PUB
 70
0
 62
7
  6
CONTINUOUS
370
-3
390
F
  0
LAYER
  5
208
100
AcDbSymbolTableRecord
100
AcDbLayerTableRecord
  2
13_REF_GTOL
 70
0
 62
7
  6
CONTINUOUS
370
-3
390
F
  0
LAYER
  5
209
100
AcDbSymbolTableRecord
100
AcDbLayerTableRecord
  2
16_MISC
 70
0
 62
7
  6
CONTINUOUS
370
-3
390
F
  0
LAYER
  5
20A
100
AcDbSymbolTableRecord
100
AcDbLayerTableRecord
  2
17_NO_PRINT
 70
0
 62
7
  6
CONTINUOUS
370
-3
390
F
  0
LAYER
  5
20B
100
AcDbSymbolTableRecord
100
AcDbLayerTableRecord
  2
18_DATUM_CAMS_JOINTS
 70
0
 62
7
  6
CONTINUOUS
370
-3
390
F
  0
LAYER
  5
20C
100
AcDbSymbolTableRecord
100
AcDbLayerTableRecord
  2
19_DATUM_FUNCTIONAL
 70
0
 62
7
  6
CONTINUOUS
370
-3
390
F
  0
LAYER
  5
20D
100
AcDbSymbolTableRecord
100
AcDbLayerTableRecord
  2
20_DATUM_KINEMATIC_SCHEME
 70
0
 62
7
  6
CONTINUOUS
370
-3
390
F
  0
ENDTAB
  0
TABLE
  2
STYLE
  5
3
100
AcDbSymbolTable
 70
1
  0
STYLE
  5
11
100
AcDbSymbolTableRecord
100
AcDbTextStyleTableRecord
  2
STANDARD
 70
0
 40
0.0
 41
1.0
 50
0.0
 71
0
 42
0.2
  3
ARIAL.TTF
  4

  0
STYLE
  5
20E
100
AcDbSymbolTableRecord
100
AcDbTextStyleTableRecord
  2
TEXTSTYLE_1
 70
0
 40
0.0
 41
0.8
 50
0.0
 71
0
 42
0.2
  3
gdt
  4

  0
ENDTAB
  0
TABLE
  2
VIEW
  5
6
100
AcDbSymbolTable
 70
0
  0
ENDTAB
  0
TABLE
  2
UCS
  5
7
100
AcDbSymbolTable
 70
0
  0
ENDTAB
  0
TABLE
  2
APPID
  5
9
100
AcDbSymbolTable
 70
1
  0
APPID
  5
20F
100
AcDbSymbolTableRecord
100
AcDbRegAppTableRecord
  2
ACAD
 70
0
  0
ENDTAB
  0
TABLE
  2
BLOCK_RECORD
  5
1
100
AcDbSymbolTable
 70
0
  0
BLOCK_RECORD
  5
210
100
AcDbSymbolTableRecord
100
AcDbBlockTableRecord
  2
*Model_Space
  0
BLOCK_RECORD
  5
211
100
AcDbSymbolTableRecord
100
AcDbBlockTableRecord
  2
*Paper_Space
  0
BLOCK_RECORD
  5
212
100
AcDbSymbolTableRecord
100
AcDbBlockTableRecord
  2
_FILLED
  0
ENDTAB
  0
TABLE
  2
DIMSTYLE
  5
A
100
AcDbSymbolTable
 70
1
100
AcDbDimStyleTable
 71
0
  0
DIMSTYLE
105
213
100
AcDbSymbolTableRecord
100
AcDbDimStyleTableRecord
  2
STANDARD
 70
0
  3

  4

 40
1.0
 41
1.6680513852
 42
1.0
 43
0.38
 44
1.0
 45
0.0
 46
0.0
 47
0.01
 48
0.01
140
2.3352719392
141
0.09
142
0.0
143
25.4
144
1.0
145
0.0
146
1.0
147
0.625
 71
1
 72
0
 73
0
 74
0
 75
0
 76
0
 77
1
 78
8
 79
2
170
0
171
1
172
0
173
0
174
0
175
0
176
0
177
0
178
0
270
2
179
2
271
2
272
2
273
2
274
2
275
0
280
0
281
0
282
0
283
1
284
8
285
0
286
0
287
3
288
0
340
11
278
46
341
212
342
212
343
212
344
212
  0
ENDTAB
  0
ENDSEC
  0
SECTION
  2
BLOCKS
  0
BLOCK
  5
20
100
AcDbEntity
  8
0
100
AcDbBlockBegin
  2
*Model_Space
 70
0
 10
0.0
 20
0.0
 30
0.0
  3
*Model_Space
  1

  0
ENDBLK
  5
21
100
AcDbEntity
  8
0
100
AcDbBlockEnd
  0
BLOCK
  5
1C
100
AcDbEntity
  8
0
100
AcDbBlockBegin
  2
*Paper_Space
 70
0
 10
0.0
 20
0.0
 30
0.0
  3
*Paper_Space
  1

  0
ENDBLK
  5
1D
100
AcDbEntity
  8
0
100
AcDbBlockEnd
  0
BLOCK
  5
214
100
AcDbEntity
  8
0
100
AcDbBlockBegin
  2
_FILLED
 70
64
 10
0.0
 20
0.0
  3
_FILLED
  1

  0
SOLID
  5
215
100
AcDbEntity
  8
0
  6
BYBLOCK
 62
0
100
AcDbTrace
 10
0.0
 20
0.0
 11
-1.0
 21
0.25
 12
-1.0
 22
-0.25
 13
-1.0
 23
-0.25
  0
ENDBLK
  5
216
100
AcDbEntity
  8
0
  6
BYBLOCK
 62
0
100
AcDbBlockEnd
  0
ENDSEC
  0
SECTION
  2
ENTITIES
  0
LINE
  5
217
100
AcDbEntity
  8
0
100
AcDbLine
 62
7
  6
BYLAYER
 10
16.2337122093
 20
91.505008078
 11
16.2337122093
 21
104.5690467521
  0
LINE
  5
218
100
AcDbEntity
  8
0
100
AcDbLine
 62
7
  6
BYLAYER
 10
25.8914183625
 20
118.9228811993
 11
25.8480717342
 21
110.9637520127
  0
LINE
  5
219
100
AcDbEntity
  8
0
100
AcDbLine
 62
7
  6
BYLAYER
 10
25.8103840499
 20
98.197505784
 11
25.8509665051
 21
105.5939131291
  0
LINE
  5
21A
100
AcDbEntity
  8
0
100
AcDbLine
 62
7
  6
BYLAYER
 10
23.3299546508
 20
86.698594398
 11
23.3281034103
 21
86.452574865
  0
LINE
  5
21B
100
AcDbEntity
  8
0
100
AcDbLine
 62
7
  6
BYLAYER
 10
31.1178754735
 20
127.9317460089
 11
31.1583454972
 21
127.9553603964
  0
LINE
  5
21C
100
AcDbEntity
  8
0
100
AcDbLine
 62
7
  6
BYLAYER
 10
31.5627895655
 20
113.3275263781
 11
31.5627895655
 21
112.1353912309
  0
LINE
  5
21D
100
AcDbEntity
  8
0
100
AcDbLine
 62
7
  6
BYLAYER
 10
31.7871824412
 20
112.4566689481
 11
31.7871824412
 21
112.9891925954
  0
LINE
  5
21E
100
AcDbEntity
  8
0
100
AcDbLine
 62
7
  6
BYLAYER
 10
31.8436177021
 20
113.021775314
 11
31.8436177021
 21
112.5063809448
  0
LINE
  5
21F
100
AcDbEntity
  8
0
100
AcDbLine
 62
7
  6
BYLAYER
 10
31.5580496898
 20
112.1353912309
 11
26.3671450877
 21
106.9217316271
  0
LINE
  5
220
100
AcDbEntity
  8
0
100
AcDbLine
 62
7
  6
BYLAYER
 10
32.0935654443
 20
112.7127636956
 11
31.8646838485
 21
112.5063809448
  0
LINE
  5
221
100
AcDbEntity
  8
0
100
AcDbLine
 62
7
  6
BYLAYER
 10
60.2362604519
 20
138.8180063585
 11
25.9214491558
 21
119.0064590785
  0
LINE
  5
222
100
AcDbEntity
  8
0
100
AcDbLine
 62
7
  6
BYLAYER
 10
25.9939569738
 20
118.9806819573
 11
60.3632576749
 21
138.8236885221
  0
LINE
  5
223
100
AcDbEntity
  8
0
100
AcDbLine
 62
7
  6
BYLAYER
 10
32.1059318688
 20
112.7081758438
 11
31.8646838485
 21
112.5063809448
  0
LINE
  5
224
100
AcDbEntity
  8
0
100
AcDbLine
 62
7
  6
BYLAYER
 10
69.150879997
 20
135.9644907856
 11
69.0880326511
 21
135.9282060702
  0
LINE
  5
225
100
AcDbEntity
  8
0
100
AcDbLine
 62
7
  6
BYLAYER
 10
25.8480717342
 20
110.9637520127
 11
16.7663142224
 21
105.720428167
  0
LINE
  5
226
100
AcDbEntity
  8
0
100
AcDbLine
 62
7
  6
BYLAYER
 10
70.7032449701
 20
135.457257656
 11
70.6469594159
 21
135.4247613701
  0
LINE
  5
227
100
AcDbEntity
  8
0
100
AcDbLine
 62
7
  6
BYLAYER
 10
31.8436177021
 20
113.021775314
 11
31.7871824412
 21
112.9891925954
  0
LINE
  5
228
100
AcDbEntity
  8
0
100
AcDbLine
 62
7
  6
BYLAYER
 10
31.7785796304
 20
112.4566689481
 11
31.8646838485
 21
112.5063809448
  0
LINE
  5
229
100
AcDbEntity
  8
0
100
AcDbLine
 62
7
  6
BYLAYER
 10
71.5396615866
 20
135.4126032903
 11
71.6260269222
 21
135.4624660425
  0
LINE
  5
22A
100
AcDbEntity
  8
0
100
AcDbLine
 62
7
  6
BYLAYER
 10
70.8332233351
 20
135.131088093
 11
70.7734760109
 21
135.107278822
  0
LINE
  5
22B
100
AcDbEntity
  8
0
100
AcDbLine
 62
7
  6
BYLAYER
 10
70.8178565513
 20
135.1447935754
 11
70.7569365487
 21
135.122012156
  0
LINE
  5
22C
100
AcDbEntity
  8
0
100
AcDbLine
 62
7
  6
BYLAYER
 10
81.252214974
 20
138.5680430271
 11
72.1686335096
 21
135.5854316638
  0
LINE
  5
22D
100
AcDbEntity
  8
0
100
AcDbLine
 62
7
  6
BYLAYER
 10
68.317197071
 20
60.4786971371
 11
62.3925392652
 21
63.8992225335
  0
LINE
  5
22E
100
AcDbEntity
  8
0
100
AcDbLine
 62
7
  6
BYLAYER
 10
23.3281034103
 20
86.452574865
 11
17.4052968604
 21
89.8720314625
  0
LINE
  5
22F
100
AcDbEntity
  8
0
100
AcDbLine
 62
7
  6
BYLAYER
 10
62.3943905057
 20
64.1452420665
 11
23.3299546508
 21
86.698594398
  0
LINE
  5
230
100
AcDbEntity
  8
0
100
AcDbLine
 62
7
  6
BYLAYER
 10
16.7632356165
 20
103.4207612015
 11
25.8103840499
 21
98.197505784
  0
LINE
  5
231
100
AcDbEntity
  8
0
100
AcDbLine
 62
7
  6
BYLAYER
 10
60.0709632508
 20
78.417598641
 11
69.1567239694
 21
73.1720509145
  0
LINE
  5
232
100
AcDbEntity
  8
0
100
AcDbLine
 62
7
  6
BYLAYER
 10
28.1076960785
 20
108.6699125483
 11
25.8480717342
 21
110.9637520127
  0
LINE
  5
233
100
AcDbEntity
  8
0
100
AcDbLine
 62
7
  6
BYLAYER
 10
25.9939569738
 20
118.9806819573
 11
31.5627895655
 21
113.3275263781
  0
LINE
  5
234
100
AcDbEntity
  8
0
100
AcDbLine
 62
7
  6
BYLAYER
 10
82.1997103124
 20
78.3893500871
 11
72.1825708889
 21
81.7137282514
  0
LINE
  5
235
100
AcDbEntity
  8
0
100
AcDbLine
 62
7
  6
BYLAYER
 10
25.8509665051
 20
105.5939131291
 11
60.1418375867
 21
85.7965173564
  0
LINE
  5
236
100
AcDbEntity
  8
0
100
AcDbLine
 62
7
  6
BYLAYER
 10
61.0433063133
 20
86.9018935183
 11
26.3671450877
 21
106.9217316271
  0
LINE
  5
237
100
AcDbEntity
  8
0
100
AcDbLine
 62
7
  6
BYLAYER
 10
62.3925392652
 20
63.8992225335
 11
62.3943905057
 21
64.1452420665
  0
LINE
  5
238
100
AcDbEntity
  8
0
100
AcDbLine
 62
7
  6
BYLAYER
 10
60.1418375867
 20
85.7965173564
 11
60.0709632508
 21
78.417598641
  0
LINE
  5
239
100
AcDbEntity
  8
0
100
AcDbLine
 62
7
  6
BYLAYER
 10
23.3281034103
 20
86.452574865
 11
23.5420912342
 21
86.5761200553
  0
LINE
  5
23A
100
AcDbEntity
  8
0
100
AcDbLine
 62
7
  6
BYLAYER
 10
72.1825708889
 20
89.8787524227
 11
81.9543922666
 21
86.6357877159
  0
LINE
  5
23B
100
AcDbEntity
  8
0
100
AcDbLine
 62
7
  6
BYLAYER
 10
86.2682109327
 20
85.0121181481
 11
86.1679845164
 21
85.0699825874
  0
LINE
  5
23C
100
AcDbEntity
  8
0
100
AcDbLine
 62
7
  6
BYLAYER
 10
70.1177027254
 20
89.8814889521
 11
70.1177027254
 21
81.7164647808
  0
LINE
  5
23D
100
AcDbEntity
  8
0
100
AcDbLine
 62
7
  6
BYLAYER
 10
70.6469594159
 20
135.0568620388
 11
70.6469594159
 21
135.4247613701
  0
LINE
  5
23E
100
AcDbEntity
  8
0
100
AcDbLine
 62
7
  6
BYLAYER
 10
70.6647739863
 20
89.1894181405
 11
70.6647739863
 21
90.0059205576
  0
LINE
  5
23F
100
AcDbEntity
  8
0
100
AcDbLine
 62
7
  6
BYLAYER
 10
70.7032449701
 20
135.457257656
 11
70.7032449701
 21
135.0792917967
  0
LINE
  5
240
100
AcDbEntity
  8
0
100
AcDbLine
 62
7
  6
BYLAYER
 10
70.751139322
 20
90.0557833097
 11
70.751139322
 21
89.2392808926
  0
LINE
  5
241
100
AcDbEntity
  8
0
100
AcDbLine
 62
7
  6
BYLAYER
 10
71.5875559384
 20
90.011128944
 11
71.5875559384
 21
89.1946265269
  0
LINE
  5
242
100
AcDbEntity
  8
0
100
AcDbLine
 62
7
  6
BYLAYER
 10
98.7224379219
 20
82.7918385783
 11
98.6708152443
 21
82.8188902833
  0
LINE
  5
243
100
AcDbEntity
  8
0
100
AcDbLine
 62
7
  6
BYLAYER
 10
87.8468582459
 20
85.9235451589
 11
87.7466318297
 21
85.9814095982
  0
LINE
  5
244
100
AcDbEntity
  8
0
100
AcDbLine
 62
7
  6
BYLAYER
 10
82.0055231355
 20
89.9958083539
 11
84.8898623175
 21
88.3305720235
  0
LINE
  5
245
100
AcDbEntity
  8
0
100
AcDbLine
 62
7
  6
BYLAYER
 10
86.2444285474
 20
88.7037639529
 11
86.1679845164
 21
88.7478979363
  0
LINE
  5
246
100
AcDbEntity
  8
0
100
AcDbLine
 62
7
  6
BYLAYER
 10
86.2585759071
 20
88.711931886
 11
83.2322828656
 21
90.4591234614
  0
LINE
  5
247
100
AcDbEntity
  8
0
100
AcDbLine
 62
7
  6
BYLAYER
 10
86.1166220476
 20
89.0388378561
 11
83.2322828656
 21
90.7040741866
  0
LINE
  5
248
100
AcDbEntity
  8
0
100
AcDbLine
 62
7
  6
BYLAYER
 10
83.5965067693
 20
90.9143577001
 11
86.4808459513
 21
89.2491213697
  0
LINE
  5
249
100
AcDbEntity
  8
0
100
AcDbLine
 62
7
  6
BYLAYER
 10
98.6708152443
 20
82.8188902833
 11
98.0155758978
 21
83.1971843382
  0
LINE
  5
24A
100
AcDbEntity
  8
0
100
AcDbLine
 62
7
  6
BYLAYER
 10
87.8230758607
 20
89.6151909637
 11
87.7466318297
 21
89.6593249471
  0
LINE
  5
24B
100
AcDbEntity
  8
0
100
AcDbLine
 62
7
  6
BYLAYER
 10
87.8495595408
 20
89.6304812323
 11
84.8232664994
 21
91.3776728076
  0
LINE
  5
24C
100
AcDbEntity
  8
0
100
AcDbLine
 62
7
  6
BYLAYER
 10
87.7076056814
 20
89.9573872023
 11
84.8232664994
 21
91.6226235328
  0
LINE
  5
24D
100
AcDbEntity
  8
0
100
AcDbLine
 62
7
  6
BYLAYER
 10
98.5210742002
 20
84.0284809677
 11
98.663552723
 21
83.9462228152
  0
LINE
  5
24E
100
AcDbEntity
  8
0
100
AcDbLine
 62
7
  6
BYLAYER
 10
72.1825708889
 20
81.7137282514
 11
72.1825708889
 21
89.8787524227
  0
LINE
  5
24F
100
AcDbEntity
  8
0
100
AcDbLine
 62
7
  6
BYLAYER
 10
79.9005110336
 20
63.9003334209
 11
79.8989271167
 21
64.1461986002
  0
LINE
  5
250
100
AcDbEntity
  8
0
100
AcDbLine
 62
7
  6
BYLAYER
 10
110.5122212782
 20
113.011717652
 11
110.4261170601
 21
112.9620056552
  0
LINE
  5
251
100
AcDbEntity
  8
0
100
AcDbLine
 62
7
  6
BYLAYER
 10
70.751139322
 20
90.0557833097
 11
70.6647739863
 21
90.0059205576
  0
LINE
  5
252
100
AcDbEntity
  8
0
100
AcDbLine
 62
7
  6
BYLAYER
 10
71.5875559384
 20
90.011128944
 11
71.6438414927
 21
90.04362523
  0
LINE
  5
253
100
AcDbEntity
  8
0
100
AcDbLine
 62
7
  6
BYLAYER
 10
110.4471832064
 20
112.446611286
 11
110.5036184673
 21
112.4791940046
  0
LINE
  5
254
100
AcDbEntity
  8
0
100
AcDbLine
 62
7
  6
BYLAYER
 10
70.6647739863
 20
89.1894181405
 11
70.751139322
 21
89.2392808926
  0
LINE
  5
255
100
AcDbEntity
  8
0
100
AcDbLine
 62
7
  6
BYLAYER
 10
71.5875559384
 20
89.5725923863
 11
71.4575775735
 21
89.5207960899
  0
LINE
  5
256
100
AcDbEntity
  8
0
100
AcDbLine
 62
7
  6
BYLAYER
 10
71.6054481765
 20
89.5566769088
 11
71.4729443573
 21
89.5070906075
  0
LINE
  5
257
100
AcDbEntity
  8
0
100
AcDbLine
 62
7
  6
BYLAYER
 10
61.0433063133
 20
86.9018935183
 11
70.122167399
 21
89.8829549362
  0
LINE
  5
258
100
AcDbEntity
  8
0
100
AcDbLine
 62
7
  6
BYLAYER
 10
35.371058705
 20
128.0688434849
 11
38.4364834625
 21
126.2990597138
  0
LINE
  5
259
100
AcDbEntity
  8
0
100
AcDbLine
 62
7
  6
BYLAYER
 10
82.1997103124
 20
78.3893500871
 11
82.1340001645
 21
86.4128633457
  0
LINE
  5
25A
100
AcDbEntity
  8
0
100
AcDbLine
 62
7
  6
BYLAYER
 10
85.0312883172
 20
88.0856036538
 11
85.0555985622
 21
84.3120202486
  0
LINE
  5
25B
100
AcDbEntity
  8
0
100
AcDbLine
 62
7
  6
BYLAYER
 10
82.0055218549
 20
89.9958083539
 11
82.0055218549
 21
90.1733938215
  0
LINE
  5
25C
100
AcDbEntity
  8
0
100
AcDbLine
 62
7
  6
BYLAYER
 10
82.9246914158
 20
90.7040734472
 11
82.9246914158
 21
90.4591227221
  0
LINE
  5
25D
100
AcDbEntity
  8
0
100
AcDbLine
 62
7
  6
BYLAYER
 10
83.2322828656
 20
90.4591234614
 11
83.2322828656
 21
90.7040741866
  0
LINE
  5
25E
100
AcDbEntity
  8
0
100
AcDbLine
 62
7
  6
BYLAYER
 10
83.5965054886
 20
90.9143577001
 11
83.5965054886
 21
91.0919431677
  0
LINE
  5
25F
100
AcDbEntity
  8
0
100
AcDbLine
 62
7
  6
BYLAYER
 10
84.5156750496
 20
91.6226227934
 11
84.5156750496
 21
91.3776720683
  0
LINE
  5
260
100
AcDbEntity
  8
0
100
AcDbLine
 62
7
  6
BYLAYER
 10
84.8232664994
 20
91.3776728076
 11
84.8232664994
 21
91.6226235328
  0
LINE
  5
261
100
AcDbEntity
  8
0
100
AcDbLine
 62
7
  6
BYLAYER
 10
84.5156750496
 20
91.6226227934
 11
83.5965054886
 21
91.0919431677
  0
LINE
  5
262
100
AcDbEntity
  8
0
100
AcDbLine
 62
7
  6
BYLAYER
 10
82.9246914158
 20
90.7040734472
 11
82.0055218549
 21
90.1733938215
  0
LINE
  5
263
100
AcDbEntity
  8
0
100
AcDbLine
 62
7
  6
BYLAYER
 10
84.5156750496
 20
91.3776720683
 11
83.6548469874
 21
90.8806757215
  0
LINE
  5
264
100
AcDbEntity
  8
0
100
AcDbLine
 62
7
  6
BYLAYER
 10
82.0638633536
 20
89.9621263753
 11
82.9246914158
 21
90.4591227221
  0
LINE
  5
265
100
AcDbEntity
  8
0
100
AcDbLine
 62
7
  6
BYLAYER
 10
118.9646216082
 20
86.4538735503
 11
118.7509011079
 21
86.5772623472
  0
LINE
  5
266
100
AcDbEntity
  8
0
100
AcDbLine
 62
7
  6
BYLAYER
 10
86.2682109327
 20
85.0121181481
 11
86.2444285474
 21
88.7037639529
  0
LINE
  5
267
100
AcDbEntity
  8
0
100
AcDbLine
 62
7
  6
BYLAYER
 10
86.2585759071
 20
88.711931886
 11
86.2580480473
 21
88.7938694792
  0
LINE
  5
268
100
AcDbEntity
  8
0
100
AcDbLine
 62
7
  6
BYLAYER
 10
86.6081299285
 20
88.9959796864
 11
86.6324401192
 21
85.2224047118
  0
LINE
  5
269
100
AcDbEntity
  8
0
100
AcDbLine
 62
7
  6
BYLAYER
 10
87.8468582459
 20
85.9235451589
 11
87.8230758607
 21
89.6151909637
  0
LINE
  5
26A
100
AcDbEntity
  8
0
100
AcDbLine
 62
7
  6
BYLAYER
 10
87.8495595408
 20
89.6304812323
 11
87.849031681
 21
89.7124188254
  0
LINE
  5
26B
100
AcDbEntity
  8
0
100
AcDbLine
 62
7
  6
BYLAYER
 10
86.1679845164
 20
85.0699825874
 11
86.1679845164
 21
88.7478979363
  0
LINE
  5
26C
100
AcDbEntity
  8
0
100
AcDbLine
 62
7
  6
BYLAYER
 10
86.5463557797
 20
89.1636280972
 11
86.5463557797
 21
89.1927233739
  0
LINE
  5
26D
100
AcDbEntity
  8
0
100
AcDbLine
 62
7
  6
BYLAYER
 10
87.7466318297
 20
89.6593249471
 11
87.7466318297
 21
85.9814095982
  0
LINE
  5
26E
100
AcDbEntity
  8
0
100
AcDbLine
 62
7
  6
BYLAYER
 10
110.7327512188
 20
113.3329953691
 11
115.9263586971
 21
118.5493696976
  0
LINE
  5
26F
100
AcDbEntity
  8
0
100
AcDbLine
 62
7
  6
BYLAYER
 10
110.4471832064
 20
112.446611286
 11
110.294824278
 21
112.3107660878
  0
LINE
  5
270
100
AcDbEntity
  8
0
100
AcDbLine
 62
7
  6
BYLAYER
 10
110.4471832064
 20
112.446611286
 11
110.2867726829
 21
112.3137832217
  0
LINE
  5
271
100
AcDbEntity
  8
0
100
AcDbLine
 62
7
  6
BYLAYER
 10
116.3121731266
 20
106.4721433371
 11
87.7076056814
 21
89.9573872023
  0
LINE
  5
272
100
AcDbEntity
  8
0
100
AcDbLine
 62
7
  6
BYLAYER
 10
86.4808459513
 20
89.2491213697
 11
86.1166220476
 21
89.0388378561
  0
LINE
  5
273
100
AcDbEntity
  8
0
100
AcDbLine
 62
7
  6
BYLAYER
 10
84.8898623175
 20
88.3305720235
 11
81.9543922666
 21
86.6357877159
  0
LINE
  5
274
100
AcDbEntity
  8
0
100
AcDbLine
 62
7
  6
BYLAYER
 10
86.532213703
 20
89.1845584908
 11
86.5463557797
 21
89.1927233739
  0
LINE
  5
275
100
AcDbEntity
  8
0
100
AcDbLine
 62
7
  6
BYLAYER
 10
82.1339900073
 20
86.4141035772
 11
86.1679845164
 21
88.7478979363
  0
LINE
  5
276
100
AcDbEntity
  8
0
100
AcDbLine
 62
7
  6
BYLAYER
 10
86.2580400507
 20
88.7951107671
 11
87.7466318297
 21
89.6593249471
  0
LINE
  5
277
100
AcDbEntity
  8
0
100
AcDbLine
 62
7
  6
BYLAYER
 10
87.8490236844
 20
89.7136601133
 11
116.4147126939
 21
106.2059699068
  0
LINE
  5
278
100
AcDbEntity
  8
0
100
AcDbLine
 62
7
  6
BYLAYER
 10
86.2444285474
 20
88.7037639529
 11
86.2585759071
 21
88.711931886
  0
LINE
  5
279
100
AcDbEntity
  8
0
100
AcDbLine
 62
7
  6
BYLAYER
 10
87.8230758607
 20
89.6151909637
 11
87.8495595408
 21
89.6304812323
  0
LINE
  5
27A
100
AcDbEntity
  8
0
100
AcDbLine
 62
7
  6
BYLAYER
 10
70.1177027254
 20
81.7164647808
 11
60.0709632508
 21
78.417598641
  0
LINE
  5
27B
100
AcDbEntity
  8
0
100
AcDbLine
 62
7
  6
BYLAYER
 10
87.7466318297
 20
85.9814095982
 11
86.6316973252
 21
85.3377057043
  0
LINE
  5
27C
100
AcDbEntity
  8
0
100
AcDbLine
 62
7
  6
BYLAYER
 10
86.1679845164
 20
85.0699825874
 11
85.0548557682
 21
84.4273212411
  0
LINE
  5
27D
100
AcDbEntity
  8
0
100
AcDbLine
 62
7
  6
BYLAYER
 10
85.0555985622
 20
84.3120202486
 11
86.2682109327
 21
85.0121181481
  0
LINE
  5
27E
100
AcDbEntity
  8
0
100
AcDbLine
 62
7
  6
BYLAYER
 10
86.6324401192
 20
85.2224047118
 11
87.8468582459
 21
85.9235451589
  0
LINE
  5
27F
100
AcDbEntity
  8
0
100
AcDbLine
 62
7
  6
BYLAYER
 10
96.9665035137
 20
82.9664368459
 11
96.973766035
 21
81.839104314
  0
LINE
  5
280
100
AcDbEntity
  8
0
100
AcDbLine
 62
7
  6
BYLAYER
 10
98.6708152443
 20
82.8188902833
 11
98.663552723
 21
83.9462228152
  0
LINE
  5
281
100
AcDbEntity
  8
0
100
AcDbLine
 62
7
  6
BYLAYER
 10
98.0155758978
 20
83.7366352197
 11
98.0155758978
 21
83.1971843382
  0
LINE
  5
282
100
AcDbEntity
  8
0
100
AcDbLine
 62
7
  6
BYLAYER
 10
116.4831197349
 20
110.9435471982
 11
114.18310483
 21
108.6334498804
  0
LINE
  5
283
100
AcDbEntity
  8
0
100
AcDbLine
 62
7
  6
BYLAYER
 10
73.2034824441
 20
73.1954065093
 11
82.1997103124
 21
78.3893500871
  0
LINE
  5
284
100
AcDbEntity
  8
0
100
AcDbLine
 62
7
  6
BYLAYER
 10
116.4522350571
 20
98.1649364245
 11
125.4871453334
 21
103.3812131677
  0
LINE
  5
285
100
AcDbEntity
  8
0
100
AcDbLine
 62
7
  6
BYLAYER
 10
98.5210760109
 20
84.028484104
 11
97.1068683365
 21
83.2119957962
  0
LINE
  5
286
100
AcDbEntity
  8
0
100
AcDbLine
 62
7
  6
BYLAYER
 10
79.8989271167
 20
64.1461986002
 11
118.9611864507
 21
86.6986699218
  0
LINE
  5
287
100
AcDbEntity
  8
0
100
AcDbLine
 62
7
  6
BYLAYER
 10
73.9740513205
 20
60.4787107345
 11
79.9005110336
 21
63.9003334209
  0
LINE
  5
288
100
AcDbEntity
  8
0
100
AcDbLine
 62
7
  6
BYLAYER
 10
118.9646216082
 20
86.4538735503
 11
124.8855275999
 21
89.8722898132
  0
LINE
  5
289
100
AcDbEntity
  8
0
100
AcDbLine
 62
7
  6
BYLAYER
 10
70.1082300196
 20
135.5896341773
 11
60.3632576749
 21
138.8236885221
  0
LINE
  5
28A
100
AcDbEntity
  8
0
100
AcDbLine
 62
7
  6
BYLAYER
 10
125.5174871923
 20
105.7276707136
 11
116.4831197349
 21
110.9435471982
  0
LINE
  5
28B
100
AcDbEntity
  8
0
100
AcDbLine
 62
7
  6
BYLAYER
 10
73.2092966529
 20
135.9271353992
 11
73.1515600009
 21
135.9604689166
  0
LINE
  5
28C
100
AcDbEntity
  8
0
100
AcDbLine
 62
7
  6
BYLAYER
 10
110.4261170601
 20
112.446611286
 11
110.4261170601
 21
112.9620056552
  0
LINE
  5
28D
100
AcDbEntity
  8
0
100
AcDbLine
 62
7
  6
BYLAYER
 10
110.5122212782
 20
113.011717652
 11
110.5122212782
 21
112.4791940046
  0
LINE
  5
28E
100
AcDbEntity
  8
0
100
AcDbLine
 62
7
  6
BYLAYER
 10
110.7327512188
 20
112.1408602219
 11
110.7327512188
 21
113.3329953691
  0
LINE
  5
28F
100
AcDbEntity
  8
0
100
AcDbLine
 62
7
  6
BYLAYER
 10
81.252214974
 20
138.5680430271
 11
115.9263586971
 21
118.5493696976
  0
LINE
  5
290
100
AcDbEntity
  8
0
100
AcDbLine
 62
7
  6
BYLAYER
 10
81.8896657343
 20
138.5382105756
 11
116.2913612981
 21
118.6768317058
  0
LINE
  5
291
100
AcDbEntity
  8
0
100
AcDbLine
 62
7
  6
BYLAYER
 10
116.3121731266
 20
106.4721433371
 11
110.7280113431
 21
112.1408602219
  0
LINE
  5
292
100
AcDbEntity
  8
0
100
AcDbLine
 62
7
  6
BYLAYER
 10
116.4831197349
 20
110.9435471982
 11
116.4425372797
 21
118.258433836
  0
LINE
  5
293
100
AcDbEntity
  8
0
100
AcDbLine
 62
7
  6
BYLAYER
 10
116.4147184933
 20
106.2047271019
 11
116.4522350571
 21
98.1649364245
  0
LINE
  5
294
100
AcDbEntity
  8
0
100
AcDbLine
 62
7
  6
BYLAYER
 10
118.9611864507
 20
86.6986699218
 11
118.9646216082
 21
86.4538735503
  0
LINE
  5
295
100
AcDbEntity
  8
0
100
AcDbLine
 62
7
  6
BYLAYER
 10
126.0570886993
 20
91.5052528313
 11
126.0570886993
 21
104.5692915054
  0
ARC
  5
296
100
AcDbEntity
  8
0
100
AcDbCircle
 62
7
  6
BYLAYER
 10
127.7232473803
 20
-17.1209125886
 40
162.5517418517
100
AcDbArc
 50
110.2205687855
 51
110.4919363078
  0
ARC
  5
297
100
AcDbEntity
  8
0
100
AcDbCircle
 62
7
  6
BYLAYER
 10
14.5675535303
 20
241.7727967661
 40
162.5517418459
100
AcDbArc
 50
290.2205687855
 51
290.4919363078
  0
ARC
  5
298
100
AcDbEntity
  8
0
100
AcDbCircle
 62
7
  6
BYLAYER
 10
14.5843768836
 20
242.5438563381
 40
162.5032849474
100
AcDbArc
 50
290.2205406242
 51
290.5149211212
  0
ARC
  5
299
100
AcDbEntity
  8
0
100
AcDbCircle
 62
7
  6
BYLAYER
 10
31.3802186275
 20
206.9717785602
 40
123.4573133781
100
AcDbArc
 50
299.7250478976
 51
299.9996533877
  0
ARC
  5
29A
100
AcDbEntity
  8
0
100
AcDbCircle
 62
7
  6
BYLAYER
 10
110.4960134428
 20
19.6228730435
 40
121.9211039912
100
AcDbArc
 50
119.9996387063
 51
120.297458195
  0
ARC
  5
29B
100
AcDbEntity
  8
0
100
AcDbCircle
 62
7
  6
BYLAYER
 10
52.6465288673
 20
176.810335954
 40
86.1109173895
100
AcDbArc
 50
311.9384802582
 51
312.1435408277
  0
ARC
  5
29C
100
AcDbEntity
  8
0
100
AcDbCircle
 62
7
  6
BYLAYER
 10
42.5418832159
 20
117.730657569
 40
9.5697845815
100
AcDbArc
 50
130.2999067976
 51
131.6954797661
  0
ARC
  5
29D
100
AcDbEntity
  8
0
100
AcDbCircle
 62
7
  6
BYLAYER
 10
33.3287607354
 20
121.6487104872
 40
6.5612822751
100
AcDbArc
 50
168.6911012183
 51
172.080997587
  0
ARC
  5
29E
100
AcDbEntity
  8
0
100
AcDbCircle
 62
7
  6
BYLAYER
 10
33.6464501908
 20
120.4225263126
 40
5.5181348681
100
AcDbArc
 50
179.9953392816
 51
181.4673399491
  0
ARC
  5
29F
100
AcDbEntity
  8
0
100
AcDbCircle
 62
7
  6
BYLAYER
 10
33.1314388355
 20
123.7529216525
 40
5.2146308419
100
AcDbArc
 50
120.0276198592
 51
122.5680141634
  0
ARC
  5
2A0
100
AcDbEntity
  8
0
100
AcDbCircle
 62
7
  6
BYLAYER
 10
34.4777814961
 20
123.1185128989
 40
5.0831167162
100
AcDbArc
 50
120.0007411484
 51
120.5584885162
  0
ARC
  5
2A1
100
AcDbEntity
  8
0
100
AcDbCircle
 62
7
  6
BYLAYER
 10
31.7998665576
 20
121.7761678194
 40
5.0256704648
100
AcDbArc
 50
179.1773772249
 51
179.9980773911
  0
ARC
  5
2A2
100
AcDbEntity
  8
0
100
AcDbCircle
 62
7
  6
BYLAYER
 10
34.26608332
 20
123.3224803559
 40
4.9420469872
100
AcDbArc
 50
118.5939564564
 51
120.0042247312
  0
ARC
  5
2A3
100
AcDbEntity
  8
0
100
AcDbCircle
 62
7
  6
BYLAYER
 10
31.6186304981
 20
121.8577409878
 40
4.9030136412
100
AcDbArc
 50
179.9971451161
 51
181.1496887615
  0
ARC
  5
2A4
100
AcDbEntity
  8
0
100
AcDbCircle
 62
7
  6
BYLAYER
 10
31.8530573543
 20
120.9144849385
 40
3.8613318118
100
AcDbArc
 50
187.931377946
 51
190.2071089076
  0
ARC
  5
2A5
100
AcDbEntity
  8
0
100
AcDbCircle
 62
7
  6
BYLAYER
 10
71.1459978169
 20
85.6600905377
 40
3.561983956
100
AcDbArc
 50
82.8796780339
 51
97.7643991651
  0
ARC
  5
2A6
100
AcDbEntity
  8
0
100
AcDbCircle
 62
7
  6
BYLAYER
 10
71.1266975359
 20
138.833866926
 40
3.4030746011
100
AcDbArc
 50
261.9953945263
 51
262.8516147746
  0
ARC
  5
2A7
100
AcDbEntity
  8
0
100
AcDbCircle
 62
7
  6
BYLAYER
 10
86.2663371845
 20
88.9617872354
 40
0.3469211103
100
AcDbArc
 50
28.0485557324
 51
35.8420248223
  0
ARC
  5
2A8
100
AcDbEntity
  8
0
100
AcDbCircle
 62
7
  6
BYLAYER
 10
86.2844857376
 20
88.9750380941
 40
0.3244502142
100
AcDbArc
 50
35.8217740006
 51
40.2234740779
  0
SPLINE
  5
2A9
100
AcDbEntity
  8
0
100
AcDbSpline
 62
7
  6
BYLAYER
 70
0
 71
3
 72
11
 73
7
 74
0
 42
0.0000001
 43
0.0000001
 44
0.0000000001
 40
0.0
 40
0.0
 40
0.0
 40
0.0
 40
0.2753820571
 40
0.5325454499
 40
0.772942551
 40
1.0
 40
1.0
 40
1.0
 40
1.0
 10
26.7166038949
 20
121.7593644326
 30
0.0
 10
26.7204905765
 20
121.5661788774
 30
0.0
 10
26.7502591604
 20
121.1924483011
 30
0.0
 10
26.8701551243
 20
120.661332367
 30
0.0
 10
27.0643129141
 20
120.1886085933
 30
0.0
 10
27.2471416994
 20
119.9128669395
 30
0.0
 10
27.3496044781
 20
119.7908696178
 30
0.0
  0
SPLINE
  5
2AA
100
AcDbEntity
  8
0
100
AcDbSpline
 62
7
  6
BYLAYER
 70
0
 71
3
 72
11
 73
7
 74
0
 42
0.0000001
 43
0.0000001
 44
0.0000000001
 40
0.0
 40
0.0
 40
0.0
 40
0.0
 40
0.2253369072
 40
0.4617556113
 40
0.7183524074
 40
1.0
 40
1.0
 40
1.0
 40
1.0
 10
33.1719106281
 20
128.5302076886
 30
0.0
 10
32.9928391324
 20
128.6335832547
 30
0.0
 10
32.5877224898
 20
128.7847950654
 30
0.0
 10
31.9208017641
 20
128.8160771151
 30
0.0
 10
31.2195127244
 20
128.6666975344
 30
0.0
 10
30.7649199399
 20
128.4654436523
 30
0.0
 10
30.5376964268
 20
128.3423175346
 30
0.0
  0
SPLINE
  5
2AB
100
AcDbEntity
  8
0
100
AcDbSpline
 62
7
  6
BYLAYER
 70
0
 71
3
 72
15
 73
11
 74
0
 42
0.0000001
 43
0.0000001
 44
0.0000000001
 40
0.0
 40
0.0
 40
0.0
 40
0.0
 40
0.1137063269
 40
0.2362697071
 40
0.3654146302
 40
0.4981551637
 40
0.6311632747
 40
0.7610554533
 40
0.8848344348
 40
1.0
 40
1.0
 40
1.0
 40
1.0
 10
30.5376964268
 20
128.3423175346
 30
0.0
 10
30.2766568981
 20
128.2008674563
 30
0.0
 10
29.7607538557
 20
127.8567122286
 30
0.0
 10
29.0509234521
 20
127.2151217934
 30
0.0
 10
28.3965823163
 20
126.450462904
 30
0.0
 10
27.8218511995
 20
125.5916260242
 30
0.0
 10
27.3482174585
 20
124.6709825844
 30
0.0
 10
26.9933796317
 20
123.7230251932
 30
0.0
 10
26.7713875134
 20
122.7832131244
 30
0.0
 10
26.715616863
 20
122.1586957822
 30
0.0
 10
26.715616863
 20
121.8579852909
 30
0.0
  0
SPLINE
  5
2AC
100
AcDbEntity
  8
0
100
AcDbSpline
 62
7
  6
BYLAYER
 70
0
 71
3
 72
9
 73
5
 74
0
 42
0.0000001
 43
0.0000001
 44
0.0000000001
 40
0.0
 40
0.0
 40
0.0
 40
0.0
 40
0.2564665954
 40
1.0
 40
1.0
 40
1.0
 40
1.0
 10
70.6528102131
 20
135.4639488935
 30
0.0
 10
70.6054611491
 20
135.4706076763
 30
0.0
 10
70.4214266483
 20
135.5004692068
 30
0.0
 10
70.2397965583
 20
135.5459713201
 30
0.0
 10
70.1082300196
 20
135.5896341773
 30
0.0
  0
SPLINE
  5
2AD
100
AcDbEntity
  8
0
100
AcDbSpline
 62
7
  6
BYLAYER
 70
0
 71
3
 72
11
 73
7
 74
0
 42
0.0000001
 43
0.0000001
 44
0.0000000001
 40
0.0
 40
0.0
 40
0.0
 40
0.0
 40
0.2728416741
 40
0.5272477778
 40
0.7674268823
 40
1.0
 40
1.0
 40
1.0
 40
1.0
 10
16.7663142224
 20
105.720428167
 30
0.0
 10
16.6828574918
 20
105.6366536036
 30
0.0
 10
16.5329797791
 20
105.4626337222
 30
0.0
 10
16.3619825756
 20
105.1751163613
 30
0.0
 10
16.2573410751
 20
104.8754412466
 30
0.0
 10
16.2337569861
 20
104.6698448045
 30
0.0
 10
16.2337566181
 20
104.5690467509
 30
0.0
  0
SPLINE
  5
2AE
100
AcDbEntity
  8
0
100
AcDbSpline
 62
7
  6
BYLAYER
 70
0
 71
3
 72
15
 73
11
 74
0
 42
0.0000001
 43
0.0000001
 44
0.0000000001
 40
0.0
 40
0.0
 40
0.0
 40
0.0
 40
0.1500671002
 40
0.3004599074
 40
0.4461195664
 40
0.5824916291
 40
0.7061345087
 40
0.8154781997
 40
0.9117806404
 40
1.0
 40
1.0
 40
1.0
 40
1.0
 10
25.8401939887
 20
103.0273147148
 30
0.0
 10
25.6361847733
 20
102.9983706126
 30
0.0
 10
25.2233198868
 20
102.9681959337
 30
0.0
 10
24.6101037242
 20
103.0026568571
 30
0.0
 10
24.0250288154
 20
103.1144540055
 30
0.0
 10
23.4967941346
 20
103.2982521492
 30
0.0
 10
23.0506285513
 20
103.5456900645
 30
0.0
 10
22.7076668092
 20
103.8471696388
 30
0.0
 10
22.4863703595
 20
104.192516372
 30
0.0
 10
22.4334557709
 20
104.4479275012
 30
0.0
 10
22.4334723216
 20
104.5690586184
 30
0.0
  0
SPLINE
  5
2AF
100
AcDbEntity
  8
0
100
AcDbSpline
 62
7
  6
BYLAYER
 70
0
 71
3
 72
9
 73
5
 74
0
 42
0.0000001
 43
0.0000001
 44
0.0000000001
 40
0.0
 40
0.0
 40
0.0
 40
0.0
 40
0.2367258392
 40
1.0
 40
1.0
 40
1.0
 40
1.0
 10
31.7785796304
 20
112.4566689481
 30
0.0
 10
31.7668489658
 20
112.4281195247
 30
0.0
 10
31.7103821472
 20
112.3103568835
 30
0.0
 10
31.628266499
 20
112.2059158447
 30
0.0
 10
31.5580496898
 20
112.1353912309
 30
0.0
  0
SPLINE
  5
2B0
100
AcDbEntity
  8
0
100
AcDbSpline
 62
7
  6
BYLAYER
 70
0
 71
3
 72
9
 73
5
 74
0
 42
0.0000001
 43
0.0000001
 44
0.0000000001
 40
0.0
 40
0.0
 40
0.0
 40
0.0
 40
0.5142379563
 40
1.0
 40
1.0
 40
1.0
 40
1.0
 10
48.9881185214
 20
124.8917405247
 30
0.0
 10
45.9017936689
 20
123.0884061224
 30
0.0
 10
40.0502496856
 20
119.3153011141
 30
0.0
 10
34.6052966372
 20
114.969465906
 30
0.0
 10
32.0935654443
 20
112.7127636956
 30
0.0
  0
SPLINE
  5
2B1
100
AcDbEntity
  8
0
100
AcDbSpline
 62
7
  6
BYLAYER
 70
0
 71
3
 72
9
 73
5
 74
0
 42
0.0000001
 43
0.0000001
 44
0.0000000001
 40
0.0
 40
0.0
 40
0.0
 40
0.0
 40
0.5116360786
 40
1.0
 40
1.0
 40
1.0
 40
1.0
 10
70.7569365487
 20
135.122012156
 30
0.0
 10
67.0126366754
 20
133.7209503305
 30
0.0
 10
59.792210282
 20
130.7112329986
 30
0.0
 10
52.840884185
 20
127.1180216728
 30
0.0
 10
49.5361272538
 20
125.2100307582
 30
0.0
  0
SPLINE
  5
2B2
100
AcDbEntity
  8
0
100
AcDbSpline
 62
7
  6
BYLAYER
 70
0
 71
3
 72
9
 73
5
 74
0
 42
0.0000001
 43
0.0000001
 44
0.0000000001
 40
0.0
 40
0.0
 40
0.0
 40
0.0
 40
0.2431704403
 40
1.0
 40
1.0
 40
1.0
 40
1.0
 10
72.1686335096
 20
135.5854316638
 30
0.0
 10
72.1257542196
 20
135.5713521669
 30
0.0
 10
71.9478810187
 20
135.5182059717
 30
0.0
 10
71.7651865815
 20
135.4815720706
 30
0.0
 10
71.6260269222
 20
135.4624660425
 30
0.0
  0
SPLINE
  5
2B3
100
AcDbEntity
  8
0
100
AcDbSpline
 62
7
  6
BYLAYER
 70
0
 71
3
 72
9
 73
5
 74
0
 42
0.0000001
 43
0.0000001
 44
0.0000000001
 40
0.0
 40
0.0
 40
0.0
 40
0.0
 40
0.2307929194
 40
1.0
 40
1.0
 40
1.0
 40
1.0
 10
27.617186747
 20
119.9509735001
 30
0.0
 10
27.5729284644
 20
120.0579393517
 30
0.0
 10
27.4105060414
 20
120.5335928474
 30
0.0
 10
27.3595360319
 20
121.0423082745
 30
0.0
 10
27.3630842481
 20
121.4281087416
 30
0.0
  0
SPLINE
  5
2B4
100
AcDbEntity
  8
0
100
AcDbSpline
 62
7
  6
BYLAYER
 70
0
 71
3
 72
9
 73
5
 74
0
 42
0.0000001
 43
0.0000001
 44
0.0000000001
 40
0.0
 40
0.0
 40
0.0
 40
0.0
 40
0.277845252
 40
1.0
 40
1.0
 40
1.0
 40
1.0
 10
82.0055231355
 20
89.9958083539
 30
0.0
 10
81.9990687022
 20
89.9995347385
 30
0.0
 10
81.9767021068
 20
90.0141856501
 30
0.0
 10
81.9572961226
 20
90.0347617852
 30
0.0
 10
81.9491345288
 20
90.0523294977
 30
0.0
  0
SPLINE
  5
2B5
100
AcDbEntity
  8
0
100
AcDbSpline
 62
7
  6
BYLAYER
 70
0
 71
3
 72
8
 73
4
 74
0
 42
0.0000001
 43
0.0000001
 44
0.0000000001
 40
0.0
 40
0.0
 40
0.0
 40
0.0
 40
1.0
 40
1.0
 40
1.0
 40
1.0
 10
81.9491345288
 20
90.0523294977
 30
0.0
 10
81.9444865046
 20
90.0623343023
 30
0.0
 10
81.9417981522
 20
90.0735696789
 30
0.0
 10
81.9417981466
 20
90.0846014623
 30
0.0
  0
SPLINE
  5
2B6
100
AcDbEntity
  8
0
100
AcDbSpline
 62
7
  6
BYLAYER
 70
0
 71
3
 72
9
 73
5
 74
0
 42
0.0000001
 43
0.0000001
 44
0.0000000001
 40
0.0
 40
0.0
 40
0.0
 40
0.0
 40
0.4886459472
 40
1.0
 40
1.0
 40
1.0
 40
1.0
 10
92.595090327
 20
99.7596164266
 30
0.0
 10
89.3257419703
 20
97.892903328
 30
0.0
 10
82.4594471281
 20
94.3750561884
 30
0.0
 10
75.33514715
 20
91.4203722217
 30
0.0
 10
71.6438414927
 20
90.04362523
 30
0.0
  0
SPLINE
  5
2B7
100
AcDbEntity
  8
0
100
AcDbSpline
 62
7
  6
BYLAYER
 70
0
 71
3
 72
9
 73
5
 74
0
 42
0.0000001
 43
0.0000001
 44
0.0000000001
 40
0.0
 40
0.0
 40
0.0
 40
0.0
 40
0.4857165772
 40
1.0
 40
1.0
 40
1.0
 40
1.0
 10
110.294824278
 20
112.3107660878
 30
0.0
 10
107.7379068716
 20
110.036347651
 30
0.0
 10
102.1967750255
 20
105.6595680566
 30
0.0
 10
96.2461658778
 20
101.8659136301
 30
0.0
 10
93.1082285173
 20
100.0542354646
 30
0.0
  0
SPLINE
  5
2B8
100
AcDbEntity
  8
0
100
AcDbSpline
 62
7
  6
BYLAYER
 70
0
 71
3
 72
9
 73
5
 74
0
 42
0.0000001
 43
0.0000001
 44
0.0000000001
 40
0.0
 40
0.0
 40
0.0
 40
0.0
 40
0.2662369009
 40
1.0
 40
1.0
 40
1.0
 40
1.0
 10
110.7280113431
 20
112.1408602219
 30
0.0
 10
110.702627472
 20
112.1666284543
 30
0.0
 10
110.6115182814
 20
112.2673231091
 30
0.0
 10
110.5387778034
 20
112.3859107269
 30
0.0
 10
110.5036184673
 20
112.4791940046
 30
0.0
  0
SPLINE
  5
2B9
100
AcDbEntity
  8
0
100
AcDbSpline
 62
7
  6
BYLAYER
 70
0
 71
3
 72
9
 73
5
 74
0
 42
0.0000001
 43
0.0000001
 44
0.0000000001
 40
0.0
 40
0.0
 40
0.0
 40
0.0
 40
0.277845252
 40
1.0
 40
1.0
 40
1.0
 40
1.0
 10
83.5965067693
 20
90.9143577001
 30
0.0
 10
83.5900523359
 20
90.9180840847
 30
0.0
 10
83.5676857405
 20
90.9327349963
 30
0.0
 10
83.5482797563
 20
90.9533111314
 30
0.0
 10
83.5401181625
 20
90.9708788439
 30
0.0
  0
SPLINE
  5
2BA
100
AcDbEntity
  8
0
100
AcDbSpline
 62
7
  6
BYLAYER
 70
0
 71
3
 72
8
 73
4
 74
0
 42
0.0000001
 43
0.0000001
 44
0.0000000001
 40
0.0
 40
0.0
 40
0.0
 40
0.0
 40
1.0
 40
1.0
 40
1.0
 40
1.0
 10
83.5401181625
 20
90.9708788439
 30
0.0
 10
83.5354701383
 20
90.9808836485
 30
0.0
 10
83.5327817859
 20
90.9921190251
 30
0.0
 10
83.5327817803
 20
91.0031508085
 30
0.0
  0
SPLINE
  5
2BB
100
AcDbEntity
  8
0
100
AcDbSpline
 62
7
  6
BYLAYER
 70
0
 71
3
 72
10
 73
6
 74
0
 42
0.0000001
 43
0.0000001
 44
0.0000000001
 40
0.0
 40
0.0
 40
0.0
 40
0.0
 40
0.2379664477
 40
0.5020626139
 40
1.0
 40
1.0
 40
1.0
 40
1.0
 10
84.8898623175
 20
88.3305720235
 30
0.0
 10
84.909922106
 20
88.3189907612
 30
0.0
 10
84.9479111786
 20
88.2868573472
 30
0.0
 10
85.0056394099
 20
88.208385247
 30
0.0
 10
85.0309760843
 20
88.1340703322
 30
0.0
 10
85.0312883172
 20
88.0856036538
 30
0.0
  0
SPLINE
  5
2BC
100
AcDbEntity
  8
0
100
AcDbSpline
 62
7
  6
BYLAYER
 70
0
 71
3
 72
9
 73
5
 74
0
 42
0.0000001
 43
0.0000001
 44
0.0000000001
 40
0.0
 40
0.0
 40
0.0
 40
0.0
 40
0.2441650399
 40
1.0
 40
1.0
 40
1.0
 40
1.0
 10
28.0286628751
 20
120.3816714369
 30
0.0
 10
28.0231747028
 20
120.4209699422
 30
0.0
 10
28.0030853292
 20
120.5822491479
 30
0.0
 10
27.992315128
 20
120.7446550576
 30
0.0
 10
27.9888517196
 20
120.8674388645
 30
0.0
  0
SPLINE
  5
2BD
100
AcDbEntity
  8
0
100
AcDbSpline
 62
7
  6
BYLAYER
 70
0
 71
3
 72
15
 73
11
 74
0
 42
0.0000001
 43
0.0000001
 44
0.0000000001
 40
0.0
 40
0.0
 40
0.0
 40
0.0
 40
0.1129074102
 40
0.235340155
 40
0.3647536846
 40
0.4979564813
 40
0.6314489269
 40
0.7616906133
 40
0.8854466206
 40
1.0
 40
1.0
 40
1.0
 40
1.0
 10
27.9888517196
 20
120.8674388645
 30
0.0
 10
27.9803097894
 20
121.1702650354
 30
0.0
 10
28.0213052613
 20
121.8037320322
 30
0.0
 10
28.2270881216
 20
122.7633344943
 30
0.0
 10
28.5718086564
 20
123.7400802355
 30
0.0
 10
29.0420283895
 20
124.695838237
 30
0.0
 10
29.6194979392
 20
125.5935103972
 30
0.0
 10
30.2817836751
 20
126.3983374033
 30
0.0
 10
31.0030501023
 20
127.0787196132
 30
0.0
 10
31.528559696
 20
127.4485555733
 30
0.0
 10
31.7947442498
 20
127.6022363797
 30
0.0
  0
SPLINE
  5
2BE
100
AcDbEntity
  8
0
100
AcDbSpline
 62
7
  6
BYLAYER
 70
0
 71
3
 72
17
 73
13
 74
0
 42
0.0000001
 43
0.0000001
 44
0.0000000001
 40
0.0
 40
0.0
 40
0.0
 40
0.0
 40
0.1286926208
 40
0.2702795078
 40
0.4174383051
 40
0.5617803148
 40
0.6954501289
 40
0.8127134773
 40
0.8646759206
 40
0.9125113962
 40
0.9571388332
 40
1.0
 40
1.0
 40
1.0
 40
1.0
 10
73.0901435563
 20
76.9107475311
 30
0.0
 10
72.8865726653
 20
76.7932165239
 30
0.0
 10
72.4256684605
 20
76.6030397135
 30
0.0
 10
71.6744749993
 20
76.4527766688
 30
0.0
 10
70.8799661878
 20
76.4307722965
 30
0.0
 10
70.106967971
 20
76.5394036926
 30
0.0
 10
69.4181626471
 20
76.7694784131
 30
0.0
 10
68.939083006
 20
77.061074045
 30
0.0
 10
68.6579548257
 20
77.343245576
 30
0.0
 10
68.508568236
 20
77.5629072152
 30
0.0
 10
68.416590275
 20
77.7946469834
 30
0.0
 10
68.3955937593
 20
77.9551216576
 30
0.0
 10
68.3956044562
 20
78.0334095746
 30
0.0
  0
SPLINE
  5
2BF
100
AcDbEntity
  8
0
100
AcDbSpline
 62
7
  6
BYLAYER
 70
0
 71
3
 72
15
 73
11
 74
0
 42
0.0000001
 43
0.0000001
 44
0.0000000001
 40
0.0
 40
0.0
 40
0.0
 40
0.0
 40
0.1141464977
 40
0.2373352781
 40
0.3669759338
 40
0.4999994786
 40
0.633023096
 40
0.7626639634
 40
0.8858530776
 40
1.0
 40
1.0
 40
1.0
 40
1.0
 10
73.9740513205
 20
60.4787107345
 30
0.0
 10
73.7804374206
 20
60.3669283645
 30
0.0
 10
73.3570100973
 20
60.1697822079
 30
0.0
 10
72.6675355963
 20
59.9601788224
 30
0.0
 10
71.9210344752
 20
59.8312376062
 30
0.0
 10
71.1456289657
 20
59.7876799325
 30
0.0
 10
70.3702228363
 20
59.831233926
 30
0.0
 10
69.623719884
 20
59.9601715977
 30
0.0
 10
68.9342424146
 20
60.1697717056
 30
0.0
 10
68.5108124973
 20
60.3669157474
 30
0.0
 10
68.317197071
 20
60.4786971371
 30
0.0
  0
SPLINE
  5
2C0
100
AcDbEntity
  8
0
100
AcDbSpline
 62
7
  6
BYLAYER
 70
0
 71
3
 72
9
 73
5
 74
0
 42
0.0000001
 43
0.0000001
 44
0.0000000001
 40
0.0
 40
0.0
 40
0.0
 40
0.0
 40
0.2435879789
 40
1.0
 40
1.0
 40
1.0
 40
1.0
 10
38.6240795771
 20
126.3768516365
 30
0.0
 10
38.5534820137
 20
126.3525769783
 30
0.0
 10
38.2657884351
 20
126.2467714653
 30
0.0
 10
37.986919335
 20
126.1174544612
 30
0.0
 10
37.7819337204
 20
126.0091811079
 30
0.0
  0
SPLINE
  5
2C1
100
AcDbEntity
  8
0
100
AcDbSpline
 62
7
  6
BYLAYER
 70
0
 71
3
 72
9
 73
5
 74
0
 42
0.0000001
 43
0.0000001
 44
0.0000000001
 40
0.0
 40
0.0
 40
0.0
 40
0.0
 40
0.2452632461
 40
1.0
 40
1.0
 40
1.0
 40
1.0
 10
37.7819337204
 20
126.0091811079
 30
0.0
 10
37.7271327772
 20
125.9802352625
 30
0.0
 10
37.5053416645
 20
125.8591141427
 30
0.0
 10
37.2901607967
 20
125.7259781852
 30
0.0
 10
37.1317120451
 20
125.6198353094
 30
0.0
  0
SPLINE
  5
2C2
100
AcDbEntity
  8
0
100
AcDbSpline
 62
7
  6
BYLAYER
 70
0
 71
3
 72
9
 73
5
 74
0
 42
0.0000001
 43
0.0000001
 44
0.0000000001
 40
0.0
 40
0.0
 40
0.0
 40
0.0
 40
0.2449163405
 40
1.0
 40
1.0
 40
1.0
 40
1.0
 10
37.1317120451
 20
125.6198353094
 30
0.0
 10
37.0653619943
 20
125.575388224
 30
0.0
 10
36.7972139964
 20
125.3898068293
 30
0.0
 10
36.5400479917
 20
125.1884758202
 30
0.0
 10
36.3522562289
 20
125.0292392599
 30
0.0
  0
SPLINE
  5
2C3
100
AcDbEntity
  8
0
100
AcDbSpline
 62
7
  6
BYLAYER
 70
0
 71
3
 72
11
 73
7
 74
0
 42
0.0000001
 43
0.0000001
 44
0.0000000001
 40
0.0
 40
0.0
 40
0.0
 40
0.0
 40
0.244194555
 40
0.4998500188
 40
0.7555831722
 40
1.0
 40
1.0
 40
1.0
 40
1.0
 10
73.1515600009
 20
135.9604689166
 30
0.0
 10
72.8380913005
 20
136.06540153
 30
0.0
 10
72.1756445641
 20
136.2207265234
 30
0.0
 10
71.1520732825
 20
136.297652414
 30
0.0
 10
70.1280522809
 20
136.2227385695
 30
0.0
 10
69.4648865326
 20
136.0687615547
 30
0.0
 10
69.150879997
 20
135.9644907856
 30
0.0
  0
SPLINE
  5
2C4
100
AcDbEntity
  8
0
100
AcDbSpline
 62
7
  6
BYLAYER
 70
0
 71
3
 72
11
 73
7
 74
0
 42
0.0000001
 43
0.0000001
 44
0.0000000001
 40
0.0
 40
0.0
 40
0.0
 40
0.0
 40
0.2177827477
 40
0.4509152641
 40
0.7103063952
 40
1.0
 40
1.0
 40
1.0
 40
1.0
 10
73.895579168
 20
78.0334096374
 30
0.0
 10
73.8955648566
 20
77.9286672011
 30
0.0
 10
73.8568802099
 20
77.7103483056
 30
0.0
 10
73.6913640966
 20
77.4061585378
 30
0.0
 10
73.4297222297
 20
77.1311937117
 30
0.0
 10
73.2108052424
 20
76.9804111722
 30
0.0
 10
73.0901435563
 20
76.9107475311
 30
0.0
  0
SPLINE
  5
2C5
100
AcDbEntity
  8
0
100
AcDbSpline
 62
7
  6
BYLAYER
 70
0
 71
3
 72
11
 73
7
 74
0
 42
0.0000001
 43
0.0000001
 44
0.0000000001
 40
0.0
 40
0.0
 40
0.0
 40
0.0
 40
0.2279161926
 40
0.4772964999
 40
0.7384486587
 40
1.0
 40
1.0
 40
1.0
 40
1.0
 10
119.0518929752
 20
103.4466175327
 30
0.0
 10
118.8742367765
 20
103.3440482909
 30
0.0
 10
118.4766924294
 20
103.1724629518
 30
0.0
 10
117.8272673747
 20
103.0190779384
 30
0.0
 10
117.1319841391
 20
102.9643369687
 30
0.0
 10
116.6605372221
 20
102.9965623293
 30
0.0
 10
116.4276354472
 20
103.0308573646
 30
0.0
  0
SPLINE
  5
2C6
100
AcDbEntity
  8
0
100
AcDbSpline
 62
7
  6
BYLAYER
 70
0
 71
3
 72
11
 73
7
 74
0
 42
0.0000001
 43
0.0000001
 44
0.0000000001
 40
0.0
 40
0.0
 40
0.0
 40
0.0
 40
0.2197829869
 40
0.4808665378
 40
0.7526910115
 40
1.0
 40
1.0
 40
1.0
 40
1.0
 10
116.3121731266
 20
106.4721433371
 30
0.0
 10
116.3271709231
 20
106.4569184447
 30
0.0
 10
116.3545996985
 20
106.4184201915
 30
0.0
 10
116.3863091073
 20
106.3521960456
 30
0.0
 10
116.4080989334
 20
106.2792244044
 30
0.0
 10
116.4146062786
 20
106.2287746867
 30
0.0
 10
116.4147184933
 20
106.2047271019
 30
0.0
  0
SPLINE
  5
2C7
100
AcDbEntity
  8
0
100
AcDbSpline
 62
7
  6
BYLAYER
 70
0
 71
3
 72
9
 73
5
 74
0
 42
0.0000001
 43
0.0000001
 44
0.0000000001
 40
0.0
 40
0.0
 40
0.0
 40
0.0
 40
0.2551743133
 40
1.0
 40
1.0
 40
1.0
 40
1.0
 10
86.5725122088
 20
89.1249163601
 30
0.0
 10
86.5753383512
 20
89.1196129935
 30
0.0
 10
86.5858629547
 20
89.0985444396
 30
0.0
 10
86.5942166671
 20
89.0763634994
 30
0.0
 10
86.5988705299
 20
89.0594513899
 30
0.0
  0
SPLINE
  5
2C8
100
AcDbEntity
  8
0
100
AcDbSpline
 62
7
  6
BYLAYER
 70
0
 71
3
 72
9
 73
5
 74
0
 42
0.0000001
 43
0.0000001
 44
0.0000000001
 40
0.0
 40
0.0
 40
0.0
 40
0.0
 40
0.2632253627
 40
1.0
 40
1.0
 40
1.0
 40
1.0
 10
86.5988705299
 20
89.0594513899
 30
0.0
 10
86.6003660692
 20
89.0540166087
 30
0.0
 10
86.6054210871
 20
89.0332089848
 30
0.0
 10
86.6080282882
 20
89.0117569013
 30
0.0
 10
86.6081299285
 20
88.9959796864
 30
0.0
  0
SPLINE
  5
2C9
100
AcDbEntity
  8
0
100
AcDbSpline
 62
7
  6
BYLAYER
 70
0
 71
3
 72
9
 73
5
 74
0
 42
0.0000001
 43
0.0000001
 44
0.0000000001
 40
0.0
 40
0.0
 40
0.0
 40
0.0
 40
0.2333660273
 40
1.0
 40
1.0
 40
1.0
 40
1.0
 10
86.4808459513
 20
89.2491213697
 30
0.0
 10
86.4866858729
 20
89.2457497656
 30
0.0
 10
86.5109313394
 20
89.2299592084
 30
0.0
 10
86.5320398686
 20
89.2096287454
 30
0.0
 10
86.5463557797
 20
89.1927233739
 30
0.0
  0
SPLINE
  5
2CA
100
AcDbEntity
  8
0
100
AcDbSpline
 62
7
  6
BYLAYER
 70
0
 71
3
 72
11
 73
7
 74
0
 42
0.0000001
 43
0.0000001
 44
0.0000000001
 40
0.0
 40
0.0
 40
0.0
 40
0.0
 40
0.2177827477
 40
0.4509152641
 40
0.7103063952
 40
1.0
 40
1.0
 40
1.0
 40
1.0
 10
119.8573285869
 20
104.569279639
 30
0.0
 10
119.8573142755
 20
104.4645372028
 30
0.0
 10
119.8186296288
 20
104.2462183073
 30
0.0
 10
119.6531135155
 20
103.9420285394
 30
0.0
 10
119.3914716486
 20
103.6670637134
 30
0.0
 10
119.1725546613
 20
103.5162811739
 30
0.0
 10
119.0518929752
 20
103.4466175327
 30
0.0
  0
SPLINE
  5
2CB
100
AcDbEntity
  8
0
100
AcDbSpline
 62
7
  6
BYLAYER
 70
0
 71
3
 72
11
 73
7
 74
0
 42
0.0000001
 43
0.0000001
 44
0.0000000001
 40
0.0
 40
0.0
 40
0.0
 40
0.0
 40
0.2323768267
 40
0.4724569712
 40
0.7269309001
 40
1.0
 40
1.0
 40
1.0
 40
1.0
 10
126.0570405802
 20
104.5692915153
 30
0.0
 10
126.0570443004
 20
104.6707681563
 30
0.0
 10
126.0331286951
 20
104.8778030532
 30
0.0
 10
125.9270565711
 20
105.1794494841
 30
0.0
 10
125.7537643027
 20
105.4686714707
 30
0.0
 10
125.6019874426
 20
105.6435312607
 30
0.0
 10
125.5174871923
 20
105.7276707136
 30
0.0
  0
SPLINE
  5
2CC
100
AcDbEntity
  8
0
100
AcDbSpline
 62
7
  6
BYLAYER
 70
0
 71
3
 72
11
 73
7
 74
0
 42
0.0000001
 43
0.0000001
 44
0.0000000001
 40
0.0
 40
0.0
 40
0.0
 40
0.0
 40
0.2177727701
 40
0.4509280213
 40
0.7102223029
 40
1.0
 40
1.0
 40
1.0
 40
1.0
 10
126.0570592961
 20
91.5052528313
 30
0.0
 10
126.0570592981
 20
91.3529062978
 30
0.0
 10
126.0007970031
 20
91.0353311531
 30
0.0
 10
125.7600428596
 20
90.5929471793
 30
0.0
 10
125.3795554431
 20
90.1929080395
 30
0.0
 10
125.0610874647
 20
89.9736487434
 30
0.0
 10
124.8855275999
 20
89.8722898132
 30
0.0
  0
SPLINE
  5
2CD
100
AcDbEntity
  8
0
100
AcDbSpline
 62
7
  6
BYLAYER
 70
0
 71
3
 72
11
 73
7
 74
0
 42
0.0000001
 43
0.0000001
 44
0.0000000001
 40
0.0
 40
0.0
 40
0.0
 40
0.0
 40
0.2897781767
 40
0.5490726313
 40
0.7822276909
 40
1.0
 40
1.0
 40
1.0
 40
1.0
 10
17.4052968604
 20
89.8720314625
 30
0.0
 10
17.2297337125
 20
89.9733906002
 30
0.0
 10
16.9112596902
 20
90.1926507334
 30
0.0
 10
16.530764546
 20
90.5926928384
 30
0.0
 10
16.2900051942
 20
91.0350810956
 30
0.0
 10
16.2337416144
 20
91.3526599045
 30
0.0
 10
16.2337416124
 20
91.505008078
 30
0.0
  0
SPLINE
  5
2CE
100
AcDbEntity
  8
0
100
AcDbSpline
 62
7
  6
BYLAYER
 70
0
 71
3
 72
11
 73
7
 74
0
 42
0.0000001
 43
0.0000001
 44
0.0000000001
 40
0.0
 40
0.0
 40
0.0
 40
0.0
 40
0.2796746297
 40
0.538824467
 40
0.7779036849
 40
1.0
 40
1.0
 40
1.0
 40
1.0
 10
31.1583454972
 20
127.9553603964
 30
0.0
 10
31.3279193713
 20
128.0532633338
 30
0.0
 10
31.6660479054
 20
128.2232140611
 30
0.0
 10
32.1836312407
 20
128.3990863115
 30
0.0
 10
32.6835552326
 20
128.4821332427
 30
0.0
 10
33.0090369253
 20
128.4732104129
 30
0.0
 10
33.1630106537
 20
128.4515140541
 30
0.0
  0
SPLINE
  5
2CF
100
AcDbEntity
  8
0
100
AcDbSpline
 62
7
  6
BYLAYER
 70
0
 71
3
 72
9
 73
5
 74
0
 42
0.0000001
 43
0.0000001
 44
0.0000000001
 40
0.0
 40
0.0
 40
0.0
 40
0.0
 40
0.5062011321
 40
1.0
 40
1.0
 40
1.0
 40
1.0
 10
33.1630106537
 20
128.4515140541
 30
0.0
 10
33.2719457101
 20
128.4361640714
 30
0.0
 10
33.4851892092
 20
128.3886189288
 30
0.0
 10
33.6869839483
 20
128.3044673405
 30
0.0
 10
33.7819108026
 20
128.254411485
 30
0.0
  0
SPLINE
  5
2D0
100
AcDbEntity
  8
0
100
AcDbSpline
 62
7
  6
BYLAYER
 70
0
 71
3
 72
9
 73
5
 74
0
 42
0.0000001
 43
0.0000001
 44
0.0000000001
 40
0.0
 40
0.0
 40
0.0
 40
0.0
 40
0.2562377343
 40
1.0
 40
1.0
 40
1.0
 40
1.0
 10
31.9008233589
 20
127.6617629855
 30
0.0
 10
31.9406624902
 20
127.6834745421
 30
0.0
 10
32.0973159854
 20
127.7660169669
 30
0.0
 10
32.2587341456
 20
127.8396212457
 30
0.0
 10
32.3811137846
 20
127.8882728511
 30
0.0
  0
SPLINE
  5
2D1
100
AcDbEntity
  8
0
100
AcDbSpline
 62
7
  6
BYLAYER
 70
0
 71
3
 72
9
 73
5
 74
0
 42
0.0000001
 43
0.0000001
 44
0.0000000001
 40
0.0
 40
0.0
 40
0.0
 40
0.0
 40
0.2693648548
 40
1.0
 40
1.0
 40
1.0
 40
1.0
 10
32.3710386758
 20
127.7716691513
 30
0.0
 10
32.4950167966
 20
127.8432475254
 30
0.0
 10
32.9646970102
 20
128.0911068876
 30
0.0
 10
33.4783829073
 20
128.2648826354
 30
0.0
 10
33.8627412882
 20
128.3201066873
 30
0.0
  0
SPLINE
  5
2D2
100
AcDbEntity
  8
0
100
AcDbSpline
 62
7
  6
BYLAYER
 70
0
 71
3
 72
10
 73
6
 74
0
 42
0.0000001
 43
0.0000001
 44
0.0000000001
 40
0.0
 40
0.0
 40
0.0
 40
0.0
 40
0.5186640876
 40
0.7619712159
 40
1.0
 40
1.0
 40
1.0
 40
1.0
 10
33.8627412882
 20
128.3201066873
 30
0.0
 10
34.1286945697
 20
128.3583184671
 30
0.0
 10
34.5318927441
 20
128.3632201194
 30
0.0
 10
35.0360959027
 20
128.2352801305
 30
0.0
 10
35.2642550188
 20
128.1304669169
 30
0.0
 10
35.3710416674
 20
128.0688139744
 30
0.0
  0
SPLINE
  5
2D3
100
AcDbEntity
  8
0
100
AcDbSpline
 62
7
  6
BYLAYER
 70
0
 71
3
 72
9
 73
5
 74
0
 42
0.0000001
 43
0.0000001
 44
0.0000000001
 40
0.0
 40
0.0
 40
0.0
 40
0.0
 40
0.4855596387
 40
1.0
 40
1.0
 40
1.0
 40
1.0
 10
31.8436177021
 20
113.021775314
 30
0.0
 10
34.4189778394
 20
115.3234190596
 30
0.0
 10
40.0068684791
 20
119.7514725804
 30
0.0
 10
46.0134081036
 20
123.5844442028
 30
0.0
 10
49.1825723912
 20
125.4141511354
 30
0.0
  0
SPLINE
  5
2D4
100
AcDbEntity
  8
0
100
AcDbSpline
 62
7
  6
BYLAYER
 70
0
 71
3
 72
15
 73
11
 74
0
 42
0.0000001
 43
0.0000001
 44
0.0000000001
 40
0.0
 40
0.0
 40
0.0
 40
0.0
 40
0.1144318628
 40
0.237657566
 40
0.3671860342
 40
0.4999923434
 40
0.6328024857
 40
0.76232405
 40
0.8855627451
 40
1.0
 40
1.0
 40
1.0
 40
1.0
 10
27.3630842481
 20
121.4281087416
 30
0.0
 10
27.3658174436
 20
121.7252913287
 30
0.0
 10
27.4244938536
 20
122.342573629
 30
0.0
 10
27.6450963016
 20
123.2728155655
 30
0.0
 10
27.9938132336
 20
124.2139929221
 30
0.0
 10
28.4579369936
 20
125.1316604213
 30
0.0
 10
29.0205741389
 20
125.9924286283
 30
0.0
 10
29.6612582174
 20
126.7650836108
 30
0.0
 10
30.3566013672
 20
127.4212653041
 30
0.0
 10
30.8618704009
 20
127.780765037
 30
0.0
 10
31.1178754913
 20
127.9317441019
 30
0.0
  0
SPLINE
  5
2D5
100
AcDbEntity
  8
0
100
AcDbSpline
 62
7
  6
BYLAYER
 70
0
 71
3
 72
11
 73
7
 74
0
 42
0.0000001
 43
0.0000001
 44
0.0000000001
 40
0.0
 40
0.0
 40
0.0
 40
0.0
 40
0.2370450205
 40
0.4999976367
 40
0.7629523328
 40
1.0
 40
1.0
 40
1.0
 40
1.0
 10
82.9246914158
 20
90.7040734472
 30
0.0
 10
82.9465064928
 20
90.7166683126
 30
0.0
 10
82.9973048417
 20
90.7349634644
 30
0.0
 10
83.0784864902
 20
90.7439679066
 30
0.0
 10
83.1596684151
 20
90.7349637832
 30
0.0
 10
83.2104674543
 20
90.7166690352
 30
0.0
 10
83.2322828656
 20
90.7040741866
 30
0.0
  0
SPLINE
  5
2D6
100
AcDbEntity
  8
0
100
AcDbSpline
 62
7
  6
BYLAYER
 70
0
 71
3
 72
15
 73
11
 74
0
 42
0.0000001
 43
0.0000001
 44
0.0000000001
 40
0.0
 40
0.0
 40
0.0
 40
0.0
 40
0.1144318628
 40
0.237657566
 40
0.3671860342
 40
0.4999923434
 40
0.6328024857
 40
0.76232405
 40
0.8855627451
 40
1.0
 40
1.0
 40
1.0
 40
1.0
 10
27.3635810059
 20
121.4823193444
 30
0.0
 10
27.3662798466
 20
121.7757665147
 30
0.0
 10
27.4242187274
 20
122.3852899262
 30
0.0
 10
27.6420483276
 20
123.3038392486
 30
0.0
 10
27.9863820853
 20
124.2331865391
 30
0.0
 10
28.4446720726
 20
125.1393194777
 30
0.0
 10
29.0002371877
 20
125.989268316
 30
0.0
 10
29.6328682304
 20
126.7522114631
 30
0.0
 10
30.3194713108
 20
127.4001453243
 30
0.0
 10
30.8183893989
 20
127.7551263493
 30
0.0
 10
31.0711766504
 20
127.9042076928
 30
0.0
  0
SPLINE
  5
2D7
100
AcDbEntity
  8
0
100
AcDbSpline
 62
7
  6
BYLAYER
 70
0
 71
3
 72
9
 73
5
 74
0
 42
0.0000001
 43
0.0000001
 44
0.0000000001
 40
0.0
 40
0.0
 40
0.0
 40
0.0
 40
0.2567414364
 40
1.0
 40
1.0
 40
1.0
 40
1.0
 10
71.5875800652
 20
90.0111428736
 30
0.0
 10
71.6393845642
 20
90.0046453989
 30
0.0
 10
71.8405319508
 20
89.9747165813
 30
0.0
 10
72.0391169512
 20
89.9263603393
 30
0.0
 10
72.1825708889
 20
89.8787524227
 30
0.0
  0
SPLINE
  5
2D8
100
AcDbEntity
  8
0
100
AcDbSpline
 62
7
  6
BYLAYER
 70
0
 71
3
 72
11
 73
7
 74
0
 42
0.0000001
 43
0.0000001
 44
0.0000000001
 40
0.0
 40
0.0
 40
0.0
 40
0.0
 40
0.2370450205
 40
0.4999976367
 40
0.7629523328
 40
1.0
 40
1.0
 40
1.0
 40
1.0
 10
84.5156750496
 20
91.6226227934
 30
0.0
 10
84.5374901265
 20
91.6352176588
 30
0.0
 10
84.5882884754
 20
91.6535128107
 30
0.0
 10
84.669470124
 20
91.6625172528
 30
0.0
 10
84.7506520488
 20
91.6535131294
 30
0.0
 10
84.801451088
 20
91.6352183815
 30
0.0
 10
84.8232664994
 20
91.6226235328
 30
0.0
  0
SPLINE
  5
2D9
100
AcDbEntity
  8
0
100
AcDbSpline
 62
7
  6
BYLAYER
 70
0
 71
3
 72
9
 73
5
 74
0
 42
0.0000001
 43
0.0000001
 44
0.0000000001
 40
0.0
 40
0.0
 40
0.0
 40
0.0
 40
0.4798521178
 40
1.0
 40
1.0
 40
1.0
 40
1.0
 10
27.3667520543
 20
119.7831515619
 30
0.0
 10
27.2606592671
 20
119.9130384533
 30
0.0
 10
27.073144891
 20
120.2121183631
 30
0.0
 10
26.9528131399
 20
120.5427152998
 30
0.0
 10
26.9050941881
 20
120.7181329707
 30
0.0
  0
SPLINE
  5
2DA
100
AcDbEntity
  8
0
100
AcDbSpline
 62
7
  6
BYLAYER
 70
0
 71
3
 72
9
 73
5
 74
0
 42
0.0000001
 43
0.0000001
 44
0.0000000001
 40
0.0
 40
0.0
 40
0.0
 40
0.0
 40
0.2418715714
 40
1.0
 40
1.0
 40
1.0
 40
1.0
 10
26.9050941881
 20
120.7181329707
 30
0.0
 10
26.8923799325
 20
120.7648713216
 30
0.0
 10
26.844176332
 20
120.9592851045
 30
0.0
 10
26.8129703647
 20
121.1577714279
 30
0.0
 10
26.7974715005
 20
121.3087998594
 30
0.0
  0
SPLINE
  5
2DB
100
AcDbEntity
  8
0
100
AcDbSpline
 62
7
  6
BYLAYER
 70
0
 71
3
 72
9
 73
5
 74
0
 42
0.0000001
 43
0.0000001
 44
0.0000000001
 40
0.0
 40
0.0
 40
0.0
 40
0.0
 40
0.2447523109
 40
1.0
 40
1.0
 40
1.0
 40
1.0
 10
26.7974715005
 20
121.3087998594
 30
0.0
 10
26.7935717882
 20
121.3468005436
 30
0.0
 10
26.7797525092
 20
121.5022750046
 30
0.0
 10
26.7741960956
 20
121.6584595055
 30
0.0
 10
26.7741960956
 20
121.77633646
 30
0.0
  0
SPLINE
  5
2DC
100
AcDbEntity
  8
0
100
AcDbSpline
 62
7
  6
BYLAYER
 70
0
 71
3
 72
9
 73
5
 74
0
 42
0.0000001
 43
0.0000001
 44
0.0000000001
 40
0.0
 40
0.0
 40
0.0
 40
0.0
 40
0.2278769457
 40
1.0
 40
1.0
 40
1.0
 40
1.0
 10
96.6234421027
 20
79.9690816499
 30
0.0
 10
96.6670117295
 20
79.9704677888
 30
0.0
 10
96.8577711385
 20
79.9919400902
 30
0.0
 10
97.0391364551
 20
80.0682828323
 30
0.0
 10
97.1670512931
 20
80.1421340577
 30
0.0
  0
SPLINE
  5
2DD
100
AcDbEntity
  8
0
100
AcDbSpline
 62
7
  6
BYLAYER
 70
0
 71
3
 72
10
 73
6
 74
0
 42
0.0000001
 43
0.0000001
 44
0.0000000001
 40
0.0
 40
0.0
 40
0.0
 40
0.0
 40
0.4979336966
 40
0.7620316742
 40
1.0
 40
1.0
 40
1.0
 40
1.0
 10
86.2580480473
 20
88.7938694792
 30
0.0
 10
86.2577358167
 20
88.8423357978
 30
0.0
 10
86.2323994747
 20
88.9166506087
 30
0.0
 10
86.1746711572
 20
88.995122623
 30
0.0
 10
86.1366819942
 20
89.0272565026
 30
0.0
 10
86.1166220476
 20
89.0388378561
 30
0.0
  0
SPLINE
  5
2DE
100
AcDbEntity
  8
0
100
AcDbSpline
 62
7
  6
BYLAYER
 70
0
 71
3
 72
9
 73
5
 74
0
 42
0.0000001
 43
0.0000001
 44
0.0000000001
 40
0.0
 40
0.0
 40
0.0
 40
0.0
 40
0.4499598415
 40
1.0
 40
1.0
 40
1.0
 40
1.0
 10
81.9417981466
 20
90.0846014623
 30
0.0
 10
81.941798138
 20
90.1015651231
 30
0.0
 10
81.9567923764
 20
90.1392828048
 30
0.0
 10
81.9875632953
 20
90.1630255042
 30
0.0
 10
82.0055218549
 20
90.1733938215
 30
0.0
  0
SPLINE
  5
2DF
100
AcDbEntity
  8
0
100
AcDbSpline
 62
7
  6
BYLAYER
 70
0
 71
3
 72
11
 73
7
 74
0
 42
0.0000001
 43
0.0000001
 44
0.0000000001
 40
0.0
 40
0.0
 40
0.0
 40
0.0
 40
0.2280719746
 40
0.4779295113
 40
0.7392610586
 40
1.0
 40
1.0
 40
1.0
 40
1.0
 10
23.2389079334
 20
105.6917207247
 30
0.0
 10
23.4217594897
 20
105.7972894898
 30
0.0
 10
23.8319253878
 20
105.9727445876
 30
0.0
 10
24.5018253415
 20
106.1259914429
 30
0.0
 10
25.2174693296
 20
106.1748931272
 30
0.0
 10
25.7014095836
 20
106.1348843864
 30
0.0
 10
25.9395630762
 20
106.0955494377
 30
0.0
  0
SPLINE
  5
2E0
100
AcDbEntity
  8
0
100
AcDbSpline
 62
7
  6
BYLAYER
 70
0
 71
3
 72
11
 73
7
 74
0
 42
0.0000001
 43
0.0000001
 44
0.0000000001
 40
0.0
 40
0.0
 40
0.0
 40
0.0
 40
0.2177827477
 40
0.4509152641
 40
0.7103063952
 40
1.0
 40
1.0
 40
1.0
 40
1.0
 10
68.3956044562
 20
78.0334095746
 30
0.0
 10
68.3956187677
 20
78.1381520109
 30
0.0
 10
68.4343034143
 20
78.3564709064
 30
0.0
 10
68.5998195276
 20
78.6606606742
 30
0.0
 10
68.8614613945
 20
78.9356255003
 30
0.0
 10
69.0803783818
 20
79.0864080398
 30
0.0
 10
69.2010400679
 20
79.1560716809
 30
0.0
  0
SPLINE
  5
2E1
100
AcDbEntity
  8
0
100
AcDbSpline
 62
7
  6
BYLAYER
 70
0
 71
3
 72
37
 73
33
 74
0
 42
0.0000001
 43
0.0000001
 44
0.0000000001
 40
0.0
 40
0.0
 40
0.0
 40
0.0
 40
0.1268497644
 40
0.2535447051
 40
0.380044439
 40
0.4432029261
 40
0.5062866599
 40
0.5692810582
 40
0.6321660597
 40
0.6949126873
 40
0.7262211116
 40
0.7574763472
 40
0.7886679323
 40
0.8197814267
 40
0.8507959531
 40
0.8816792561
 40
0.8970561078
 40
0.9123767311
 40
0.9276259535
 40
0.9427802766
 40
0.9577996756
 40
0.9726047868
 40
0.9798744743
 40
0.9834565762
 40
0.9869882233
 40
0.9904483841
 40
0.9937967297
 40
0.9954050515
 40
0.9969445297
 40
0.9983924618
 40
0.9991242081
 40
1.0
 40
1.0
 40
1.0
 40
1.0
 10
73.2034824441
 20
73.1954065093
 30
0.0
 10
73.2211609731
 20
72.6553647944
 30
0.0
 10
73.2573524377
 20
71.5759681024
 30
0.0
 10
73.3151044522
 20
69.9581547148
 30
0.0
 10
73.3667487312
 20
68.6116000479
 30
0.0
 10
73.4108499991
 20
67.5359200101
 30
0.0
 10
73.4455395147
 20
66.7305912136
 30
0.0
 10
73.4821674239
 20
65.9265140599
 30
0.0
 10
73.521159869
 20
65.1239853734
 30
0.0
 10
73.5561476866
 20
64.4563951282
 30
0.0
 10
73.5861040779
 20
63.9234623624
 30
0.0
 10
73.6097073603
 20
63.5247986377
 30
0.0
 10
73.6346813452
 20
63.1270501123
 30
0.0
 10
73.6613280606
 20
62.7304371163
 30
0.0
 10
73.6900808236
 20
62.3352872337
 30
0.0
 10
73.7163684978
 20
62.0071734665
 30
0.0
 10
73.739357348
 20
61.7458711075
 30
0.0
 10
73.7577692386
 20
61.5510221105
 30
0.0
 10
73.7776834458
 20
61.3572730491
 30
0.0
 10
73.7995606869
 20
61.1650234526
 30
0.0
 10
73.8241855324
 20
60.9750126373
 30
0.0
 10
73.8482214366
 20
60.818810498
 30
0.0
 10
73.8686177741
 20
60.7114223069
 30
0.0
 10
73.8818187249
 20
60.6515883984
 30
0.0
 10
73.8926976441
 20
60.6078731927
 30
0.0
 10
73.9050159469
 20
60.5655695095
 30
0.0
 10
73.9171671973
 20
60.5317980447
 30
0.0
 10
73.9290953397
 20
60.5067440012
 30
0.0
 10
73.9394713358
 20
60.4902124493
 30
0.0
 10
73.9508361257
 20
60.47837263
 30
0.0
 10
73.9638895919
 20
60.474641109
 30
0.0
 10
73.9707250482
 20
60.4770217092
 30
0.0
 10
73.9740513205
 20
60.4787107345
 30
0.0
  0
SPLINE
  5
2E2
100
AcDbEntity
  8
0
100
AcDbSpline
 62
7
  6
BYLAYER
 70
0
 71
3
 72
11
 73
7
 74
0
 42
0.0000001
 43
0.0000001
 44
0.0000000001
 40
0.0
 40
0.0
 40
0.0
 40
0.0
 40
0.2177827477
 40
0.4509152641
 40
0.7103063952
 40
1.0
 40
1.0
 40
1.0
 40
1.0
 10
22.4334723216
 20
104.5690586184
 30
0.0
 10
22.4334866331
 20
104.6738010547
 30
0.0
 10
22.4721712798
 20
104.8921199502
 30
0.0
 10
22.637687393
 20
105.196309718
 30
0.0
 10
22.89932926
 20
105.4712745441
 30
0.0
 10
23.1182462472
 20
105.6220570836
 30
0.0
 10
23.2389079334
 20
105.6917207247
 30
0.0
  0
SPLINE
  5
2E3
100
AcDbEntity
  8
0
100
AcDbSpline
 62
7
  6
BYLAYER
 70
0
 71
3
 72
11
 73
7
 74
0
 42
0.0000001
 43
0.0000001
 44
0.0000000001
 40
0.0
 40
0.0
 40
0.0
 40
0.0
 40
0.2326573906
 40
0.4728810757
 40
0.7272631731
 40
1.0
 40
1.0
 40
1.0
 40
1.0
 10
16.2337566181
 20
104.5690467509
 30
0.0
 10
16.2337562511
 20
104.4685494909
 30
0.0
 10
16.2571959276
 20
104.2635887598
 30
0.0
 10
16.36120672
 20
103.9647822642
 30
0.0
 10
16.5312003262
 20
103.6780217734
 30
0.0
 10
16.6802395586
 20
103.5043721236
 30
0.0
 10
16.7632356165
 20
103.4207612015
 30
0.0
  0
SPLINE
  5
2E4
100
AcDbEntity
  8
0
100
AcDbSpline
 62
7
  6
BYLAYER
 70
0
 71
3
 72
11
 73
7
 74
0
 42
0.0000001
 43
0.0000001
 44
0.0000000001
 40
0.0
 40
0.0
 40
0.0
 40
0.0
 40
0.2740825022
 40
0.5287926124
 40
0.7684422338
 40
1.0
 40
1.0
 40
1.0
 40
1.0
 10
125.4871453334
 20
103.3812131677
 30
0.0
 10
125.5761714046
 20
103.466885334
 30
0.0
 10
125.7361903859
 20
103.6452367297
 30
0.0
 10
125.9193813133
 20
103.941698869
 30
0.0
 10
126.0316901408
 20
104.2517161314
 30
0.0
 10
126.0570367535
 20
104.4649080799
 30
0.0
 10
126.0570405802
 20
104.5692915153
 30
0.0
  0
SPLINE
  5
2E5
100
AcDbEntity
  8
0
100
AcDbSpline
 62
7
  6
BYLAYER
 70
0
 71
3
 72
15
 73
11
 74
0
 42
0.0000001
 43
0.0000001
 44
0.0000000001
 40
0.0
 40
0.0
 40
0.0
 40
0.0
 40
0.1496819568
 40
0.2999696442
 40
0.4457210138
 40
0.5822869491
 40
0.706127897
 40
0.8155906315
 40
0.9118872059
 40
1.0
 40
1.0
 40
1.0
 40
1.0
 10
116.4136954291
 20
106.1056294979
 30
0.0
 10
116.6187658651
 20
106.13647415
 30
0.0
 10
117.0344685748
 20
106.1699473998
 30
0.0
 10
117.6528916417
 20
106.1391922126
 30
0.0
 10
118.2441512193
 20
106.0297762937
 30
0.0
 10
118.7788001884
 20
105.8470157524
 30
0.0
 10
119.2309202693
 20
105.599354303
 30
0.0
 10
119.5787992701
 20
105.2965538676
 30
0.0
 10
119.8035310587
 20
104.9489301147
 30
0.0
 10
119.8573452668
 20
104.6913556665
 30
0.0
 10
119.8573285869
 20
104.569279639
 30
0.0
  0
SPLINE
  5
2E6
100
AcDbEntity
  8
0
100
AcDbSpline
 62
7
  6
BYLAYER
 70
0
 71
3
 72
10
 73
6
 74
0
 42
0.0000001
 43
0.0000001
 44
0.0000000001
 40
0.0
 40
0.0
 40
0.0
 40
0.0
 40
0.4979336966
 40
0.7620316742
 40
1.0
 40
1.0
 40
1.0
 40
1.0
 10
87.849031681
 20
89.7124188254
 30
0.0
 10
87.8487194505
 20
89.760885144
 30
0.0
 10
87.8233831085
 20
89.8351999549
 30
0.0
 10
87.765654791
 20
89.9136719692
 30
0.0
 10
87.7276656279
 20
89.9458058488
 30
0.0
 10
87.7076056814
 20
89.9573872023
 30
0.0
  0
SPLINE
  5
2E7
100
AcDbEntity
  8
0
100
AcDbSpline
 62
7
  6
BYLAYER
 70
0
 71
3
 72
11
 73
7
 74
0
 42
0.0000001
 43
0.0000001
 44
0.0000000001
 40
0.0
 40
0.0
 40
0.0
 40
0.0
 40
0.2370457849
 40
0.4999986897
 40
0.7629530972
 40
1.0
 40
1.0
 40
1.0
 40
1.0
 10
84.8232664994
 20
91.3776728076
 30
0.0
 10
84.8014512612
 20
91.3902675563
 30
0.0
 10
84.7506527133
 20
91.4085624561
 30
0.0
 10
84.6694709413
 20
91.4175665277
 30
0.0
 10
84.5882891399
 20
91.4085620337
 30
0.0
 10
84.5374902997
 20
91.3902670337
 30
0.0
 10
84.5156750496
 20
91.3776720683
 30
0.0
  0
SPLINE
  5
2E8
100
AcDbEntity
  8
0
100
AcDbSpline
 62
7
  6
BYLAYER
 70
0
 71
3
 72
9
 73
5
 74
0
 42
0.0000001
 43
0.0000001
 44
0.0000000001
 40
0.0
 40
0.0
 40
0.0
 40
0.0
 40
0.5146146115
 40
1.0
 40
1.0
 40
1.0
 40
1.0
 10
92.7546736548
 20
100.2583558419
 30
0.0
 10
95.9466324148
 20
102.1012230908
 30
0.0
 10
101.9926922402
 20
105.9635394283
 30
0.0
 10
107.6112697042
 20
110.4322235442
 30
0.0
 10
110.1972354643
 20
112.7556229045
 30
0.0
  0
SPLINE
  5
2E9
100
AcDbEntity
  8
0
100
AcDbSpline
 62
7
  6
BYLAYER
 70
0
 71
3
 72
9
 73
5
 74
0
 42
0.0000001
 43
0.0000001
 44
0.0000000001
 40
0.0
 40
0.0
 40
0.0
 40
0.0
 40
0.5116360786
 40
1.0
 40
1.0
 40
1.0
 40
1.0
 10
71.5338643599
 20
90.346374444
 30
0.0
 10
75.2781642332
 20
91.7474362696
 30
0.0
 10
82.4985906265
 20
94.7571536015
 30
0.0
 10
89.4499167235
 20
98.3503649272
 30
0.0
 10
92.7546736548
 20
100.2583558419
 30
0.0
  0
SPLINE
  5
2EA
100
AcDbEntity
  8
0
100
AcDbSpline
 62
7
  6
BYLAYER
 70
0
 71
3
 72
10
 73
6
 74
0
 42
0.0000001
 43
0.0000001
 44
0.0000000001
 40
0.0
 40
0.0
 40
0.0
 40
0.0
 40
0.4820926548
 40
0.7470944545
 40
1.0
 40
1.0
 40
1.0
 40
1.0
 10
82.1340001645
 20
86.4128633457
 30
0.0
 10
82.1336052234
 20
86.4610874764
 30
0.0
 10
82.0988987172
 20
86.5355256671
 30
0.0
 10
82.0251059632
 20
86.6031885901
 30
0.0
 10
81.9784037236
 20
86.6278190574
 30
0.0
 10
81.9543922666
 20
86.6357877159
 30
0.0
  0
SPLINE
  5
2EB
100
AcDbEntity
  8
0
100
AcDbSpline
 62
7
  6
BYLAYER
 70
0
 71
3
 72
35
 73
31
 74
0
 42
0.0000001
 43
0.0000001
 44
0.0000000001
 40
0.0
 40
0.0
 40
0.0
 40
0.0
 40
0.1234119902
 40
0.2469653883
 40
0.3706965722
 40
0.4326451998
 40
0.4946615396
 40
0.5567585884
 40
0.6189541564
 40
0.681273843
 40
0.7124917046
 40
0.7437569096
 40
0.7750785619
 40
0.8064691551
 40
0.8379466276
 40
0.8695384407
 40
0.8853904666
 40
0.9012907494
 40
0.9172518184
 40
0.9332928239
 40
0.949445786
 40
0.9575814817
 40
0.9657726906
 40
0.9740412757
 40
0.9824286359
 40
0.986693202
 40
0.9910349203
 40
0.9955045218
 40
0.9978116279
 40
1.0
 40
1.0
 40
1.0
 40
1.0
 10
125.4871453334
 20
103.3812131677
 30
0.0
 10
125.4765197535
 20
102.8242900955
 30
0.0
 10
125.4544218071
 20
101.7098213619
 30
0.0
 10
125.41784967
 20
100.0370676505
 30
0.0
 10
125.3838828171
 20
98.6417437397
 30
0.0
 10
125.3539373516
 20
97.5241588942
 30
0.0
 10
125.3298352844
 20
96.6847066705
 30
0.0
 10
125.3037895095
 20
95.8441971047
 30
0.0
 10
125.2753709668
 20
95.0023941572
 30
0.0
 10
125.249222869
 20
94.2999715943
 30
0.0
 10
125.2263521119
 20
93.7371338722
 30
0.0
 10
125.2080334456
 20
93.3141387995
 30
0.0
 10
125.1883387753
 20
92.890424859
 30
0.0
 10
125.1669626701
 20
92.4658326024
 30
0.0
 10
125.1434658345
 20
92.0401306598
 30
0.0
 10
125.1215956484
 20
91.6845847293
 30
0.0
 10
125.1021657494
 20
91.399338695
 30
0.0
 10
125.0863723159
 20
91.1845613125
 30
0.0
 10
125.0690631508
 20
90.9690440525
 30
0.0
 10
125.0497506542
 20
90.7525511656
 30
0.0
 10
125.0313772243
 20
90.5714433316
 30
0.0
 10
125.0145437197
 20
90.4258113583
 30
0.0
 10
125.0004367982
 20
90.3156948637
 30
0.0
 10
124.9842762868
 20
90.204709259
 30
0.0
 10
124.9682844682
 20
90.1116318137
 30
0.0
 10
124.952633889
 20
90.0365182403
 30
0.0
 10
124.9385047395
 20
89.9792452926
 30
0.0
 10
124.9232488297
 20
89.9312054368
 30
0.0
 10
124.9066551232
 20
89.8944724667
 30
0.0
 10
124.8938206046
 20
89.8776551685
 30
0.0
 10
124.8855275999
 20
89.8722898132
 30
0.0
  0
SPLINE
  5
2EC
100
AcDbEntity
  8
0
100
AcDbSpline
 62
7
  6
BYLAYER
 70
0
 71
3
 72
11
 73
7
 74
0
 42
0.0000001
 43
0.0000001
 44
0.0000000001
 40
0.0
 40
0.0
 40
0.0
 40
0.0
 40
0.244239709
 40
0.4998038421
 40
0.7554695573
 40
1.0
 40
1.0
 40
1.0
 40
1.0
 10
72.1825708889
 20
81.7137282514
 30
0.0
 10
72.0206522803
 20
81.7674640201
 30
0.0
 10
71.6787731296
 20
81.8470489887
 30
0.0
 10
71.1507124555
 20
81.8866252592
 30
0.0
 10
70.6223481599
 20
81.8484180046
 30
0.0
 10
70.2799838854
 20
81.7697501104
 30
0.0
 10
70.1177027254
 20
81.7164647808
 30
0.0
  0
SPLINE
  5
2ED
100
AcDbEntity
  8
0
100
AcDbSpline
 62
7
  6
BYLAYER
 70
0
 71
3
 72
11
 73
7
 74
0
 42
0.0000001
 43
0.0000001
 44
0.0000000001
 40
0.0
 40
0.0
 40
0.0
 40
0.0
 40
0.2448068413
 40
0.5008717108
 40
0.7564846131
 40
1.0
 40
1.0
 40
1.0
 40
1.0
 10
69.1567239694
 20
73.1720509145
 30
0.0
 10
69.4751025622
 20
73.0667102007
 30
0.0
 10
70.1475743049
 20
72.9120949677
 30
0.0
 10
71.1851245436
 20
72.8401533629
 30
0.0
 10
72.2200305934
 20
72.9237795934
 30
0.0
 10
72.8882723594
 20
73.0862242473
 30
0.0
 10
73.2034824441
 20
73.1954065093
 30
0.0
  0
SPLINE
  5
2EE
100
AcDbEntity
  8
0
100
AcDbSpline
 62
7
  6
BYLAYER
 70
0
 71
3
 72
9
 73
5
 74
0
 42
0.0000001
 43
0.0000001
 44
0.0000000001
 40
0.0
 40
0.0
 40
0.0
 40
0.0
 40
0.4499598415
 40
1.0
 40
1.0
 40
1.0
 40
1.0
 10
83.5327817803
 20
91.0031508085
 30
0.0
 10
83.5327817717
 20
91.0201144693
 30
0.0
 10
83.5477760101
 20
91.057832151
 30
0.0
 10
83.578546929
 20
91.0815748504
 30
0.0
 10
83.5965054886
 20
91.0919431677
 30
0.0
  0
SPLINE
  5
2EF
100
AcDbEntity
  8
0
100
AcDbSpline
 62
7
  6
BYLAYER
 70
0
 71
3
 72
17
 73
13
 74
0
 42
0.0000001
 43
0.0000001
 44
0.0000000001
 40
0.0
 40
0.0
 40
0.0
 40
0.0
 40
0.1286926208
 40
0.2702795078
 40
0.4174383051
 40
0.5617803148
 40
0.6954501289
 40
0.8127134773
 40
0.8646759206
 40
0.9125113962
 40
0.9571388332
 40
1.0
 40
1.0
 40
1.0
 40
1.0
 10
69.2010400679
 20
79.1560716809
 30
0.0
 10
69.4046109589
 20
79.2736026881
 30
0.0
 10
69.8655151637
 20
79.4637794985
 30
0.0
 10
70.6167086249
 20
79.6140425432
 30
0.0
 10
71.4112174364
 20
79.6360469154
 30
0.0
 10
72.1842156532
 20
79.5274155194
 30
0.0
 10
72.8730209772
 20
79.2973407989
 30
0.0
 10
73.3521006182
 20
79.005745167
 30
0.0
 10
73.6332287985
 20
78.723573636
 30
0.0
 10
73.7826153882
 20
78.5039119968
 30
0.0
 10
73.8745933492
 20
78.2721722286
 30
0.0
 10
73.8955898649
 20
78.1116975544
 30
0.0
 10
73.895579168
 20
78.0334096374
 30
0.0
  0
SPLINE
  5
2F0
100
AcDbEntity
  8
0
100
AcDbSpline
 62
7
  6
BYLAYER
 70
0
 71
3
 72
9
 73
5
 74
0
 42
0.0000001
 43
0.0000001
 44
0.0000000001
 40
0.0
 40
0.0
 40
0.0
 40
0.0
 40
0.2431704403
 40
1.0
 40
1.0
 40
1.0
 40
1.0
 10
70.122167399
 20
89.8829549362
 30
0.0
 10
70.1650466889
 20
89.8970344332
 30
0.0
 10
70.3429198898
 20
89.9501806283
 30
0.0
 10
70.525614327
 20
89.9868145295
 30
0.0
 10
70.6647739863
 20
90.0059205576
 30
0.0
  0
SPLINE
  5
2F1
100
AcDbEntity
  8
0
100
AcDbSpline
 62
7
  6
BYLAYER
 70
0
 71
3
 72
9
 73
5
 74
0
 42
0.0000001
 43
0.0000001
 44
0.0000000001
 40
0.0
 40
0.0
 40
0.0
 40
0.0
 40
0.2662369009
 40
1.0
 40
1.0
 40
1.0
 40
1.0
 10
31.5627895655
 20
113.3275263781
 30
0.0
 10
31.5881734366
 20
113.3017581457
 30
0.0
 10
31.6792826271
 20
113.2010634909
 30
0.0
 10
31.7520231051
 20
113.0824758731
 30
0.0
 10
31.7871824412
 20
112.9891925954
 30
0.0
  0
SPLINE
  5
2F2
100
AcDbEntity
  8
0
100
AcDbSpline
 62
7
  6
BYLAYER
 70
0
 71
3
 72
15
 73
11
 74
0
 42
0.0000001
 43
0.0000001
 44
0.0000000001
 40
0.0
 40
0.0
 40
0.0
 40
0.0
 40
0.1130129914
 40
0.2345316607
 40
0.3624091125
 40
0.4940066192
 40
0.6264250277
 40
0.7567036689
 40
0.8820168846
 40
1.0
 40
1.0
 40
1.0
 40
1.0
 10
28.1283153409
 20
120.4229751846
 30
0.0
 10
28.1283130747
 20
120.7359113809
 30
0.0
 10
28.1817654616
 20
121.3859028799
 30
0.0
 10
28.3966063777
 20
122.3685788427
 30
0.0
 10
28.7421743042
 20
123.3677882633
 30
0.0
 10
29.2071084033
 20
124.350565089
 30
0.0
 10
29.7761391064
 20
125.2847257076
 30
0.0
 10
30.4306298267
 20
126.1395103488
 30
0.0
 10
31.1489127905
 20
126.8869456927
 30
0.0
 10
31.6741311464
 20
127.3126961609
 30
0.0
 10
31.9424413165
 20
127.4990872425
 30
0.0
  0
SPLINE
  5
2F3
100
AcDbEntity
  8
0
100
AcDbSpline
 62
7
  6
BYLAYER
 70
0
 71
3
 72
9
 73
5
 74
0
 42
0.0000001
 43
0.0000001
 44
0.0000000001
 40
0.0
 40
0.0
 40
0.0
 40
0.0
 40
0.2546970968
 40
1.0
 40
1.0
 40
1.0
 40
1.0
 10
31.9424413165
 20
127.4990872425
 30
0.0
 10
31.9778630279
 20
127.5236941782
 30
0.0
 10
32.1178852141
 20
127.6189304237
 30
0.0
 10
32.2617387689
 20
127.7085651973
 30
0.0
 10
32.3710386758
 20
127.7716691513
 30
0.0
  0
SPLINE
  5
2F4
100
AcDbEntity
  8
0
100
AcDbSpline
 62
7
  6
BYLAYER
 70
0
 71
3
 72
11
 73
7
 74
0
 42
0.0000001
 43
0.0000001
 44
0.0000000001
 40
0.0
 40
0.0
 40
0.0
 40
0.0
 40
0.2370457849
 40
0.4999986897
 40
0.7629530972
 40
1.0
 40
1.0
 40
1.0
 40
1.0
 10
83.2322828656
 20
90.4591234614
 30
0.0
 10
83.2104676275
 20
90.4717182101
 30
0.0
 10
83.1596690795
 20
90.4900131099
 30
0.0
 10
83.0784873075
 20
90.4990171815
 30
0.0
 10
82.9973055061
 20
90.4900126875
 30
0.0
 10
82.946506666
 20
90.4717176874
 30
0.0
 10
82.9246914158
 20
90.4591227221
 30
0.0
  0
SPLINE
  5
2F5
100
AcDbEntity
  8
0
100
AcDbSpline
 62
7
  6
BYLAYER
 70
0
 71
3
 72
9
 73
5
 74
0
 42
0.0000001
 43
0.0000001
 44
0.0000000001
 40
0.0
 40
0.0
 40
0.0
 40
0.0
 40
0.4882964006
 40
1.0
 40
1.0
 40
1.0
 40
1.0
 10
49.1825723912
 20
125.4141511354
 30
0.0
 10
52.523932826
 20
127.3432749666
 30
0.0
 10
59.5545712219
 20
130.9745124198
 30
0.0
 10
66.858655795
 20
134.0118370289
 30
0.0
 10
70.6469594159
 20
135.4247613701
 30
0.0
  0
SPLINE
  5
2F6
100
AcDbEntity
  8
0
100
AcDbSpline
 62
7
  6
BYLAYER
 70
0
 71
3
 72
9
 73
5
 74
0
 42
0.0000001
 43
0.0000001
 44
0.0000000001
 40
0.0
 40
0.0
 40
0.0
 40
0.0
 40
0.2431830774
 40
1.0
 40
1.0
 40
1.0
 40
1.0
 10
26.7747140725
 20
121.8483212831
 30
0.0
 10
26.7755347101
 20
121.9056080428
 30
0.0
 10
26.7828836967
 20
122.1411133495
 30
0.0
 10
26.8055200884
 20
122.3760714291
 30
0.0
 10
26.8300479988
 20
122.5526783291
 30
0.0
  0
SPLINE
  5
2F7
100
AcDbEntity
  8
0
100
AcDbSpline
 62
7
  6
BYLAYER
 70
0
 71
3
 72
11
 73
7
 74
0
 42
0.0000001
 43
0.0000001
 44
0.0000000001
 40
0.0
 40
0.0
 40
0.0
 40
0.0
 40
0.2494031022
 40
0.5103666261
 40
0.7658350506
 40
1.0
 40
1.0
 40
1.0
 40
1.0
 10
26.8948709147
 20
122.9353677328
 30
0.0
 10
26.9985829801
 20
123.4557006378
 30
0.0
 10
27.3313763536
 20
124.4981744162
 30
0.0
 10
28.1045549583
 20
125.9415064837
 30
0.0
 10
29.1012596551
 20
127.199638861
 30
0.0
 10
29.9045410673
 20
127.879477609
 30
0.0
 10
30.3244009927
 20
128.1475676413
 30
0.0
  0
SPLINE
  5
2F8
100
AcDbEntity
  8
0
100
AcDbSpline
 62
7
  6
BYLAYER
 70
0
 71
3
 72
9
 73
5
 74
0
 42
0.0000001
 43
0.0000001
 44
0.0000000001
 40
0.0
 40
0.0
 40
0.0
 40
0.0
 40
0.2624368085
 40
1.0
 40
1.0
 40
1.0
 40
1.0
 10
30.5219467446
 20
128.2676670324
 30
0.0
 10
30.5968130252
 20
128.3108908416
 30
0.0
 10
30.8862651441
 20
128.4680478601
 30
0.0
 10
31.1933286816
 20
128.5943180549
 30
0.0
 10
31.4266619528
 20
128.662021095
 30
0.0
  0
SPLINE
  5
2F9
100
AcDbEntity
  8
0
100
AcDbSpline
 62
7
  6
BYLAYER
 70
0
 71
3
 72
9
 73
5
 74
0
 42
0.0000001
 43
0.0000001
 44
0.0000000001
 40
0.0
 40
0.0
 40
0.0
 40
0.0
 40
0.2642080062
 40
1.0
 40
1.0
 40
1.0
 40
1.0
 10
31.4266619528
 20
128.662021095
 30
0.0
 10
31.5033301398
 20
128.6842668267
 30
0.0
 10
31.796248274
 20
128.758071084
 30
0.0
 10
32.1017200312
 20
128.7873682187
 30
0.0
 10
32.3236923151
 20
128.7749522966
 30
0.0
  0
SPLINE
  5
2FA
100
AcDbEntity
  8
0
100
AcDbSpline
 62
7
  6
BYLAYER
 70
0
 71
3
 72
9
 73
5
 74
0
 42
0.0000001
 43
0.0000001
 44
0.0000000001
 40
0.0
 40
0.0
 40
0.0
 40
0.0
 40
0.5094479529
 40
1.0
 40
1.0
 40
1.0
 40
1.0
 10
32.3236923151
 20
128.7749522966
 30
0.0
 10
32.4744208651
 20
128.7665213615
 30
0.0
 10
32.7698162941
 20
128.7192976423
 30
0.0
 10
33.0460062115
 20
128.6028617339
 30
0.0
 10
33.1718993797
 20
128.5301855917
 30
0.0
  0
SPLINE
  5
2FB
100
AcDbEntity
  8
0
100
AcDbSpline
 62
7
  6
BYLAYER
 70
0
 71
3
 72
17
 73
13
 74
0
 42
0.0000001
 43
0.0000001
 44
0.0000000001
 40
0.0
 40
0.0
 40
0.0
 40
0.0
 40
0.128673039
 40
0.2702634706
 40
0.4174064149
 40
0.561743489
 40
0.6954071322
 40
0.8126719378
 40
0.8646246831
 40
0.9124628291
 40
0.9571332016
 40
1.0
 40
1.0
 40
1.0
 40
1.0
 10
97.1670512931
 20
80.1421340577
 30
0.0
 10
97.3002781835
 20
80.2190521795
 30
0.0
 10
97.5588982791
 20
80.4180758667
 30
0.0
 10
97.8899363369
 20
80.7946541634
 30
0.0
 10
98.1624068913
 20
81.2378184197
 30
0.0
 10
98.3538241771
 20
81.7115052279
 30
0.0
 10
98.4488620179
 20
82.1772436056
 30
0.0
 10
98.4403494434
 20
82.5442223637
 30
0.0
 10
98.3724778996
 20
82.795936068
 30
0.0
 10
98.2968865468
 20
82.9525782668
 30
0.0
 10
98.195513435
 20
83.0805591922
 30
0.0
 10
98.1113839283
 20
83.145006908
 30
0.0
 10
98.0670206867
 20
83.170667541
 30
0.0
  0
SPLINE
  5
2FC
100
AcDbEntity
  8
0
100
AcDbSpline
 62
7
  6
BYLAYER
 70
0
 71
3
 72
11
 73
7
 74
0
 42
0.0000001
 43
0.0000001
 44
0.0000000001
 40
0.0
 40
0.0
 40
0.0
 40
0.0
 40
0.2213973392
 40
0.4599926521
 40
0.7193078587
 40
1.0
 40
1.0
 40
1.0
 40
1.0
 10
38.2672125017
 20
126.2455026807
 30
0.0
 10
38.0913219892
 20
126.2758677004
 30
0.0
 10
37.7175281988
 20
126.2955714424
 30
0.0
 10
37.1410006765
 20
126.2087313128
 30
0.0
 10
36.542745789
 20
126.0104763215
 30
0.0
 10
36.1520635867
 20
125.8150361505
 30
0.0
 10
35.9560849823
 20
125.7018885259
 30
0.0
  0
SPLINE
  5
2FD
100
AcDbEntity
  8
0
100
AcDbSpline
 62
7
  6
BYLAYER
 70
0
 71
3
 72
15
 73
11
 74
0
 42
0.0000001
 43
0.0000001
 44
0.0000000001
 40
0.0
 40
0.0
 40
0.0
 40
0.0
 40
0.114591463
 40
0.2380259178
 40
0.3677457351
 40
0.5007051585
 40
0.6335640461
 40
0.7630071775
 40
0.8859835713
 40
1.0
 40
1.0
 40
1.0
 40
1.0
 10
31.8934351684
 20
127.4956386234
 30
0.0
 10
31.6348638315
 20
127.3429781046
 30
0.0
 10
31.1246553437
 20
126.9792025024
 30
0.0
 10
30.423140704
 20
126.3149608925
 30
0.0
 10
29.7775600919
 20
125.5328124914
 30
0.0
 10
29.2117890994
 20
124.6618149678
 30
0.0
 10
28.746667173
 20
123.7339669353
 30
0.0
 10
28.3993364758
 20
122.7834460396
 30
0.0
 10
28.18262181
 20
121.8454733488
 30
0.0
 10
28.1283095562
 20
121.2238845985
 30
0.0
 10
28.1283117198
 20
120.9251175846
 30
0.0
  0
SPLINE
  5
2FE
100
AcDbEntity
  8
0
100
AcDbSpline
 62
7
  6
BYLAYER
 70
0
 71
3
 72
9
 73
5
 74
0
 42
0.0000001
 43
0.0000001
 44
0.0000000001
 40
0.0
 40
0.0
 40
0.0
 40
0.0
 40
0.2367258392
 40
1.0
 40
1.0
 40
1.0
 40
1.0
 10
110.5122212782
 20
113.011717652
 30
0.0
 10
110.5239519428
 20
113.0402670753
 30
0.0
 10
110.5804187614
 20
113.1580297166
 30
0.0
 10
110.6625344095
 20
113.2624707554
 30
0.0
 10
110.7327512188
 20
113.3329953691
 30
0.0
  0
SPLINE
  5
2FF
100
AcDbEntity
  8
0
100
AcDbSpline
 62
7
  6
BYLAYER
 70
0
 71
3
 72
9
 73
5
 74
0
 42
0.0000001
 43
0.0000001
 44
0.0000000001
 40
0.0
 40
0.0
 40
0.0
 40
0.0
 40
0.4762113612
 40
1.0
 40
1.0
 40
1.0
 40
1.0
 10
35.9560849823
 20
125.7018885259
 30
0.0
 10
35.5150330042
 20
125.4472485676
 30
0.0
 10
34.6586877638
 20
124.7896299751
 30
0.0
 10
33.9474331521
 20
123.9831061631
 30
0.0
 10
33.6127736172
 20
123.5339000236
 30
0.0
  0
ELLIPSE
  5
300
100
AcDbEntity
  8
0
100
AcDbEllipse
 62
7
  6
BYLAYER
 10
81.252214974
 20
137.75154061
 30
0.0
 11
0.763673206
 21
0.6846559222
 31
0.0
 40
0.6997281943
 41
0.225139979
 42
1.010525196
  0
ELLIPSE
  5
301
100
AcDbEntity
  8
0
100
AcDbEllipse
 62
7
  6
BYLAYER
 10
60.3632576749
 20
138.6603880387
 30
0.0
 11
0.1516079153
 21
-0.1378658701
 31
0.0
 40
0.6984483868
 41
2.1366538533
 42
2.9220415969
  0
ELLIPSE
  5
302
100
AcDbEntity
  8
0
100
AcDbEllipse
 62
7
  6
BYLAYER
 10
97.1079242811
 20
83.0480856767
 30
0.0
 11
0.0988691362
 21
0.1738563123
 31
0.0
 40
0.5816464525
 41
0.7815958852
 42
2.352392212
  0
ELLIPSE
  5
303
100
AcDbEntity
  8
0
100
AcDbEllipse
 62
7
  6
BYLAYER
 10
26.3671450877
 20
106.10522921
 30
0.0
 11
0.3358504148
 21
0.9573753633
 31
0.0
 40
0.4094542675
 41
0.7084044525
 42
2.270474133
  0
ELLIPSE
  5
304
100
AcDbEntity
  8
0
100
AcDbEllipse
 62
7
  6
BYLAYER
 10
25.9939569738
 20
118.8173814738
 30
0.0
 11
-0.0666724663
 21
0.1917525415
 31
0.0
 40
0.4062969887
 41
-0.707839704
 42
0.8543314373
  0
ELLIPSE
  5
305
100
AcDbEntity
  8
0
100
AcDbEllipse
 62
7
  6
BYLAYER
 10
20.2337122093
 20
465.7526472218
 30
0.0
 11
2.8162618344
 21
375.8841622347
 31
0.0
 40
0.0075569566
 41
-3.4108802662
 42
-3.1458803729
  0
ELLIPSE
  5
306
100
AcDbEntity
  8
0
100
AcDbEllipse
 62
7
  6
BYLAYER
 10
61.0433063133
 20
86.0853911012
 30
0.0
 11
0.763673206
 21
0.6846559222
 31
0.0
 40
0.6997281943
 41
1.010525196
 42
2.5725948765
  0
ELLIPSE
  5
307
100
AcDbEntity
  8
0
100
AcDbEllipse
 62
7
  6
BYLAYER
 10
115.9263586971
 20
117.7328672805
 30
0.0
 11
0.3358504148
 21
0.9573753633
 31
0.0
 40
0.4094542675
 41
5.4295200791
 42
6.9915897596
  0
ELLIPSE
  5
308
100
AcDbEntity
  8
0
100
AcDbEllipse
 62
7
  6
BYLAYER
 10
98.5221319555
 20
83.8645739844
 30
0.0
 11
0.0988691362
 21
0.1738563123
 31
0.0
 40
0.5816464525
 41
-0.7892004416
 42
0.7815958852
  0
ELLIPSE
  5
309
100
AcDbEntity
  8
0
100
AcDbEllipse
 62
7
  6
BYLAYER
 10
97.8293741317
 20
81.22945479
 30
0.0
 11
0.8898222261
 21
1.5647068111
 31
0.0
 40
0.5816464525
 41
1.5113235414
 42
6.2793962517
  0
ELLIPSE
  5
30A
100
AcDbEntity
  8
0
100
AcDbEllipse
 62
7
  6
BYLAYER
 10
71.1456124199
 20
436.3593128964
 30
0.0
 11
2.8162618344
 21
375.8841622347
 31
0.0
 40
0.0075569566
 41
-3.1458803729
 42
-2.8808804796
  0
ENDSEC
  0
SECTION
  2
OBJECTS
  0
DICTIONARY
  5
C
100
AcDbDictionary
280
0
281
1
  3
ACAD_GROUP
350
D
  3
ACAD_MLINESTYLE
350
17
  3
ACAD_LAYOUT
350
1A
  3
ACAD_PLOTSETTINGS
350
19
  3
ACAD_PLOTSTYLENAME
350
E
  0
DICTIONARY
  5
D
102
{ACAD_REACTORS
330
C
102
}
100
AcDbDictionary
280
0
281
1
  0
ACDBDICTIONARYWDFLT
  5
E
102
{ACAD_REACTORS
330
C
102
}
100
AcDbDictionary
281
1
  3
Normal
350
F
100
AcDbDictionaryWithDefault
340
F
  0
DICTIONARY
  5
17
102
{ACAD_REACTORS
330
C
102
}
100
AcDbDictionary
280
0
281
1
  3
Standard
350
18
  0
DICTIONARY
  5
19
102
{ACAD_REACTORS
330
C
102
}
100
AcDbDictionary
281
1
  0
DICTIONARY
  5
1A
102
{ACAD_REACTORS
330
C
102
}
100
AcDbDictionary
281
1
  3
Model
350
30B
  3
Layout1
350
30C
  0
ACDBPLACEHOLDER
  5
F
102
{ACAD_REACTORS
330
E
102
}
  0
MLINESTYLE
  5
18
102
{ACAD_REACTORS
330
17
102
}
100
AcDbMlineStyle
  2
STANDARD
 70
0
  3

 62
256
 51
90.0
 52
90.0
 71
2
 49
0.5
 62
256
  6
BYLAYER
 49
-0.5
 62
256
  6
BYLAYER
  0
LAYOUT
  5
30B
102
{ACAD_REACTORS
330
1A
102
}
100
AcDbPlotSettings
  1

  2
none_device
  4

  6

 40
0.0
 41
0.0
 42
0.0
 43
0.0
 44
210.0
 45
297.0
 46
0.0
 47
0.0
 48
0.0
 49
0.0
140
0.0
141
0.0
142
1.0
143
1.0
 70
1024
 72
1
 73
0
 74
0
  7

 75
0
147
1.0
148
0.0
149
0.0
100
AcDbLayout
  1
Model
 70
0
 71
0
 10
0.0
 20
0.0
 11
210.0
 21
297.0
 12
0.0
 22
0.0
 32
0.0
 14
0.0
 24
0.0
 34
0.0
 15
0.0
 25
0.0
 35
0.0
146
0.0
 13
0.0
 23
0.0
 33
0.0
 16
1.0
 26
0.0
 36
0.0
 17
0.0
 27
1.0
 37
0.0
 76
0
330
210
345
0
346
0
  0
LAYOUT
  5
30C
102
{ACAD_REACTORS
330
1A
102
}
100
AcDbPlotSettings
  1

  2
none_device
  4

  6

 40
0.0
 41
0.0
 42
0.0
 43
0.0
 44
210.0
 45
297.0
 46
0.0
 47
0.0
 48
0.0
 49
0.0
140
0.0
141
0.0
142
1.0
143
1.0
 70
0
 72
1
 73
0
 74
0
  7

 75
0
147
1.0
148
0.0
149
0.0
100
AcDbLayout
  1
Layout1
 70
0
 71
1
 10
0.0
 20
0.0
 11
210.0
 21
297.0
 12
0.0
 22
0.0
 32
0.0
 14
0.0
 24
0.0
 34
0.0
 15
0.0
 25
0.0
 35
0.0
146
0.0
 13
0.0
 23
0.0
 33
0.0
 16
1.0
 26
0.0
 36
0.0
 17
0.0
 27
1.0
 37
0.0
 76
0
330
211
345
0
346
0
  0
ENDSEC
  0
EOF
