999
DXF file: C:\Users\sesa63760\Dev\_Creo\CAD\MCADID0004931_3D-CAD\drw0001_7.dxf
999
Pro/ENGINEER 2019471 by Parametric Technology Corporation
  0
SECTION
  2
HEADER
  9
$ACADVER
  1
AC1024
  9
$DWGCODEPAGE
  3
ANSI_1252
  9
$EXTMAX
 10
430.3202818707
 20
608.5958272171
 30
0.0
  9
$EXTMIN
 10
0.0
 20
0.0
 30
0.0
  9
$LIMMIN
 10
0.0
 20
0.0
  9
$LIMMAX
 10
430.3202818707
 20
608.5958272171
  9
$VIEWCTR
 10
215.1601409353
 20
304.2979136085
  9
$VIEWSIZE
 40
608.5958272171
  9
$CLAYER
  8
0
  9
$LTSCALE
 40
39.6714317001
  9
$CELTYPE
  6
BYLAYER
  9
$DIMSCALE
 40
1.0
  9
$DIMASZ
 40
5.1228604985
  9
$DIMEXO
 40
1.0
  9
$DIMDLI
 40
27.409352811
  9
$DIMEXE
 40
1.0
  9
$DIMCEN
 40
6.4916888236
  9
$DIMLFAC
 40
1.0
  9
$DIMBLK
  1
_FILLED
  9
$DIMALT
 70
0
  9
$DIMALTF
 40
0.0393700787
  9
$DIMTXT
 40
7.1720046978
  9
$DIMTOL
 70
1
  9
$DIMLIM
 70
0
  9
$DIMTFAC
 40
1.0
  9
$DIMTP
 40
0.01
  9
$DIMTM
 40
0.01
  9
$DIMGAP
 40
0.625
  9
$DIMDSEP
 70
46
  9
$AUNITS
 70
0
  9
$PDMODE
 70
3
  9
$PDSIZE
 40
0.3125
  9
$HANDSEED
  5
2FA
  9
$TILEMODE
 70
1
  9
$MEASUREMENT
 70
1
  9
$INSUNITS
 70
4
  0
ENDSEC
  0
SECTION
  2
CLASSES
  0
CLASS
  1
ACDBDICTIONARYWDFLT
  2
AcDbDictionaryWithDefault
  3
AutoCAD 2000
 90
0
 91
1
280
0
281
0
  0
CLASS
  1
ACDBPLACEHOLDER
  2
AcDbPlaceHolder
  3
AutoCAD 2000
 90
0
 91
1
280
0
281
0
  0
CLASS
  1
LAYOUT
  2
AcDbLayout
  3
AutoCAD 2000
 90
0
 91
0
280
0
281
0
  0
ENDSEC
  0
SECTION
  2
TABLES
  0
TABLE
  2
VPORT
  5
8
100
AcDbSymbolTable
 70
2
  0
VPORT
  5
1F4
100
AcDbSymbolTableRecord
100
AcDbViewportTableRecord
  2
*ACTIVE
 70
0
 10
0.0
 20
0.0
 11
1.0
 21
1.0
 12
215.1601409353
 22
304.2979136085
 13
0.0
 23
0.0
 14
1.0
 24
1.0
 15
0.0
 25
0.0
 16
0.0
 26
0.0
 36
1.0
 17
0.0
 27
0.0
 37
0.0
 40
608.5958272171
 41
0.7070707071
 42
50.0
 43
0.0
 44
0.0
 50
0.0
 51
0.0
 71
0
 72
100
 73
1
 74
1
 75
0
 76
0
 77
0
 78
0
  0
ENDTAB
  0
TABLE
  2
LTYPE
  5
5
100
AcDbSymbolTable
 70
6
  0
LTYPE
  5
14
100
AcDbSymbolTableRecord
100
AcDbLinetypeTableRecord
  2
BYBLOCK
 70
0
  3

 72
65
 73
0
 40
0.0
  0
LTYPE
  5
15
100
AcDbSymbolTableRecord
100
AcDbLinetypeTableRecord
  2
BYLAYER
 70
0
  3

 72
65
 73
0
 40
0.0
  0
LTYPE
  5
16
100
AcDbSymbolTableRecord
100
AcDbLinetypeTableRecord
  2
CONTINUOUS
 70
64
  3
Solid line
 72
65
 73
0
 40
0.0
  0
LTYPE
  5
1F5
100
AcDbSymbolTableRecord
100
AcDbLinetypeTableRecord
  2
CENTER
 70
64
  3
____ _ ____ _ ____ _ ____ _ ____ _ ____ _ ____
 72
65
 73
4
 40
0.6
 49
0.375
 74
0
 49
-0.075
 74
0
 49
0.075
 74
0
 49
-0.075
 74
0
  0
LTYPE
  5
1F6
100
AcDbSymbolTableRecord
100
AcDbLinetypeTableRecord
  2
HIDDEN
 70
64
  3
- - - - - - - - - - - - - - - - - - - -
 72
65
 73
2
 40
0.2
 49
0.1
 74
0
 49
-0.1
 74
0
  0
LTYPE
  5
1F7
100
AcDbSymbolTableRecord
100
AcDbLinetypeTableRecord
  2
PHANTOM
 70
64
  3
_____ _ _ _____ _ _ _____ _ _ _____
 72
65
 73
6
 40
0.8
 49
0.45
 74
0
 49
-0.05
 74
0
 49
0.1
 74
0
 49
-0.05
 74
0
 49
0.1
 74
0
 49
-0.05
 74
0
  0
LTYPE
  5
1F8
100
AcDbSymbolTableRecord
100
AcDbLinetypeTableRecord
  2
DOT
 70
64
  3
. . . . . . . . . . . . . . . . . . . .
 72
65
 73
2
 40
0.2
 49
0.1
 74
0
 49
-0.1
 74
0
  0
LTYPE
  5
1F9
100
AcDbSymbolTableRecord
100
AcDbLinetypeTableRecord
  2
DASHED
 70
64
  3
- - - - - - - - - - - - - - - - - - - -
 72
65
 73
2
 40
0.2
 49
0.1
 74
0
 49
-0.1
 74
0
  0
ENDTAB
  0
TABLE
  2
LAYER
  5
2
100
AcDbSymbolTable
 70
36
  0
LAYER
  5
10
100
AcDbSymbolTableRecord
100
AcDbLayerTableRecord
  2
0
 70
0
 62
7
  6
CONTINUOUS
370
-3
390
F
  0
LAYER
  5
1FA
100
AcDbSymbolTableRecord
100
AcDbLayerTableRecord
  2
DEFAULT_1
 70
0
 62
7
  6
CENTER
370
-3
390
F
  0
LAYER
  5
1FB
100
AcDbSymbolTableRecord
100
AcDbLayerTableRecord
  2
DEFAULT_2
 70
0
 62
7
  6
HIDDEN
370
-3
390
F
  0
LAYER
  5
1FC
100
AcDbSymbolTableRecord
100
AcDbLayerTableRecord
  2
DEFAULT_3
 70
0
 62
7
  6
PHANTOM
370
-3
390
F
  0
LAYER
  5
1FD
100
AcDbSymbolTableRecord
100
AcDbLayerTableRecord
  2
00_COMPONENTS
 70
0
 62
7
  6
CONTINUOUS
370
-3
390
F
  0
LAYER
  5
1FE
100
AcDbSymbolTableRecord
100
AcDbLayerTableRecord
  2
01_1_DEFAULT_DATUMS
 70
0
 62
7
  6
CONTINUOUS
370
-3
390
F
  0
LAYER
  5
1FF
100
AcDbSymbolTableRecord
100
AcDbLayerTableRecord
  2
01_PLANES
 70
0
 62
7
  6
CONTINUOUS
370
-3
390
F
  0
LAYER
  5
200
100
AcDbSymbolTableRecord
100
AcDbLayerTableRecord
  2
02_COORD_SYS
 70
0
 62
7
  6
CONTINUOUS
370
-3
390
F
  0
LAYER
  5
201
100
AcDbSymbolTableRecord
100
AcDbLayerTableRecord
  2
03_AXES
 70
0
 62
7
  6
CONTINUOUS
370
-3
390
F
  0
LAYER
  5
202
100
AcDbSymbolTableRecord
100
AcDbLayerTableRecord
  2
04_POINTS
 70
0
 62
7
  6
CONTINUOUS
370
-3
390
F
  0
LAYER
  5
203
100
AcDbSymbolTableRecord
100
AcDbLayerTableRecord
  2
05_CURVES
 70
0
 62
7
  6
CONTINUOUS
370
-3
390
F
  0
LAYER
  5
204
100
AcDbSymbolTableRecord
100
AcDbLayerTableRecord
  2
06_SURFS
 70
0
 62
7
  6
CONTINUOUS
370
-3
390
F
  0
LAYER
  5
205
100
AcDbSymbolTableRecord
100
AcDbLayerTableRecord
  2
07_COSMETICS
 70
0
 62
7
  6
CONTINUOUS
370
-3
390
F
  0
LAYER
  5
206
100
AcDbSymbolTableRecord
100
AcDbLayerTableRecord
  2
10_NOTES
 70
0
 62
7
  6
CONTINUOUS
370
-3
390
F
  0
LAYER
  5
207
100
AcDbSymbolTableRecord
100
AcDbLayerTableRecord
  2
11_NOTES_PUB
 70
0
 62
7
  6
CONTINUOUS
370
-3
390
F
  0
LAYER
  5
208
100
AcDbSymbolTableRecord
100
AcDbLayerTableRecord
  2
13_REF_GTOL
 70
0
 62
7
  6
CONTINUOUS
370
-3
390
F
  0
LAYER
  5
209
100
AcDbSymbolTableRecord
100
AcDbLayerTableRecord
  2
16_MISC
 70
0
 62
7
  6
CONTINUOUS
370
-3
390
F
  0
LAYER
  5
20A
100
AcDbSymbolTableRecord
100
AcDbLayerTableRecord
  2
17_NO_PRINT
 70
0
 62
7
  6
CONTINUOUS
370
-3
390
F
  0
LAYER
  5
20B
100
AcDbSymbolTableRecord
100
AcDbLayerTableRecord
  2
18_DATUM_CAMS_JOINTS
 70
0
 62
7
  6
CONTINUOUS
370
-3
390
F
  0
LAYER
  5
20C
100
AcDbSymbolTableRecord
100
AcDbLayerTableRecord
  2
19_DATUM_FUNCTIONAL
 70
0
 62
7
  6
CONTINUOUS
370
-3
390
F
  0
LAYER
  5
20D
100
AcDbSymbolTableRecord
100
AcDbLayerTableRecord
  2
20_DATUM_KINEMATIC_SCHEME
 70
0
 62
7
  6
CONTINUOUS
370
-3
390
F
  0
LAYER
  5
20E
100
AcDbSymbolTableRecord
100
AcDbLayerTableRecord
  2
INTFCLR_4
 70
0
 62
7
  6
CONTINUOUS
370
-3
390
F
  0
ENDTAB
  0
TABLE
  2
STYLE
  5
3
100
AcDbSymbolTable
 70
1
  0
STYLE
  5
11
100
AcDbSymbolTableRecord
100
AcDbTextStyleTableRecord
  2
STANDARD
 70
0
 40
0.0
 41
1.0
 50
0.0
 71
0
 42
0.2
  3
ARIAL.TTF
  4

  0
STYLE
  5
20F
100
AcDbSymbolTableRecord
100
AcDbTextStyleTableRecord
  2
TEXTSTYLE_1
 70
0
 40
0.0
 41
0.8
 50
0.0
 71
0
 42
0.2
  3
gdt
  4

  0
ENDTAB
  0
TABLE
  2
VIEW
  5
6
100
AcDbSymbolTable
 70
0
  0
ENDTAB
  0
TABLE
  2
UCS
  5
7
100
AcDbSymbolTable
 70
0
  0
ENDTAB
  0
TABLE
  2
APPID
  5
9
100
AcDbSymbolTable
 70
1
  0
APPID
  5
210
100
AcDbSymbolTableRecord
100
AcDbRegAppTableRecord
  2
ACAD
 70
0
  0
ENDTAB
  0
TABLE
  2
BLOCK_RECORD
  5
1
100
AcDbSymbolTable
 70
0
  0
BLOCK_RECORD
  5
211
100
AcDbSymbolTableRecord
100
AcDbBlockTableRecord
  2
*Model_Space
  0
BLOCK_RECORD
  5
212
100
AcDbSymbolTableRecord
100
AcDbBlockTableRecord
  2
*Paper_Space
  0
BLOCK_RECORD
  5
213
100
AcDbSymbolTableRecord
100
AcDbBlockTableRecord
  2
_FILLED
  0
ENDTAB
  0
TABLE
  2
DIMSTYLE
  5
A
100
AcDbSymbolTable
 70
1
100
AcDbDimStyleTable
 71
0
  0
DIMSTYLE
105
214
100
AcDbSymbolTableRecord
100
AcDbDimStyleTableRecord
  2
STANDARD
 70
0
  3

  4

 40
1.0
 41
5.1228604985
 42
1.0
 43
0.38
 44
1.0
 45
0.0
 46
0.0
 47
0.01
 48
0.01
140
7.1720046978
141
0.09
142
0.0
143
25.4
144
1.0
145
0.0
146
1.0
147
0.625
 71
1
 72
0
 73
0
 74
0
 75
0
 76
0
 77
1
 78
8
 79
2
170
0
171
1
172
0
173
0
174
0
175
0
176
0
177
0
178
0
270
2
179
2
271
2
272
2
273
2
274
2
275
0
280
0
281
0
282
0
283
1
284
8
285
0
286
0
287
3
288
0
340
11
278
46
341
213
342
213
343
213
344
213
  0
ENDTAB
  0
ENDSEC
  0
SECTION
  2
BLOCKS
  0
BLOCK
  5
20
100
AcDbEntity
  8
0
100
AcDbBlockBegin
  2
*Model_Space
 70
0
 10
0.0
 20
0.0
 30
0.0
  3
*Model_Space
  1

  0
ENDBLK
  5
21
100
AcDbEntity
  8
0
100
AcDbBlockEnd
  0
BLOCK
  5
1C
100
AcDbEntity
  8
0
100
AcDbBlockBegin
  2
*Paper_Space
 70
0
 10
0.0
 20
0.0
 30
0.0
  3
*Paper_Space
  1

  0
ENDBLK
  5
1D
100
AcDbEntity
  8
0
100
AcDbBlockEnd
  0
BLOCK
  5
215
100
AcDbEntity
  8
0
100
AcDbBlockBegin
  2
_FILLED
 70
64
 10
0.0
 20
0.0
  3
_FILLED
  1

  0
SOLID
  5
216
100
AcDbEntity
  8
0
  6
BYBLOCK
 62
0
100
AcDbTrace
 10
0.0
 20
0.0
 11
-1.0
 21
0.25
 12
-1.0
 22
-0.25
 13
-1.0
 23
-0.25
  0
ENDBLK
  5
217
100
AcDbEntity
  8
0
  6
BYBLOCK
 62
0
100
AcDbBlockEnd
  0
ENDSEC
  0
SECTION
  2
ENTITIES
  0
LINE
  5
218
100
AcDbEntity
  8
0
100
AcDbLine
 62
7
  6
BYLAYER
 10
45.6919074942
 20
226.0882655414
 11
45.691907473
 21
293.2449242786
  0
LINE
  5
219
100
AcDbEntity
  8
0
100
AcDbLine
 62
7
  6
BYLAYER
 10
45.7093747706
 20
293.3294206742
 11
45.7093744241
 21
226.1580871027
  0
LINE
  5
21A
100
AcDbEntity
  8
0
100
AcDbLine
 62
7
  6
BYLAYER
 10
46.3593702795
 20
293.3276541378
 11
46.359370279
 21
226.1579961887
  0
LINE
  5
21B
100
AcDbEntity
  8
0
100
AcDbLine
 62
7
  6
BYLAYER
 10
49.7069955012
 20
296.6752793619
 11
49.7069955192
 21
297.325279363
  0
LINE
  5
21C
100
AcDbEntity
  8
0
100
AcDbLine
 62
7
  6
BYLAYER
 10
49.7071663557
 20
222.8102001152
 11
49.7071664234
 21
222.1602001235
  0
LINE
  5
21D
100
AcDbEntity
  8
0
100
AcDbLine
 62
7
  6
BYLAYER
 10
60.420871006
 20
297.325279354
 11
60.420871006
 21
296.903660904
  0
LINE
  5
21E
100
AcDbEntity
  8
0
100
AcDbLine
 62
7
  6
BYLAYER
 10
62.1182099027
 20
300.0414187412
 11
62.1182099027
 21
306.0411597387
  0
LINE
  5
21F
100
AcDbEntity
  8
0
100
AcDbLine
 62
7
  6
BYLAYER
 10
62.6203441365
 20
222.0927397388
 11
62.6203441365
 21
222.1602001203
  0
LINE
  5
220
100
AcDbEntity
  8
0
100
AcDbLine
 62
7
  6
BYLAYER
 10
62.651012436
 20
219.2027397388
 11
62.651012436
 21
217.2027397388
  0
LINE
  5
221
100
AcDbEntity
  8
0
100
AcDbLine
 62
7
  6
BYLAYER
 10
62.707035552
 20
222.1602001203
 11
62.707035552
 21
219.2027397388
  0
LINE
  5
222
100
AcDbEntity
  8
0
100
AcDbLine
 62
7
  6
BYLAYER
 10
62.7419403648
 20
219.2027397388
 11
62.7419403648
 21
222.1602001203
  0
LINE
  5
223
100
AcDbEntity
  8
0
100
AcDbLine
 62
7
  6
BYLAYER
 10
62.7978411948
 20
217.2027397388
 11
62.7978411948
 21
219.2027397388
  0
LINE
  5
224
100
AcDbEntity
  8
0
100
AcDbLine
 62
7
  6
BYLAYER
 10
63.0061742483
 20
222.1602001235
 11
63.0061742483
 21
222.0829034077
  0
LINE
  5
225
100
AcDbEntity
  8
0
100
AcDbLine
 62
7
  6
BYLAYER
 10
63.6085843688
 20
219.2027397388
 11
63.6085843688
 21
217.2027397388
  0
LINE
  5
226
100
AcDbEntity
  8
0
100
AcDbLine
 62
7
  6
BYLAYER
 10
63.3682099027
 20
324.0411597387
 11
62.1182099027
 21
306.0411597388
  0
LINE
  5
227
100
AcDbEntity
  8
0
100
AcDbLine
 62
7
  6
BYLAYER
 10
74.8682099027
 20
324.0411597387
 11
76.1182099027
 21
306.0411597388
  0
LINE
  5
228
100
AcDbEntity
  8
0
100
AcDbLine
 62
7
  6
BYLAYER
 10
74.5130118018
 20
217.2027397388
 11
74.5130118018
 21
219.2027397388
  0
LINE
  5
229
100
AcDbEntity
  8
0
100
AcDbLine
 62
7
  6
BYLAYER
 10
74.9347909113
 20
222.0829034077
 11
74.9347909113
 21
222.1602001235
  0
LINE
  5
22A
100
AcDbEntity
  8
0
100
AcDbLine
 62
7
  6
BYLAYER
 10
75.2400365543
 20
222.1602001172
 11
75.2400365543
 21
219.2027397388
  0
LINE
  5
22B
100
AcDbEntity
  8
0
100
AcDbLine
 62
7
  6
BYLAYER
 10
75.2960596703
 20
217.2027397388
 11
75.2960596703
 21
219.2027397388
  0
LINE
  5
22C
100
AcDbEntity
  8
0
100
AcDbLine
 62
7
  6
BYLAYER
 10
75.3634756689
 20
222.0927397388
 11
75.3634756689
 21
222.1602001172
  0
LINE
  5
22D
100
AcDbEntity
  8
0
100
AcDbLine
 62
7
  6
BYLAYER
 10
76.1182099027
 20
300.0414187412
 11
76.1182099027
 21
306.0411597387
  0
LINE
  5
22E
100
AcDbEntity
  8
0
100
AcDbLine
 62
7
  6
BYLAYER
 10
62.6578544655
 20
298.0274378149
 11
62.1182099027
 21
300.0414187412
  0
LINE
  5
22F
100
AcDbEntity
  8
0
100
AcDbLine
 62
7
  6
BYLAYER
 10
88.2766538045
 20
222.8102001151
 11
88.2766536943
 21
222.1602001141
  0
LINE
  5
230
100
AcDbEntity
  8
0
100
AcDbLine
 62
7
  6
BYLAYER
 10
88.2768243023
 20
296.6752793619
 11
88.2768242858
 21
297.325279354
  0
LINE
  5
231
100
AcDbEntity
  8
0
100
AcDbLine
 62
7
  6
BYLAYER
 10
75.5785653399
 20
298.0274378149
 11
76.1182099027
 21
300.0414187412
  0
LINE
  5
232
100
AcDbEntity
  8
0
100
AcDbLine
 62
7
  6
BYLAYER
 10
91.6244495263
 20
226.1579958397
 11
91.6244495258
 21
293.3276541411
  0
LINE
  5
233
100
AcDbEntity
  8
0
100
AcDbLine
 62
7
  6
BYLAYER
 10
92.2744453643
 20
226.1558077442
 11
92.2744450437
 21
293.3275749325
  0
LINE
  5
234
100
AcDbEntity
  8
0
100
AcDbLine
 62
7
  6
BYLAYER
 10
92.2919123231
 20
293.2472162601
 11
92.2919123031
 21
226.090690644
  0
LINE
  5
235
100
AcDbEntity
  8
0
100
AcDbLine
 62
7
  6
BYLAYER
 10
77.0401691999
 20
296.903660904
 11
77.2496284034
 21
297.325279354
  0
LINE
  5
236
100
AcDbEntity
  8
0
100
AcDbLine
 62
7
  6
BYLAYER
 10
62.6510512819
 20
217.2027397388
 11
75.2960208243
 21
217.2027397388
  0
LINE
  5
237
100
AcDbEntity
  8
0
100
AcDbLine
 62
7
  6
BYLAYER
 10
62.6510512819
 20
219.2027397388
 11
62.707035552
 21
219.2027397388
  0
LINE
  5
238
100
AcDbEntity
  8
0
100
AcDbLine
 62
7
  6
BYLAYER
 10
62.7419403648
 20
219.2027397388
 11
75.2960480978
 21
219.2027397388
  0
LINE
  5
239
100
AcDbEntity
  8
0
100
AcDbLine
 62
7
  6
BYLAYER
 10
63.0061742483
 20
222.0829034077
 11
74.9347909113
 21
222.0829034077
  0
LINE
  5
23A
100
AcDbEntity
  8
0
100
AcDbLine
 62
7
  6
BYLAYER
 10
88.2963841575
 20
222.0927373358
 11
75.2400365543
 21
222.0927397388
  0
LINE
  5
23B
100
AcDbEntity
  8
0
100
AcDbLine
 62
7
  6
BYLAYER
 10
62.707035552
 20
222.0927397388
 11
49.6898607998
 21
222.0927373384
  0
LINE
  5
23C
100
AcDbEntity
  8
0
100
AcDbLine
 62
7
  6
BYLAYER
 10
88.2766536943
 20
222.1602001141
 11
49.7071664234
 21
222.1602001235
  0
LINE
  5
23D
100
AcDbEntity
  8
0
100
AcDbLine
 62
7
  6
BYLAYER
 10
49.7071663557
 20
222.8102001152
 11
88.2766538045
 21
222.8102001151
  0
LINE
  5
23E
100
AcDbEntity
  8
0
100
AcDbLine
 62
7
  6
BYLAYER
 10
46.359370279
 20
226.1579961887
 11
45.709370278
 21
226.1579962575
  0
LINE
  5
23F
100
AcDbEntity
  8
0
100
AcDbLine
 62
7
  6
BYLAYER
 10
91.6244495263
 20
226.1579958397
 11
92.2744495179
 21
226.1579959491
  0
LINE
  5
240
100
AcDbEntity
  8
0
100
AcDbLine
 62
7
  6
BYLAYER
 10
372.1882099027
 20
269.3411597388
 11
366.0482099027
 21
269.3411597388
  0
LINE
  5
241
100
AcDbEntity
  8
0
100
AcDbLine
 62
7
  6
BYLAYER
 10
366.0482099027
 20
270.3411597388
 11
372.1882099027
 21
270.3411597388
  0
LINE
  5
242
100
AcDbEntity
  8
0
100
AcDbLine
 62
7
  6
BYLAYER
 10
374.9482099027
 20
270.5411597388
 11
372.1882099027
 21
270.5411597388
  0
LINE
  5
243
100
AcDbEntity
  8
0
100
AcDbLine
 62
7
  6
BYLAYER
 10
366.0482099027
 20
270.5411597388
 11
363.2882099027
 21
270.5411597388
  0
LINE
  5
244
100
AcDbEntity
  8
0
100
AcDbLine
 62
7
  6
BYLAYER
 10
374.9482099027
 20
271.0411597388
 11
372.1882099027
 21
271.0411597388
  0
LINE
  5
245
100
AcDbEntity
  8
0
100
AcDbLine
 62
7
  6
BYLAYER
 10
366.0482099027
 20
271.0411597388
 11
363.2882099027
 21
271.0411597388
  0
LINE
  5
246
100
AcDbEntity
  8
0
100
AcDbLine
 62
7
  6
BYLAYER
 10
372.1882099027
 20
273.5411597388
 11
366.0482099027
 21
273.5411597388
  0
LINE
  5
247
100
AcDbEntity
  8
0
100
AcDbLine
 62
7
  6
BYLAYER
 10
372.1882099027
 20
275.084582463
 11
366.0482099027
 21
275.084582463
  0
LINE
  5
248
100
AcDbEntity
  8
0
100
AcDbLine
 62
7
  6
BYLAYER
 10
372.1882099027
 20
275.6824746498
 11
366.0482099027
 21
275.6824746498
  0
LINE
  5
249
100
AcDbEntity
  8
0
100
AcDbLine
 62
7
  6
BYLAYER
 10
366.0482099027
 20
276.6411597406
 11
367.4982099027
 21
276.6411597406
  0
LINE
  5
24A
100
AcDbEntity
  8
0
100
AcDbLine
 62
7
  6
BYLAYER
 10
370.7182099027
 20
276.6411597406
 11
372.1882099027
 21
276.6411597406
  0
LINE
  5
24B
100
AcDbEntity
  8
0
100
AcDbLine
 62
7
  6
BYLAYER
 10
375.4482099027
 20
281.2411597388
 11
370.7182099027
 21
281.2411597388
  0
LINE
  5
24C
100
AcDbEntity
  8
0
100
AcDbLine
 62
7
  6
BYLAYER
 10
367.4982099027
 20
281.2411597388
 11
362.7882099027
 21
281.2411597388
  0
LINE
  5
24D
100
AcDbEntity
  8
0
100
AcDbLine
 62
7
  6
BYLAYER
 10
361.6182099027
 20
284.0411597388
 11
365.5182099027
 21
284.0411597388
  0
LINE
  5
24E
100
AcDbEntity
  8
0
100
AcDbLine
 62
7
  6
BYLAYER
 10
372.7182099027
 20
284.0411597388
 11
376.6182099027
 21
284.0411597388
  0
LINE
  5
24F
100
AcDbEntity
  8
0
100
AcDbLine
 62
7
  6
BYLAYER
 10
370.7182099027
 20
285.5125338153
 11
367.4982099027
 21
285.5125338153
  0
LINE
  5
250
100
AcDbEntity
  8
0
100
AcDbLine
 62
7
  6
BYLAYER
 10
367.4982099027
 20
286.2411597406
 11
370.7182099027
 21
286.2411597406
  0
LINE
  5
251
100
AcDbEntity
  8
0
100
AcDbLine
 62
7
  6
BYLAYER
 10
354.8682099027
 20
286.7991597388
 11
357.3682099027
 21
286.7991597388
  0
LINE
  5
252
100
AcDbEntity
  8
0
100
AcDbLine
 62
7
  6
BYLAYER
 10
380.8682099027
 20
286.7991597388
 11
383.3682099027
 21
286.7991597388
  0
LINE
  5
253
100
AcDbEntity
  8
0
100
AcDbLine
 62
7
  6
BYLAYER
 10
372.7182099027
 20
288.8411597388
 11
365.5182099027
 21
288.8411597388
  0
LINE
  5
254
100
AcDbEntity
  8
0
100
AcDbLine
 62
7
  6
BYLAYER
 10
352.1182099027
 20
291.7991597388
 11
361.6182099027
 21
291.7991597388
  0
LINE
  5
255
100
AcDbEntity
  8
0
100
AcDbLine
 62
7
  6
BYLAYER
 10
376.6182099027
 20
291.7991597388
 11
386.1182099027
 21
291.7991597388
  0
LINE
  5
256
100
AcDbEntity
  8
0
100
AcDbLine
 62
7
  6
BYLAYER
 10
91.6244495258
 20
293.3276541411
 11
92.2744495269
 21
293.3276541228
  0
LINE
  5
257
100
AcDbEntity
  8
0
100
AcDbLine
 62
7
  6
BYLAYER
 10
46.3593702795
 20
293.3276541378
 11
45.7093702874
 21
293.3276541213
  0
LINE
  5
258
100
AcDbEntity
  8
0
100
AcDbLine
 62
7
  6
BYLAYER
 10
88.2768243023
 20
296.6752793619
 11
49.7069955012
 21
296.6752793619
  0
LINE
  5
259
100
AcDbEntity
  8
0
100
AcDbLine
 62
7
  6
BYLAYER
 10
60.420871006
 20
296.903660904
 11
77.0401691999
 21
296.903660904
  0
LINE
  5
25A
100
AcDbEntity
  8
0
100
AcDbLine
 62
7
  6
BYLAYER
 10
77.2086228874
 20
297.2427397388
 11
76.0085460487
 21
297.2427397388
  0
LINE
  5
25B
100
AcDbEntity
  8
0
100
AcDbLine
 62
7
  6
BYLAYER
 10
62.2278737567
 20
297.2427397388
 11
60.420871006
 21
297.2427397388
  0
LINE
  5
25C
100
AcDbEntity
  8
0
100
AcDbLine
 62
7
  6
BYLAYER
 10
88.278590844
 20
297.3252748701
 11
77.2496284033
 21
297.325279354
  0
LINE
  5
25D
100
AcDbEntity
  8
0
100
AcDbLine
 62
7
  6
BYLAYER
 10
60.420871006
 20
297.325279354
 11
49.7070747101
 21
297.3252748798
  0
LINE
  5
25E
100
AcDbEntity
  8
0
100
AcDbLine
 62
7
  6
BYLAYER
 10
62.1182099027
 20
300.0414187412
 11
76.1182099027
 21
300.0414187412
  0
LINE
  5
25F
100
AcDbEntity
  8
0
100
AcDbLine
 62
7
  6
BYLAYER
 10
364.9182099027
 20
300.0414162612
 11
373.3182099027
 21
300.0414162612
  0
LINE
  5
260
100
AcDbEntity
  8
0
100
AcDbLine
 62
7
  6
BYLAYER
 10
352.1182099027
 20
300.2991597388
 11
363.5560620003
 21
300.2991597388
  0
LINE
  5
261
100
AcDbEntity
  8
0
100
AcDbLine
 62
7
  6
BYLAYER
 10
374.6803578051
 20
300.2991597388
 11
386.1182099027
 21
300.2991597388
  0
LINE
  5
262
100
AcDbEntity
  8
0
100
AcDbLine
 62
7
  6
BYLAYER
 10
353.1374929438
 20
300.5991597388
 11
354.284821466
 21
300.5991597388
  0
LINE
  5
263
100
AcDbEntity
  8
0
100
AcDbLine
 62
7
  6
BYLAYER
 10
354.3139435773
 20
300.5991597388
 11
354.8895768392
 21
300.5991597388
  0
LINE
  5
264
100
AcDbEntity
  8
0
100
AcDbLine
 62
7
  6
BYLAYER
 10
354.9247956998
 20
300.5991597388
 11
355.5860085201
 21
300.5991597388
  0
LINE
  5
265
100
AcDbEntity
  8
0
100
AcDbLine
 62
7
  6
BYLAYER
 10
355.6246962217
 20
300.5991597388
 11
356.3221512093
 21
300.5991597388
  0
LINE
  5
266
100
AcDbEntity
  8
0
100
AcDbLine
 62
7
  6
BYLAYER
 10
356.3614210107
 20
300.5991597388
 11
357.0430765105
 21
300.5991597388
  0
LINE
  5
267
100
AcDbEntity
  8
0
100
AcDbLine
 62
7
  6
BYLAYER
 10
357.0799982364
 20
300.5991597388
 11
357.6949914959
 21
300.5991597388
  0
LINE
  5
268
100
AcDbEntity
  8
0
100
AcDbLine
 62
7
  6
BYLAYER
 10
357.7268101759
 20
300.5991597388
 11
358.2321212569
 21
300.5991597388
  0
LINE
  5
269
100
AcDbEntity
  8
0
100
AcDbLine
 62
7
  6
BYLAYER
 10
358.2535939817
 20
300.5991597388
 11
359.117917303
 21
300.5991597388
  0
LINE
  5
26A
100
AcDbEntity
  8
0
100
AcDbLine
 62
7
  6
BYLAYER
 10
379.1374929438
 20
300.5991597388
 11
380.284821466
 21
300.5991597388
  0
LINE
  5
26B
100
AcDbEntity
  8
0
100
AcDbLine
 62
7
  6
BYLAYER
 10
380.3139435773
 20
300.5991597388
 11
380.8895768392
 21
300.5991597388
  0
LINE
  5
26C
100
AcDbEntity
  8
0
100
AcDbLine
 62
7
  6
BYLAYER
 10
380.9247956998
 20
300.5991597388
 11
381.5860085201
 21
300.5991597388
  0
LINE
  5
26D
100
AcDbEntity
  8
0
100
AcDbLine
 62
7
  6
BYLAYER
 10
381.6246962217
 20
300.5991597388
 11
382.3221512093
 21
300.5991597388
  0
LINE
  5
26E
100
AcDbEntity
  8
0
100
AcDbLine
 62
7
  6
BYLAYER
 10
382.3614210108
 20
300.5991597388
 11
383.0430765105
 21
300.5991597388
  0
LINE
  5
26F
100
AcDbEntity
  8
0
100
AcDbLine
 62
7
  6
BYLAYER
 10
383.0799982364
 20
300.5991597388
 11
383.6949914959
 21
300.5991597388
  0
LINE
  5
270
100
AcDbEntity
  8
0
100
AcDbLine
 62
7
  6
BYLAYER
 10
383.7268101759
 20
300.5991597388
 11
384.2321212569
 21
300.5991597388
  0
LINE
  5
271
100
AcDbEntity
  8
0
100
AcDbLine
 62
7
  6
BYLAYER
 10
384.2535939817
 20
300.5991597388
 11
385.117917303
 21
300.5991597388
  0
LINE
  5
272
100
AcDbEntity
  8
0
100
AcDbLine
 62
7
  6
BYLAYER
 10
376.1182091375
 20
306.0411597388
 11
362.1182106678
 21
306.0411597388
  0
LINE
  5
273
100
AcDbEntity
  8
0
100
AcDbLine
 62
7
  6
BYLAYER
 10
76.1182099027
 20
306.0411597388
 11
62.1182099027
 21
306.0411597388
  0
LINE
  5
274
100
AcDbEntity
  8
0
100
AcDbLine
 62
7
  6
BYLAYER
 10
385.117917303
 20
315.2991597388
 11
379.1374929438
 21
315.2991597388
  0
LINE
  5
275
100
AcDbEntity
  8
0
100
AcDbLine
 62
7
  6
BYLAYER
 10
359.117917303
 20
315.2991597388
 11
353.1374929438
 21
315.2991597388
  0
LINE
  5
276
100
AcDbEntity
  8
0
100
AcDbLine
 62
7
  6
BYLAYER
 10
374.8648579783
 20
324.0411597388
 11
363.3715618271
 21
324.0411597388
  0
LINE
  5
277
100
AcDbEntity
  8
0
100
AcDbLine
 62
7
  6
BYLAYER
 10
74.8680605117
 20
324.0411597388
 11
63.3683592936
 21
324.0411597388
  0
LINE
  5
278
100
AcDbEntity
  8
0
100
AcDbLine
 62
7
  6
BYLAYER
 10
352.1182099027
 20
291.7991597388
 11
352.1182099027
 21
300.2991597388
  0
LINE
  5
279
100
AcDbEntity
  8
0
100
AcDbLine
 62
7
  6
BYLAYER
 10
353.1374929438
 20
315.2991597388
 11
353.1374929438
 21
300.5991597388
  0
LINE
  5
27A
100
AcDbEntity
  8
0
100
AcDbLine
 62
7
  6
BYLAYER
 10
353.1445616558
 20
315.2991597388
 11
353.1445616558
 21
300.5991597388
  0
LINE
  5
27B
100
AcDbEntity
  8
0
100
AcDbLine
 62
7
  6
BYLAYER
 10
353.1568030733
 20
315.2991597388
 11
353.1568030733
 21
300.5991597388
  0
LINE
  5
27C
100
AcDbEntity
  8
0
100
AcDbLine
 62
7
  6
BYLAYER
 10
353.3628658953
 20
315.2991597388
 11
353.3628658953
 21
300.5991597388
  0
LINE
  5
27D
100
AcDbEntity
  8
0
100
AcDbLine
 62
7
  6
BYLAYER
 10
353.3970830366
 20
315.2991597388
 11
353.3970830366
 21
300.5991597388
  0
LINE
  5
27E
100
AcDbEntity
  8
0
100
AcDbLine
 62
7
  6
BYLAYER
 10
353.4182099027
 20
300.2991597388
 11
353.4182099027
 21
300.5991597388
  0
LINE
  5
27F
100
AcDbEntity
  8
0
100
AcDbLine
 62
7
  6
BYLAYER
 10
353.7867642807
 20
315.2991597388
 11
353.7867642807
 21
300.5991597388
  0
LINE
  5
280
100
AcDbEntity
  8
0
100
AcDbLine
 62
7
  6
BYLAYER
 10
353.8404039821
 20
315.2991597388
 11
353.8404039821
 21
300.5991597388
  0
LINE
  5
281
100
AcDbEntity
  8
0
100
AcDbLine
 62
7
  6
BYLAYER
 10
354.284821466
 20
300.5991597388
 11
354.284821466
 21
315.2991597388
  0
LINE
  5
282
100
AcDbEntity
  8
0
100
AcDbLine
 62
7
  6
BYLAYER
 10
354.3139435773
 20
315.2991597388
 11
354.3139435773
 21
300.5991597388
  0
LINE
  5
283
100
AcDbEntity
  8
0
100
AcDbLine
 62
7
  6
BYLAYER
 10
354.3846269949
 20
315.2991597388
 11
354.3846269949
 21
300.5991597388
  0
LINE
  5
284
100
AcDbEntity
  8
0
100
AcDbLine
 62
7
  6
BYLAYER
 10
354.4536868494
 20
315.2991597388
 11
354.4536868494
 21
300.5991597388
  0
LINE
  5
285
100
AcDbEntity
  8
0
100
AcDbLine
 62
7
  6
BYLAYER
 10
354.8682099027
 20
286.7991597388
 11
354.8682099027
 21
291.7991597388
  0
LINE
  5
286
100
AcDbEntity
  8
0
100
AcDbLine
 62
7
  6
BYLAYER
 10
354.8895768392
 20
300.5991597388
 11
354.8895768392
 21
315.2991597388
  0
LINE
  5
287
100
AcDbEntity
  8
0
100
AcDbLine
 62
7
  6
BYLAYER
 10
354.9247956998
 20
315.2991597388
 11
354.9247956998
 21
300.5991597388
  0
LINE
  5
288
100
AcDbEntity
  8
0
100
AcDbLine
 62
7
  6
BYLAYER
 10
355.1118436106
 20
315.2991597388
 11
355.1118436106
 21
300.5991597388
  0
LINE
  5
289
100
AcDbEntity
  8
0
100
AcDbLine
 62
7
  6
BYLAYER
 10
355.1182099027
 20
300.2991597388
 11
355.1182099027
 21
291.7991597388
  0
LINE
  5
28A
100
AcDbEntity
  8
0
100
AcDbLine
 62
7
  6
BYLAYER
 10
355.1911706131
 20
315.2991597388
 11
355.1911706131
 21
300.5991597388
  0
LINE
  5
28B
100
AcDbEntity
  8
0
100
AcDbLine
 62
7
  6
BYLAYER
 10
355.5860085201
 20
300.5991597388
 11
355.5860085201
 21
315.2991597388
  0
LINE
  5
28C
100
AcDbEntity
  8
0
100
AcDbLine
 62
7
  6
BYLAYER
 10
355.6246962217
 20
315.2991597388
 11
355.6246962217
 21
300.5991597388
  0
LINE
  5
28D
100
AcDbEntity
  8
0
100
AcDbLine
 62
7
  6
BYLAYER
 10
355.9141517639
 20
315.2991597388
 11
355.9141517639
 21
300.5991597388
  0
LINE
  5
28E
100
AcDbEntity
  8
0
100
AcDbLine
 62
7
  6
BYLAYER
 10
355.9978268104
 20
315.2991597388
 11
355.9978268104
 21
300.5991597388
  0
LINE
  5
28F
100
AcDbEntity
  8
0
100
AcDbLine
 62
7
  6
BYLAYER
 10
356.3221512093
 20
300.5991597388
 11
356.3221512093
 21
315.2991597388
  0
LINE
  5
290
100
AcDbEntity
  8
0
100
AcDbLine
 62
7
  6
BYLAYER
 10
356.3614210107
 20
315.2991597388
 11
356.3614210107
 21
300.5991597388
  0
LINE
  5
291
100
AcDbEntity
  8
0
100
AcDbLine
 62
7
  6
BYLAYER
 10
356.7316860228
 20
315.2991597388
 11
356.7316860228
 21
300.5991597388
  0
LINE
  5
292
100
AcDbEntity
  8
0
100
AcDbLine
 62
7
  6
BYLAYER
 10
356.8134655737
 20
315.2991597388
 11
356.8134655737
 21
300.5991597388
  0
LINE
  5
293
100
AcDbEntity
  8
0
100
AcDbLine
 62
7
  6
BYLAYER
 10
357.0430765105
 20
300.5991597388
 11
357.0430765105
 21
315.2991597388
  0
LINE
  5
294
100
AcDbEntity
  8
0
100
AcDbLine
 62
7
  6
BYLAYER
 10
357.0799982364
 20
315.2991597388
 11
357.0799982364
 21
300.5991597388
  0
LINE
  5
295
100
AcDbEntity
  8
0
100
AcDbLine
 62
7
  6
BYLAYER
 10
357.3682099027
 20
286.7991597388
 11
357.3682099027
 21
291.7991597388
  0
LINE
  5
296
100
AcDbEntity
  8
0
100
AcDbLine
 62
7
  6
BYLAYER
 10
357.5034448363
 20
315.2991597388
 11
357.5034448363
 21
300.5991597388
  0
LINE
  5
297
100
AcDbEntity
  8
0
100
AcDbLine
 62
7
  6
BYLAYER
 10
357.5772267872
 20
315.2991597388
 11
357.5772267872
 21
300.5991597388
  0
LINE
  5
298
100
AcDbEntity
  8
0
100
AcDbLine
 62
7
  6
BYLAYER
 10
357.6949914959
 20
300.5991597388
 11
357.6949914959
 21
315.2991597388
  0
LINE
  5
299
100
AcDbEntity
  8
0
100
AcDbLine
 62
7
  6
BYLAYER
 10
357.7268101759
 20
315.2991597388
 11
357.7268101759
 21
300.5991597388
  0
LINE
  5
29A
100
AcDbEntity
  8
0
100
AcDbLine
 62
7
  6
BYLAYER
 10
358.1718422576
 20
315.2991597388
 11
358.1718422576
 21
300.5991597388
  0
LINE
  5
29B
100
AcDbEntity
  8
0
100
AcDbLine
 62
7
  6
BYLAYER
 10
358.2321212569
 20
315.2991597388
 11
358.2321212569
 21
300.5991597388
  0
LINE
  5
29C
100
AcDbEntity
  8
0
100
AcDbLine
 62
7
  6
BYLAYER
 10
358.2535939817
 20
315.2991597388
 11
358.2535939817
 21
300.5991597388
  0
LINE
  5
29D
100
AcDbEntity
  8
0
100
AcDbLine
 62
7
  6
BYLAYER
 10
358.6870048055
 20
315.2991597388
 11
358.6870048055
 21
300.5991597388
  0
LINE
  5
29E
100
AcDbEntity
  8
0
100
AcDbLine
 62
7
  6
BYLAYER
 10
358.729283045
 20
315.2991597388
 11
358.729283045
 21
300.5991597388
  0
LINE
  5
29F
100
AcDbEntity
  8
0
100
AcDbLine
 62
7
  6
BYLAYER
 10
358.8182099027
 20
300.5991597388
 11
358.8182099027
 21
300.2991597388
  0
LINE
  5
2A0
100
AcDbEntity
  8
0
100
AcDbLine
 62
7
  6
BYLAYER
 10
359.0104928503
 20
315.2991597388
 11
359.0104928503
 21
300.5991597388
  0
LINE
  5
2A1
100
AcDbEntity
  8
0
100
AcDbLine
 62
7
  6
BYLAYER
 10
359.0316156752
 20
315.2991597388
 11
359.0316156752
 21
300.5991597388
  0
LINE
  5
2A2
100
AcDbEntity
  8
0
100
AcDbLine
 62
7
  6
BYLAYER
 10
359.117917303
 20
315.2991597388
 11
359.117917303
 21
300.5991597388
  0
LINE
  5
2A3
100
AcDbEntity
  8
0
100
AcDbLine
 62
7
  6
BYLAYER
 10
361.6182099027
 20
296.7414162612
 11
361.6182099027
 21
284.0411597388
  0
LINE
  5
2A4
100
AcDbEntity
  8
0
100
AcDbLine
 62
7
  6
BYLAYER
 10
362.1182106678
 20
306.0411597388
 11
362.1182106678
 21
300.2991597388
  0
LINE
  5
2A5
100
AcDbEntity
  8
0
100
AcDbLine
 62
7
  6
BYLAYER
 10
362.7882099027
 20
281.2411597388
 11
362.7882099027
 21
284.0411597388
  0
LINE
  5
2A6
100
AcDbEntity
  8
0
100
AcDbLine
 62
7
  6
BYLAYER
 10
363.2882099027
 20
281.2411597388
 11
363.2882099027
 21
270.5411597388
  0
LINE
  5
2A7
100
AcDbEntity
  8
0
100
AcDbLine
 62
7
  6
BYLAYER
 10
363.5560620003
 20
299.7471695931
 11
363.5560620003
 21
300.2991597388
  0
LINE
  5
2A8
100
AcDbEntity
  8
0
100
AcDbLine
 62
7
  6
BYLAYER
 10
365.5182099027
 20
284.0411597388
 11
365.5182099027
 21
288.8411597388
  0
LINE
  5
2A9
100
AcDbEntity
  8
0
100
AcDbLine
 62
7
  6
BYLAYER
 10
366.0482099027
 20
276.6411597406
 11
366.0482099027
 21
269.3411597388
  0
LINE
  5
2AA
100
AcDbEntity
  8
0
100
AcDbLine
 62
7
  6
BYLAYER
 10
367.4982099027
 20
286.2411597406
 11
367.4982099027
 21
276.6411597406
  0
LINE
  5
2AB
100
AcDbEntity
  8
0
100
AcDbLine
 62
7
  6
BYLAYER
 10
370.7182099027
 20
276.6411597406
 11
370.7182099027
 21
286.2411597406
  0
LINE
  5
2AC
100
AcDbEntity
  8
0
100
AcDbLine
 62
7
  6
BYLAYER
 10
363.3707938206
 20
324.0411597388
 11
362.1182106678
 21
306.0411707341
  0
LINE
  5
2AD
100
AcDbEntity
  8
0
100
AcDbLine
 62
7
  6
BYLAYER
 10
374.8656259848
 20
324.0411597388
 11
376.1182091375
 21
306.0411707341
  0
LINE
  5
2AE
100
AcDbEntity
  8
0
100
AcDbLine
 62
7
  6
BYLAYER
 10
372.1882099027
 20
269.3411597388
 11
372.1882099027
 21
276.6411597406
  0
LINE
  5
2AF
100
AcDbEntity
  8
0
100
AcDbLine
 62
7
  6
BYLAYER
 10
372.7182099027
 20
284.0411597388
 11
372.7182099027
 21
288.8411597388
  0
LINE
  5
2B0
100
AcDbEntity
  8
0
100
AcDbLine
 62
7
  6
BYLAYER
 10
374.6803578051
 20
300.2991597388
 11
374.6803578051
 21
299.7471695931
  0
LINE
  5
2B1
100
AcDbEntity
  8
0
100
AcDbLine
 62
7
  6
BYLAYER
 10
374.9482099027
 20
281.2411597388
 11
374.9482099027
 21
270.5411597388
  0
LINE
  5
2B2
100
AcDbEntity
  8
0
100
AcDbLine
 62
7
  6
BYLAYER
 10
375.4482099027
 20
281.2411597388
 11
375.4482099027
 21
284.0411597388
  0
LINE
  5
2B3
100
AcDbEntity
  8
0
100
AcDbLine
 62
7
  6
BYLAYER
 10
376.1182091375
 20
306.0411597388
 11
376.1182091375
 21
300.2991597388
  0
LINE
  5
2B4
100
AcDbEntity
  8
0
100
AcDbLine
 62
7
  6
BYLAYER
 10
376.6182099027
 20
284.0411597388
 11
376.6182099027
 21
296.7414162612
  0
LINE
  5
2B5
100
AcDbEntity
  8
0
100
AcDbLine
 62
7
  6
BYLAYER
 10
379.1374929438
 20
315.2991597388
 11
379.1374929438
 21
300.5991597388
  0
LINE
  5
2B6
100
AcDbEntity
  8
0
100
AcDbLine
 62
7
  6
BYLAYER
 10
379.1445616558
 20
315.2991597388
 11
379.1445616558
 21
300.5991597388
  0
LINE
  5
2B7
100
AcDbEntity
  8
0
100
AcDbLine
 62
7
  6
BYLAYER
 10
379.1568030732
 20
315.2991597388
 11
379.1568030732
 21
300.5991597388
  0
LINE
  5
2B8
100
AcDbEntity
  8
0
100
AcDbLine
 62
7
  6
BYLAYER
 10
379.3628658954
 20
315.2991597388
 11
379.3628658954
 21
300.5991597388
  0
LINE
  5
2B9
100
AcDbEntity
  8
0
100
AcDbLine
 62
7
  6
BYLAYER
 10
379.3970830366
 20
315.2991597388
 11
379.3970830366
 21
300.5991597388
  0
LINE
  5
2BA
100
AcDbEntity
  8
0
100
AcDbLine
 62
7
  6
BYLAYER
 10
379.4182099027
 20
300.2991597388
 11
379.4182099027
 21
300.5991597388
  0
LINE
  5
2BB
100
AcDbEntity
  8
0
100
AcDbLine
 62
7
  6
BYLAYER
 10
379.7867642806
 20
315.2991597388
 11
379.7867642806
 21
300.5991597388
  0
LINE
  5
2BC
100
AcDbEntity
  8
0
100
AcDbLine
 62
7
  6
BYLAYER
 10
379.8404039822
 20
315.2991597388
 11
379.8404039822
 21
300.5991597388
  0
LINE
  5
2BD
100
AcDbEntity
  8
0
100
AcDbLine
 62
7
  6
BYLAYER
 10
380.284821466
 20
300.5991597388
 11
380.284821466
 21
315.2991597388
  0
LINE
  5
2BE
100
AcDbEntity
  8
0
100
AcDbLine
 62
7
  6
BYLAYER
 10
380.3139435773
 20
315.2991597388
 11
380.3139435773
 21
300.5991597388
  0
LINE
  5
2BF
100
AcDbEntity
  8
0
100
AcDbLine
 62
7
  6
BYLAYER
 10
380.3846269949
 20
315.2991597388
 11
380.3846269949
 21
300.5991597388
  0
LINE
  5
2C0
100
AcDbEntity
  8
0
100
AcDbLine
 62
7
  6
BYLAYER
 10
380.4536868495
 20
315.2991597388
 11
380.4536868495
 21
300.5991597388
  0
LINE
  5
2C1
100
AcDbEntity
  8
0
100
AcDbLine
 62
7
  6
BYLAYER
 10
380.8682099027
 20
286.7991597388
 11
380.8682099027
 21
291.7991597388
  0
LINE
  5
2C2
100
AcDbEntity
  8
0
100
AcDbLine
 62
7
  6
BYLAYER
 10
380.8895768392
 20
300.5991597388
 11
380.8895768392
 21
315.2991597388
  0
LINE
  5
2C3
100
AcDbEntity
  8
0
100
AcDbLine
 62
7
  6
BYLAYER
 10
380.9247956998
 20
315.2991597388
 11
380.9247956998
 21
300.5991597388
  0
LINE
  5
2C4
100
AcDbEntity
  8
0
100
AcDbLine
 62
7
  6
BYLAYER
 10
381.1118436106
 20
315.2991597388
 11
381.1118436106
 21
300.5991597388
  0
LINE
  5
2C5
100
AcDbEntity
  8
0
100
AcDbLine
 62
7
  6
BYLAYER
 10
381.1911706131
 20
315.2991597388
 11
381.1911706131
 21
300.5991597388
  0
LINE
  5
2C6
100
AcDbEntity
  8
0
100
AcDbLine
 62
7
  6
BYLAYER
 10
381.5860085201
 20
300.5991597388
 11
381.5860085201
 21
315.2991597388
  0
LINE
  5
2C7
100
AcDbEntity
  8
0
100
AcDbLine
 62
7
  6
BYLAYER
 10
381.6246962217
 20
315.2991597388
 11
381.6246962217
 21
300.5991597388
  0
LINE
  5
2C8
100
AcDbEntity
  8
0
100
AcDbLine
 62
7
  6
BYLAYER
 10
381.9141517639
 20
315.2991597388
 11
381.9141517639
 21
300.5991597388
  0
LINE
  5
2C9
100
AcDbEntity
  8
0
100
AcDbLine
 62
7
  6
BYLAYER
 10
381.9978268105
 20
315.2991597388
 11
381.9978268105
 21
300.5991597388
  0
LINE
  5
2CA
100
AcDbEntity
  8
0
100
AcDbLine
 62
7
  6
BYLAYER
 10
382.3221512093
 20
300.5991597388
 11
382.3221512093
 21
315.2991597388
  0
LINE
  5
2CB
100
AcDbEntity
  8
0
100
AcDbLine
 62
7
  6
BYLAYER
 10
382.3614210108
 20
315.2991597388
 11
382.3614210108
 21
300.5991597388
  0
LINE
  5
2CC
100
AcDbEntity
  8
0
100
AcDbLine
 62
7
  6
BYLAYER
 10
382.7316860228
 20
315.2991597388
 11
382.7316860228
 21
300.5991597388
  0
LINE
  5
2CD
100
AcDbEntity
  8
0
100
AcDbLine
 62
7
  6
BYLAYER
 10
382.8134655737
 20
315.2991597388
 11
382.8134655737
 21
300.5991597388
  0
LINE
  5
2CE
100
AcDbEntity
  8
0
100
AcDbLine
 62
7
  6
BYLAYER
 10
383.0430765105
 20
300.5991597388
 11
383.0430765105
 21
315.2991597388
  0
LINE
  5
2CF
100
AcDbEntity
  8
0
100
AcDbLine
 62
7
  6
BYLAYER
 10
383.0799982364
 20
315.2991597388
 11
383.0799982364
 21
300.5991597388
  0
LINE
  5
2D0
100
AcDbEntity
  8
0
100
AcDbLine
 62
7
  6
BYLAYER
 10
383.1182099027
 20
291.7991597388
 11
383.1182099027
 21
300.2991597388
  0
LINE
  5
2D1
100
AcDbEntity
  8
0
100
AcDbLine
 62
7
  6
BYLAYER
 10
383.3682099027
 20
286.7991597388
 11
383.3682099027
 21
291.7991597388
  0
LINE
  5
2D2
100
AcDbEntity
  8
0
100
AcDbLine
 62
7
  6
BYLAYER
 10
383.5034448364
 20
315.2991597388
 11
383.5034448364
 21
300.5991597388
  0
LINE
  5
2D3
100
AcDbEntity
  8
0
100
AcDbLine
 62
7
  6
BYLAYER
 10
383.5772267872
 20
315.2991597388
 11
383.5772267872
 21
300.5991597388
  0
LINE
  5
2D4
100
AcDbEntity
  8
0
100
AcDbLine
 62
7
  6
BYLAYER
 10
383.6949914959
 20
300.5991597388
 11
383.6949914958
 21
315.2991597388
  0
LINE
  5
2D5
100
AcDbEntity
  8
0
100
AcDbLine
 62
7
  6
BYLAYER
 10
383.7268101759
 20
315.2991597388
 11
383.7268101759
 21
300.5991597388
  0
LINE
  5
2D6
100
AcDbEntity
  8
0
100
AcDbLine
 62
7
  6
BYLAYER
 10
373.4915554439
 20
341.8135776984
 11
373.2644729858
 21
324.0411597388
  0
LINE
  5
2D7
100
AcDbEntity
  8
0
100
AcDbLine
 62
7
  6
BYLAYER
 10
384.1718422576
 20
315.2991597388
 11
384.1718422576
 21
300.5991597388
  0
LINE
  5
2D8
100
AcDbEntity
  8
0
100
AcDbLine
 62
7
  6
BYLAYER
 10
384.2321212569
 20
315.2991597388
 11
384.2321212569
 21
300.5991597388
  0
LINE
  5
2D9
100
AcDbEntity
  8
0
100
AcDbLine
 62
7
  6
BYLAYER
 10
384.2535939817
 20
315.2991597388
 11
384.2535939817
 21
300.5991597388
  0
LINE
  5
2DA
100
AcDbEntity
  8
0
100
AcDbLine
 62
7
  6
BYLAYER
 10
384.6870048056
 20
315.2991597388
 11
384.6870048056
 21
300.5991597388
  0
LINE
  5
2DB
100
AcDbEntity
  8
0
100
AcDbLine
 62
7
  6
BYLAYER
 10
384.729283045
 20
315.2991597388
 11
384.729283045
 21
300.5991597388
  0
LINE
  5
2DC
100
AcDbEntity
  8
0
100
AcDbLine
 62
7
  6
BYLAYER
 10
384.8182099027
 20
300.5991597388
 11
384.8182099027
 21
300.2991597388
  0
LINE
  5
2DD
100
AcDbEntity
  8
0
100
AcDbLine
 62
7
  6
BYLAYER
 10
385.0104928503
 20
315.2991597388
 11
385.0104928503
 21
300.5991597388
  0
LINE
  5
2DE
100
AcDbEntity
  8
0
100
AcDbLine
 62
7
  6
BYLAYER
 10
385.0316156752
 20
315.2991597388
 11
385.0316156752
 21
300.5991597388
  0
LINE
  5
2DF
100
AcDbEntity
  8
0
100
AcDbLine
 62
7
  6
BYLAYER
 10
385.117917303
 20
315.2991597388
 11
385.117917303
 21
300.5991597388
  0
LINE
  5
2E0
100
AcDbEntity
  8
0
100
AcDbLine
 62
7
  6
BYLAYER
 10
386.1182099027
 20
300.2991597388
 11
386.1182099027
 21
291.7991597388
  0
ARC
  5
2E1
100
AcDbEntity
  8
0
100
AcDbCircle
 62
7
  6
BYLAYER
 10
71.5182099027
 20
294.9414187412
 40
5.1
100
AcDbArc
 50
23.4081419862
 51
73.0468064526
  0
ARC
  5
2E2
100
AcDbEntity
  8
0
100
AcDbCircle
 62
7
  6
BYLAYER
 10
66.7182099027
 20
294.9414187412
 40
5.1
100
AcDbArc
 50
106.9531935479
 51
156.5918580138
  0
ARC
  5
2E3
100
AcDbEntity
  8
0
100
AcDbCircle
 62
7
  6
BYLAYER
 10
49.6886905168
 20
226.0895203591
 40
3.9967879918
100
AcDbArc
 50
180.0179884064
 51
270.0167765611
  0
ARC
  5
2E4
100
AcDbEntity
  8
0
100
AcDbCircle
 62
7
  6
BYLAYER
 10
88.2951292823
 20
226.0895203528
 40
3.9967879918
100
AcDbArc
 50
270.0179892306
 51
0.0167766796
  0
ARC
  5
2E5
100
AcDbEntity
  8
0
100
AcDbCircle
 62
7
  6
BYLAYER
 10
49.6886867783
 20
293.2459628696
 40
3.9967842992
100
AcDbArc
 50
161.6961986627
 51
180.0148887078
  0
ARC
  5
2E6
100
AcDbEntity
  8
0
100
AcDbCircle
 62
7
  6
BYLAYER
 10
88.2951330334
 20
293.2459628631
 40
3.9967842993
100
AcDbArc
 50
0.0179680567
 51
18.3227914447
  0
ARC
  5
2E7
100
AcDbEntity
  8
0
100
AcDbCircle
 62
7
  6
BYLAYER
 10
49.7060728485
 20
293.328576793
 40
3.9966892445
100
AcDbArc
 50
89.985637534
 51
179.9879023049
  0
ARC
  5
2E8
100
AcDbEntity
  8
0
100
AcDbCircle
 62
7
  6
BYLAYER
 10
88.2777469569
 20
293.3285767928
 40
3.9966892446
100
AcDbArc
 50
359.9856375517
 51
89.9879022212
  0
ARC
  5
2E9
100
AcDbEntity
  8
0
100
AcDbCircle
 62
7
  6
BYLAYER
 10
49.7060440355
 20
226.1568738718
 40
3.9966614887
100
AcDbArc
 50
179.9826072678
 51
269.9847039908
  0
ARC
  5
2EA
100
AcDbEntity
  8
0
100
AcDbCircle
 62
7
  6
BYLAYER
 10
88.2777758756
 20
226.1568737656
 40
3.9966613605
100
AcDbArc
 50
269.9826172569
 51
359.9847176447
  0
ARC
  5
2EB
100
AcDbEntity
  8
0
100
AcDbCircle
 62
7
  6
BYLAYER
 10
88.2777469075
 20
293.3285767435
 40
3.3467027031
100
AcDbArc
 50
359.9856022009
 51
90.0157985809
  0
ARC
  5
2EC
100
AcDbEntity
  8
0
100
AcDbCircle
 62
7
  6
BYLAYER
 10
49.7060728979
 20
293.3285767435
 40
3.3467027031
100
AcDbArc
 50
89.9856021915
 51
180.0157985792
  0
ARC
  5
2ED
100
AcDbEntity
  8
0
100
AcDbCircle
 62
7
  6
BYLAYER
 10
49.7060440904
 20
226.1568739267
 40
3.346674295
100
AcDbArc
 50
179.9826578599
 51
270.0194817585
  0
ARC
  5
2EE
100
AcDbEntity
  8
0
100
AcDbCircle
 62
7
  6
BYLAYER
 10
88.2777758441
 20
226.1568737971
 40
3.3466741195
100
AcDbArc
 50
269.9826513473
 51
0.0194705027
  0
ARC
  5
2EF
100
AcDbEntity
  8
0
100
AcDbCircle
 62
7
  6
BYLAYER
 10
364.9182099027
 20
296.7414162612
 40
3.3
100
AcDbArc
 50
90.0000000002
 51
180.0
  0
ARC
  5
2F0
100
AcDbEntity
  8
0
100
AcDbCircle
 62
7
  6
BYLAYER
 10
373.3182099027
 20
296.7414162612
 40
3.3
100
AcDbArc
 50
0.0
 51
90.0000000005
  0
SPLINE
  5
2F1
100
AcDbEntity
  8
0
100
AcDbSpline
 62
7
  6
BYLAYER
 70
0
 71
3
 72
10
 73
6
 74
0
 42
0.0000001
 43
0.0000001
 44
0.0000000001
 40
0.0
 40
0.0
 40
0.0
 40
0.0
 40
0.2499929683
 40
0.5000116867
 40
1.0
 40
1.0
 40
1.0
 40
1.0
 10
66.9170223358
 20
296.8950199778
 30
0.0
 10
66.7480769175
 20
297.1204274224
 30
0.0
 10
66.4313872312
 20
297.5872632299
 30
0.0
 10
65.8573915816
 20
298.5573085393
 30
0.0
 10
65.4742485665
 20
299.3115714416
 30
0.0
 10
65.2310989832
 20
299.8197894849
 30
0.0
  0
SPLINE
  5
2F2
100
AcDbEntity
  8
0
100
AcDbSpline
 62
7
  6
BYLAYER
 70
0
 71
3
 72
10
 73
6
 74
0
 42
0.0000001
 43
0.0000001
 44
0.0000000001
 40
0.0
 40
0.0
 40
0.0
 40
0.0
 40
0.2499929654
 40
0.5000116832
 40
1.0
 40
1.0
 40
1.0
 40
1.0
 10
71.3193981847
 20
296.8950209322
 30
0.0
 10
71.4883435097
 20
297.1204283185
 30
0.0
 10
71.8050330393
 20
297.5872639857
 30
0.0
 10
72.3790284431
 20
298.5573089783
 30
0.0
 10
72.7621713229
 20
299.3115716173
 30
0.0
 10
73.0053208221
 20
299.8197894849
 30
0.0
  0
SPLINE
  5
2F3
100
AcDbEntity
  8
0
100
AcDbSpline
 62
7
  6
BYLAYER
 70
0
 71
3
 72
166
 73
162
 74
0
 42
0.0000001
 43
0.0000001
 44
0.0000000001
 40
0.0
 40
0.0
 40
0.0
 40
0.0
 40
0.0159141471
 40
0.0319715843
 40
0.0400529892
 40
0.0481639017
 40
0.0563254507
 40
0.0604018389
 40
0.064402303
 40
0.0719452605
 40
0.0788892447
 40
0.0854575568
 40
0.0916978124
 40
0.0945139068
 40
0.0970469988
 40
0.0994399448
 40
0.1020812401
 40
0.1050335055
 40
0.1082829499
 40
0.1153953461
 40
0.1226045999
 40
0.1296256554
 40
0.1365045792
 40
0.1433042351
 40
0.1502647376
 40
0.1575697241
 40
0.1651553686
 40
0.1690475772
 40
0.1730455182
 40
0.1816533033
 40
0.1912042097
 40
0.2015869675
 40
0.2069850209
 40
0.2125423615
 40
0.2183401247
 40
0.2242719011
 40
0.2299289596
 40
0.2353521237
 40
0.2405957965
 40
0.2456809973
 40
0.250488983
 40
0.2549017528
 40
0.2623110033
 40
0.2653113787
 40
0.2678972038
 40
0.2704259536
 40
0.2732750547
 40
0.2795780098
 40
0.2857488307
 40
0.2884545475
 40
0.2907615401
 40
0.2927442866
 40
0.29496871
 40
0.2976431445
 40
0.3007610238
 40
0.3042621243
 40
0.3080370777
 40
0.3157965028
 40
0.3233660914
 40
0.3308529507
 40
0.3383580738
 40
0.3460820988
 40
0.3541927106
 40
0.3626965827
 40
0.3715815009
 40
0.3808916068
 40
0.390605145
 40
0.400588759
 40
0.410893969
 40
0.4162191379
 40
0.4215107106
 40
0.4318038867
 40
0.4417063424
 40
0.4510710075
 40
0.4599382035
 40
0.4763567721
 40
0.4921618321
 40
0.5076381713
 40
0.5147074564
 40
0.5211142941
 40
0.5269270542
 40
0.5327061631
 40
0.5386633429
 40
0.5414524152
 40
0.5439738176
 40
0.5462396654
 40
0.5487103309
 40
0.5516115873
 40
0.5549421534
 40
0.5586459058
 40
0.5626592362
 40
0.5708599627
 40
0.5786957133
 40
0.5863577795
 40
0.5942321441
 40
0.6024285595
 40
0.6110240721
 40
0.6201578705
 40
0.6300089714
 40
0.6351719462
 40
0.6404914943
 40
0.6460412579
 40
0.6519317005
 40
0.6578868112
 40
0.663494833
 40
0.6688630537
 40
0.6740349182
 40
0.683800955
 40
0.6929452291
 40
0.7016123524
 40
0.7098347422
 40
0.7176441451
 40
0.7251328654
 40
0.7324046693
 40
0.7395036209
 40
0.746553343
 40
0.753633355
 40
0.7601868518
 40
0.7630415789
 40
0.7655480715
 40
0.7677380684
 40
0.7699947147
 40
0.7726156661
 40
0.7755557353
 40
0.7820223793
 40
0.7886293071
 40
0.7954771518
 40
0.8028867252
 40
0.8109520843
 40
0.8197705935
 40
0.8294231742
 40
0.8399204449
 40
0.8455659517
 40
0.8512080393
 40
0.8622626107
 40
0.8677979912
 40
0.8733647937
 40
0.8789993373
 40
0.8843430684
 40
0.8890946691
 40
0.8932544313
 40
0.896749754
 40
0.8994807782
 40
0.9005684619
 40
0.9016008742
 40
0.9040268469
 40
0.9070032166
 40
0.910502525
 40
0.9144442644
 40
0.918558675
 40
0.9264589211
 40
0.9336190871
 40
0.9397556162
 40
0.9448601674
 40
0.9500549649
 40
0.9562137216
 40
0.9631715811
 40
0.9705734983
 40
0.9780015422
 40
0.9852895353
 40
1.0
 40
1.0
 40
1.0
 40
1.0
 10
72.9169005437
 20
324.0420971951
 30
0.0
 10
73.0081842946
 20
326.4260739588
 30
0.0
 10
73.2042339846
 20
331.2149368445
 30
0.0
 10
73.3765279053
 20
337.2174362599
 30
0.0
 10
73.4060131325
 20
342.0522249553
 30
0.0
 10
73.3574289452
 20
345.7031115455
 30
0.0
 10
73.2435262751
 20
348.7519147973
 30
0.0
 10
73.1006213826
 20
351.1821415978
 30
0.0
 10
72.9304846203
 20
353.5175596754
 30
0.0
 10
72.7448181907
 20
356.2829384177
 30
0.0
 10
72.7688846684
 20
359.4464212363
 30
0.0
 10
73.2316872563
 20
362.3839737214
 30
0.0
 10
74.0236375006
 20
364.6102765035
 30
0.0
 10
74.8980576459
 20
366.1165784478
 30
0.0
 10
75.6194940245
 20
367.0325423507
 30
0.0
 10
76.4745421999
 20
367.7868890856
 30
0.0
 10
77.4933367478
 20
368.4238491327
 30
0.0
 10
78.7000303205
 20
368.979529055
 30
0.0
 10
80.5918202714
 20
369.6242322699
 30
0.0
 10
83.1742298925
 20
370.1791342393
 30
0.0
 10
86.3549904556
 20
370.5625248746
 30
0.0
 10
89.5261546974
 20
370.5972916608
 30
0.0
 10
92.6203416924
 20
370.2855469564
 30
0.0
 10
95.6470300006
 20
369.6050464613
 30
0.0
 10
98.6257707782
 20
368.5382134251
 30
0.0
 10
101.6043699159
 20
367.168748496
 30
0.0
 10
104.0915310471
 20
365.8469042376
 30
0.0
 10
106.1166998422
 20
364.7149258645
 30
0.0
 10
108.2644562511
 20
363.4890620412
 30
0.0
 10
111.188233872
 20
361.9062895304
 30
0.0
 10
115.2129818797
 20
360.3894937309
 30
0.0
 10
119.0125239677
 20
359.843893413
 30
0.0
 10
122.2167101927
 20
359.9956999567
 30
0.0
 10
124.6889596405
 20
360.5025490776
 30
0.0
 10
127.1021081872
 20
361.5017522139
 30
0.0
 10
129.2321354572
 20
363.0477852476
 30
0.0
 10
130.9266023339
 20
364.9757891986
 30
0.0
 10
132.2059401581
 20
367.0730364808
 30
0.0
 10
133.1492141159
 20
369.2441427365
 30
0.0
 10
133.824879599
 20
371.4143744613
 30
0.0
 10
134.2711422026
 20
373.5144182594
 30
0.0
 10
134.6467628695
 20
375.9788894724
 30
0.0
 10
134.9178666177
 20
378.1873423268
 30
0.0
 10
135.3734633468
 20
380.0843833699
 30
0.0
 10
135.8013251749
 20
381.2284579701
 30
0.0
 10
136.4170587498
 20
382.2585396236
 30
0.0
 10
137.5483999541
 20
383.6025882022
 30
0.0
 10
139.3697335672
 20
385.0429082963
 30
0.0
 10
141.4625604984
 20
386.007987918
 30
0.0
 10
143.1079755556
 20
386.3587648941
 30
0.0
 10
144.1624570381
 20
386.4058673641
 30
0.0
 10
145.1319347275
 20
386.2348616963
 30
0.0
 10
146.0898354472
 20
385.8346284327
 30
0.0
 10
147.1147521372
 20
385.2002859453
 30
0.0
 10
148.203449996
 20
384.3268356037
 30
0.0
 10
149.3309445553
 20
383.2494064524
 30
0.0
 10
150.862769535
 20
381.5949710628
 30
0.0
 10
152.7120399963
 20
379.4064087033
 30
0.0
 10
154.7983440906
 20
376.6945905904
 30
0.0
 10
156.7392012248
 20
373.9234832983
 30
0.0
 10
158.5916308641
 20
371.0651563484
 30
0.0
 10
160.4001898902
 20
368.0697106477
 30
0.0
 10
162.2871854436
 20
364.9468192135
 30
0.0
 10
164.4035977256
 20
361.7606443135
 30
0.0
 10
166.8936188601
 20
358.617885788
 30
0.0
 10
169.8881308319
 20
355.676090822
 30
0.0
 10
173.4413266032
 20
353.1340831532
 30
0.0
 10
177.5332960303
 20
351.1999532703
 30
0.0
 10
181.3383501706
 20
350.3903373946
 30
0.0
 10
184.4868829165
 20
350.4303177512
 30
0.0
 10
187.5872359315
 20
350.956953284
 30
0.0
 10
191.1904614155
 20
352.3652356925
 30
0.0
 10
194.8325384018
 20
354.9511404029
 30
0.0
 10
197.7559651193
 20
358.015552456
 30
0.0
 10
200.8480548311
 20
362.1977829708
 30
0.0
 10
204.0393747803
 20
367.4750959242
 30
0.0
 10
207.5871637715
 20
373.6769448174
 30
0.0
 10
210.7377480803
 20
378.5104129647
 30
0.0
 10
213.6401289188
 20
381.7529644265
 30
0.0
 10
215.8777869209
 20
383.6063049294
 30
0.0
 10
218.2857752379
 20
384.8822708002
 30
0.0
 10
220.8830574397
 20
385.456520858
 30
0.0
 10
223.0856678713
 20
385.3945519051
 30
0.0
 10
224.7353474927
 20
385.0104554772
 30
0.0
 10
225.7963292637
 20
384.5900834799
 30
0.0
 10
226.7229278938
 20
384.007218745
 30
0.0
 10
227.5608357856
 20
383.218962113
 30
0.0
 10
228.3855668017
 20
382.2049033802
 30
0.0
 10
229.2110256563
 20
380.9632845141
 30
0.0
 10
230.0478581491
 20
379.5336458139
 30
0.0
 10
231.1967570047
 20
377.4421080321
 30
0.0
 10
232.6852646272
 20
374.8306813928
 30
0.0
 10
234.4802768122
 20
371.7647215846
 30
0.0
 10
236.1972843806
 20
368.7104100209
 30
0.0
 10
237.940510859
 20
365.6087924621
 30
0.0
 10
239.8499667655
 20
362.4410281353
 30
0.0
 10
242.0368995634
 20
359.2242226421
 30
0.0
 10
244.6163724902
 20
355.9889606745
 30
0.0
 10
247.1317315991
 20
353.3687306799
 30
0.0
 10
249.5182334991
 20
351.4635231447
 30
0.0
 10
251.5725485289
 20
350.200614002
 30
0.0
 10
253.9148182008
 20
349.2509489218
 30
0.0
 10
256.5153054403
 20
348.8202525315
 30
0.0
 10
259.1474647239
 20
349.0850579632
 30
0.0
 10
261.5687265776
 20
349.8947979825
 30
0.0
 10
263.7164506502
 20
351.0289711273
 30
0.0
 10
266.217833555
 20
352.7727717413
 30
0.0
 10
268.8786441819
 20
355.2406323241
 30
0.0
 10
271.4657808229
 20
358.4792056113
 30
0.0
 10
273.5554911345
 20
361.7811147931
 30
0.0
 10
275.3392954129
 20
365.0263679032
 30
0.0
 10
276.9954974217
 20
368.1391921152
 30
0.0
 10
278.6844227085
 20
371.0723564367
 30
0.0
 10
280.4811944919
 20
373.8159532306
 30
0.0
 10
282.4589554353
 20
376.351905556
 30
0.0
 10
284.6790402395
 20
378.6423894516
 30
0.0
 10
287.0967878633
 20
380.5951451095
 30
0.0
 10
289.2433731566
 20
381.8554781122
 30
0.0
 10
290.9239109366
 20
382.4747329782
 30
0.0
 10
292.0354421186
 20
382.7121859335
 30
0.0
 10
293.0839751402
 20
382.7490642837
 30
0.0
 10
294.133221664
 20
382.559990799
 30
0.0
 10
295.2410329703
 20
382.1649535955
 30
0.0
 10
296.8447719278
 20
381.3313181948
 30
0.0
 10
298.7702829893
 20
379.8675215757
 30
0.0
 10
300.8079571735
 20
377.6683179156
 30
0.0
 10
302.5847330462
 20
375.0854662042
 30
0.0
 10
304.2541823993
 20
372.1843283109
 30
0.0
 10
306.0094276918
 20
368.993622605
 30
0.0
 10
308.0587440841
 20
365.5807475277
 30
0.0
 10
310.6833003709
 20
362.103217615
 30
0.0
 10
313.6973790196
 20
359.5777909517
 30
0.0
 10
316.691702883
 20
358.2204149916
 30
0.0
 10
319.9697611853
 20
357.4561394683
 30
0.0
 10
323.3671341734
 20
357.5404548424
 30
0.0
 10
326.5951149625
 20
358.3582608664
 30
0.0
 10
328.9163837972
 20
359.3385942468
 30
0.0
 10
331.0239145446
 20
360.6710135292
 30
0.0
 10
332.7746682414
 20
362.2643650927
 30
0.0
 10
334.1839508416
 20
363.8732023504
 30
0.0
 10
335.3402682084
 20
365.3300972617
 30
0.0
 10
336.3265428488
 20
366.5347655625
 30
0.0
 10
337.0888884924
 20
367.3274643838
 30
0.0
 10
337.6567079698
 20
367.7837120121
 30
0.0
 10
338.2317724527
 20
368.151566824
 30
0.0
 10
339.1148541928
 20
368.551141888
 30
0.0
 10
340.3934364282
 20
368.940412556
 30
0.0
 10
341.9211956357
 20
369.2695077794
 30
0.0
 10
343.6296848759
 20
369.5565542098
 30
0.0
 10
345.9920826977
 20
369.9315437792
 30
0.0
 10
348.84433884
 20
370.3014459605
 30
0.0
 10
352.0256132283
 20
370.4393518034
 30
0.0
 10
354.7841110631
 20
370.1625168095
 30
0.0
 10
357.1486716642
 20
369.3546864027
 30
0.0
 10
359.1286216993
 20
367.8244708563
 30
0.0
 10
360.8754641305
 20
365.6872734549
 30
0.0
 10
362.4025921529
 20
363.00377663
 30
0.0
 10
363.6375920802
 20
359.9720964347
 30
0.0
 10
364.5500275185
 20
356.7779922562
 30
0.0
 10
365.3315255168
 20
352.4302088596
 30
0.0
 10
365.5048630899
 20
349.1250200787
 30
0.0
 10
365.5330232405
 20
346.919922715
 30
0.0
  0
SPLINE
  5
2F4
100
AcDbEntity
  8
0
100
AcDbSpline
 62
7
  6
BYLAYER
 70
0
 71
3
 72
170
 73
166
 74
0
 42
0.0000001
 43
0.0000001
 44
0.0000000001
 40
0.0
 40
0.0
 40
0.0
 40
0.0
 40
0.015035076
 40
0.0299078586
 40
0.037276979
 40
0.044606997
 40
0.0518838501
 40
0.0555274926
 40
0.0592464458
 40
0.067119734
 40
0.0755960206
 40
0.0847021355
 40
0.0942518477
 40
0.1042306115
 40
0.1093262623
 40
0.114228545
 40
0.1235600627
 40
0.1280113812
 40
0.1323552198
 40
0.1409021489
 40
0.1494057402
 40
0.1578867868
 40
0.1663562073
 40
0.1746884859
 40
0.182800032
 40
0.1907072512
 40
0.1945344914
 40
0.198200676
 40
0.2048438494
 40
0.2078762088
 40
0.2108269009
 40
0.213782242
 40
0.2166355788
 40
0.2192084088
 40
0.2213706211
 40
0.223092559
 40
0.2249329415
 40
0.2272482694
 40
0.2299947961
 40
0.2330313191
 40
0.2362522039
 40
0.2396730844
 40
0.2434006643
 40
0.2518469825
 40
0.2566157072
 40
0.2617447547
 40
0.2669539975
 40
0.2721278411
 40
0.2824793442
 40
0.2876863287
 40
0.2929308799
 40
0.2982561255
 40
0.3037123744
 40
0.3090059219
 40
0.314021474
 40
0.3234319735
 40
0.3320652713
 40
0.3401635845
 40
0.3480304317
 40
0.3557576232
 40
0.3634122019
 40
0.3709072639
 40
0.3780885938
 40
0.3849346766
 40
0.3914805142
 40
0.3979169628
 40
0.404165234
 40
0.4098380532
 40
0.4124013521
 40
0.4148523032
 40
0.4174016016
 40
0.4200938122
 40
0.4256414799
 40
0.4316212185
 40
0.4348584837
 40
0.4382366993
 40
0.445263703
 40
0.4524493551
 40
0.4598063975
 40
0.4756152719
 40
0.4841321944
 40
0.4929131918
 40
0.5019058453
 40
0.5111876857
 40
0.5160036957
 40
0.5209191953
 40
0.5308768533
 40
0.5359236132
 40
0.5410317483
 40
0.5462540054
 40
0.5514239695
 40
0.5562890771
 40
0.5608915072
 40
0.5652462103
 40
0.5693457258
 40
0.5731732692
 40
0.5768995963
 40
0.5843684935
 40
0.5918351901
 40
0.5990762503
 40
0.6061520577
 40
0.6132070398
 40
0.6204133759
 40
0.6275916439
 40
0.6308019289
 40
0.6335569672
 40
0.6357348861
 40
0.6373072221
 40
0.6386885706
 40
0.6406710191
 40
0.6432582452
 40
0.646276274
 40
0.6527084007
 40
0.6592006249
 40
0.66596078
 40
0.6731222317
 40
0.6806840504
 40
0.6885470751
 40
0.7049315931
 40
0.7135530431
 40
0.7226054166
 40
0.7321108537
 40
0.7370345923
 40
0.742109851
 40
0.7473694015
 40
0.7525777778
 40
0.7576099486
 40
0.7625190867
 40
0.771996773
 40
0.7809044046
 40
0.789219252
 40
0.797055359
 40
0.8045257425
 40
0.8116334177
 40
0.8178270338
 40
0.8203985682
 40
0.8226075338
 40
0.8247023711
 40
0.8270652311
 40
0.8323386704
 40
0.8350323083
 40
0.8375811417
 40
0.840019735
 40
0.8428813248
 40
0.8463004132
 40
0.8502378221
 40
0.8546702849
 40
0.8596543493
 40
0.8647777485
 40
0.8695859278
 40
0.8784544833
 40
0.8825990503
 40
0.8867950063
 40
0.8954386912
 40
0.9042879594
 40
0.9133803349
 40
0.9181015044
 40
0.9228788937
 40
0.932230011
 40
0.9414426169
 40
0.9505865057
 40
0.9595822545
 40
0.9682525444
 40
0.9846002424
 40
1.0
 40
1.0
 40
1.0
 40
1.0
 10
64.9104628962
 20
324.0416026694
 30
0.0
 10
65.0021129482
 20
326.4453654844
 30
0.0
 10
65.1994541934
 20
331.2262923757
 30
0.0
 10
65.3740898714
 20
337.1883210716
 30
0.0
 10
65.4063366039
 20
341.9197659059
 30
0.0
 10
65.36083156
 20
345.4357397493
 30
0.0
 10
65.2534641601
 20
348.3541011044
 30
0.0
 10
65.115425312
 20
350.6923456234
 30
0.0
 10
64.9374840446
 20
353.1234391831
 30
0.0
 10
64.7284297483
 20
356.3280376978
 30
0.0
 10
64.7912643214
 20
360.4093953727
 30
0.0
 10
65.5159762547
 20
364.7122591456
 30
0.0
 10
67.1355284738
 20
369.032083742
 30
0.0
 10
69.4349381806
 20
372.3143444933
 30
0.0
 10
71.8902221555
 20
374.3844174563
 30
0.0
 10
74.5462766318
 20
375.9878296758
 30
0.0
 10
77.3716280562
 20
377.0376276042
 30
0.0
 10
80.1898760631
 20
377.7225929098
 30
0.0
 10
82.9198782187
 20
378.2258433329
 30
0.0
 10
86.3299393152
 20
378.5901147677
 30
0.0
 10
90.4232294831
 20
378.5818579956
 30
0.0
 10
94.4773366835
 20
378.1047778923
 30
0.0
 10
98.4172957402
 20
377.1430748124
 30
0.0
 10
102.1570150708
 20
375.743381575
 30
0.0
 10
105.6814975257
 20
374.0764995046
 30
0.0
 10
108.475799943
 20
372.5670893207
 30
0.0
 10
110.6216343756
 20
371.3557172742
 30
0.0
 10
112.5874216848
 20
370.2384563979
 30
0.0
 10
114.4832585141
 20
369.2473205199
 30
0.0
 10
116.3720661404
 20
368.5230179019
 30
0.0
 10
117.7559124096
 20
368.1508389213
 30
0.0
 10
119.1452928589
 20
367.9443600855
 30
0.0
 10
120.489491869
 20
367.9072856393
 30
0.0
 10
121.7005581564
 20
368.0428444175
 30
0.0
 10
122.7002211918
 20
368.3265187877
 30
0.0
 10
123.5151380513
 20
368.7646712015
 30
0.0
 10
124.1985271867
 20
369.4237695667
 30
0.0
 10
124.838598753
 20
370.3292675247
 30
0.0
 10
125.41910775
 20
371.4922259741
 30
0.0
 10
125.9092347284
 20
372.8496827221
 30
0.0
 10
126.2859152554
 20
374.3538832852
 30
0.0
 10
126.56249392
 20
375.9907253568
 30
0.0
 10
126.8954841212
 20
378.4622879059
 30
0.0
 10
127.3188655263
 20
381.1483632131
 30
0.0
 10
128.2293934085
 20
383.9482765615
 30
0.0
 10
129.3299168686
 20
386.1134049826
 30
0.0
 10
130.820482381
 20
388.111731862
 30
0.0
 10
133.1720816898
 20
390.4623772606
 30
0.0
 10
135.9651471184
 20
392.3321919042
 30
0.0
 10
139.044070808
 20
393.6169245018
 30
0.0
 10
141.4994060605
 20
394.2455732907
 30
0.0
 10
144.0680690872
 20
394.4638469414
 30
0.0
 10
146.6433092099
 20
394.1652830726
 30
0.0
 10
149.0440154541
 20
393.3367614373
 30
0.0
 10
151.8093361858
 20
391.7922162706
 30
0.0
 10
154.6314476091
 20
389.3717488253
 30
0.0
 10
157.4231976869
 20
386.2558313155
 30
0.0
 10
159.9132572722
 20
383.2060833212
 30
0.0
 10
162.1651428777
 20
380.1552169404
 30
0.0
 10
164.2495272707
 20
377.0734453795
 30
0.0
 10
166.1948435005
 20
373.9723770937
 30
0.0
 10
168.0233644654
 20
370.9030311775
 30
0.0
 10
169.8459357314
 20
367.9804996363
 30
0.0
 10
171.7590484789
 20
365.2977120454
 30
0.0
 10
173.8625864428
 20
362.9118421416
 30
0.0
 10
176.2218026336
 20
360.9168565711
 30
0.0
 10
178.7572282758
 20
359.4057722273
 30
0.0
 10
180.9677297987
 20
358.6337496867
 30
0.0
 10
182.6684759839
 20
358.4083256227
 30
0.0
 10
183.88353499
 20
358.4392272522
 30
0.0
 10
185.0975184559
 20
358.6681911928
 30
0.0
 10
186.7392165891
 20
359.2156260294
 30
0.0
 10
188.7376748371
 20
360.3551740981
 30
0.0
 10
190.4848351936
 20
361.9659945459
 30
0.0
 10
191.8075476891
 20
363.4870636085
 30
0.0
 10
193.1392882388
 20
365.2179176898
 30
0.0
 10
194.7108770507
 20
367.5551094904
 30
0.0
 10
196.5132835794
 20
370.49849452
 30
0.0
 10
198.9556528519
 20
374.6952732069
 30
0.0
 10
201.5134400416
 20
379.075108255
 30
0.0
 10
204.5240048511
 20
383.4385082374
 30
0.0
 10
207.2242102104
 20
386.6750735471
 30
0.0
 10
210.4334906822
 20
389.6063162808
 30
0.0
 10
213.6154162752
 20
391.5477328594
 30
0.0
 10
216.4643837348
 20
392.6372591343
 30
0.0
 10
219.5358920079
 20
393.368389703
 30
0.0
 10
222.7627495031
 20
393.4950623121
 30
0.0
 10
225.9493438638
 20
392.9949723772
 30
0.0
 10
228.3088644803
 20
392.264079088
 30
0.0
 10
230.5374350264
 20
391.145055874
 30
0.0
 10
232.48330603
 20
389.6479943048
 30
0.0
 10
234.0884634577
 20
387.9323783191
 30
0.0
 10
235.399140816
 20
386.146896994
 30
0.0
 10
236.5001343537
 20
384.3702062199
 30
0.0
 10
237.4619933165
 20
382.6565580727
 30
0.0
 10
238.3627789381
 20
381.024136755
 30
0.0
 10
239.5551220361
 20
378.9371113332
 30
0.0
 10
241.0623597755
 20
376.3596592344
 30
0.0
 10
242.8144752152
 20
373.2742529838
 30
0.0
 10
244.5132219601
 20
370.2310082877
 30
0.0
 10
246.2554175218
 20
367.2880329367
 30
0.0
 10
248.1440807087
 20
364.4409684858
 30
0.0
 10
250.2509931286
 20
361.7313240586
 30
0.0
 10
252.1637950692
 20
359.6545615196
 30
0.0
 10
253.7686230831
 20
358.2914067647
 30
0.0
 10
254.8522649005
 20
357.5602385311
 30
0.0
 10
255.7971193748
 20
357.1151814966
 30
0.0
 10
256.6015757058
 20
356.9078299739
 30
0.0
 10
257.3997854834
 20
356.9570614216
 30
0.0
 10
258.3135893053
 20
357.2468838532
 30
0.0
 10
259.4019063146
 20
357.7930004145
 30
0.0
 10
261.0011216166
 20
358.8730685406
 30
0.0
 10
262.8990942544
 20
360.5980031004
 30
0.0
 10
264.8854657647
 20
363.0531976236
 30
0.0
 10
266.6408754497
 20
365.8126209948
 30
0.0
 10
268.298125591
 20
368.8243551666
 30
0.0
 10
269.9958826
 20
372.0148565545
 30
0.0
 10
272.5320119569
 20
376.4262623726
 30
0.0
 10
275.5679433827
 20
380.7567943175
 30
0.0
 10
279.3799726916
 20
384.6680457469
 30
0.0
 10
282.7857526715
 20
387.3902695619
 30
0.0
 10
286.0796761446
 20
389.2546063354
 30
0.0
 10
289.0347397512
 20
390.2849137461
 30
0.0
 10
291.4445696203
 20
390.7393996586
 30
0.0
 10
293.9476386126
 20
390.7517381302
 30
0.0
 10
296.3956414489
 20
390.2737614821
 30
0.0
 10
298.6743849137
 20
389.421722036
 30
0.0
 10
301.4153854318
 20
387.9438153434
 30
0.0
 10
304.3799664134
 20
385.6398031304
 30
0.0
 10
307.250745099
 20
382.4536652746
 30
0.0
 10
309.5020939389
 20
379.1263686348
 30
0.0
 10
311.371706432
 20
375.841399712
 30
0.0
 10
313.1061945602
 20
372.7019727014
 30
0.0
 10
314.8359390944
 20
369.8644237168
 30
0.0
 10
316.4053313664
 20
367.8459841118
 30
0.0
 10
317.7285951174
 20
366.6837591243
 30
0.0
 10
318.6646311534
 20
366.0935691642
 30
0.0
 10
319.6740070966
 20
365.7254902937
 30
0.0
 10
321.2187411267
 20
365.4825050839
 30
0.0
 10
322.8967829271
 20
365.6328877565
 30
0.0
 10
324.5037419843
 20
366.1438068439
 30
0.0
 10
325.611320945
 20
366.6911926115
 30
0.0
 10
326.6192405046
 20
367.4513314466
 30
0.0
 10
327.5849478934
 20
368.462975804
 30
0.0
 10
328.6216300227
 20
369.7270932454
 30
0.0
 10
329.7931113071
 20
371.2054490353
 30
0.0
 10
331.2086136548
 20
372.8085425267
 30
0.0
 10
332.9649859348
 20
374.3521050747
 30
0.0
 10
335.0457708722
 20
375.5510267248
 30
0.0
 10
337.8676778829
 20
376.6180585587
 30
0.0
 10
340.6735416366
 20
377.1836050547
 30
0.0
 10
343.3905951964
 20
377.6211856277
 30
0.0
 10
346.0783121691
 20
378.0232183478
 30
0.0
 10
349.531756488
 20
378.3957053741
 30
0.0
 10
353.7967462582
 20
378.405990932
 30
0.0
 10
357.3997361123
 20
377.772438991
 30
0.0
 10
360.1850572694
 20
376.7010488799
 30
0.0
 10
362.815944108
 20
375.2046764705
 30
0.0
 10
365.6314933261
 20
372.6856295277
 30
0.0
 10
368.2461580357
 20
369.0779876839
 30
0.0
 10
370.2322353351
 20
365.1626543865
 30
0.0
 10
371.6892461875
 20
361.1186130857
 30
0.0
 10
372.9795391307
 20
355.8222607364
 30
0.0
 10
373.6106782331
 20
349.3574101065
 30
0.0
 10
373.5427767106
 20
344.2769011648
 30
0.0
 10
373.4915554439
 20
341.8135776984
 30
0.0
  0
SPLINE
  5
2F5
100
AcDbEntity
  8
0
100
AcDbSpline
 62
7
  6
BYLAYER
 70
0
 71
3
 72
11
 73
7
 74
0
 42
0.0000001
 43
0.0000001
 44
0.0000000001
 40
0.0
 40
0.0
 40
0.0
 40
0.0
 40
0.2432989168
 40
0.4945487586
 40
0.7470350216
 40
1.0
 40
1.0
 40
1.0
 40
1.0
 10
365.5330232405
 20
346.919922715
 30
0.0
 10
365.5567182918
 20
345.0644676127
 30
0.0
 10
365.4778260072
 20
341.2924196644
 30
0.0
 10
365.3629950087
 20
335.5964346396
 30
0.0
 10
365.2975985351
 20
329.8253763403
 30
0.0
 10
365.2726611651
 20
325.970470064
 30
0.0
 10
365.2643847142
 20
324.0411597388
 30
0.0
  0
SPLINE
  5
2F6
100
AcDbEntity
  8
0
100
AcDbSpline
 62
7
  6
BYLAYER
 70
0
 71
3
 72
13
 73
9
 74
0
 42
0.0000001
 43
0.0000001
 44
0.0000000001
 40
0.0
 40
0.0
 40
0.0
 40
0.0
 40
0.250323496
 40
0.5005836243
 40
0.6257405
 40
0.7508477465
 40
0.8757518871
 40
1.0
 40
1.0
 40
1.0
 40
1.0
 10
373.1103884612
 20
300.041416102
 30
0.0
 10
372.8838611744
 20
299.5592684817
 30
0.0
 10
372.4099217805
 20
298.604873704
 30
0.0
 10
371.7347525252
 20
297.4540375319
 30
0.0
 10
371.1027329589
 20
296.5950023803
 30
0.0
 10
370.5591164602
 20
296.0070013627
 30
0.0
 10
369.9152657334
 20
295.5256126905
 30
0.0
 10
369.3826210721
 20
295.3763552317
 30
0.0
 10
369.1182099027
 20
295.3763552317
 30
0.0
  0
SPLINE
  5
2F7
100
AcDbEntity
  8
0
100
AcDbSpline
 62
7
  6
BYLAYER
 70
0
 71
3
 72
13
 73
9
 74
0
 42
0.0000001
 43
0.0000001
 44
0.0000000001
 40
0.0
 40
0.0
 40
0.0
 40
0.0
 40
0.1242477962
 40
0.2491521702
 40
0.3742594617
 40
0.4994163539
 40
0.7496764955
 40
1.0
 40
1.0
 40
1.0
 40
1.0
 10
369.1182099027
 20
295.3763552317
 30
0.0
 10
368.8537994065
 20
295.3763552317
 30
0.0
 10
368.3211549193
 20
295.5256122637
 30
0.0
 10
367.6773039911
 20
296.0070006696
 30
0.0
 10
367.133686996
 20
296.5950020799
 30
0.0
 10
366.5016674056
 20
297.4540374243
 30
0.0
 10
365.826498072
 20
298.6048736408
 30
0.0
 10
365.3525586498
 20
299.5592684639
 30
0.0
 10
365.1260313541
 20
300.041416102
 30
0.0
  0
ENDSEC
  0
SECTION
  2
OBJECTS
  0
DICTIONARY
  5
C
100
AcDbDictionary
280
0
281
1
  3
ACAD_GROUP
350
D
  3
ACAD_MLINESTYLE
350
17
  3
ACAD_LAYOUT
350
1A
  3
ACAD_PLOTSETTINGS
350
19
  3
ACAD_PLOTSTYLENAME
350
E
  0
DICTIONARY
  5
D
102
{ACAD_REACTORS
330
C
102
}
100
AcDbDictionary
280
0
281
1
  0
ACDBDICTIONARYWDFLT
  5
E
102
{ACAD_REACTORS
330
C
102
}
100
AcDbDictionary
281
1
  3
Normal
350
F
100
AcDbDictionaryWithDefault
340
F
  0
DICTIONARY
  5
17
102
{ACAD_REACTORS
330
C
102
}
100
AcDbDictionary
280
0
281
1
  3
Standard
350
18
  0
DICTIONARY
  5
19
102
{ACAD_REACTORS
330
C
102
}
100
AcDbDictionary
281
1
  0
DICTIONARY
  5
1A
102
{ACAD_REACTORS
330
C
102
}
100
AcDbDictionary
281
1
  3
Model
350
2F8
  3
Layout1
350
2F9
  0
ACDBPLACEHOLDER
  5
F
102
{ACAD_REACTORS
330
E
102
}
  0
MLINESTYLE
  5
18
102
{ACAD_REACTORS
330
17
102
}
100
AcDbMlineStyle
  2
STANDARD
 70
0
  3

 62
256
 51
90.0
 52
90.0
 71
2
 49
0.5
 62
256
  6
BYLAYER
 49
-0.5
 62
256
  6
BYLAYER
  0
LAYOUT
  5
2F8
102
{ACAD_REACTORS
330
1A
102
}
100
AcDbPlotSettings
  1

  2
none_device
  4

  6

 40
0.0
 41
0.0
 42
0.0
 43
0.0
 44
210.0
 45
297.0
 46
0.0
 47
0.0
 48
0.0
 49
0.0
140
0.0
141
0.0
142
1.0
143
1.0
 70
1024
 72
1
 73
0
 74
0
  7

 75
0
147
1.0
148
0.0
149
0.0
100
AcDbLayout
  1
Model
 70
0
 71
0
 10
0.0
 20
0.0
 11
210.0
 21
297.0
 12
0.0
 22
0.0
 32
0.0
 14
0.0
 24
0.0
 34
0.0
 15
0.0
 25
0.0
 35
0.0
146
0.0
 13
0.0
 23
0.0
 33
0.0
 16
1.0
 26
0.0
 36
0.0
 17
0.0
 27
1.0
 37
0.0
 76
0
330
211
345
0
346
0
  0
LAYOUT
  5
2F9
102
{ACAD_REACTORS
330
1A
102
}
100
AcDbPlotSettings
  1

  2
none_device
  4

  6

 40
0.0
 41
0.0
 42
0.0
 43
0.0
 44
210.0
 45
297.0
 46
0.0
 47
0.0
 48
0.0
 49
0.0
140
0.0
141
0.0
142
1.0
143
1.0
 70
0
 72
1
 73
0
 74
0
  7

 75
0
147
1.0
148
0.0
149
0.0
100
AcDbLayout
  1
Layout1
 70
0
 71
1
 10
0.0
 20
0.0
 11
210.0
 21
297.0
 12
0.0
 22
0.0
 32
0.0
 14
0.0
 24
0.0
 34
0.0
 15
0.0
 25
0.0
 35
0.0
146
0.0
 13
0.0
 23
0.0
 33
0.0
 16
1.0
 26
0.0
 36
0.0
 17
0.0
 27
1.0
 37
0.0
 76
0
330
212
345
0
346
0
  0
ENDSEC
  0
EOF
