999
DXF file: C:\Users\sesa63760\Dev\_Creo\CAD\MCADID0005229_3D-CAD\drw0001_1.dxf
999
Pro/ENGINEER 2019471 by Parametric Technology Corporation
  0
SECTION
  2
HEADER
  9
$ACADVER
  1
AC1024
  9
$DWGCODEPAGE
  3
ANSI_1252
  9
$EXTMAX
 10
76.9484788775
 20
108.8271344125
 30
0.0
  9
$EXTMIN
 10
0.0
 20
0.0
 30
0.0
  9
$LIMMIN
 10
0.0
 20
0.0
  9
$LIMMAX
 10
76.9484788775
 20
108.8271344125
  9
$VIEWCTR
 10
38.4742394388
 20
54.4135672063
  9
$VIEWSIZE
 40
108.8271344125
  9
$CLAYER
  8
0
  9
$LTSCALE
 40
7.0939169099
  9
$CELTYPE
  6
BYLAYER
  9
$DIMSCALE
 40
1.0
  9
$DIMASZ
 40
0.91605332
  9
$DIMEXO
 40
1.0
  9
$DIMDLI
 40
4.9012516832
  9
$DIMEXE
 40
1.0
  9
$DIMCEN
 40
1.1608227671
  9
$DIMLFAC
 40
1.0
  9
$DIMBLK
  1
_FILLED
  9
$DIMALT
 70
0
  9
$DIMALTF
 40
0.0393700787
  9
$DIMTXT
 40
1.282474648
  9
$DIMTOL
 70
1
  9
$DIMLIM
 70
0
  9
$DIMTFAC
 40
1.0
  9
$DIMTP
 40
0.01
  9
$DIMTM
 40
0.01
  9
$DIMGAP
 40
0.625
  9
$DIMDSEP
 70
46
  9
$AUNITS
 70
0
  9
$PDMODE
 70
3
  9
$PDSIZE
 40
0.3125
  9
$HANDSEED
  5
259
  9
$TILEMODE
 70
1
  9
$MEASUREMENT
 70
1
  9
$INSUNITS
 70
4
  0
ENDSEC
  0
SECTION
  2
CLASSES
  0
CLASS
  1
ACDBDICTIONARYWDFLT
  2
AcDbDictionaryWithDefault
  3
AutoCAD 2000
 90
0
 91
1
280
0
281
0
  0
CLASS
  1
ACDBPLACEHOLDER
  2
AcDbPlaceHolder
  3
AutoCAD 2000
 90
0
 91
1
280
0
281
0
  0
CLASS
  1
LAYOUT
  2
AcDbLayout
  3
AutoCAD 2000
 90
0
 91
0
280
0
281
0
  0
ENDSEC
  0
SECTION
  2
TABLES
  0
TABLE
  2
VPORT
  5
8
100
AcDbSymbolTable
 70
2
  0
VPORT
  5
1F4
100
AcDbSymbolTableRecord
100
AcDbViewportTableRecord
  2
*ACTIVE
 70
0
 10
0.0
 20
0.0
 11
1.0
 21
1.0
 12
38.4742394388
 22
54.4135672063
 13
0.0
 23
0.0
 14
1.0
 24
1.0
 15
0.0
 25
0.0
 16
0.0
 26
0.0
 36
1.0
 17
0.0
 27
0.0
 37
0.0
 40
108.8271344125
 41
0.7070707071
 42
50.0
 43
0.0
 44
0.0
 50
0.0
 51
0.0
 71
0
 72
100
 73
1
 74
1
 75
0
 76
0
 77
0
 78
0
  0
ENDTAB
  0
TABLE
  2
LTYPE
  5
5
100
AcDbSymbolTable
 70
6
  0
LTYPE
  5
14
100
AcDbSymbolTableRecord
100
AcDbLinetypeTableRecord
  2
BYBLOCK
 70
0
  3

 72
65
 73
0
 40
0.0
  0
LTYPE
  5
15
100
AcDbSymbolTableRecord
100
AcDbLinetypeTableRecord
  2
BYLAYER
 70
0
  3

 72
65
 73
0
 40
0.0
  0
LTYPE
  5
16
100
AcDbSymbolTableRecord
100
AcDbLinetypeTableRecord
  2
CONTINUOUS
 70
64
  3
Solid line
 72
65
 73
0
 40
0.0
  0
LTYPE
  5
1F5
100
AcDbSymbolTableRecord
100
AcDbLinetypeTableRecord
  2
CENTER
 70
64
  3
____ _ ____ _ ____ _ ____ _ ____ _ ____ _ ____
 72
65
 73
4
 40
0.6
 49
0.375
 74
0
 49
-0.075
 74
0
 49
0.075
 74
0
 49
-0.075
 74
0
  0
LTYPE
  5
1F6
100
AcDbSymbolTableRecord
100
AcDbLinetypeTableRecord
  2
HIDDEN
 70
64
  3
- - - - - - - - - - - - - - - - - - - -
 72
65
 73
2
 40
0.2
 49
0.1
 74
0
 49
-0.1
 74
0
  0
LTYPE
  5
1F7
100
AcDbSymbolTableRecord
100
AcDbLinetypeTableRecord
  2
PHANTOM
 70
64
  3
_____ _ _ _____ _ _ _____ _ _ _____
 72
65
 73
6
 40
0.8
 49
0.45
 74
0
 49
-0.05
 74
0
 49
0.1
 74
0
 49
-0.05
 74
0
 49
0.1
 74
0
 49
-0.05
 74
0
  0
LTYPE
  5
1F8
100
AcDbSymbolTableRecord
100
AcDbLinetypeTableRecord
  2
DOT
 70
64
  3
. . . . . . . . . . . . . . . . . . . .
 72
65
 73
2
 40
0.2
 49
0.1
 74
0
 49
-0.1
 74
0
  0
LTYPE
  5
1F9
100
AcDbSymbolTableRecord
100
AcDbLinetypeTableRecord
  2
DASHED
 70
64
  3
- - - - - - - - - - - - - - - - - - - -
 72
65
 73
2
 40
0.2
 49
0.1
 74
0
 49
-0.1
 74
0
  0
ENDTAB
  0
TABLE
  2
LAYER
  5
2
100
AcDbSymbolTable
 70
36
  0
LAYER
  5
10
100
AcDbSymbolTableRecord
100
AcDbLayerTableRecord
  2
0
 70
0
 62
7
  6
CONTINUOUS
370
-3
390
F
  0
LAYER
  5
1FA
100
AcDbSymbolTableRecord
100
AcDbLayerTableRecord
  2
DEFAULT_1
 70
0
 62
7
  6
CENTER
370
-3
390
F
  0
LAYER
  5
1FB
100
AcDbSymbolTableRecord
100
AcDbLayerTableRecord
  2
DEFAULT_2
 70
0
 62
7
  6
HIDDEN
370
-3
390
F
  0
LAYER
  5
1FC
100
AcDbSymbolTableRecord
100
AcDbLayerTableRecord
  2
DEFAULT_3
 70
0
 62
7
  6
PHANTOM
370
-3
390
F
  0
LAYER
  5
1FD
100
AcDbSymbolTableRecord
100
AcDbLayerTableRecord
  2
00_COMPONENTS
 70
0
 62
7
  6
CONTINUOUS
370
-3
390
F
  0
LAYER
  5
1FE
100
AcDbSymbolTableRecord
100
AcDbLayerTableRecord
  2
01_1_DEFAULT_DATUMS
 70
0
 62
7
  6
CONTINUOUS
370
-3
390
F
  0
LAYER
  5
1FF
100
AcDbSymbolTableRecord
100
AcDbLayerTableRecord
  2
01_PLANES
 70
0
 62
7
  6
CONTINUOUS
370
-3
390
F
  0
LAYER
  5
200
100
AcDbSymbolTableRecord
100
AcDbLayerTableRecord
  2
02_COORD_SYS
 70
0
 62
7
  6
CONTINUOUS
370
-3
390
F
  0
LAYER
  5
201
100
AcDbSymbolTableRecord
100
AcDbLayerTableRecord
  2
03_AXES
 70
0
 62
7
  6
CONTINUOUS
370
-3
390
F
  0
LAYER
  5
202
100
AcDbSymbolTableRecord
100
AcDbLayerTableRecord
  2
04_POINTS
 70
0
 62
7
  6
CONTINUOUS
370
-3
390
F
  0
LAYER
  5
203
100
AcDbSymbolTableRecord
100
AcDbLayerTableRecord
  2
05_CURVES
 70
0
 62
7
  6
CONTINUOUS
370
-3
390
F
  0
LAYER
  5
204
100
AcDbSymbolTableRecord
100
AcDbLayerTableRecord
  2
06_SURFS
 70
0
 62
7
  6
CONTINUOUS
370
-3
390
F
  0
LAYER
  5
205
100
AcDbSymbolTableRecord
100
AcDbLayerTableRecord
  2
07_COSMETICS
 70
0
 62
7
  6
CONTINUOUS
370
-3
390
F
  0
LAYER
  5
206
100
AcDbSymbolTableRecord
100
AcDbLayerTableRecord
  2
10_NOTES
 70
0
 62
7
  6
CONTINUOUS
370
-3
390
F
  0
LAYER
  5
207
100
AcDbSymbolTableRecord
100
AcDbLayerTableRecord
  2
11_NOTES_PUB
 70
0
 62
7
  6
CONTINUOUS
370
-3
390
F
  0
LAYER
  5
208
100
AcDbSymbolTableRecord
100
AcDbLayerTableRecord
  2
13_REF_GTOL
 70
0
 62
7
  6
CONTINUOUS
370
-3
390
F
  0
LAYER
  5
209
100
AcDbSymbolTableRecord
100
AcDbLayerTableRecord
  2
16_MISC
 70
0
 62
7
  6
CONTINUOUS
370
-3
390
F
  0
LAYER
  5
20A
100
AcDbSymbolTableRecord
100
AcDbLayerTableRecord
  2
17_NO_PRINT
 70
0
 62
7
  6
CONTINUOUS
370
-3
390
F
  0
LAYER
  5
20B
100
AcDbSymbolTableRecord
100
AcDbLayerTableRecord
  2
18_DATUM_CAMS_JOINTS
 70
0
 62
7
  6
CONTINUOUS
370
-3
390
F
  0
LAYER
  5
20C
100
AcDbSymbolTableRecord
100
AcDbLayerTableRecord
  2
19_DATUM_FUNCTIONAL
 70
0
 62
7
  6
CONTINUOUS
370
-3
390
F
  0
LAYER
  5
20D
100
AcDbSymbolTableRecord
100
AcDbLayerTableRecord
  2
20_DATUM_KINEMATIC_SCHEME
 70
0
 62
7
  6
CONTINUOUS
370
-3
390
F
  0
LAYER
  5
20E
100
AcDbSymbolTableRecord
100
AcDbLayerTableRecord
  2
INTF_BLANK
 70
0
 62
7
  6
CONTINUOUS
370
-3
390
F
  0
LAYER
  5
20F
100
AcDbSymbolTableRecord
100
AcDbLayerTableRecord
  2
_BLACK_HOLE
 70
0
 62
7
  6
CONTINUOUS
370
-3
390
F
  0
LAYER
  5
210
100
AcDbSymbolTableRecord
100
AcDbLayerTableRecord
  2
black
 70
0
 62
7
  6
CONTINUOUS
370
-3
390
F
  0
ENDTAB
  0
TABLE
  2
STYLE
  5
3
100
AcDbSymbolTable
 70
1
  0
STYLE
  5
11
100
AcDbSymbolTableRecord
100
AcDbTextStyleTableRecord
  2
STANDARD
 70
0
 40
0.0
 41
1.0
 50
0.0
 71
0
 42
0.2
  3
ARIAL.TTF
  4

  0
STYLE
  5
211
100
AcDbSymbolTableRecord
100
AcDbTextStyleTableRecord
  2
TEXTSTYLE_1
 70
0
 40
0.0
 41
0.8
 50
0.0
 71
0
 42
0.2
  3
gdt
  4

  0
ENDTAB
  0
TABLE
  2
VIEW
  5
6
100
AcDbSymbolTable
 70
0
  0
ENDTAB
  0
TABLE
  2
UCS
  5
7
100
AcDbSymbolTable
 70
0
  0
ENDTAB
  0
TABLE
  2
APPID
  5
9
100
AcDbSymbolTable
 70
1
  0
APPID
  5
212
100
AcDbSymbolTableRecord
100
AcDbRegAppTableRecord
  2
ACAD
 70
0
  0
ENDTAB
  0
TABLE
  2
BLOCK_RECORD
  5
1
100
AcDbSymbolTable
 70
0
  0
BLOCK_RECORD
  5
213
100
AcDbSymbolTableRecord
100
AcDbBlockTableRecord
  2
*Model_Space
  0
BLOCK_RECORD
  5
214
100
AcDbSymbolTableRecord
100
AcDbBlockTableRecord
  2
*Paper_Space
  0
BLOCK_RECORD
  5
215
100
AcDbSymbolTableRecord
100
AcDbBlockTableRecord
  2
_FILLED
  0
ENDTAB
  0
TABLE
  2
DIMSTYLE
  5
A
100
AcDbSymbolTable
 70
1
100
AcDbDimStyleTable
 71
0
  0
DIMSTYLE
105
216
100
AcDbSymbolTableRecord
100
AcDbDimStyleTableRecord
  2
STANDARD
 70
0
  3

  4

 40
1.0
 41
0.91605332
 42
1.0
 43
0.38
 44
1.0
 45
0.0
 46
0.0
 47
0.01
 48
0.01
140
1.282474648
141
0.09
142
0.0
143
25.4
144
1.0
145
0.0
146
1.0
147
0.625
 71
1
 72
0
 73
0
 74
0
 75
0
 76
0
 77
1
 78
8
 79
2
170
0
171
1
172
0
173
0
174
0
175
0
176
0
177
0
178
0
270
2
179
2
271
2
272
2
273
2
274
2
275
0
280
0
281
0
282
0
283
1
284
8
285
0
286
0
287
3
288
0
340
11
278
46
341
215
342
215
343
215
344
215
  0
ENDTAB
  0
ENDSEC
  0
SECTION
  2
BLOCKS
  0
BLOCK
  5
20
100
AcDbEntity
  8
0
100
AcDbBlockBegin
  2
*Model_Space
 70
0
 10
0.0
 20
0.0
 30
0.0
  3
*Model_Space
  1

  0
ENDBLK
  5
21
100
AcDbEntity
  8
0
100
AcDbBlockEnd
  0
BLOCK
  5
1C
100
AcDbEntity
  8
0
100
AcDbBlockBegin
  2
*Paper_Space
 70
0
 10
0.0
 20
0.0
 30
0.0
  3
*Paper_Space
  1

  0
ENDBLK
  5
1D
100
AcDbEntity
  8
0
100
AcDbBlockEnd
  0
BLOCK
  5
217
100
AcDbEntity
  8
0
100
AcDbBlockBegin
  2
_FILLED
 70
64
 10
0.0
 20
0.0
  3
_FILLED
  1

  0
SOLID
  5
218
100
AcDbEntity
  8
0
  6
BYBLOCK
 62
0
100
AcDbTrace
 10
0.0
 20
0.0
 11
-1.0
 21
0.25
 12
-1.0
 22
-0.25
 13
-1.0
 23
-0.25
  0
ENDBLK
  5
219
100
AcDbEntity
  8
0
  6
BYBLOCK
 62
0
100
AcDbBlockEnd
  0
ENDSEC
  0
SECTION
  2
ENTITIES
  0
LWPOLYLINE
  5
21A
100
AcDbEntity
  8
03_AXES
100
AcDbPolyline
 62
7
  6
BYLAYER
 90
7
 70
0
 10
19.2508160857
 20
26.1606402231
 10
26.1177730702
 20
23.5605293096
 10
33.9313773715
 20
22.127486396
 10
42.1299871625
 20
21.962465475
 10
50.1059327469
 20
23.0797853009
 10
57.2896677149
 20
25.4079197816
 10
60.4000229846
 20
26.9732399973
  0
LINE
  5
21B
100
AcDbEntity
  8
03_AXES
100
AcDbLine
 62
7
  6
BYLAYER
 10
8.9093258999
 20
39.2868017555
 11
8.9093258999
 21
69.1511941645
  0
LWPOLYLINE
  5
21C
100
AcDbEntity
  8
03_AXES
100
AcDbPolyline
 62
7
  6
BYLAYER
 90
5
 70
0
 10
8.9095205576
 20
39.2868017318
 10
9.347705591
 20
36.3286650341
 10
11.8295229623
 20
31.8117816412
 10
16.3385868198
 20
27.8418004665
 10
19.2508160857
 20
26.1606402231
  0
LINE
  5
21D
100
AcDbEntity
  8
03_AXES
100
AcDbLine
 62
7
  6
BYLAYER
 10
15.848213351
 20
72.1897346297
 11
15.2593258999
 21
69.1511941645
  0
LINE
  5
21E
100
AcDbEntity
  8
03_AXES
100
AcDbLine
 62
7
  6
BYLAYER
 10
15.848213351
 20
72.1897346297
 11
15.848213351
 21
66.953189151
  0
LINE
  5
21F
100
AcDbEntity
  8
03_AXES
100
AcDbLine
 62
7
  6
BYLAYER
 10
18.7364884346
 20
26.4575492643
 11
18.7364884346
 21
25.6613519082
  0
LINE
  5
220
100
AcDbEntity
  8
03_AXES
100
AcDbLine
 62
7
  6
BYLAYER
 10
28.7065976393
 20
85.5047412748
 11
28.7065976391
 21
69.9503702284
  0
LINE
  5
221
100
AcDbEntity
  8
03_AXES
100
AcDbLine
 62
7
  6
BYLAYER
 10
33.8086508163
 20
67.0047650917
 11
33.8086508163
 21
82.559136138
  0
LWPOLYLINE
  5
222
100
AcDbEntity
  8
03_AXES
100
AcDbPolyline
 62
7
  6
BYLAYER
 90
4
 70
0
 10
49.4370541605
 20
45.5696732889
 10
50.5911341288
 20
44.900920976
 10
53.1179735613
 20
42.4468178997
 10
53.8092552466
 20
40.5423379873
  0
LWPOLYLINE
  5
223
100
AcDbEntity
  8
03_AXES
100
AcDbPolyline
 62
7
  6
BYLAYER
 90
6
 70
0
 10
48.5179852475
 20
54.4919584377
 10
48.5931283892
 20
54.480329974
 10
54.5977830653
 20
52.3030435988
 10
57.1135025541
 20
50.8518479465
 10
60.8900856823
 20
47.38662849
 10
61.8754965868
 20
45.2713127534
  0
LINE
  5
224
100
AcDbEntity
  8
03_AXES
100
AcDbLine
 62
7
  6
BYLAYER
 10
48.2420778024
 20
54.7319010522
 11
45.5940623681
 21
56.26069889
  0
LINE
  5
225
100
AcDbEntity
  8
03_AXES
100
AcDbLine
 62
7
  6
BYLAYER
 10
14.5891519664
 20
74.160987298
 11
11.9411365321
 21
75.6897851358
  0
LINE
  5
226
100
AcDbEntity
  8
03_AXES
100
AcDbLine
 62
7
  6
BYLAYER
 10
28.7065976391
 20
69.9503702284
 11
33.8086508163
 21
67.0047650917
  0
LINE
  5
227
100
AcDbEntity
  8
03_AXES
100
AcDbLine
 62
7
  6
BYLAYER
 10
62.2954384487
 20
50.5582826529
 11
67.3974916258
 21
47.6126775162
  0
LINE
  5
228
100
AcDbEntity
  8
03_AXES
100
AcDbLine
 62
7
  6
BYLAYER
 10
49.4370541604
 20
52.7976470544
 11
49.4370541606
 21
37.2432760079
  0
LINE
  5
229
100
AcDbEntity
  8
03_AXES
100
AcDbLine
 62
7
  6
BYLAYER
 10
62.2954384487
 20
66.1126536993
 11
62.3550875877
 21
66.4517082126
  0
LINE
  5
22A
100
AcDbEntity
  8
03_AXES
100
AcDbLine
 62
7
  6
BYLAYER
 10
62.2954384487
 20
66.1126536993
 11
62.2954384487
 21
50.5582826529
  0
LINE
  5
22B
100
AcDbEntity
  8
03_AXES
100
AcDbLine
 62
7
  6
BYLAYER
 10
49.7314342955
 20
35.7250083796
 11
49.7474058525
 21
35.7358931754
  0
LINE
  5
22C
100
AcDbEntity
  8
03_AXES
100
AcDbLine
 62
7
  6
BYLAYER
 10
49.7314342955
 20
35.7250083796
 11
49.7488347037
 21
35.7350709494
  0
LINE
  5
22D
100
AcDbEntity
  8
03_AXES
100
AcDbLine
 62
7
  6
BYLAYER
 10
66.2025152672
 20
65.1013025608
 11
63.5544998333
 21
66.6301003983
  0
LINE
  5
22E
100
AcDbEntity
  8
03_AXES
100
AcDbLine
 62
7
  6
BYLAYER
 10
32.5495894316
 20
84.5303888063
 11
29.9015739977
 21
86.0591866439
  0
LWPOLYLINE
  5
22F
100
AcDbEntity
  8
03_AXES
100
AcDbPolyline
 62
7
  6
BYLAYER
 90
3
 70
0
 10
55.9098762299
 20
33.5060094536
 10
53.1244835898
 20
32.567460816
 10
51.0969931818
 20
32.7727804579
  0
LINE
  5
230
100
AcDbEntity
  8
03_AXES
100
AcDbLine
 62
7
  6
BYLAYER
 10
67.3974916258
 20
47.6126775162
 11
67.3974916256
 21
63.167048563
  0
LINE
  5
231
100
AcDbEntity
  8
03_AXES
100
AcDbLine
 62
7
  6
BYLAYER
 10
69.2343258999
 20
39.2868017555
 11
69.2343258999
 21
69.1511941645
  0
ARC
  5
232
100
AcDbEntity
  8
03_AXES
100
AcDbCircle
 62
7
  6
BYLAYER
 10
38.4304812826
 20
41.1054880785
 40
46.0576766863
100
AcDbArc
 50
100.7424433778
 51
101.5830313816
  0
ARC
  5
233
100
AcDbEntity
  8
03_AXES
100
AcDbCircle
 62
7
  6
BYLAYER
 10
39.316127035
 20
97.0879762621
 40
41.3071307362
100
AcDbArc
 50
277.7608600215
 51
278.741796835
  0
SPLINE
  5
234
100
AcDbEntity
  8
03_AXES
100
AcDbSpline
 62
7
  6
BYLAYER
 70
0
 71
3
 72
15
 73
11
 74
0
 42
0.0000001
 43
0.0000001
 44
0.0000000001
 40
0.0
 40
0.0
 40
0.0
 40
0.0
 40
0.1485899994
 40
0.2895074309
 40
0.4227227463
 40
0.5486437944
 40
0.6680017685
 40
0.7819385133
 40
0.8919876234
 40
1.0
 40
1.0
 40
1.0
 40
1.0
 10
60.4000229846
 20
26.9732399973
 30
0.0
 10
61.0803115087
 20
27.3660024154
 30
0.0
 10
62.3750125715
 20
28.1866161643
 30
0.0
 10
64.1450092749
 20
29.5566291147
 30
0.0
 10
65.6759511199
 20
31.0220593801
 30
0.0
 10
66.9526329438
 20
32.5694454486
 30
0.0
 10
67.9619419173
 20
34.1851718407
 30
0.0
 10
68.6925142124
 20
35.8545517685
 30
0.0
 10
69.1351705355
 20
37.5606752341
 30
0.0
 10
69.2342837365
 20
38.7157890269
 30
0.0
 10
69.2343028003
 20
39.2868017773
 30
0.0
  0
SPLINE
  5
235
100
AcDbEntity
  8
03_AXES
100
AcDbSpline
 62
7
  6
BYLAYER
 70
0
 71
3
 72
18
 73
14
 74
0
 42
0.0000001
 43
0.0000001
 44
0.0000000001
 40
0.0
 40
0.0
 40
0.0
 40
0.0
 40
0.1250834826
 40
0.2565845613
 40
0.3908831037
 40
0.5227698535
 40
0.6484008738
 40
0.7087472664
 40
0.7678084349
 40
0.8260587101
 40
0.8840635671
 40
0.9418823456
 40
1.0
 40
1.0
 40
1.0
 40
1.0
 10
22.6328840074
 20
24.3429880544
 30
0.0
 10
22.4592814679
 20
24.2427591794
 30
0.0
 10
22.0754918538
 20
24.0834599535
 30
0.0
 10
21.4567950404
 20
23.9655758269
 30
0.0
 10
20.8159336752
 20
23.9610559775
 30
0.0
 10
20.1940612295
 20
24.0702019689
 30
0.0
 10
19.7156612829
 20
24.2588653792
 30
0.0
 10
19.3832297183
 20
24.4699281784
 30
0.0
 10
19.1660679371
 20
24.6557616136
 30
0.0
 10
18.984018858
 20
24.871588659
 30
0.0
 10
18.8450427306
 20
25.1154506367
 30
0.0
 10
18.7565869946
 20
25.3817798414
 30
0.0
 10
18.7364884346
 20
25.5682126213
 30
0.0
 10
18.7364884346
 20
25.6613519082
 30
0.0
  0
SPLINE
  5
236
100
AcDbEntity
  8
03_AXES
100
AcDbSpline
 62
7
  6
BYLAYER
 70
0
 71
3
 72
15
 73
11
 74
0
 42
0.0000001
 43
0.0000001
 44
0.0000000001
 40
0.0
 40
0.0
 40
0.0
 40
0.0
 40
0.1114365597
 40
0.227233754
 40
0.347561362
 40
0.4722685129
 40
0.6008264321
 40
0.7324117762
 40
0.8659289146
 40
1.0
 40
1.0
 40
1.0
 40
1.0
 10
28.7065976392
 20
69.9503702287
 30
0.0
 10
28.7065976392
 20
69.4983055638
 30
0.0
 10
28.6296729595
 20
68.5751555654
 30
0.0
 10
28.3033707903
 20
67.1989919167
 30
0.0
 10
27.7805841865
 20
65.8277736527
 30
0.0
 10
27.0831537835
 20
64.4791670372
 30
0.0
 10
26.2351868113
 20
63.1658973288
 30
0.0
 10
25.2621864762
 20
61.8976953826
 30
0.0
 10
24.1888436739
 20
60.6837409372
 30
0.0
 10
23.4213396129
 20
59.9151012785
 30
0.0
 10
23.0266672087
 20
59.5408743067
 30
0.0
  0
SPLINE
  5
237
100
AcDbEntity
  8
03_AXES
100
AcDbSpline
 62
7
  6
BYLAYER
 70
0
 71
3
 72
9
 73
5
 74
0
 42
0.0000001
 43
0.0000001
 44
0.0000000001
 40
0.0
 40
0.0
 40
0.0
 40
0.0
 40
0.2474426959
 40
1.0
 40
1.0
 40
1.0
 40
1.0
 10
22.9292862042
 20
24.5492242616
 30
0.0
 10
22.9064470317
 20
24.5300747009
 30
0.0
 10
22.8123261022
 20
24.454867549
 30
0.0
 10
22.7113866417
 20
24.388311301
 30
0.0
 10
22.6328840074
 20
24.3429880544
 30
0.0
  0
SPLINE
  5
238
100
AcDbEntity
  8
03_AXES
100
AcDbSpline
 62
7
  6
BYLAYER
 70
0
 71
3
 72
15
 73
11
 74
0
 42
0.0000001
 43
0.0000001
 44
0.0000000001
 40
0.0
 40
0.0
 40
0.0
 40
0.0
 40
0.1318282285
 40
0.2607277399
 40
0.3871937164
 40
0.5118207727
 40
0.6350818195
 40
0.7573417735
 40
0.8788989343
 40
1.0
 40
1.0
 40
1.0
 40
1.0
 10
49.4370541605
 20
37.2432760081
 30
0.0
 10
49.4370541605
 20
36.904282421
 30
0.0
 10
49.4790172141
 20
36.2329439605
 30
0.0
 10
49.6714863651
 20
35.2531757021
 30
0.0
 10
49.9876290261
 20
34.3254317768
 30
0.0
 10
50.4184512098
 20
33.4613876469
 30
0.0
 10
50.9536557577
 20
32.6709491176
 30
0.0
 10
51.582311455
 20
31.9632159446
 30
0.0
 10
52.2922688457
 20
31.345874139
 30
0.0
 10
52.8132297977
 20
30.9987656221
 30
0.0
 10
53.0829195996
 20
30.8430642452
 30
0.0
  0
SPLINE
  5
239
100
AcDbEntity
  8
03_AXES
100
AcDbSpline
 62
7
  6
BYLAYER
 70
0
 71
3
 72
14
 73
10
 74
0
 42
0.0000001
 43
0.0000001
 44
0.0000000001
 40
0.0
 40
0.0
 40
0.0
 40
0.0
 40
0.2924429926
 40
0.424221214
 40
0.546894201
 40
0.662345209
 40
0.7734760306
 40
0.8844595978
 40
1.0
 40
1.0
 40
1.0
 40
1.0
 10
11.9411365321
 20
75.6897851358
 30
0.0
 10
11.8399195705
 20
75.7482214538
 30
0.0
 10
11.6836378452
 20
75.819620054
 30
0.0
 10
11.4693240615
 20
75.8661390532
 30
0.0
 10
11.320810647
 20
75.8730097381
 30
0.0
 10
11.1818070495
 20
75.8515427936
 30
0.0
 10
11.0555082966
 20
75.8003174969
 30
0.0
 10
10.9462520871
 20
75.7186689313
 30
0.0
 10
10.8890528502
 20
75.6471359487
 30
0.0
 10
10.8644626973
 20
75.6080525312
 30
0.0
  0
SPLINE
  5
23A
100
AcDbEntity
  8
03_AXES
100
AcDbSpline
 62
7
  6
BYLAYER
 70
0
 71
3
 72
14
 73
10
 74
0
 42
0.0000001
 43
0.0000001
 44
0.0000000001
 40
0.0
 40
0.0
 40
0.0
 40
0.0
 40
0.1155380645
 40
0.2416402583
 40
0.3735809439
 40
0.5070967104
 40
0.7656127804
 40
0.8867045469
 40
1.0
 40
1.0
 40
1.0
 40
1.0
 10
15.848213351
 20
72.1897346297
 30
0.0
 10
15.848213351
 20
72.2831959089
 30
0.0
 10
15.8259419955
 20
72.4788660449
 30
0.0
 10
15.74180855
 20
72.7701471521
 30
0.0
 10
15.6130117875
 20
73.0605299918
 30
0.0
 10
15.3962519137
 20
73.4254966231
 30
0.0
 10
15.1281863894
 20
73.7474353331
 30
0.0
 10
14.8260695192
 20
74.0085254211
 30
0.0
 10
14.6685212027
 20
74.1151644847
 30
0.0
 10
14.5891519664
 20
74.160987298
 30
0.0
  0
SPLINE
  5
23B
100
AcDbEntity
  8
03_AXES
100
AcDbSpline
 62
7
  6
BYLAYER
 70
0
 71
3
 72
13
 73
9
 74
0
 42
0.0000001
 43
0.0000001
 44
0.0000000001
 40
0.0
 40
0.0
 40
0.0
 40
0.0
 40
0.2933028241
 40
0.5467812473
 40
0.6629262023
 40
0.7752157999
 40
0.8866294595
 40
1.0
 40
1.0
 40
1.0
 40
1.0
 10
28.7065976393
 20
85.5047412748
 30
0.0
 10
28.7065976393
 20
85.5965346741
 30
0.0
 10
28.7241760588
 20
85.7687884216
 30
0.0
 10
28.8064754179
 20
85.9639893655
 30
0.0
 10
28.9028543372
 20
86.0811945728
 30
0.0
 10
28.9858953187
 20
86.1488216241
 30
0.0
 10
29.0799963724
 20
86.1979750935
 30
0.0
 10
29.1478996199
 20
86.2180738787
 30
0.0
 10
29.1826582184
 20
86.2251969903
 30
0.0
  0
SPLINE
  5
23C
100
AcDbEntity
  8
03_AXES
100
AcDbSpline
 62
7
  6
BYLAYER
 70
0
 71
3
 72
20
 73
16
 74
0
 42
0.0000001
 43
0.0000001
 44
0.0000000001
 40
0.0
 40
0.0
 40
0.0
 40
0.0
 40
0.0568875236
 40
0.1174761735
 40
0.1808496118
 40
0.24615552
 40
0.3796114719
 40
0.5131287274
 40
0.6435395853
 40
0.7069268372
 40
0.7688172005
 40
0.8290722268
 40
0.8876406765
 40
0.9445841764
 40
1.0
 40
1.0
 40
1.0
 40
1.0
 10
62.2954384487
 20
50.5582826529
 30
0.0
 10
62.2954384487
 20
50.1986604285
 30
0.0
 10
62.283292744
 20
49.455985637
 30
0.0
 10
62.232264812
 20
48.3137273597
 30
0.0
 10
62.14544594
 20
47.1202138754
 30
0.0
 10
61.9763990743
 20
45.4715663027
 30
0.0
 10
61.6588729322
 20
43.3930471314
 30
0.0
 10
61.071016625
 20
40.9470648891
 30
0.0
 10
60.3654029531
 20
38.9950500192
 30
0.0
 10
59.6518072024
 20
37.5430373426
 30
0.0
 10
59.0481493696
 20
36.535647299
 30
0.0
 10
58.3710010877
 20
35.6132562883
 30
0.0
 10
57.6215724243
 20
34.7897775844
 30
0.0
 10
56.804962137
 20
34.0783910406
 30
0.0
 10
56.2132615526
 20
33.6811680057
 30
0.0
 10
55.9098762299
 20
33.5060094536
 30
0.0
  0
SPLINE
  5
23D
100
AcDbEntity
  8
03_AXES
100
AcDbSpline
 62
7
  6
BYLAYER
 70
0
 71
3
 72
23
 73
19
 74
0
 42
0.0000001
 43
0.0000001
 44
0.0000000001
 40
0.0
 40
0.0
 40
0.0
 40
0.0
 40
0.0391039677
 40
0.0798496738
 40
0.1234289666
 40
0.17079489
 40
0.2224045146
 40
0.2784069128
 40
0.3387088483
 40
0.4030417958
 40
0.4710090014
 40
0.5421169253
 40
0.6157989071
 40
0.6914329317
 40
0.7683600554
 40
0.8458903859
 40
0.9233350658
 40
1.0
 40
1.0
 40
1.0
 40
1.0
 10
15.2593258999
 20
69.1511941645
 30
0.0
 10
15.2593258999
 20
68.6904575782
 30
0.0
 10
15.3548948489
 20
67.7471815931
 30
0.0
 10
15.7823475607
 20
66.3484930996
 30
0.0
 10
16.4996722603
 20
64.9639567926
 30
0.0
 10
17.5047439141
 20
63.6103581423
 30
0.0
 10
18.792911694
 20
62.3086764721
 30
0.0
 10
20.3503752855
 20
61.0815785024
 30
0.0
 10
22.1577802829
 20
59.9507708472
 30
0.0
 10
24.1909081013
 20
58.9357316094
 30
0.0
 10
26.4220142204
 20
58.0531401817
 30
0.0
 10
28.8207561107
 20
57.3169055114
 30
0.0
 10
31.3548121118
 20
56.7381942518
 30
0.0
 10
33.9904082766
 20
56.3254815995
 30
0.0
 10
36.6926626287
 20
56.0847593284
 30
0.0
 10
39.4261618637
 20
56.019366955
 30
0.0
 10
42.1549795131
 20
56.1303060819
 30
0.0
 10
43.9621439379
 20
56.3224062667
 30
0.0
 10
44.8566358572
 20
56.4481935485
 30
0.0
  0
SPLINE
  5
23E
100
AcDbEntity
  8
03_AXES
100
AcDbSpline
 62
7
  6
BYLAYER
 70
0
 71
3
 72
14
 73
10
 74
0
 42
0.0000001
 43
0.0000001
 44
0.0000000001
 40
0.0
 40
0.0
 40
0.0
 40
0.0
 40
0.1150287156
 40
0.24009561
 40
0.3713489525
 40
0.504901735
 40
0.7647902845
 40
0.8864740281
 40
1.0
 40
1.0
 40
1.0
 40
1.0
 10
49.4370541604
 20
52.7976470544
 30
0.0
 10
49.4370541604
 20
52.8881582358
 30
0.0
 10
49.4175719356
 20
53.0772741361
 30
0.0
 10
49.3422127736
 20
53.3605059568
 30
0.0
 10
49.224407045
 20
53.6447136008
 30
0.0
 10
49.0218250518
 20
54.005172635
 30
0.0
 10
48.7657206382
 20
54.3246372948
 30
0.0
 10
48.4729526502
 20
54.5826286043
 30
0.0
 10
48.3194391951
 20
54.6872374418
 30
0.0
 10
48.2420778024
 20
54.7319010522
 30
0.0
  0
SPLINE
  5
23F
100
AcDbEntity
  8
03_AXES
100
AcDbSpline
 62
7
  6
BYLAYER
 70
0
 71
3
 72
10
 73
6
 74
0
 42
0.0000001
 43
0.0000001
 44
0.0000000001
 40
0.0
 40
0.0
 40
0.0
 40
0.0
 40
0.2799569226
 40
0.5397330094
 40
1.0
 40
1.0
 40
1.0
 40
1.0
 10
45.5940623681
 20
56.26069889
 30
0.0
 10
45.5316807456
 20
56.2967141218
 30
0.0
 10
45.4071876604
 20
56.3595367812
 30
0.0
 10
45.1642358758
 20
56.4441616944
 30
0.0
 10
44.9739088296
 20
56.4646851126
 30
0.0
 10
44.8566392195
 20
56.448185358
 30
0.0
  0
SPLINE
  5
240
100
AcDbEntity
  8
03_AXES
100
AcDbSpline
 62
7
  6
BYLAYER
 70
0
 71
3
 72
15
 73
11
 74
0
 42
0.0000001
 43
0.0000001
 44
0.0000000001
 40
0.0
 40
0.0
 40
0.0
 40
0.0
 40
0.148516257
 40
0.2894192601
 40
0.422612006
 40
0.5485145335
 40
0.667886591
 40
0.7818498805
 40
0.8919381139
 40
1.0
 40
1.0
 40
1.0
 40
1.0
 10
49.7488347037
 20
35.7350709494
 30
0.0
 10
50.0875273842
 20
35.9312569012
 30
0.0
 10
50.7321689068
 20
36.3411685248
 30
0.0
 10
51.6134427742
 20
37.0251003446
 30
0.0
 10
52.375616778
 20
37.7565256448
 30
0.0
 10
53.0110405802
 20
38.5286778361
 30
0.0
 10
53.5134868041
 20
39.3346629483
 30
0.0
 10
53.8770508569
 20
40.1673892384
 30
0.0
 10
54.0973729275
 20
41.0183212346
 30
0.0
 10
54.1466800268
 20
41.594403436
 30
0.0
 10
54.1466986407
 20
41.879197073
 30
0.0
  0
SPLINE
  5
241
100
AcDbEntity
  8
03_AXES
100
AcDbSpline
 62
7
  6
BYLAYER
 70
0
 71
3
 72
11
 73
7
 74
0
 42
0.0000001
 43
0.0000001
 44
0.0000000001
 40
0.0
 40
0.0
 40
0.0
 40
0.0
 40
0.2581422494
 40
0.5093876097
 40
0.7558520921
 40
1.0
 40
1.0
 40
1.0
 40
1.0
 10
10.8644070268
 20
75.6081151472
 30
0.0
 10
10.5513516962
 20
75.1105665278
 30
0.0
 10
9.9921687998
 20
74.090032162
 30
0.0
 10
9.3720327225
 20
72.4786413187
 30
0.0
 10
8.9940435899
 20
70.8261753606
 30
0.0
 10
8.9093259004
 20
69.707168266
 30
0.0
 10
8.9093259004
 20
69.1511941645
 30
0.0
  0
SPLINE
  5
242
100
AcDbEntity
  8
03_AXES
100
AcDbSpline
 62
7
  6
BYLAYER
 70
0
 71
3
 72
26
 73
22
 74
0
 42
0.0000001
 43
0.0000001
 44
0.0000000001
 40
0.0
 40
0.0
 40
0.0
 40
0.0
 40
0.0233211792
 40
0.0467237458
 40
0.0703324791
 40
0.0942515719
 40
0.1185661887
 40
0.1433631662
 40
0.1946843463
 40
0.2487760639
 40
0.3059521618
 40
0.366324956
 40
0.4298178822
 40
0.4961912324
 40
0.5650710824
 40
0.6359782258
 40
0.7083541958
 40
0.7815878247
 40
0.8550350488
 40
0.9280463537
 40
1.0
 40
1.0
 40
1.0
 40
1.0
 10
69.2343258993
 20
69.1511941645
 30
0.0
 10
69.2343258993
 20
69.5225778584
 30
0.0
 10
69.1967213067
 20
70.2671747212
 30
0.0
 10
69.028554351
 20
71.3762770291
 30
0.0
 10
68.7498894971
 20
72.472761534
 30
0.0
 10
68.3636683749
 20
73.5514110862
 30
0.0
 10
67.872747371
 20
74.6074600212
 30
0.0
 10
67.0743532621
 20
75.9952544767
 30
0.0
 10
65.819803631
 20
77.657762415
 30
0.0
 10
63.9734437252
 20
79.4836327982
 30
0.0
 10
61.7983328956
 20
81.1495329436
 30
0.0
 10
59.3250035847
 20
82.6410288986
 30
0.0
 10
56.5854481283
 20
83.9446412278
 30
0.0
 10
53.6146917341
 20
85.0472153519
 30
0.0
 10
50.4509677411
 20
85.9367700155
 30
0.0
 10
47.1355560098
 20
86.6030332224
 30
0.0
 10
43.7122436654
 20
87.0380305804
 30
0.0
 10
40.2267109764
 20
87.2363735039
 30
0.0
 10
36.7256338737
 20
87.1956071954
 30
0.0
 10
33.2560695835
 20
86.9162829869
 30
0.0
 10
30.9713454079
 20
86.5695937953
 30
0.0
 10
29.8455854603
 20
86.3560034951
 30
0.0
  0
SPLINE
  5
243
100
AcDbEntity
  8
03_AXES
100
AcDbSpline
 62
7
  6
BYLAYER
 70
0
 71
3
 72
9
 73
5
 74
0
 42
0.0000001
 43
0.0000001
 44
0.0000000001
 40
0.0
 40
0.0
 40
0.0
 40
0.0
 40
0.5095420702
 40
1.0
 40
1.0
 40
1.0
 40
1.0
 10
62.3542586008
 20
66.4525876204
 30
0.0
 10
62.5269745172
 20
66.8888621098
 30
0.0
 10
62.7930471905
 20
67.7765605873
 30
0.0
 10
62.8843258999
 20
68.6995493228
 30
0.0
 10
62.8843258999
 20
69.1511941645
 30
0.0
  0
SPLINE
  5
244
100
AcDbEntity
  8
03_AXES
100
AcDbSpline
 62
7
  6
BYLAYER
 70
0
 71
3
 72
15
 73
11
 74
0
 42
0.0000001
 43
0.0000001
 44
0.0000000001
 40
0.0
 40
0.0
 40
0.0
 40
0.0
 40
0.1133037071
 40
0.2342835624
 40
0.3615404114
 40
0.4931882759
 40
0.6266821228
 40
0.7585755257
 40
0.8845255243
 40
1.0
 40
1.0
 40
1.0
 40
1.0
 10
32.5495894316
 20
84.5303888063
 30
0.0
 10
32.6289945562
 20
84.4845452734
 30
0.0
 10
32.7865692026
 20
84.3780160831
 30
0.0
 10
33.0083339711
 20
84.1863168354
 30
0.0
 10
33.2181805619
 20
83.9608599953
 30
0.0
 10
33.4092393823
 20
83.7064862464
 30
0.0
 10
33.5736266172
 20
83.4296554961
 30
0.0
 10
33.7023945521
 20
83.1393752223
 30
0.0
 10
33.7863941071
 20
82.8481450378
 30
0.0
 10
33.8086508163
 20
82.6525814081
 30
0.0
 10
33.8086508163
 20
82.559136138
 30
0.0
  0
SPLINE
  5
245
100
AcDbEntity
  8
03_AXES
100
AcDbSpline
 62
7
  6
BYLAYER
 70
0
 71
3
 72
15
 73
11
 74
0
 42
0.0000001
 43
0.0000001
 44
0.0000000001
 40
0.0
 40
0.0
 40
0.0
 40
0.0
 40
0.1134648087
 40
0.2350836919
 40
0.3630607075
 40
0.495304806
 40
0.6288223075
 40
0.7600407312
 40
0.8850473058
 40
1.0
 40
1.0
 40
1.0
 40
1.0
 10
66.2025152676
 20
65.1013025606
 30
0.0
 10
66.2798665722
 20
65.0566447743
 30
0.0
 10
66.4333503071
 20
64.9520875509
 30
0.0
 10
66.6482632932
 20
64.7627644451
 30
0.0
 10
66.85003645
 20
64.5391165806
 30
0.0
 10
67.0314941545
 20
64.2870693093
 30
0.0
 10
67.1848701659
 20
64.0140197993
 30
0.0
 10
67.3026641709
 20
63.7298478256
 30
0.0
 10
67.3780794124
 20
63.4466268034
 30
0.0
 10
67.3974916256
 20
63.2575368827
 30
0.0
 10
67.3974916256
 20
63.167048563
 30
0.0
  0
SPLINE
  5
246
100
AcDbEntity
  8
03_AXES
100
AcDbSpline
 62
7
  6
BYLAYER
 70
0
 71
3
 72
15
 73
11
 74
0
 42
0.0000001
 43
0.0000001
 44
0.0000000001
 40
0.0
 40
0.0
 40
0.0
 40
0.0
 40
0.1355975019
 40
0.2694566173
 40
0.4005937947
 40
0.5282806143
 40
0.6520579637
 40
0.7717399697
 40
0.8875486117
 40
1.0
 40
1.0
 40
1.0
 40
1.0
 10
28.4636833441
 20
57.5814967444
 30
0.0
 10
28.8321584107
 20
57.9239952082
 30
0.0
 10
29.5483857235
 20
58.6221453599
 30
0.0
 10
30.5539866854
 20
59.717675297
 30
0.0
 10
31.4668234602
 20
60.8547316384
 30
0.0
 10
32.2652501661
 20
62.0305617962
 30
0.0
 10
32.9257101651
 20
63.2417461631
 30
0.0
 10
33.4237174086
 20
64.4821048779
 30
0.0
 10
33.7357193594
 20
65.7393100445
 30
0.0
 10
33.8086508163
 20
66.5875680216
 30
0.0
 10
33.8086508163
 20
67.0047650917
 30
0.0
  0
SPLINE
  5
247
100
AcDbEntity
  8
03_AXES
100
AcDbSpline
 62
7
  6
BYLAYER
 70
0
 71
3
 72
15
 73
11
 74
0
 42
0.0000001
 43
0.0000001
 44
0.0000000001
 40
0.0
 40
0.0
 40
0.0
 40
0.0
 40
0.1073032189
 40
0.2167526454
 40
0.3302917821
 40
0.4495036187
 40
0.5755499827
 40
0.7091552987
 40
0.8506441658
 40
1.0
 40
1.0
 40
1.0
 40
1.0
 10
54.1466986407
 20
41.879197073
 30
0.0
 10
54.1467178719
 20
42.1734350212
 30
0.0
 10
54.0939177479
 20
42.7690580156
 30
0.0
 10
53.8587107853
 20
43.6479094318
 30
0.0
 10
53.4705872484
 20
44.5064881754
 30
0.0
 10
52.935027518
 20
45.3356890764
 30
0.0
 10
52.2582761178
 20
46.1275376393
 30
0.0
 10
51.4477338946
 20
46.8745685995
 30
0.0
 10
50.5119685483
 20
47.569786613
 30
0.0
 10
49.8286273922
 20
47.9834230735
 30
0.0
 10
49.4697762016
 20
48.1808007553
 30
0.0
  0
SPLINE
  5
248
100
AcDbEntity
  8
03_AXES
100
AcDbSpline
 62
7
  6
BYLAYER
 70
0
 71
3
 72
20
 73
16
 74
0
 42
0.0000001
 43
0.0000001
 44
0.0000000001
 40
0.0
 40
0.0
 40
0.0
 40
0.0
 40
0.0554698263
 40
0.1126748419
 40
0.1716389483
 40
0.2323661916
 40
0.2947511759
 40
0.3586136153
 40
0.4897449705
 40
0.6233781606
 40
0.7561031027
 40
0.8207677521
 40
0.8834314899
 40
0.9434158785
 40
1.0
 40
1.0
 40
1.0
 40
1.0
 10
60.4000229846
 20
30.9136806624
 30
0.0
 10
60.7016416647
 20
31.0878192491
 30
0.0
 10
61.2927603701
 20
31.4800828713
 30
0.0
 10
62.1184926482
 20
32.1757364147
 30
0.0
 10
62.8891745689
 20
32.9781987546
 30
0.0
 10
63.5990477035
 20
33.8763046932
 30
0.0
 10
64.2455030723
 20
34.8578450368
 30
0.0
 10
65.0274631445
 20
36.2735861912
 30
0.0
 10
65.8332176164
 20
38.1796804783
 30
0.0
 10
66.5465681688
 20
40.5751761064
 30
0.0
 10
66.9590067058
 20
42.614921972
 30
0.0
 10
67.1876833788
 20
44.2319252415
 30
0.0
 10
67.3080118886
 20
45.4021452776
 30
0.0
 10
67.380190991
 20
46.5254352552
 30
0.0
 10
67.3974916258
 20
47.2574024519
 30
0.0
 10
67.3974916258
 20
47.6126775165
 30
0.0
  0
SPLINE
  5
249
100
AcDbEntity
  8
03_AXES
100
AcDbSpline
 62
7
  6
BYLAYER
 70
0
 71
3
 72
18
 73
14
 74
0
 42
0.0000001
 43
0.0000001
 44
0.0000000001
 40
0.0
 40
0.0
 40
0.0
 40
0.0
 40
0.0428026103
 40
0.0872032527
 40
0.1345294567
 40
0.1856701766
 40
0.2410825166
 40
0.3008145928
 40
0.4318224757
 40
0.5742925067
 40
0.7214347664
 40
0.8656712122
 40
1.0
 40
1.0
 40
1.0
 40
1.0
 10
18.7365026376
 20
25.6613519067
 30
0.0
 10
18.7364826309
 20
25.5972122938
 30
0.0
 10
18.7527288408
 20
25.4660354916
 30
0.0
 10
18.8241309551
 20
25.2757904553
 30
0.0
 10
18.9405085331
 20
25.0944376265
 30
0.0
 10
19.0986518147
 20
24.9251749733
 30
0.0
 10
19.2954032659
 20
24.7708938595
 30
0.0
 10
19.6136911564
 20
24.5828007275
 30
0.0
 10
20.0847366289
 20
24.4057621587
 30
0.0
 10
20.7075564233
 20
24.292576766
 30
0.0
 10
21.3604255626
 20
24.2803784002
 30
0.0
 10
21.9946527368
 20
24.3698336916
 30
0.0
 10
22.3946254552
 20
24.4998470509
 30
0.0
 10
22.5779661393
 20
24.5829398708
 30
0.0
  0
SPLINE
  5
24A
100
AcDbEntity
  8
03_AXES
100
AcDbSpline
 62
7
  6
BYLAYER
 70
0
 71
3
 72
9
 73
5
 74
0
 42
0.0000001
 43
0.0000001
 44
0.0000000001
 40
0.0
 40
0.0
 40
0.0
 40
0.0
 40
0.255529098
 40
1.0
 40
1.0
 40
1.0
 40
1.0
 10
22.5779661393
 20
24.5829398708
 30
0.0
 10
22.5965105595
 20
24.5913444875
 30
0.0
 10
22.6687018701
 20
24.6250663042
 30
0.0
 10
22.7393322931
 20
24.6621620405
 30
0.0
 10
22.7907033208
 20
24.6918209402
 30
0.0
  0
SPLINE
  5
24B
100
AcDbEntity
  8
03_AXES
100
AcDbSpline
 62
7
  6
BYLAYER
 70
0
 71
3
 72
19
 73
15
 74
0
 42
0.0000001
 43
0.0000001
 44
0.0000000001
 40
0.0
 40
0.0
 40
0.0
 40
0.0
 40
0.0583031493
 40
0.11530471
 40
0.1713821106
 40
0.2269893608
 40
0.2826052822
 40
0.3386984139
 40
0.3957168794
 40
0.4540730649
 40
0.5760656504
 40
0.7070364799
 40
0.8482246315
 40
1.0
 40
1.0
 40
1.0
 40
1.0
 10
63.5544998333
 20
66.6301003983
 30
0.0
 10
63.6944755088
 20
66.9334627055
 30
0.0
 10
63.9418567721
 20
67.5476127801
 30
0.0
 10
64.2115771331
 20
68.4938254263
 30
0.0
 10
64.373352159
 20
69.448876659
 30
0.0
 10
64.4264410377
 20
70.4081485536
 30
0.0
 10
64.3704453133
 20
71.3673524227
 30
0.0
 10
64.2058913269
 20
72.3221323315
 30
0.0
 10
63.9333526475
 20
73.2681733158
 30
0.0
 10
63.4209354558
 20
74.5304894982
 30
0.0
 10
62.5011109529
 20
76.0726928553
 30
0.0
 10
61.017691158
 20
77.7884695691
 30
0.0
 10
59.1663044731
 20
79.3731336945
 30
0.0
 10
57.7569355347
 20
80.293897451
 30
0.0
 10
57.0040757723
 20
80.7293635166
 30
0.0
  0
SPLINE
  5
24C
100
AcDbEntity
  8
03_AXES
100
AcDbSpline
 62
7
  6
BYLAYER
 70
0
 71
3
 72
26
 73
22
 74
0
 42
0.0000001
 43
0.0000001
 44
0.0000000001
 40
0.0
 40
0.0
 40
0.0
 40
0.0
 40
0.0726290281
 40
0.1466164169
 40
0.2212574179
 40
0.2958436892
 40
0.3696592462
 40
0.4420145519
 40
0.5122628998
 40
0.5798252177
 40
0.6442149255
 40
0.7050669752
 40
0.7621714385
 40
0.815512482
 40
0.8653108752
 40
0.8890471477
 40
0.9121086195
 40
0.9346034506
 40
0.9566558478
 40
0.9784050485
 40
1.0
 40
1.0
 40
1.0
 40
1.0
 10
49.4370541605
 20
52.7976470542
 30
0.0
 10
48.289169505
 20
52.5551360318
 30
0.0
 10
45.9525247244
 20
52.1535155338
 30
0.0
 10
42.3930308506
 20
51.8010961937
 30
0.0
 10
38.785901725
 20
51.6962730745
 30
0.0
 10
35.1829618005
 20
51.8404719282
 30
0.0
 10
31.6354622594
 20
52.2317083689
 30
0.0
 10
28.1940201949
 20
52.86436625
 30
0.0
 10
24.9075934805
 20
53.7294964912
 30
0.0
 10
21.8228398652
 20
54.81489113
 30
0.0
 10
18.9833994354
 20
56.1054192954
 30
0.0
 10
16.4293469442
 20
57.5832885181
 30
0.0
 10
14.1966168717
 20
59.2287802043
 30
0.0
 10
12.3173050691
 20
61.0197756594
 30
0.0
 10
11.0484905493
 20
62.6411432518
 30
0.0
 10
10.2491316268
 20
63.9832386747
 30
0.0
 10
9.763045247
 20
64.9932685226
 30
0.0
 10
9.3827733541
 20
66.0188193403
 30
0.0
 10
9.1100745909
 20
67.0563107429
 30
0.0
 10
8.9458784951
 20
68.1016478631
 30
0.0
 10
8.9093475484
 20
68.8023573249
 30
0.0
 10
8.9093574758
 20
69.1511941642
 30
0.0
  0
SPLINE
  5
24D
100
AcDbEntity
  8
03_AXES
100
AcDbSpline
 62
7
  6
BYLAYER
 70
0
 71
3
 72
30
 73
26
 74
0
 42
0.0000001
 43
0.0000001
 44
0.0000000001
 40
0.0
 40
0.0
 40
0.0
 40
0.0
 40
0.0764133607
 40
0.1541617241
 40
0.2322572383
 40
0.3096983913
 40
0.3855103313
 40
0.458782632
 40
0.5287136916
 40
0.594658664
 40
0.6260062214
 40
0.6562175379
 40
0.7131732137
 40
0.7400083381
 40
0.7658126372
 40
0.7906791668
 40
0.8147323798
 40
0.8381248073
 40
0.8610368385
 40
0.8836689141
 40
0.9062335482
 40
0.9289469925
 40
0.9520229958
 40
0.9756565739
 40
1.0
 40
1.0
 40
1.0
 40
1.0
 10
48.242077802
 20
54.7319010525
 30
0.0
 10
46.9697493992
 20
54.4836140158
 30
0.0
 10
44.3799457835
 20
54.0940758832
 30
0.0
 10
40.4447787903
 20
53.8274841204
 30
0.0
 10
36.4832000134
 20
53.8759907703
 30
0.0
 10
32.5709269362
 20
54.2387452546
 30
0.0
 10
28.7822236188
 20
54.9088364553
 30
0.0
 10
25.1888275759
 20
55.8736610791
 30
0.0
 10
21.8589863441
 20
57.1150413253
 30
0.0
 10
19.3133453765
 20
58.3819713667
 30
0.0
 10
17.4715568115
 20
59.5190077443
 30
0.0
 10
15.8316704952
 20
60.6837240053
 30
0.0
 10
14.3704991163
 20
61.9642125063
 30
0.0
 10
13.1338756944
 20
63.3551837651
 30
0.0
 10
12.3492126079
 20
64.4126255226
 30
0.0
 10
11.6933888726
 20
65.4998703283
 30
0.0
 10
11.1695573565
 20
66.6117025693
 30
0.0
 10
10.7808885483
 20
67.7428890199
 30
0.0
 10
10.5293574945
 20
68.887741187
 30
0.0
 10
10.4168173157
 20
70.0404774782
 30
0.0
 10
10.4435981026
 20
71.1950405263
 30
0.0
 10
10.6098495565
 20
72.3454326978
 30
0.0
 10
10.9143893903
 20
73.4858494296
 30
0.0
 10
11.3555357429
 20
74.610117421
 30
0.0
 10
11.7324908685
 20
75.333389161
 30
0.0
 10
11.9411365325
 20
75.6897851355
 30
0.0
  0
SPLINE
  5
24E
100
AcDbEntity
  8
03_AXES
100
AcDbSpline
 62
7
  6
BYLAYER
 70
0
 71
3
 72
19
 73
15
 74
0
 42
0.0000001
 43
0.0000001
 44
0.0000000001
 40
0.0
 40
0.0
 40
0.0
 40
0.0
 40
0.0583031493
 40
0.11530471
 40
0.1713821106
 40
0.2269893608
 40
0.2826052822
 40
0.3386984139
 40
0.3957168794
 40
0.4540730649
 40
0.5760656504
 40
0.7070364799
 40
0.8482246315
 40
1.0
 40
1.0
 40
1.0
 40
1.0
 10
14.5891519664
 20
74.160987298
 30
0.0
 10
14.4491762909
 20
73.8576249908
 30
0.0
 10
14.2017950276
 20
73.2434749163
 30
0.0
 10
13.9320746667
 20
72.2972622701
 30
0.0
 10
13.7702996407
 20
71.3422110374
 30
0.0
 10
13.7172107621
 20
70.3829391428
 30
0.0
 10
13.7732064864
 20
69.4237352736
 30
0.0
 10
13.9377604728
 20
68.4689553649
 30
0.0
 10
14.2102991522
 20
67.5229143805
 30
0.0
 10
14.7227163439
 20
66.2605981981
 30
0.0
 10
15.6425408468
 20
64.718394841
 30
0.0
 10
17.1259606417
 20
63.0026181273
 30
0.0
 10
18.9773473266
 20
61.4179540018
 30
0.0
 10
20.386716265
 20
60.4971902453
 30
0.0
 10
21.1395760274
 20
60.0617241798
 30
0.0
  0
SPLINE
  5
24F
100
AcDbEntity
  8
03_AXES
100
AcDbSpline
 62
7
  6
BYLAYER
 70
0
 71
3
 72
15
 73
11
 74
0
 42
0.0000001
 43
0.0000001
 44
0.0000000001
 40
0.0
 40
0.0
 40
0.0
 40
0.0
 40
0.110816116
 40
0.227867401
 40
0.3502723941
 40
0.4769400604
 40
0.6066201742
 40
0.7379620571
 40
0.8695518574
 40
1.0
 40
1.0
 40
1.0
 40
1.0
 10
21.1395760274
 20
60.0617241798
 30
0.0
 10
21.9221481047
 20
59.6090720386
 30
0.0
 10
23.584907812
 20
58.7689112194
 30
0.0
 10
26.2520953139
 20
57.7328821571
 30
0.0
 10
29.1242023161
 20
56.8996467902
 30
0.0
 10
32.1551317466
 20
56.2825461899
 30
0.0
 10
35.2966860417
 20
55.8913024248
 30
0.0
 10
38.4986459154
 20
55.7322159276
 30
0.0
 10
41.7097271338
 20
55.8077043248
 30
0.0
 10
43.8397249102
 20
56.0154832521
 30
0.0
 10
44.8941899093
 20
56.1592056449
 30
0.0
  0
SPLINE
  5
250
100
AcDbEntity
  8
03_AXES
100
AcDbSpline
 62
7
  6
BYLAYER
 70
0
 71
3
 72
15
 73
11
 74
0
 42
0.0000001
 43
0.0000001
 44
0.0000000001
 40
0.0
 40
0.0
 40
0.0
 40
0.0
 40
0.1215090641
 40
0.2430874855
 40
0.365088452
 40
0.4879607533
 40
0.6122417623
 40
0.7385700994
 40
0.8676505632
 40
1.0
 40
1.0
 40
1.0
 40
1.0
 10
53.0829195996
 20
30.8430642452
 30
0.0
 10
53.3518595953
 20
30.6877957576
 30
0.0
 10
53.9104556197
 20
30.4112896162
 30
0.0
 10
54.7954284998
 20
30.1077899941
 30
0.0
 10
55.7160901089
 20
29.9216100652
 30
0.0
 10
56.6602462821
 20
29.8586085633
 30
0.0
 10
57.6154631188
 20
29.9231508647
 30
0.0
 10
58.5689569946
 20
30.118613593
 30
0.0
 10
59.5074755511
 20
30.4451642139
 30
0.0
 10
60.1070911291
 20
30.7445573863
 30
0.0
 10
60.4000229846
 20
30.9136806624
 30
0.0
  0
SPLINE
  5
251
100
AcDbEntity
  8
03_AXES
100
AcDbSpline
 62
7
  6
BYLAYER
 70
0
 71
3
 72
25
 73
21
 74
0
 42
0.0000001
 43
0.0000001
 44
0.0000000001
 40
0.0
 40
0.0
 40
0.0
 40
0.0
 40
0.0218448988
 40
0.0438269783
 40
0.0660783935
 40
0.0887223231
 40
0.1355844564
 40
0.1851983342
 40
0.2380611501
 40
0.2944369215
 40
0.3543835833
 40
0.4177855097
 40
0.4843844367
 40
0.5538083632
 40
0.6255951097
 40
0.6992139526
 40
0.7740851859
 40
0.8495885596
 40
0.9251132133
 40
1.0
 40
1.0
 40
1.0
 40
1.0
 10
62.8843253941
 20
69.1511941645
 30
0.0
 10
62.8843247453
 20
69.4082103462
 30
0.0
 10
62.8592173823
 20
69.9242071645
 30
0.0
 10
62.7463544754
 20
70.6945560583
 30
0.0
 10
62.5587999753
 20
71.4599522784
 30
0.0
 10
62.2061736568
 20
72.4816829792
 30
0.0
 10
61.5721379203
 20
73.7398622032
 30
0.0
 10
60.5380679695
 20
75.168230319
 30
0.0
 10
59.2367749082
 20
76.5173735961
 30
0.0
 10
57.6854009123
 20
77.7716205189
 30
0.0
 10
55.9033592914
 20
78.9167213686
 30
0.0
 10
53.9126467223
 20
79.9391916547
 30
0.0
 10
51.7377978344
 20
80.8268484573
 30
0.0
 10
49.4056526102
 20
81.5689212875
 30
0.0
 10
46.945065634
 20
82.1563184415
 30
0.0
 10
44.386530959
 20
82.5817713829
 30
0.0
 10
41.761912459
 20
82.8399567955
 30
0.0
 10
39.1036670692
 20
82.9278230091
 30
0.0
 10
36.4452310886
 20
82.844064557
 30
0.0
 10
34.6822848131
 20
82.6734454339
 30
0.0
 10
33.8086508163
 20
82.559136138
 30
0.0
  0
SPLINE
  5
252
100
AcDbEntity
  8
03_AXES
100
AcDbSpline
 62
7
  6
BYLAYER
 70
0
 71
3
 72
15
 73
11
 74
0
 42
0.0000001
 43
0.0000001
 44
0.0000000001
 40
0.0
 40
0.0
 40
0.0
 40
0.0
 40
0.110809078
 40
0.2279981593
 40
0.3506291382
 40
0.4775347413
 40
0.6073834568
 40
0.7387374923
 40
0.8701065998
 40
1.0
 40
1.0
 40
1.0
 40
1.0
 10
57.0040757723
 20
80.7293635166
 30
0.0
 10
56.1989603241
 20
81.1950551022
 30
0.0
 10
54.4856260908
 20
82.0573133332
 30
0.0
 10
51.7342241114
 20
83.1134123504
 30
0.0
 10
48.769091305
 20
83.9544404496
 30
0.0
 10
45.6404529106
 20
84.5661568939
 30
0.0
 10
42.4008785506
 20
84.9383860939
 30
0.0
 10
39.1050080707
 20
85.0648248911
 30
0.0
 10
35.8087902449
 20
84.9433827515
 30
0.0
 10
33.6272021755
 20
84.6961315554
 30
0.0
 10
32.5495894316
 20
84.5303888063
 30
0.0
  0
SPLINE
  5
253
100
AcDbEntity
  8
03_AXES
100
AcDbSpline
 62
7
  6
BYLAYER
 70
0
 71
3
 72
14
 73
10
 74
0
 42
0.0000001
 43
0.0000001
 44
0.0000000001
 40
0.0
 40
0.0
 40
0.0
 40
0.0
 40
0.1216674758
 40
0.2345045053
 40
0.3448998293
 40
0.4584859106
 40
0.5791473158
 40
0.7092342408
 40
1.0
 40
1.0
 40
1.0
 40
1.0
 10
62.3542842621
 20
66.4525175592
 30
0.0
 10
62.3750716518
 20
66.5049499641
 30
0.0
 10
62.4275886761
 20
66.6019195978
 30
0.0
 10
62.5422130668
 20
66.7166147607
 30
0.0
 10
62.6818438223
 20
66.7911590272
 30
0.0
 10
62.8392924866
 20
66.826598362
 30
0.0
 10
63.0093821638
 20
66.8259210901
 30
0.0
 10
63.2569305766
 20
66.7785124545
 30
0.0
 10
63.4377645079
 20
66.6974960452
 30
0.0
 10
63.5544998333
 20
66.6301003983
 30
0.0
  0
SPLINE
  5
254
100
AcDbEntity
  8
03_AXES
100
AcDbSpline
 62
7
  6
BYLAYER
 70
0
 71
3
 72
11
 73
7
 74
0
 42
0.0000001
 43
0.0000001
 44
0.0000000001
 40
0.0
 40
0.0
 40
0.0
 40
0.0
 40
0.2412679527
 40
0.486173549
 40
0.738164194
 40
1.0
 40
1.0
 40
1.0
 40
1.0
 10
69.2342943239
 20
69.1511941648
 30
0.0
 10
69.2342798139
 20
68.6413313373
 30
0.0
 10
69.1555835147
 20
67.612265503
 30
0.0
 10
68.8033317533
 20
66.0870336633
 30
0.0
 10
68.2205355709
 20
64.5878717368
 30
0.0
 10
67.6937083251
 20
63.6344110381
 30
0.0
 10
67.3974916258
 20
63.1670485625
 30
0.0
  0
SPLINE
  5
255
100
AcDbEntity
  8
03_AXES
100
AcDbSpline
 62
7
  6
BYLAYER
 70
0
 71
3
 72
30
 73
26
 74
0
 42
0.0000001
 43
0.0000001
 44
0.0000000001
 40
0.0
 40
0.0
 40
0.0
 40
0.0
 40
0.0764133607
 40
0.1541617241
 40
0.2322572383
 40
0.3096983913
 40
0.3855103313
 40
0.458782632
 40
0.5287136916
 40
0.594658664
 40
0.6260062214
 40
0.6562175379
 40
0.7131732137
 40
0.7400083381
 40
0.7658126372
 40
0.7906791668
 40
0.8147323798
 40
0.8381248073
 40
0.8610368385
 40
0.8836689141
 40
0.9062335482
 40
0.9289469925
 40
0.9520229958
 40
0.9756565739
 40
1.0
 40
1.0
 40
1.0
 40
1.0
 10
29.9015739977
 20
86.0591866439
 30
0.0
 10
31.1739024005
 20
86.3074736806
 30
0.0
 10
33.7637060162
 20
86.6970118131
 30
0.0
 10
37.6988730094
 20
86.963603576
 30
0.0
 10
41.6604517863
 20
86.915096926
 30
0.0
 10
45.5727248635
 20
86.5523424417
 30
0.0
 10
49.3614281809
 20
85.8822512411
 30
0.0
 10
52.9548242238
 20
84.9174266172
 30
0.0
 10
56.2846654557
 20
83.6760463711
 30
0.0
 10
58.8303064232
 20
82.4091163296
 30
0.0
 10
60.6720949882
 20
81.2720799521
 30
0.0
 10
62.3119813045
 20
80.1073636911
 30
0.0
 10
63.7731526834
 20
78.82687519
 30
0.0
 10
65.0097761053
 20
77.4359039312
 30
0.0
 10
65.7944391918
 20
76.3784621737
 30
0.0
 10
66.4502629271
 20
75.291217368
 30
0.0
 10
66.9740944432
 20
74.1793851271
 30
0.0
 10
67.3627632514
 20
73.0481986765
 30
0.0
 10
67.6142943052
 20
71.9033465093
 30
0.0
 10
67.726834484
 20
70.7506102181
 30
0.0
 10
67.7000536971
 20
69.59604717
 30
0.0
 10
67.5338022433
 20
68.4456549985
 30
0.0
 10
67.2292624094
 20
67.3052382667
 30
0.0
 10
66.7881160568
 20
66.1809702754
 30
0.0
 10
66.4111609312
 20
65.4576985354
 30
0.0
 10
66.2025152672
 20
65.1013025608
 30
0.0
  0
SPLINE
  5
256
100
AcDbEntity
  8
03_AXES
100
AcDbSpline
 62
7
  6
BYLAYER
 70
0
 71
3
 72
10
 73
6
 74
0
 42
0.0000001
 43
0.0000001
 44
0.0000000001
 40
0.0
 40
0.0
 40
0.0
 40
0.0
 40
0.2206621822
 40
0.58614548
 40
1.0
 40
1.0
 40
1.0
 40
1.0
 10
29.1826582184
 20
86.2251969903
 30
0.0
 10
29.2368335317
 20
86.236299187
 30
0.0
 10
29.3850197401
 20
86.2463980435
 30
0.0
 10
29.6335903449
 20
86.1945500836
 30
0.0
 10
29.8117510127
 20
86.1110447953
 30
0.0
 10
29.9015739973
 20
86.0591866441
 30
0.0
  0
ENDSEC
  0
SECTION
  2
OBJECTS
  0
DICTIONARY
  5
C
100
AcDbDictionary
280
0
281
1
  3
ACAD_GROUP
350
D
  3
ACAD_MLINESTYLE
350
17
  3
ACAD_LAYOUT
350
1A
  3
ACAD_PLOTSETTINGS
350
19
  3
ACAD_PLOTSTYLENAME
350
E
  0
DICTIONARY
  5
D
102
{ACAD_REACTORS
330
C
102
}
100
AcDbDictionary
280
0
281
1
  0
ACDBDICTIONARYWDFLT
  5
E
102
{ACAD_REACTORS
330
C
102
}
100
AcDbDictionary
281
1
  3
Normal
350
F
100
AcDbDictionaryWithDefault
340
F
  0
DICTIONARY
  5
17
102
{ACAD_REACTORS
330
C
102
}
100
AcDbDictionary
280
0
281
1
  3
Standard
350
18
  0
DICTIONARY
  5
19
102
{ACAD_REACTORS
330
C
102
}
100
AcDbDictionary
281
1
  0
DICTIONARY
  5
1A
102
{ACAD_REACTORS
330
C
102
}
100
AcDbDictionary
281
1
  3
Model
350
257
  3
Layout1
350
258
  0
ACDBPLACEHOLDER
  5
F
102
{ACAD_REACTORS
330
E
102
}
  0
MLINESTYLE
  5
18
102
{ACAD_REACTORS
330
17
102
}
100
AcDbMlineStyle
  2
STANDARD
 70
0
  3

 62
256
 51
90.0
 52
90.0
 71
2
 49
0.5
 62
256
  6
BYLAYER
 49
-0.5
 62
256
  6
BYLAYER
  0
LAYOUT
  5
257
102
{ACAD_REACTORS
330
1A
102
}
100
AcDbPlotSettings
  1

  2
none_device
  4

  6

 40
0.0
 41
0.0
 42
0.0
 43
0.0
 44
210.0
 45
297.0
 46
0.0
 47
0.0
 48
0.0
 49
0.0
140
0.0
141
0.0
142
1.0
143
1.0
 70
1024
 72
1
 73
0
 74
0
  7

 75
0
147
1.0
148
0.0
149
0.0
100
AcDbLayout
  1
Model
 70
0
 71
0
 10
0.0
 20
0.0
 11
210.0
 21
297.0
 12
0.0
 22
0.0
 32
0.0
 14
0.0
 24
0.0
 34
0.0
 15
0.0
 25
0.0
 35
0.0
146
0.0
 13
0.0
 23
0.0
 33
0.0
 16
1.0
 26
0.0
 36
0.0
 17
0.0
 27
1.0
 37
0.0
 76
0
330
213
345
0
346
0
  0
LAYOUT
  5
258
102
{ACAD_REACTORS
330
1A
102
}
100
AcDbPlotSettings
  1

  2
none_device
  4

  6

 40
0.0
 41
0.0
 42
0.0
 43
0.0
 44
210.0
 45
297.0
 46
0.0
 47
0.0
 48
0.0
 49
0.0
140
0.0
141
0.0
142
1.0
143
1.0
 70
0
 72
1
 73
0
 74
0
  7

 75
0
147
1.0
148
0.0
149
0.0
100
AcDbLayout
  1
Layout1
 70
0
 71
1
 10
0.0
 20
0.0
 11
210.0
 21
297.0
 12
0.0
 22
0.0
 32
0.0
 14
0.0
 24
0.0
 34
0.0
 15
0.0
 25
0.0
 35
0.0
146
0.0
 13
0.0
 23
0.0
 33
0.0
 16
1.0
 26
0.0
 36
0.0
 17
0.0
 27
1.0
 37
0.0
 76
0
330
214
345
0
346
0
  0
ENDSEC
  0
EOF
