999
DXF file: C:\Users\sesa63760\Dev\_Creo\CAD\MCADID0004915_3D-CAD\drw0001_4.dxf
999
Pro/ENGINEER 2019471 by Parametric Technology Corporation
  0
SECTION
  2
HEADER
  9
$ACADVER
  1
AC1024
  9
$DWGCODEPAGE
  3
ANSI_1252
  9
$EXTMAX
 10
234.1292622802
 20
331.1256709391
 30
0.0
  9
$EXTMIN
 10
0.0
 20
0.0
 30
0.0
  9
$LIMMIN
 10
0.0
 20
0.0
  9
$LIMMAX
 10
234.1292622802
 20
331.1256709391
  9
$VIEWCTR
 10
117.0646311401
 20
165.5628354696
  9
$VIEWSIZE
 40
331.1256709391
  9
$CLAYER
  8
0
  9
$LTSCALE
 40
21.5844881797
  9
$CELTYPE
  6
BYLAYER
  9
$DIMSCALE
 40
1.0
  9
$DIMASZ
 40
2.7872531224
  9
$DIMEXO
 40
1.0
  9
$DIMDLI
 40
14.912919106
  9
$DIMEXE
 40
1.0
  9
$DIMCEN
 40
3.5320071567
  9
$DIMLFAC
 40
1.0
  9
$DIMBLK
  1
_FILLED
  9
$DIMALT
 70
0
  9
$DIMALTF
 40
0.0393700787
  9
$DIMTXT
 40
3.9021543713
  9
$DIMTOL
 70
1
  9
$DIMLIM
 70
0
  9
$DIMTFAC
 40
1.0
  9
$DIMTP
 40
0.01
  9
$DIMTM
 40
0.01
  9
$DIMGAP
 40
0.625
  9
$DIMDSEP
 70
46
  9
$AUNITS
 70
0
  9
$PDMODE
 70
3
  9
$PDSIZE
 40
0.3125
  9
$HANDSEED
  5
551
  9
$TILEMODE
 70
1
  9
$MEASUREMENT
 70
1
  9
$INSUNITS
 70
4
  0
ENDSEC
  0
SECTION
  2
CLASSES
  0
CLASS
  1
ACDBDICTIONARYWDFLT
  2
AcDbDictionaryWithDefault
  3
AutoCAD 2000
 90
0
 91
1
280
0
281
0
  0
CLASS
  1
ACDBPLACEHOLDER
  2
AcDbPlaceHolder
  3
AutoCAD 2000
 90
0
 91
1
280
0
281
0
  0
CLASS
  1
LAYOUT
  2
AcDbLayout
  3
AutoCAD 2000
 90
0
 91
0
280
0
281
0
  0
ENDSEC
  0
SECTION
  2
TABLES
  0
TABLE
  2
VPORT
  5
8
100
AcDbSymbolTable
 70
2
  0
VPORT
  5
1F4
100
AcDbSymbolTableRecord
100
AcDbViewportTableRecord
  2
*ACTIVE
 70
0
 10
0.0
 20
0.0
 11
1.0
 21
1.0
 12
117.0646311401
 22
165.5628354696
 13
0.0
 23
0.0
 14
1.0
 24
1.0
 15
0.0
 25
0.0
 16
0.0
 26
0.0
 36
1.0
 17
0.0
 27
0.0
 37
0.0
 40
331.1256709391
 41
0.7070707071
 42
50.0
 43
0.0
 44
0.0
 50
0.0
 51
0.0
 71
0
 72
100
 73
1
 74
1
 75
0
 76
0
 77
0
 78
0
  0
ENDTAB
  0
TABLE
  2
LTYPE
  5
5
100
AcDbSymbolTable
 70
6
  0
LTYPE
  5
14
100
AcDbSymbolTableRecord
100
AcDbLinetypeTableRecord
  2
BYBLOCK
 70
0
  3

 72
65
 73
0
 40
0.0
  0
LTYPE
  5
15
100
AcDbSymbolTableRecord
100
AcDbLinetypeTableRecord
  2
BYLAYER
 70
0
  3

 72
65
 73
0
 40
0.0
  0
LTYPE
  5
16
100
AcDbSymbolTableRecord
100
AcDbLinetypeTableRecord
  2
CONTINUOUS
 70
64
  3
Solid line
 72
65
 73
0
 40
0.0
  0
LTYPE
  5
1F5
100
AcDbSymbolTableRecord
100
AcDbLinetypeTableRecord
  2
CENTER
 70
64
  3
____ _ ____ _ ____ _ ____ _ ____ _ ____ _ ____
 72
65
 73
4
 40
0.6
 49
0.375
 74
0
 49
-0.075
 74
0
 49
0.075
 74
0
 49
-0.075
 74
0
  0
LTYPE
  5
1F6
100
AcDbSymbolTableRecord
100
AcDbLinetypeTableRecord
  2
HIDDEN
 70
64
  3
- - - - - - - - - - - - - - - - - - - -
 72
65
 73
2
 40
0.2
 49
0.1
 74
0
 49
-0.1
 74
0
  0
LTYPE
  5
1F7
100
AcDbSymbolTableRecord
100
AcDbLinetypeTableRecord
  2
PHANTOM
 70
64
  3
_____ _ _ _____ _ _ _____ _ _ _____
 72
65
 73
6
 40
0.8
 49
0.45
 74
0
 49
-0.05
 74
0
 49
0.1
 74
0
 49
-0.05
 74
0
 49
0.1
 74
0
 49
-0.05
 74
0
  0
LTYPE
  5
1F8
100
AcDbSymbolTableRecord
100
AcDbLinetypeTableRecord
  2
DOT
 70
64
  3
. . . . . . . . . . . . . . . . . . . .
 72
65
 73
2
 40
0.2
 49
0.1
 74
0
 49
-0.1
 74
0
  0
LTYPE
  5
1F9
100
AcDbSymbolTableRecord
100
AcDbLinetypeTableRecord
  2
DASHED
 70
64
  3
- - - - - - - - - - - - - - - - - - - -
 72
65
 73
2
 40
0.2
 49
0.1
 74
0
 49
-0.1
 74
0
  0
ENDTAB
  0
TABLE
  2
LAYER
  5
2
100
AcDbSymbolTable
 70
36
  0
LAYER
  5
10
100
AcDbSymbolTableRecord
100
AcDbLayerTableRecord
  2
0
 70
0
 62
7
  6
CONTINUOUS
370
-3
390
F
  0
LAYER
  5
1FA
100
AcDbSymbolTableRecord
100
AcDbLayerTableRecord
  2
DEFAULT_1
 70
0
 62
7
  6
CENTER
370
-3
390
F
  0
LAYER
  5
1FB
100
AcDbSymbolTableRecord
100
AcDbLayerTableRecord
  2
DEFAULT_2
 70
0
 62
7
  6
HIDDEN
370
-3
390
F
  0
LAYER
  5
1FC
100
AcDbSymbolTableRecord
100
AcDbLayerTableRecord
  2
DEFAULT_3
 70
0
 62
7
  6
PHANTOM
370
-3
390
F
  0
LAYER
  5
1FD
100
AcDbSymbolTableRecord
100
AcDbLayerTableRecord
  2
00_COMPONENTS
 70
0
 62
7
  6
CONTINUOUS
370
-3
390
F
  0
LAYER
  5
1FE
100
AcDbSymbolTableRecord
100
AcDbLayerTableRecord
  2
01_1_DEFAULT_DATUMS
 70
0
 62
7
  6
CONTINUOUS
370
-3
390
F
  0
LAYER
  5
1FF
100
AcDbSymbolTableRecord
100
AcDbLayerTableRecord
  2
01_PLANES
 70
0
 62
7
  6
CONTINUOUS
370
-3
390
F
  0
LAYER
  5
200
100
AcDbSymbolTableRecord
100
AcDbLayerTableRecord
  2
02_COORD_SYS
 70
0
 62
7
  6
CONTINUOUS
370
-3
390
F
  0
LAYER
  5
201
100
AcDbSymbolTableRecord
100
AcDbLayerTableRecord
  2
03_AXES
 70
0
 62
7
  6
CONTINUOUS
370
-3
390
F
  0
LAYER
  5
202
100
AcDbSymbolTableRecord
100
AcDbLayerTableRecord
  2
04_POINTS
 70
0
 62
7
  6
CONTINUOUS
370
-3
390
F
  0
LAYER
  5
203
100
AcDbSymbolTableRecord
100
AcDbLayerTableRecord
  2
05_CURVES
 70
0
 62
7
  6
CONTINUOUS
370
-3
390
F
  0
LAYER
  5
204
100
AcDbSymbolTableRecord
100
AcDbLayerTableRecord
  2
06_SURFS
 70
0
 62
7
  6
CONTINUOUS
370
-3
390
F
  0
LAYER
  5
205
100
AcDbSymbolTableRecord
100
AcDbLayerTableRecord
  2
07_COSMETICS
 70
0
 62
7
  6
CONTINUOUS
370
-3
390
F
  0
LAYER
  5
206
100
AcDbSymbolTableRecord
100
AcDbLayerTableRecord
  2
10_NOTES
 70
0
 62
7
  6
CONTINUOUS
370
-3
390
F
  0
LAYER
  5
207
100
AcDbSymbolTableRecord
100
AcDbLayerTableRecord
  2
11_NOTES_PUB
 70
0
 62
7
  6
CONTINUOUS
370
-3
390
F
  0
LAYER
  5
208
100
AcDbSymbolTableRecord
100
AcDbLayerTableRecord
  2
13_REF_GTOL
 70
0
 62
7
  6
CONTINUOUS
370
-3
390
F
  0
LAYER
  5
209
100
AcDbSymbolTableRecord
100
AcDbLayerTableRecord
  2
16_MISC
 70
0
 62
7
  6
CONTINUOUS
370
-3
390
F
  0
LAYER
  5
20A
100
AcDbSymbolTableRecord
100
AcDbLayerTableRecord
  2
17_NO_PRINT
 70
0
 62
7
  6
CONTINUOUS
370
-3
390
F
  0
LAYER
  5
20B
100
AcDbSymbolTableRecord
100
AcDbLayerTableRecord
  2
18_DATUM_CAMS_JOINTS
 70
0
 62
7
  6
CONTINUOUS
370
-3
390
F
  0
LAYER
  5
20C
100
AcDbSymbolTableRecord
100
AcDbLayerTableRecord
  2
19_DATUM_FUNCTIONAL
 70
0
 62
7
  6
CONTINUOUS
370
-3
390
F
  0
LAYER
  5
20D
100
AcDbSymbolTableRecord
100
AcDbLayerTableRecord
  2
20_DATUM_KINEMATIC_SCHEME
 70
0
 62
7
  6
CONTINUOUS
370
-3
390
F
  0
ENDTAB
  0
TABLE
  2
STYLE
  5
3
100
AcDbSymbolTable
 70
1
  0
STYLE
  5
11
100
AcDbSymbolTableRecord
100
AcDbTextStyleTableRecord
  2
STANDARD
 70
0
 40
0.0
 41
1.0
 50
0.0
 71
0
 42
0.2
  3
ARIAL.TTF
  4

  0
STYLE
  5
20E
100
AcDbSymbolTableRecord
100
AcDbTextStyleTableRecord
  2
TEXTSTYLE_1
 70
0
 40
0.0
 41
0.8
 50
0.0
 71
0
 42
0.2
  3
gdt
  4

  0
ENDTAB
  0
TABLE
  2
VIEW
  5
6
100
AcDbSymbolTable
 70
0
  0
ENDTAB
  0
TABLE
  2
UCS
  5
7
100
AcDbSymbolTable
 70
0
  0
ENDTAB
  0
TABLE
  2
APPID
  5
9
100
AcDbSymbolTable
 70
1
  0
APPID
  5
20F
100
AcDbSymbolTableRecord
100
AcDbRegAppTableRecord
  2
ACAD
 70
0
  0
ENDTAB
  0
TABLE
  2
BLOCK_RECORD
  5
1
100
AcDbSymbolTable
 70
0
  0
BLOCK_RECORD
  5
210
100
AcDbSymbolTableRecord
100
AcDbBlockTableRecord
  2
*Model_Space
  0
BLOCK_RECORD
  5
211
100
AcDbSymbolTableRecord
100
AcDbBlockTableRecord
  2
*Paper_Space
  0
BLOCK_RECORD
  5
212
100
AcDbSymbolTableRecord
100
AcDbBlockTableRecord
  2
_FILLED
  0
ENDTAB
  0
TABLE
  2
DIMSTYLE
  5
A
100
AcDbSymbolTable
 70
1
100
AcDbDimStyleTable
 71
0
  0
DIMSTYLE
105
213
100
AcDbSymbolTableRecord
100
AcDbDimStyleTableRecord
  2
STANDARD
 70
0
  3

  4

 40
1.0
 41
2.7872531224
 42
1.0
 43
0.38
 44
1.0
 45
0.0
 46
0.0
 47
0.01
 48
0.01
140
3.9021543713
141
0.09
142
0.0
143
25.4
144
1.0
145
0.0
146
1.0
147
0.625
 71
1
 72
0
 73
0
 74
0
 75
0
 76
0
 77
1
 78
8
 79
2
170
0
171
1
172
0
173
0
174
0
175
0
176
0
177
0
178
0
270
2
179
2
271
2
272
2
273
2
274
2
275
0
280
0
281
0
282
0
283
1
284
8
285
0
286
0
287
3
288
0
340
11
278
46
341
212
342
212
343
212
344
212
  0
ENDTAB
  0
ENDSEC
  0
SECTION
  2
BLOCKS
  0
BLOCK
  5
20
100
AcDbEntity
  8
0
100
AcDbBlockBegin
  2
*Model_Space
 70
0
 10
0.0
 20
0.0
 30
0.0
  3
*Model_Space
  1

  0
ENDBLK
  5
21
100
AcDbEntity
  8
0
100
AcDbBlockEnd
  0
BLOCK
  5
1C
100
AcDbEntity
  8
0
100
AcDbBlockBegin
  2
*Paper_Space
 70
0
 10
0.0
 20
0.0
 30
0.0
  3
*Paper_Space
  1

  0
ENDBLK
  5
1D
100
AcDbEntity
  8
0
100
AcDbBlockEnd
  0
BLOCK
  5
214
100
AcDbEntity
  8
0
100
AcDbBlockBegin
  2
_FILLED
 70
64
 10
0.0
 20
0.0
  3
_FILLED
  1

  0
SOLID
  5
215
100
AcDbEntity
  8
0
  6
BYBLOCK
 62
0
100
AcDbTrace
 10
0.0
 20
0.0
 11
-1.0
 21
0.25
 12
-1.0
 22
-0.25
 13
-1.0
 23
-0.25
  0
ENDBLK
  5
216
100
AcDbEntity
  8
0
  6
BYBLOCK
 62
0
100
AcDbBlockEnd
  0
ENDSEC
  0
SECTION
  2
ENTITIES
  0
LINE
  5
217
100
AcDbEntity
  8
0
100
AcDbLine
 62
7
  6
BYLAYER
 10
26.0759981831
 20
224.023649243
 11
26.0759981831
 21
133.523649243
  0
LINE
  5
218
100
AcDbEntity
  8
0
100
AcDbLine
 62
7
  6
BYLAYER
 10
26.1326827828
 20
224.0753475887
 11
26.1326827828
 21
224.023649243
  0
LINE
  5
219
100
AcDbEntity
  8
0
100
AcDbLine
 62
7
  6
BYLAYER
 10
26.5955568978
 20
134.0432078347
 11
26.5955557464
 21
223.5040153404
  0
LINE
  5
21A
100
AcDbEntity
  8
0
100
AcDbLine
 62
7
  6
BYLAYER
 10
27.5950633672
 20
222.5044908268
 11
27.5950633672
 21
135.0427144272
  0
LINE
  5
21B
100
AcDbEntity
  8
0
100
AcDbLine
 62
7
  6
BYLAYER
 10
32.6467088607
 20
214.6943599202
 11
34.9052875058
 21
216.9529385652
  0
LINE
  5
21C
100
AcDbEntity
  8
0
100
AcDbLine
 62
7
  6
BYLAYER
 10
33.5759981808
 20
208.6236492437
 11
31.5759981817
 21
206.623649244
  0
LINE
  5
21D
100
AcDbEntity
  8
0
100
AcDbLine
 62
7
  6
BYLAYER
 10
39.7467088606
 20
214.794359922
 11
42.0052875054
 21
217.0529385649
  0
LINE
  5
21E
100
AcDbEntity
  8
0
100
AcDbLine
 62
7
  6
BYLAYER
 10
31.8759981833
 20
206.3236492433
 11
33.8759981836
 21
208.3236492432
  0
LINE
  5
21F
100
AcDbEntity
  8
0
100
AcDbLine
 62
7
  6
BYLAYER
 10
31.5759981831
 20
217.6236492424
 11
31.5759981831
 21
211.6236492427
  0
LINE
  5
220
100
AcDbEntity
  8
0
100
AcDbLine
 62
7
  6
BYLAYER
 10
31.5759981817
 20
206.623649244
 11
31.5759981831
 21
154.0236492428
  0
LINE
  5
221
100
AcDbEntity
  8
0
100
AcDbLine
 62
7
  6
BYLAYER
 10
31.8759981831
 20
206.3236492433
 11
31.8759981831
 21
189.3236492446
  0
LINE
  5
222
100
AcDbEntity
  8
0
100
AcDbLine
 62
7
  6
BYLAYER
 10
31.8759981831
 20
186.023649243
 11
31.8759981831
 21
154.0236492441
  0
LINE
  5
223
100
AcDbEntity
  8
0
100
AcDbLine
 62
7
  6
BYLAYER
 10
35.0759981831
 20
212.3650783862
 11
35.0759981831
 21
213.5736492443
  0
LINE
  5
224
100
AcDbEntity
  8
0
100
AcDbLine
 62
7
  6
BYLAYER
 10
35.0759981831
 20
215.6736492432
 11
35.0759981831
 21
216.8822200985
  0
LINE
  5
225
100
AcDbEntity
  8
0
100
AcDbLine
 62
7
  6
BYLAYER
 10
51.0759981831
 20
223.1236492426
 11
49.0759981831
 21
221.1236492426
  0
LINE
  5
226
100
AcDbEntity
  8
0
100
AcDbLine
 62
7
  6
BYLAYER
 10
49.3759981838
 20
220.8236492437
 11
51.3759981838
 21
222.8236492437
  0
LINE
  5
227
100
AcDbEntity
  8
0
100
AcDbLine
 62
7
  6
BYLAYER
 10
37.5759981831
 20
213.723662546
 11
37.5759981831
 21
215.5236359403
  0
LINE
  5
228
100
AcDbEntity
  8
0
100
AcDbLine
 62
7
  6
BYLAYER
 10
41.0759981831
 20
214.5736492443
 11
41.0759981831
 21
212.2236492422
  0
LINE
  5
229
100
AcDbEntity
  8
0
100
AcDbLine
 62
7
  6
BYLAYER
 10
41.2259981835
 20
149.2736492437
 11
41.2259981835
 21
139.2736492426
  0
LINE
  5
22A
100
AcDbEntity
  8
0
100
AcDbLine
 62
7
  6
BYLAYER
 10
43.0759981831
 20
212.223662546
 11
43.0759981831
 21
214.5736492443
  0
LINE
  5
22B
100
AcDbEntity
  8
0
100
AcDbLine
 62
7
  6
BYLAYER
 10
31.8759981831
 20
186.023649243
 11
33.8759981834
 21
188.0236492431
  0
LINE
  5
22C
100
AcDbEntity
  8
0
100
AcDbLine
 62
7
  6
BYLAYER
 10
52.7884022575
 20
137.7907036696
 11
52.7968655473
 21
137.523649243
  0
LINE
  5
22D
100
AcDbEntity
  8
0
100
AcDbLine
 62
7
  6
BYLAYER
 10
45.5759981831
 20
211.6236492443
 11
45.5759981831
 21
217.6236492408
  0
LINE
  5
22E
100
AcDbEntity
  8
0
100
AcDbLine
 62
7
  6
BYLAYER
 10
46.0759981831
 20
224.075649243
 11
46.0759981831
 21
222.5044784198
  0
LINE
  5
22F
100
AcDbEntity
  8
0
100
AcDbLine
 62
7
  6
BYLAYER
 10
46.0759981833
 20
99.0753475894
 11
46.0759981831
 21
135.0427144241
  0
LINE
  5
230
100
AcDbEntity
  8
0
100
AcDbLine
 62
7
  6
BYLAYER
 10
46.0759981831
 20
148.7934907819
 11
46.0759981831
 21
150.273649243
  0
LINE
  5
231
100
AcDbEntity
  8
0
100
AcDbLine
 62
7
  6
BYLAYER
 10
46.5759981831
 20
230.023649243
 11
46.5759981831
 21
224.075649243
  0
LINE
  5
232
100
AcDbEntity
  8
0
100
AcDbLine
 62
7
  6
BYLAYER
 10
46.5759983316
 20
99.023649243
 11
46.5759982543
 21
132.5125415167
  0
LINE
  5
233
100
AcDbEntity
  8
0
100
AcDbLine
 62
7
  6
BYLAYER
 10
46.6326826825
 20
230.0754482503
 11
46.6326826834
 21
230.0236492439
  0
LINE
  5
234
100
AcDbEntity
  8
0
100
AcDbLine
 62
7
  6
BYLAYER
 10
47.0955569895
 20
100.0585390436
 11
47.0955568242
 21
133.1263512084
  0
LINE
  5
235
100
AcDbEntity
  8
0
100
AcDbLine
 62
7
  6
BYLAYER
 10
47.0955568794
 20
224.075649243
 11
47.0955568794
 21
229.5040905468
  0
LINE
  5
236
100
AcDbEntity
  8
0
100
AcDbLine
 62
7
  6
BYLAYER
 10
48.0950633673
 20
228.5045840588
 11
48.0950633643
 21
224.075649243
  0
LINE
  5
237
100
AcDbEntity
  8
0
100
AcDbLine
 62
7
  6
BYLAYER
 10
49.0759981831
 20
221.1236492426
 11
49.0759981831
 21
209.6236507474
  0
LINE
  5
238
100
AcDbEntity
  8
0
100
AcDbLine
 62
7
  6
BYLAYER
 10
49.3759981838
 20
220.8236492437
 11
49.3759981838
 21
209.8236492458
  0
LINE
  5
239
100
AcDbEntity
  8
0
100
AcDbLine
 62
7
  6
BYLAYER
 10
57.6259981839
 20
132.773649243
 11
58.1409981826
 21
131.6736492434
  0
LINE
  5
23A
100
AcDbEntity
  8
0
100
AcDbLine
 62
7
  6
BYLAYER
 10
53.075998183
 20
137.523649243
 11
53.075998183
 21
127.5236492494
  0
LINE
  5
23B
100
AcDbEntity
  8
0
100
AcDbLine
 62
7
  6
BYLAYER
 10
55.8759981838
 20
135.9736093327
 11
55.8759981838
 21
135.6736492434
  0
LINE
  5
23C
100
AcDbEntity
  8
0
100
AcDbLine
 62
7
  6
BYLAYER
 10
55.8759981838
 20
129.3736078506
 11
55.8759981838
 21
129.073689153
  0
LINE
  5
23D
100
AcDbEntity
  8
0
100
AcDbLine
 62
7
  6
BYLAYER
 10
57.2259981835
 20
134.898649243
 11
57.2259981835
 21
130.148649243
  0
LINE
  5
23E
100
AcDbEntity
  8
0
100
AcDbLine
 62
7
  6
BYLAYER
 10
57.6259981839
 20
134.0736492437
 11
57.6259981839
 21
132.773649243
  0
LINE
  5
23F
100
AcDbEntity
  8
0
100
AcDbLine
 62
7
  6
BYLAYER
 10
58.1409981826
 20
131.6736492434
 11
58.1409981826
 21
130.9736492423
  0
LINE
  5
240
100
AcDbEntity
  8
0
100
AcDbLine
 62
7
  6
BYLAYER
 10
58.4759981835
 20
107.8236492441
 11
58.4759981835
 21
103.1236492426
  0
LINE
  5
241
100
AcDbEntity
  8
0
100
AcDbLine
 62
7
  6
BYLAYER
 10
58.7759981824
 20
107.523649243
 11
58.7759981824
 21
103.4236492432
  0
LINE
  5
242
100
AcDbEntity
  8
0
100
AcDbLine
 62
7
  6
BYLAYER
 10
56.0789550588
 20
150.273649243
 11
56.0759981834
 21
148.793490782
  0
LINE
  5
243
100
AcDbEntity
  8
0
100
AcDbLine
 62
7
  6
BYLAYER
 10
46.5759983316
 20
99.023649243
 11
58.0759981831
 21
99.0236492429
  0
LINE
  5
244
100
AcDbEntity
  8
0
100
AcDbLine
 62
7
  6
BYLAYER
 10
46.0759981833
 20
99.0753475899
 11
46.5759983316
 21
99.0753475899
  0
LINE
  5
245
100
AcDbEntity
  8
0
100
AcDbLine
 62
7
  6
BYLAYER
 10
193.1759981831
 20
99.5107921001
 11
60.430102524
 21
99.5107921003
  0
LINE
  5
246
100
AcDbEntity
  8
0
100
AcDbLine
 62
7
  6
BYLAYER
 10
193.1759981831
 20
99.5584140409
 11
47.0811692561
 21
99.5584187949
  0
LINE
  5
247
100
AcDbEntity
  8
0
100
AcDbLine
 62
7
  6
BYLAYER
 10
46.0759981833
 20
99.6246367543
 11
46.5759983302
 21
99.6246367543
  0
LINE
  5
248
100
AcDbEntity
  8
0
100
AcDbLine
 62
7
  6
BYLAYER
 10
47.0955569895
 20
100.0585390436
 11
193.1759981831
 21
100.0585480822
  0
LINE
  5
249
100
AcDbEntity
  8
0
100
AcDbLine
 62
7
  6
BYLAYER
 10
59.4759981836
 20
102.1236492426
 11
189.3759981803
 21
102.1236492426
  0
LINE
  5
24A
100
AcDbEntity
  8
0
100
AcDbLine
 62
7
  6
BYLAYER
 10
59.7759981831
 20
102.423649243
 11
189.0759981825
 21
102.423649243
  0
LINE
  5
24B
100
AcDbEntity
  8
0
100
AcDbLine
 62
7
  6
BYLAYER
 10
209.0784657431
 20
103.023649243
 11
195.0759981835
 21
103.023649243
  0
LINE
  5
24C
100
AcDbEntity
  8
0
100
AcDbLine
 62
7
  6
BYLAYER
 10
193.7945416014
 20
103.4940222874
 11
193.1759981831
 21
103.4940222874
  0
LINE
  5
24D
100
AcDbEntity
  8
0
100
AcDbLine
 62
7
  6
BYLAYER
 10
193.6960620814
 20
103.5107921002
 11
193.1759981831
 21
103.5107921001
  0
LINE
  5
24E
100
AcDbEntity
  8
0
100
AcDbLine
 62
7
  6
BYLAYER
 10
208.5589070469
 20
103.5432079392
 11
193.1759981831
 21
103.5432079392
  0
LINE
  5
24F
100
AcDbEntity
  8
0
100
AcDbLine
 62
7
  6
BYLAYER
 10
60.9259981827
 20
139.8260606715
 11
60.9259981827
 21
149.273649243
  0
LINE
  5
250
100
AcDbEntity
  8
0
100
AcDbLine
 62
7
  6
BYLAYER
 10
61.8997952342
 20
138.523649243
 11
61.8997952343
 21
138.8027818788
  0
LINE
  5
251
100
AcDbEntity
  8
0
100
AcDbLine
 62
7
  6
BYLAYER
 10
63.4759981835
 20
147.9236492434
 11
63.4759981835
 21
142.3236492405
  0
LINE
  5
252
100
AcDbEntity
  8
0
100
AcDbLine
 62
7
  6
BYLAYER
 10
63.7759981831
 20
147.6236492426
 11
63.7759981831
 21
142.6236492414
  0
LINE
  5
253
100
AcDbEntity
  8
0
100
AcDbLine
 62
7
  6
BYLAYER
 10
64.0109981837
 20
130.9736492423
 11
64.0109981837
 21
131.6736492434
  0
LINE
  5
254
100
AcDbEntity
  8
0
100
AcDbLine
 62
7
  6
BYLAYER
 10
64.5259981824
 20
132.773649243
 11
64.5259981824
 21
134.0736492437
  0
LINE
  5
255
100
AcDbEntity
  8
0
100
AcDbLine
 62
7
  6
BYLAYER
 10
64.9259981828
 20
130.148649243
 11
64.9259981828
 21
134.898649243
  0
LINE
  5
256
100
AcDbEntity
  8
0
100
AcDbLine
 62
7
  6
BYLAYER
 10
66.2759981824
 20
129.0736492436
 11
66.2759981824
 21
129.3736078507
  0
LINE
  5
257
100
AcDbEntity
  8
0
100
AcDbLine
 62
7
  6
BYLAYER
 10
66.2759981824
 20
135.6736906353
 11
66.2759981824
 21
135.9736093325
  0
LINE
  5
258
100
AcDbEntity
  8
0
100
AcDbLine
 62
7
  6
BYLAYER
 10
193.1759981831
 20
104.5427144268
 11
211.4866184305
 21
104.5427139698
  0
LINE
  5
259
100
AcDbEntity
  8
0
100
AcDbLine
 62
7
  6
BYLAYER
 10
189.0759981836
 20
107.1236492423
 11
77.275998183
 21
107.1236492423
  0
LINE
  5
25A
100
AcDbEntity
  8
0
100
AcDbLine
 62
7
  6
BYLAYER
 10
189.3759981804
 20
107.4236492434
 11
122.7759996882
 21
107.4236492434
  0
LINE
  5
25B
100
AcDbEntity
  8
0
100
AcDbLine
 62
7
  6
BYLAYER
 10
81.2759981762
 20
107.4236492434
 11
77.5759981832
 21
107.4236492434
  0
LINE
  5
25C
100
AcDbEntity
  8
0
100
AcDbLine
 62
7
  6
BYLAYER
 10
83.5759981825
 20
107.623649243
 11
120.5759981838
 21
107.623649243
  0
LINE
  5
25D
100
AcDbEntity
  8
0
100
AcDbLine
 62
7
  6
BYLAYER
 10
76.2759981831
 20
108.5236492426
 11
59.7759981817
 21
108.5236492426
  0
LINE
  5
25E
100
AcDbEntity
  8
0
100
AcDbLine
 62
7
  6
BYLAYER
 10
76.5759981838
 20
108.8236492437
 11
59.4759981837
 21
108.8236492437
  0
LINE
  5
25F
100
AcDbEntity
  8
0
100
AcDbLine
 62
7
  6
BYLAYER
 10
69.075998183
 20
127.5236499969
 11
69.075998183
 21
137.5236492366
  0
LINE
  5
260
100
AcDbEntity
  8
0
100
AcDbLine
 62
7
  6
BYLAYER
 10
138.2759981859
 20
117.023649243
 11
145.8759981803
 21
117.023649243
  0
LINE
  5
261
100
AcDbEntity
  8
0
100
AcDbLine
 62
7
  6
BYLAYER
 10
162.2759981859
 20
117.023649243
 11
169.8759981803
 21
117.023649243
  0
LINE
  5
262
100
AcDbEntity
  8
0
100
AcDbLine
 62
7
  6
BYLAYER
 10
214.0759981831
 20
117.9499378471
 11
214.1326827801
 21
117.9499378471
  0
LINE
  5
263
100
AcDbEntity
  8
0
100
AcDbLine
 62
7
  6
BYLAYER
 10
138.675998182
 20
118.023649243
 11
145.4759981843
 21
118.023649243
  0
LINE
  5
264
100
AcDbEntity
  8
0
100
AcDbLine
 62
7
  6
BYLAYER
 10
162.6759981821
 20
118.023649243
 11
169.4759981842
 21
118.023649243
  0
LINE
  5
265
100
AcDbEntity
  8
0
100
AcDbLine
 62
7
  6
BYLAYER
 10
76.7759981824
 20
107.6236492423
 11
76.7759981824
 21
108.023649243
  0
LINE
  5
266
100
AcDbEntity
  8
0
100
AcDbLine
 62
7
  6
BYLAYER
 10
77.0759981831
 20
107.9236492434
 11
77.0759981831
 21
108.323649242
  0
LINE
  5
267
100
AcDbEntity
  8
0
100
AcDbLine
 62
7
  6
BYLAYER
 10
78.2759981831
 20
142.6236492437
 11
78.2759981831
 21
148.6236492416
  0
LINE
  5
268
100
AcDbEntity
  8
0
100
AcDbLine
 62
7
  6
BYLAYER
 10
78.5759981831
 20
142.3236492439
 11
78.5759981831
 21
148.9236492402
  0
LINE
  5
269
100
AcDbEntity
  8
0
100
AcDbLine
 62
7
  6
BYLAYER
 10
82.2759981824
 20
125.9236492434
 11
82.2759981823
 21
108.4236507426
  0
LINE
  5
26A
100
AcDbEntity
  8
0
100
AcDbLine
 62
7
  6
BYLAYER
 10
82.5759981831
 20
125.6236492428
 11
82.5759981831
 21
108.6236492426
  0
LWPOLYLINE
  5
26B
100
AcDbEntity
  8
0
100
AcDbPolyline
 62
7
  6
BYLAYER
 90
3
 70
0
 10
26.9962237101
 20
134.4436951281
 10
26.7847730523
 20
134.2318863036
 10
26.5956307534
 20
134.0432046389
  0
LINE
  5
26C
100
AcDbEntity
  8
0
100
AcDbLine
 62
7
  6
BYLAYER
 10
27.5950633672
 20
135.0427144272
 11
26.5956307534
 21
134.0432046389
  0
LINE
  5
26D
100
AcDbEntity
  8
0
100
AcDbLine
 62
7
  6
BYLAYER
 10
26.0759981831
 20
133.523649243
 11
26.5955941126
 21
134.0432079207
  0
LINE
  5
26E
100
AcDbEntity
  8
0
100
AcDbLine
 62
7
  6
BYLAYER
 10
138.675998182
 20
123.023649243
 11
145.4759981843
 21
123.023649243
  0
LINE
  5
26F
100
AcDbEntity
  8
0
100
AcDbLine
 62
7
  6
BYLAYER
 10
162.6759981821
 20
123.023649243
 11
169.4759981842
 21
123.023649243
  0
LINE
  5
270
100
AcDbEntity
  8
0
100
AcDbLine
 62
7
  6
BYLAYER
 10
169.8759981804
 20
124.023649243
 11
162.2759981855
 21
124.023649243
  0
LINE
  5
271
100
AcDbEntity
  8
0
100
AcDbLine
 62
7
  6
BYLAYER
 10
145.8759981804
 20
124.023649243
 11
138.2759981855
 21
124.023649243
  0
LINE
  5
272
100
AcDbEntity
  8
0
100
AcDbLine
 62
7
  6
BYLAYER
 10
54.0759989371
 20
126.523649243
 11
68.0759981765
 21
126.523649243
  0
LINE
  5
273
100
AcDbEntity
  8
0
100
AcDbLine
 62
7
  6
BYLAYER
 10
64.0109981837
 20
131.6736492434
 11
64.5259981824
 21
132.773649243
  0
LINE
  5
274
100
AcDbEntity
  8
0
100
AcDbLine
 62
7
  6
BYLAYER
 10
46.5759982543
 20
132.5125415167
 11
47.0955567966
 21
133.126283453
  0
LINE
  5
275
100
AcDbEntity
  8
0
100
AcDbLine
 62
7
  6
BYLAYER
 10
127.3209981831
 20
211.4670249161
 11
129.8209981825
 21
212.9104005891
  0
LINE
  5
276
100
AcDbEntity
  8
0
100
AcDbLine
 62
7
  6
BYLAYER
 10
132.3209981822
 20
208.5802735699
 11
129.8209981825
 21
207.1368978969
  0
LINE
  5
277
100
AcDbEntity
  8
0
100
AcDbLine
 62
7
  6
BYLAYER
 10
120.5759981825
 20
127.623649243
 11
84.575998183
 21
127.623649243
  0
LINE
  5
278
100
AcDbEntity
  8
0
100
AcDbLine
 62
7
  6
BYLAYER
 10
120.7759981822
 20
127.9236492434
 11
84.2759981824
 21
127.9236492434
  0
LINE
  5
279
100
AcDbEntity
  8
0
100
AcDbLine
 62
7
  6
BYLAYER
 10
127.5759981831
 20
128.523649243
 11
160.5759981831
 21
128.523649243
  0
LINE
  5
27A
100
AcDbEntity
  8
0
100
AcDbLine
 62
7
  6
BYLAYER
 10
69.0759981831
 20
128.773649243
 11
66.5760380929
 21
128.773649243
  0
LINE
  5
27B
100
AcDbEntity
  8
0
100
AcDbLine
 62
7
  6
BYLAYER
 10
55.5759981832
 20
128.773649243
 11
53.0759981831
 21
128.773649243
  0
LINE
  5
27C
100
AcDbEntity
  8
0
100
AcDbLine
 62
7
  6
BYLAYER
 10
127.5759981831
 20
129.023649243
 11
160.5759981831
 21
129.023649243
  0
LINE
  5
27D
100
AcDbEntity
  8
0
100
AcDbLine
 62
7
  6
BYLAYER
 10
190.575998183
 20
129.523649243
 11
193.5759981833
 21
129.523649243
  0
LINE
  5
27E
100
AcDbEntity
  8
0
100
AcDbLine
 62
7
  6
BYLAYER
 10
65.9759567909
 20
129.6736492434
 11
56.1759981832
 21
129.6736492434
  0
LINE
  5
27F
100
AcDbEntity
  8
0
100
AcDbLine
 62
7
  6
BYLAYER
 10
178.5759981831
 20
130.023649243
 11
182.5759981831
 21
130.023649243
  0
LINE
  5
280
100
AcDbEntity
  8
0
100
AcDbLine
 62
7
  6
BYLAYER
 10
57.2259981835
 20
130.148649243
 11
64.9259981828
 21
130.148649243
  0
LINE
  5
281
100
AcDbEntity
  8
0
100
AcDbLine
 62
7
  6
BYLAYER
 10
58.1409981826
 20
130.9736492423
 11
64.0109981837
 21
130.9736492423
  0
LINE
  5
282
100
AcDbEntity
  8
0
100
AcDbLine
 62
7
  6
BYLAYER
 10
128.4764115766
 20
131.023649243
 11
148.4759981836
 21
131.023649243
  0
LINE
  5
283
100
AcDbEntity
  8
0
100
AcDbLine
 62
7
  6
BYLAYER
 10
151.6764115784
 20
131.023649243
 11
159.6759981827
 21
131.023649243
  0
LINE
  5
284
100
AcDbEntity
  8
0
100
AcDbLine
 62
7
  6
BYLAYER
 10
26.0759981831
 20
133.523649243
 11
46.0759981833
 21
133.523649243
  0
LINE
  5
285
100
AcDbEntity
  8
0
100
AcDbLine
 62
7
  6
BYLAYER
 10
46.1783329333
 20
134.0432079394
 11
26.5955941126
 21
134.0432079207
  0
LINE
  5
286
100
AcDbEntity
  8
0
100
AcDbLine
 62
7
  6
BYLAYER
 10
64.5259981824
 20
134.0736492437
 11
57.6259981839
 21
134.0736492437
  0
LINE
  5
287
100
AcDbEntity
  8
0
100
AcDbLine
 62
7
  6
BYLAYER
 10
64.9259981828
 20
134.898649243
 11
57.2259981835
 21
134.898649243
  0
LINE
  5
288
100
AcDbEntity
  8
0
100
AcDbLine
 62
7
  6
BYLAYER
 10
95.7259981835
 20
229.935649243
 11
95.7276481798
 21
229.5040900069
  0
LINE
  5
289
100
AcDbEntity
  8
0
100
AcDbLine
 62
7
  6
BYLAYER
 10
93.3759981838
 20
209.8236494956
 11
93.3759981838
 21
221.8236489906
  0
LINE
  5
28A
100
AcDbEntity
  8
0
100
AcDbLine
 62
7
  6
BYLAYER
 10
93.5759981831
 20
209.6236492489
 11
93.5759981831
 21
222.1236492426
  0
LINE
  5
28B
100
AcDbEntity
  8
0
100
AcDbLine
 62
7
  6
BYLAYER
 10
95.7259900405
 20
229.5040897348
 11
95.7259981835
 21
222.0236492283
  0
LINE
  5
28C
100
AcDbEntity
  8
0
100
AcDbLine
 62
7
  6
BYLAYER
 10
96.2259981838
 20
229.9202538713
 11
96.2259981838
 21
228.504584061
  0
LINE
  5
28D
100
AcDbEntity
  8
0
100
AcDbLine
 62
7
  6
BYLAYER
 10
96.2259980913
 20
222.4697058921
 11
96.2269798338
 21
228.5045840588
  0
LINE
  5
28E
100
AcDbEntity
  8
0
100
AcDbLine
 62
7
  6
BYLAYER
 10
65.4759981835
 20
149.9236492434
 11
63.4759981835
 21
147.9236492434
  0
LINE
  5
28F
100
AcDbEntity
  8
0
100
AcDbLine
 62
7
  6
BYLAYER
 10
63.7759981829
 20
147.6236492426
 11
65.7759981827
 21
149.6236492428
  0
LINE
  5
290
100
AcDbEntity
  8
0
100
AcDbLine
 62
7
  6
BYLAYER
 10
46.1785100966
 20
134.0432079394
 11
46.0759981831
 21
133.9563474901
  0
LINE
  5
291
100
AcDbEntity
  8
0
100
AcDbLine
 62
7
  6
BYLAYER
 10
27.5950633672
 20
135.0427144272
 11
46.0759981831
 21
135.0427144241
  0
LINE
  5
292
100
AcDbEntity
  8
0
100
AcDbLine
 62
7
  6
BYLAYER
 10
56.1760395753
 20
135.3736492426
 11
65.9759981835
 21
135.3736492426
  0
LINE
  5
293
100
AcDbEntity
  8
0
100
AcDbLine
 62
7
  6
BYLAYER
 10
159.6755847896
 20
136.023649243
 11
151.6759981826
 21
136.023649243
  0
LINE
  5
294
100
AcDbEntity
  8
0
100
AcDbLine
 62
7
  6
BYLAYER
 10
148.4755847877
 20
136.023649243
 11
128.4759981836
 21
136.023649243
  0
LINE
  5
295
100
AcDbEntity
  8
0
100
AcDbLine
 62
7
  6
BYLAYER
 10
53.0759981831
 20
136.273649243
 11
55.5759582735
 21
136.273649243
  0
LINE
  5
296
100
AcDbEntity
  8
0
100
AcDbLine
 62
7
  6
BYLAYER
 10
66.5759981832
 20
136.273649243
 11
69.0759981831
 21
136.273649243
  0
LINE
  5
297
100
AcDbEntity
  8
0
100
AcDbLine
 62
7
  6
BYLAYER
 10
52.7968655473
 20
137.523649243
 11
53.075998183
 21
137.523649243
  0
LINE
  5
298
100
AcDbEntity
  8
0
100
AcDbLine
 62
7
  6
BYLAYER
 10
42.2259981836
 20
138.273649243
 11
52.2727182969
 21
138.273649243
  0
LINE
  5
299
100
AcDbEntity
  8
0
100
AcDbLine
 62
7
  6
BYLAYER
 10
54.0759981853
 20
138.523649243
 11
68.0759974289
 21
138.523649243
  0
LINE
  5
29A
100
AcDbEntity
  8
0
100
AcDbLine
 62
7
  6
BYLAYER
 10
182.5759981831
 20
141.023649243
 11
178.5759981831
 21
141.023649243
  0
LINE
  5
29B
100
AcDbEntity
  8
0
100
AcDbLine
 62
7
  6
BYLAYER
 10
64.4759981803
 20
141.3236492437
 11
77.5759981832
 21
141.3236492437
  0
LINE
  5
29C
100
AcDbEntity
  8
0
100
AcDbLine
 62
7
  6
BYLAYER
 10
193.5759981833
 20
141.523649243
 11
190.575998183
 21
141.523649243
  0
LINE
  5
29D
100
AcDbEntity
  8
0
100
AcDbLine
 62
7
  6
BYLAYER
 10
64.7759981818
 20
141.623649243
 11
77.2759981833
 21
141.623649243
  0
LINE
  5
29E
100
AcDbEntity
  8
0
100
AcDbLine
 62
7
  6
BYLAYER
 10
34.9052875058
 20
212.2943599218
 11
32.6418754245
 21
214.5577720012
  0
LINE
  5
29F
100
AcDbEntity
  8
0
100
AcDbLine
 62
7
  6
BYLAYER
 10
26.0759981831
 20
224.023649243
 11
26.5955557464
 21
223.5040153404
  0
LINE
  5
2A0
100
AcDbEntity
  8
0
100
AcDbLine
 62
7
  6
BYLAYER
 10
100.7259981831
 20
229.685643124
 11
100.7259981831
 21
229.9516669324
  0
LINE
  5
2A1
100
AcDbEntity
  8
0
100
AcDbLine
 62
7
  6
BYLAYER
 10
101.5759981835
 20
226.4812919853
 11
101.5759981835
 21
223.4834311542
  0
LINE
  5
2A2
100
AcDbEntity
  8
0
100
AcDbLine
 62
7
  6
BYLAYER
 10
159.8309981839
 20
211.4670249161
 11
162.3309981837
 21
212.910400589
  0
LINE
  5
2A3
100
AcDbEntity
  8
0
100
AcDbLine
 62
7
  6
BYLAYER
 10
164.8309981831
 20
208.5802735698
 11
162.3309981837
 21
207.1368978969
  0
LINE
  5
2A4
100
AcDbEntity
  8
0
100
AcDbLine
 62
7
  6
BYLAYER
 10
182.575998183
 20
144.523649243
 11
185.5759981833
 21
144.523649243
  0
LINE
  5
2A5
100
AcDbEntity
  8
0
100
AcDbLine
 62
7
  6
BYLAYER
 10
190.575998183
 20
144.523649243
 11
193.5759981833
 21
144.523649243
  0
LINE
  5
2A6
100
AcDbEntity
  8
0
100
AcDbLine
 62
7
  6
BYLAYER
 10
163.5759981867
 20
144.773649243
 11
167.5759981765
 21
144.773649243
  0
LINE
  5
2A7
100
AcDbEntity
  8
0
100
AcDbLine
 62
7
  6
BYLAYER
 10
161.5759981831
 20
146.273649243
 11
158.0759981831
 21
146.273649243
  0
LINE
  5
2A8
100
AcDbEntity
  8
0
100
AcDbLine
 62
7
  6
BYLAYER
 10
160.2535140545
 20
147.2317230195
 11
162.4972583854
 21
147.2317230195
  0
LINE
  5
2A9
100
AcDbEntity
  8
0
100
AcDbLine
 62
7
  6
BYLAYER
 10
205.0264115787
 20
148.773649243
 11
208.0259981833
 21
148.773649243
  0
LINE
  5
2AA
100
AcDbEntity
  8
0
100
AcDbLine
 62
7
  6
BYLAYER
 10
56.0759981834
 20
148.793490782
 11
46.0759981831
 21
148.7934907819
  0
LINE
  5
2AB
100
AcDbEntity
  8
0
100
AcDbLine
 62
7
  6
BYLAYER
 10
77.275998182
 20
149.623649243
 11
65.7759981827
 21
149.623649243
  0
LINE
  5
2AC
100
AcDbEntity
  8
0
100
AcDbLine
 62
7
  6
BYLAYER
 10
77.5759981796
 20
149.9236492434
 11
65.4759981835
 21
149.9236492434
  0
LINE
  5
2AD
100
AcDbEntity
  8
0
100
AcDbLine
 62
7
  6
BYLAYER
 10
59.9259981826
 20
150.273649243
 11
56.0789550588
 21
150.273649243
  0
LINE
  5
2AE
100
AcDbEntity
  8
0
100
AcDbLine
 62
7
  6
BYLAYER
 10
46.0759981831
 20
150.273649243
 11
42.2259981839
 21
150.273649243
  0
LINE
  5
2AF
100
AcDbEntity
  8
0
100
AcDbLine
 62
7
  6
BYLAYER
 10
42.146708861
 20
217.0529385648
 11
44.4071627141
 21
214.7924847136
  0
LINE
  5
2B0
100
AcDbEntity
  8
0
100
AcDbLine
 62
7
  6
BYLAYER
 10
106.8759981831
 20
154.0236492418
 11
106.8759981831
 21
187.0236492441
  0
LINE
  5
2B1
100
AcDbEntity
  8
0
100
AcDbLine
 62
7
  6
BYLAYER
 10
106.8759981831
 20
189.3236492423
 11
106.8759981831
 21
207.3236492448
  0
LINE
  5
2B2
100
AcDbEntity
  8
0
100
AcDbLine
 62
7
  6
BYLAYER
 10
107.1759981828
 20
154.0236492429
 11
107.1759981828
 21
207.3236492454
  0
LINE
  5
2B3
100
AcDbEntity
  8
0
100
AcDbLine
 62
7
  6
BYLAYER
 10
46.5759983316
 20
99.023649243
 11
47.0811692561
 21
99.5584187949
  0
LINE
  5
2B4
100
AcDbEntity
  8
0
100
AcDbLine
 62
7
  6
BYLAYER
 10
32.8759981833
 20
152.7236492423
 11
105.8759981843
 21
152.7236492423
  0
LINE
  5
2B5
100
AcDbEntity
  8
0
100
AcDbLine
 62
7
  6
BYLAYER
 10
32.8759981836
 20
153.023649243
 11
105.8759981839
 21
153.023649243
  0
LINE
  5
2B6
100
AcDbEntity
  8
0
100
AcDbLine
 62
7
  6
BYLAYER
 10
193.5759981831
 20
156.523649243
 11
190.5759981831
 21
156.523649243
  0
LINE
  5
2B7
100
AcDbEntity
  8
0
100
AcDbLine
 62
7
  6
BYLAYER
 10
185.5759981831
 20
156.523649243
 11
182.5759981831
 21
156.523649243
  0
LINE
  5
2B8
100
AcDbEntity
  8
0
100
AcDbLine
 62
7
  6
BYLAYER
 10
116.5759981835
 20
223.4840900085
 11
116.5759981835
 21
226.4819508356
  0
LINE
  5
2B9
100
AcDbEntity
  8
0
100
AcDbLine
 62
7
  6
BYLAYER
 10
117.4259981831
 20
229.9516669324
 11
117.4259981831
 21
229.685643124
  0
LINE
  5
2BA
100
AcDbEntity
  8
0
100
AcDbLine
 62
7
  6
BYLAYER
 10
58.0759981831
 20
99.023649243
 11
58.4308771375
 21
99.4495780486
  0
LINE
  5
2BB
100
AcDbEntity
  8
0
100
AcDbLine
 62
7
  6
BYLAYER
 10
84.2759981824
 20
127.9236492434
 11
82.2759981824
 21
125.9236492434
  0
LINE
  5
2BC
100
AcDbEntity
  8
0
100
AcDbLine
 62
7
  6
BYLAYER
 10
82.5759981831
 20
125.6236492428
 11
84.575998183
 21
127.6236492429
  0
LINE
  5
2BD
100
AcDbEntity
  8
0
100
AcDbLine
 62
7
  6
BYLAYER
 10
162.4972583854
 20
158.3155754668
 11
160.2535140545
 21
158.3155754668
  0
LINE
  5
2BE
100
AcDbEntity
  8
0
100
AcDbLine
 62
7
  6
BYLAYER
 10
158.0759981831
 20
159.273649243
 11
161.5759981831
 21
159.273649243
  0
LINE
  5
2BF
100
AcDbEntity
  8
0
100
AcDbLine
 62
7
  6
BYLAYER
 10
182.5759981831
 20
159.523649243
 11
185.5759981831
 21
159.523649243
  0
LINE
  5
2C0
100
AcDbEntity
  8
0
100
AcDbLine
 62
7
  6
BYLAYER
 10
190.5759981831
 20
159.523649243
 11
193.5759981831
 21
159.523649243
  0
LINE
  5
2C1
100
AcDbEntity
  8
0
100
AcDbLine
 62
7
  6
BYLAYER
 10
167.5759974292
 20
160.773649243
 11
163.5759981831
 21
160.773649243
  0
LINE
  5
2C2
100
AcDbEntity
  8
0
100
AcDbLine
 62
7
  6
BYLAYER
 10
208.0255847871
 20
162.773649243
 11
205.0259981831
 21
162.773649243
  0
LWPOLYLINE
  5
2C3
100
AcDbEntity
  8
0
100
AcDbPolyline
 62
7
  6
BYLAYER
 90
3
 70
0
 10
47.4960461712
 20
229.1034470584
 10
47.2842377954
 20
229.3149112108
 10
47.0955568793
 20
229.5040905468
  0
LINE
  5
2C4
100
AcDbEntity
  8
0
100
AcDbLine
 62
7
  6
BYLAYER
 10
48.0950633663
 20
228.5045840599
 11
46.5759981831
 21
230.023649243
  0
LINE
  5
2C5
100
AcDbEntity
  8
0
100
AcDbLine
 62
7
  6
BYLAYER
 10
125.0511657724
 20
216.5236492428
 11
125.119295884
 21
187.023649239
  0
LINE
  5
2C6
100
AcDbEntity
  8
0
100
AcDbLine
 62
7
  6
BYLAYER
 10
121.9250165291
 20
228.5045840588
 11
121.9259991042
 21
222.4646129629
  0
LINE
  5
2C7
100
AcDbEntity
  8
0
100
AcDbLine
 62
7
  6
BYLAYER
 10
121.5759981831
 20
108.6236492426
 11
121.5759981831
 21
126.6236492427
  0
LINE
  5
2C8
100
AcDbEntity
  8
0
100
AcDbLine
 62
7
  6
BYLAYER
 10
121.7759981824
 20
108.4236492498
 11
121.7759981824
 21
126.9236492435
  0
LINE
  5
2C9
100
AcDbEntity
  8
0
100
AcDbLine
 62
7
  6
BYLAYER
 10
121.9259981831
 20
228.5045840605
 11
121.9259981831
 21
229.9202538713
  0
LINE
  5
2CA
100
AcDbEntity
  8
0
100
AcDbLine
 62
7
  6
BYLAYER
 10
122.4259981831
 20
222.023649243
 11
122.4259981831
 21
229.5040897366
  0
LINE
  5
2CB
100
AcDbEntity
  8
0
100
AcDbLine
 62
7
  6
BYLAYER
 10
125.5759981831
 20
175.023649243
 11
125.5759981831
 21
130.523649243
  0
LINE
  5
2CC
100
AcDbEntity
  8
0
100
AcDbLine
 62
7
  6
BYLAYER
 10
126.0759981831
 20
175.023649243
 11
126.0759981831
 21
130.523649243
  0
LINE
  5
2CD
100
AcDbEntity
  8
0
100
AcDbLine
 62
7
  6
BYLAYER
 10
126.9759981823
 20
196.923649243
 11
126.9759981823
 21
187.923649243
  0
LINE
  5
2CE
100
AcDbEntity
  8
0
100
AcDbLine
 62
7
  6
BYLAYER
 10
127.3209981831
 20
211.4670249161
 11
127.3209981831
 21
208.5802735699
  0
LINE
  5
2CF
100
AcDbEntity
  8
0
100
AcDbLine
 62
7
  6
BYLAYER
 10
127.4759981835
 20
135.0232358502
 11
127.4759981835
 21
132.023649243
  0
LINE
  5
2D0
100
AcDbEntity
  8
0
100
AcDbLine
 62
7
  6
BYLAYER
 10
128.0759981838
 20
196.5736492434
 11
128.0759981838
 21
192.5612136786
  0
LINE
  5
2D1
100
AcDbEntity
  8
0
100
AcDbLine
 62
7
  6
BYLAYER
 10
128.0759981838
 20
192.1860848078
 11
128.0759981838
 21
188.4736492437
  0
LINE
  5
2D2
100
AcDbEntity
  8
0
100
AcDbLine
 62
7
  6
BYLAYER
 10
128.1759981834
 20
192.5612136786
 11
128.1759981834
 21
192.1860848078
  0
LINE
  5
2D3
100
AcDbEntity
  8
0
100
AcDbLine
 62
7
  6
BYLAYER
 10
122.4243442302
 20
229.504090472
 11
122.4259982137
 21
229.9356552906
  0
LWPOLYLINE
  5
2D4
100
AcDbEntity
  8
0
100
AcDbPolyline
 62
7
  6
BYLAYER
 90
3
 70
0
 10
192.6557959986
 20
229.1036012549
 10
192.8672601509
 20
229.3154096308
 10
193.056439487
 20
229.5040905468
  0
LINE
  5
2D5
100
AcDbEntity
  8
0
100
AcDbLine
 62
7
  6
BYLAYER
 10
192.0569329991
 20
228.504584059
 11
193.5759981831
 21
230.023649243
  0
LINE
  5
2D6
100
AcDbEntity
  8
0
100
AcDbLine
 62
7
  6
BYLAYER
 10
193.5759981831
 20
171.523649243
 11
190.5759981831
 21
171.523649243
  0
LINE
  5
2D7
100
AcDbEntity
  8
0
100
AcDbLine
 62
7
  6
BYLAYER
 10
185.5759981831
 20
171.523649243
 11
182.5759981831
 21
171.523649243
  0
LINE
  5
2D8
100
AcDbEntity
  8
0
100
AcDbLine
 62
7
  6
BYLAYER
 10
129.125998184
 20
194.3736492424
 11
129.1259981837
 21
190.373649243
  0
LINE
  5
2D9
100
AcDbEntity
  8
0
100
AcDbLine
 62
7
  6
BYLAYER
 10
129.2759981824
 20
195.7236492432
 11
129.2759981828
 21
195.073649243
  0
LINE
  5
2DA
100
AcDbEntity
  8
0
100
AcDbLine
 62
7
  6
BYLAYER
 10
129.7759981834
 20
192.9981490435
 11
129.7759981834
 21
191.7491494423
  0
LINE
  5
2DB
100
AcDbEntity
  8
0
100
AcDbLine
 62
7
  6
BYLAYER
 10
129.8759981829
 20
192.7736492432
 11
129.8759981829
 21
191.9736492427
  0
LINE
  5
2DC
100
AcDbEntity
  8
0
100
AcDbLine
 62
7
  6
BYLAYER
 10
129.9259981828
 20
194.8736492429
 11
129.9259981828
 21
194.3736492424
  0
LINE
  5
2DD
100
AcDbEntity
  8
0
100
AcDbLine
 62
7
  6
BYLAYER
 10
130.3759981831
 20
190.373649243
 11
130.3759981831
 21
189.273649243
  0
LINE
  5
2DE
100
AcDbEntity
  8
0
100
AcDbLine
 62
7
  6
BYLAYER
 10
130.625998184
 20
194.3736492424
 11
130.6259981839
 21
194.8736492422
  0
LINE
  5
2DF
100
AcDbEntity
  8
0
100
AcDbLine
 62
7
  6
BYLAYER
 10
130.6759981833
 20
191.9736492427
 11
130.6759981833
 21
192.7736492432
  0
LINE
  5
2E0
100
AcDbEntity
  8
0
100
AcDbLine
 62
7
  6
BYLAYER
 10
131.2759981831
 20
195.073649243
 11
131.2759981829
 21
195.7236492431
  0
LINE
  5
2E1
100
AcDbEntity
  8
0
100
AcDbLine
 62
7
  6
BYLAYER
 10
131.3384337486
 20
196.4736492437
 11
131.3384337486
 21
196.5736492434
  0
LINE
  5
2E2
100
AcDbEntity
  8
0
100
AcDbLine
 62
7
  6
BYLAYER
 10
131.5259981831
 20
189.273649243
 11
131.5259981834
 21
190.373649243
  0
LINE
  5
2E3
100
AcDbEntity
  8
0
100
AcDbLine
 62
7
  6
BYLAYER
 10
131.7135626175
 20
196.5736492434
 11
131.7135626175
 21
196.4736492437
  0
LINE
  5
2E4
100
AcDbEntity
  8
0
100
AcDbLine
 62
7
  6
BYLAYER
 10
131.7759981831
 20
195.723649243
 11
131.7759981833
 21
195.073649243
  0
LINE
  5
2E5
100
AcDbEntity
  8
0
100
AcDbLine
 62
7
  6
BYLAYER
 10
131.8259981831
 20
214.6236492415
 11
131.8259981831
 21
213.9236492434
  0
LINE
  5
2E6
100
AcDbEntity
  8
0
100
AcDbLine
 62
7
  6
BYLAYER
 10
131.8259981831
 20
206.1236492426
 11
131.8259981831
 21
205.423649243
  0
LINE
  5
2E7
100
AcDbEntity
  8
0
100
AcDbLine
 62
7
  6
BYLAYER
 10
132.3209981822
 20
208.5802735699
 11
132.3209981822
 21
211.4670249161
  0
LINE
  5
2E8
100
AcDbEntity
  8
0
100
AcDbLine
 62
7
  6
BYLAYER
 10
132.3759981829
 20
192.7736492432
 11
132.3759981829
 21
191.9736492428
  0
LINE
  5
2E9
100
AcDbEntity
  8
0
100
AcDbLine
 62
7
  6
BYLAYER
 10
132.4259981828
 20
194.873649243
 11
132.4259981828
 21
194.3736492424
  0
LINE
  5
2EA
100
AcDbEntity
  8
0
100
AcDbLine
 62
7
  6
BYLAYER
 10
133.125998184
 20
194.3736492424
 11
133.1259981839
 21
194.8736492422
  0
LINE
  5
2EB
100
AcDbEntity
  8
0
100
AcDbLine
 62
7
  6
BYLAYER
 10
133.1759981833
 20
191.9736492427
 11
133.1759981833
 21
192.7736492432
  0
LINE
  5
2EC
100
AcDbEntity
  8
0
100
AcDbLine
 62
7
  6
BYLAYER
 10
133.7759981831
 20
195.073649243
 11
133.7759981831
 21
195.723649243
  0
LINE
  5
2ED
100
AcDbEntity
  8
0
100
AcDbLine
 62
7
  6
BYLAYER
 10
133.8384337486
 20
196.4736492437
 11
133.8384337486
 21
196.5736492434
  0
LINE
  5
2EE
100
AcDbEntity
  8
0
100
AcDbLine
 62
7
  6
BYLAYER
 10
134.0609981824
 20
212.6136492428
 11
134.0609981824
 21
209.0536492429
  0
LINE
  5
2EF
100
AcDbEntity
  8
0
100
AcDbLine
 62
7
  6
BYLAYER
 10
134.2135626175
 20
196.5736492434
 11
134.2135626175
 21
196.4736492437
  0
LINE
  5
2F0
100
AcDbEntity
  8
0
100
AcDbLine
 62
7
  6
BYLAYER
 10
134.2759981831
 20
195.723649243
 11
134.2759981833
 21
195.073649243
  0
LINE
  5
2F1
100
AcDbEntity
  8
0
100
AcDbLine
 62
7
  6
BYLAYER
 10
134.8759981829
 20
192.7736492432
 11
134.8759981829
 21
191.9736492427
  0
LINE
  5
2F2
100
AcDbEntity
  8
0
100
AcDbLine
 62
7
  6
BYLAYER
 10
134.9259981828
 20
194.873649243
 11
134.9259981828
 21
194.3736492424
  0
LINE
  5
2F3
100
AcDbEntity
  8
0
100
AcDbLine
 62
7
  6
BYLAYER
 10
135.625998184
 20
194.3736492424
 11
135.6259981839
 21
194.8736492422
  0
LINE
  5
2F4
100
AcDbEntity
  8
0
100
AcDbLine
 62
7
  6
BYLAYER
 10
135.6759981833
 20
191.9736492427
 11
135.6759981833
 21
192.7736492432
  0
LINE
  5
2F5
100
AcDbEntity
  8
0
100
AcDbLine
 62
7
  6
BYLAYER
 10
135.8409981837
 20
212.6836492431
 11
135.8409981837
 21
211.1836492431
  0
LINE
  5
2F6
100
AcDbEntity
  8
0
100
AcDbLine
 62
7
  6
BYLAYER
 10
135.8409981837
 20
210.773649243
 11
135.8409981837
 21
209.273649243
  0
LINE
  5
2F7
100
AcDbEntity
  8
0
100
AcDbLine
 62
7
  6
BYLAYER
 10
135.8409981837
 20
208.8636492429
 11
135.8409981837
 21
207.3636492429
  0
LINE
  5
2F8
100
AcDbEntity
  8
0
100
AcDbLine
 62
7
  6
BYLAYER
 10
136.2759981831
 20
195.073649243
 11
136.2759981833
 21
195.723649243
  0
LINE
  5
2F9
100
AcDbEntity
  8
0
100
AcDbLine
 62
7
  6
BYLAYER
 10
136.3384337486
 20
196.4736492437
 11
136.3384337486
 21
196.5736492434
  0
LINE
  5
2FA
100
AcDbEntity
  8
0
100
AcDbLine
 62
7
  6
BYLAYER
 10
182.575998183
 20
174.523649243
 11
185.5759981833
 21
174.523649243
  0
LINE
  5
2FB
100
AcDbEntity
  8
0
100
AcDbLine
 62
7
  6
BYLAYER
 10
190.575998183
 20
174.523649243
 11
193.5759981833
 21
174.523649243
  0
LINE
  5
2FC
100
AcDbEntity
  8
0
100
AcDbLine
 62
7
  6
BYLAYER
 10
160.5759981831
 20
176.523649243
 11
127.5759981831
 21
176.523649243
  0
LINE
  5
2FD
100
AcDbEntity
  8
0
100
AcDbLine
 62
7
  6
BYLAYER
 10
160.5759981831
 20
177.023649243
 11
127.5759981831
 21
177.023649243
  0
LINE
  5
2FE
100
AcDbEntity
  8
0
100
AcDbLine
 62
7
  6
BYLAYER
 10
136.7135626175
 20
196.5736492434
 11
136.7135626175
 21
196.4736492437
  0
LINE
  5
2FF
100
AcDbEntity
  8
0
100
AcDbLine
 62
7
  6
BYLAYER
 10
136.7759981831
 20
195.723649243
 11
136.7759981833
 21
195.073649243
  0
LINE
  5
300
100
AcDbEntity
  8
0
100
AcDbLine
 62
7
  6
BYLAYER
 10
137.2759981823
 20
123.0236492395
 11
137.2759981823
 21
118.0236492461
  0
LINE
  5
301
100
AcDbEntity
  8
0
100
AcDbLine
 62
7
  6
BYLAYER
 10
137.3409981837
 20
207.3636492429
 11
137.3409981837
 21
208.8636492429
  0
LINE
  5
302
100
AcDbEntity
  8
0
100
AcDbLine
 62
7
  6
BYLAYER
 10
137.3409981837
 20
209.273649243
 11
137.3409981837
 21
210.773649243
  0
LINE
  5
303
100
AcDbEntity
  8
0
100
AcDbLine
 62
7
  6
BYLAYER
 10
137.3409981837
 20
211.1836492431
 11
137.3409981837
 21
212.6836492431
  0
LINE
  5
304
100
AcDbEntity
  8
0
100
AcDbLine
 62
7
  6
BYLAYER
 10
137.3759981829
 20
192.7736492432
 11
137.3759981829
 21
191.9736492428
  0
LINE
  5
305
100
AcDbEntity
  8
0
100
AcDbLine
 62
7
  6
BYLAYER
 10
137.4259981828
 20
194.873649243
 11
137.4259981828
 21
194.3736492424
  0
LINE
  5
306
100
AcDbEntity
  8
0
100
AcDbLine
 62
7
  6
BYLAYER
 10
137.7509981838
 20
212.6836492431
 11
137.7509981838
 21
211.1836492431
  0
LINE
  5
307
100
AcDbEntity
  8
0
100
AcDbLine
 62
7
  6
BYLAYER
 10
137.7509981838
 20
210.773649243
 11
137.7509981838
 21
209.273649243
  0
LINE
  5
308
100
AcDbEntity
  8
0
100
AcDbLine
 62
7
  6
BYLAYER
 10
137.7509981838
 20
208.8636492429
 11
137.7509981838
 21
207.3636492429
  0
LINE
  5
309
100
AcDbEntity
  8
0
100
AcDbLine
 62
7
  6
BYLAYER
 10
138.125998184
 20
194.3736492424
 11
138.1259981839
 21
194.8736492422
  0
LINE
  5
30A
100
AcDbEntity
  8
0
100
AcDbLine
 62
7
  6
BYLAYER
 10
138.1759981833
 20
191.9736492428
 11
138.1759981833
 21
192.7736492432
  0
LINE
  5
30B
100
AcDbEntity
  8
0
100
AcDbLine
 62
7
  6
BYLAYER
 10
138.675998182
 20
123.023649243
 11
138.675998182
 21
118.023649243
  0
LINE
  5
30C
100
AcDbEntity
  8
0
100
AcDbLine
 62
7
  6
BYLAYER
 10
138.7759981831
 20
195.073649243
 11
138.7759981833
 21
195.723649243
  0
LINE
  5
30D
100
AcDbEntity
  8
0
100
AcDbLine
 62
7
  6
BYLAYER
 10
138.8384337486
 20
196.4736492437
 11
138.8384337486
 21
196.5736492434
  0
LINE
  5
30E
100
AcDbEntity
  8
0
100
AcDbLine
 62
7
  6
BYLAYER
 10
139.2135626175
 20
196.5736492434
 11
139.2135626175
 21
196.4736492437
  0
LINE
  5
30F
100
AcDbEntity
  8
0
100
AcDbLine
 62
7
  6
BYLAYER
 10
139.2509981838
 20
207.3636492429
 11
139.2509981838
 21
208.8636492429
  0
LINE
  5
310
100
AcDbEntity
  8
0
100
AcDbLine
 62
7
  6
BYLAYER
 10
139.2509981838
 20
209.273649243
 11
139.2509981838
 21
210.773649243
  0
LINE
  5
311
100
AcDbEntity
  8
0
100
AcDbLine
 62
7
  6
BYLAYER
 10
139.2509981838
 20
211.1836492431
 11
139.2509981838
 21
212.6836492431
  0
LINE
  5
312
100
AcDbEntity
  8
0
100
AcDbLine
 62
7
  6
BYLAYER
 10
139.2759981831
 20
195.723649243
 11
139.2759981833
 21
195.073649243
  0
LINE
  5
313
100
AcDbEntity
  8
0
100
AcDbLine
 62
7
  6
BYLAYER
 10
139.660998184
 20
212.6836492431
 11
139.660998184
 21
211.1836492431
  0
LINE
  5
314
100
AcDbEntity
  8
0
100
AcDbLine
 62
7
  6
BYLAYER
 10
139.660998184
 20
210.773649243
 11
139.660998184
 21
209.273649243
  0
LINE
  5
315
100
AcDbEntity
  8
0
100
AcDbLine
 62
7
  6
BYLAYER
 10
139.660998184
 20
208.8636492429
 11
139.660998184
 21
207.3636492429
  0
LINE
  5
316
100
AcDbEntity
  8
0
100
AcDbLine
 62
7
  6
BYLAYER
 10
139.7002622521
 20
118.023649243
 11
139.7002622521
 21
123.023649243
  0
LINE
  5
317
100
AcDbEntity
  8
0
100
AcDbLine
 62
7
  6
BYLAYER
 10
139.8759981829
 20
192.7736492432
 11
139.8759981829
 21
191.9736492428
  0
LINE
  5
318
100
AcDbEntity
  8
0
100
AcDbLine
 62
7
  6
BYLAYER
 10
139.9259981828
 20
194.873649243
 11
139.9259981828
 21
194.3736492424
  0
LINE
  5
319
100
AcDbEntity
  8
0
100
AcDbLine
 62
7
  6
BYLAYER
 10
140.1245305651
 20
123.023649243
 11
140.1245305651
 21
118.023649243
  0
LINE
  5
31A
100
AcDbEntity
  8
0
100
AcDbLine
 62
7
  6
BYLAYER
 10
140.625998184
 20
194.3736492424
 11
140.6259981839
 21
194.8736492422
  0
LINE
  5
31B
100
AcDbEntity
  8
0
100
AcDbLine
 62
7
  6
BYLAYER
 10
140.6759981833
 20
191.9736492427
 11
140.6759981833
 21
192.7736492432
  0
LINE
  5
31C
100
AcDbEntity
  8
0
100
AcDbLine
 62
7
  6
BYLAYER
 10
141.160998184
 20
207.3636492429
 11
141.160998184
 21
208.8636492429
  0
LINE
  5
31D
100
AcDbEntity
  8
0
100
AcDbLine
 62
7
  6
BYLAYER
 10
141.160998184
 20
209.273649243
 11
141.160998184
 21
210.773649243
  0
LINE
  5
31E
100
AcDbEntity
  8
0
100
AcDbLine
 62
7
  6
BYLAYER
 10
141.160998184
 20
211.1836492431
 11
141.160998184
 21
212.6836492431
  0
LINE
  5
31F
100
AcDbEntity
  8
0
100
AcDbLine
 62
7
  6
BYLAYER
 10
141.2759981831
 20
195.073649243
 11
141.2759981831
 21
195.723649243
  0
LINE
  5
320
100
AcDbEntity
  8
0
100
AcDbLine
 62
7
  6
BYLAYER
 10
141.3384337486
 20
196.4736492437
 11
141.3384337486
 21
196.5736492434
  0
LINE
  5
321
100
AcDbEntity
  8
0
100
AcDbLine
 62
7
  6
BYLAYER
 10
141.5709981823
 20
212.6836492431
 11
141.5709981823
 21
211.1836492431
  0
LINE
  5
322
100
AcDbEntity
  8
0
100
AcDbLine
 62
7
  6
BYLAYER
 10
141.5709981823
 20
210.773649243
 11
141.5709981823
 21
209.273649243
  0
LINE
  5
323
100
AcDbEntity
  8
0
100
AcDbLine
 62
7
  6
BYLAYER
 10
141.5709981823
 20
208.8636492429
 11
141.5709981823
 21
207.3636492429
  0
LINE
  5
324
100
AcDbEntity
  8
0
100
AcDbLine
 62
7
  6
BYLAYER
 10
141.7135626175
 20
196.5736492434
 11
141.7135626175
 21
196.4736492437
  0
LINE
  5
325
100
AcDbEntity
  8
0
100
AcDbLine
 62
7
  6
BYLAYER
 10
141.7759981831
 20
195.723649243
 11
141.7759981831
 21
195.0736492428
  0
LINE
  5
326
100
AcDbEntity
  8
0
100
AcDbLine
 62
7
  6
BYLAYER
 10
142.3759981829
 20
192.7736492432
 11
142.3759981829
 21
191.9736492428
  0
LINE
  5
327
100
AcDbEntity
  8
0
100
AcDbLine
 62
7
  6
BYLAYER
 10
142.4259981828
 20
194.873649243
 11
142.4259981828
 21
194.3736492424
  0
LINE
  5
328
100
AcDbEntity
  8
0
100
AcDbLine
 62
7
  6
BYLAYER
 10
143.0709981823
 20
207.3636492429
 11
143.0709981823
 21
208.8636492429
  0
LINE
  5
329
100
AcDbEntity
  8
0
100
AcDbLine
 62
7
  6
BYLAYER
 10
143.0709981823
 20
209.273649243
 11
143.0709981823
 21
210.773649243
  0
LINE
  5
32A
100
AcDbEntity
  8
0
100
AcDbLine
 62
7
  6
BYLAYER
 10
143.0709981823
 20
211.1836492431
 11
143.0709981823
 21
212.6836492431
  0
LINE
  5
32B
100
AcDbEntity
  8
0
100
AcDbLine
 62
7
  6
BYLAYER
 10
143.125998184
 20
194.3736492424
 11
143.1259981839
 21
194.8736492422
  0
LINE
  5
32C
100
AcDbEntity
  8
0
100
AcDbLine
 62
7
  6
BYLAYER
 10
143.1759981833
 20
191.9736492427
 11
143.1759981833
 21
192.7736492432
  0
LINE
  5
32D
100
AcDbEntity
  8
0
100
AcDbLine
 62
7
  6
BYLAYER
 10
143.4809981824
 20
212.6836492431
 11
143.4809981824
 21
211.1836492431
  0
LINE
  5
32E
100
AcDbEntity
  8
0
100
AcDbLine
 62
7
  6
BYLAYER
 10
143.4809981824
 20
210.773649243
 11
143.4809981824
 21
209.273649243
  0
LINE
  5
32F
100
AcDbEntity
  8
0
100
AcDbLine
 62
7
  6
BYLAYER
 10
143.4809981824
 20
208.8636492429
 11
143.4809981824
 21
207.3636492429
  0
LINE
  5
330
100
AcDbEntity
  8
0
100
AcDbLine
 62
7
  6
BYLAYER
 10
143.7759981831
 20
195.073649243
 11
143.7759981833
 21
195.723649243
  0
LINE
  5
331
100
AcDbEntity
  8
0
100
AcDbLine
 62
7
  6
BYLAYER
 10
143.8384337486
 20
196.4736492437
 11
143.8384337486
 21
196.5736492434
  0
LINE
  5
332
100
AcDbEntity
  8
0
100
AcDbLine
 62
7
  6
BYLAYER
 10
144.0274700463
 20
118.023649243
 11
144.0274700463
 21
123.023649243
  0
LINE
  5
333
100
AcDbEntity
  8
0
100
AcDbLine
 62
7
  6
BYLAYER
 10
205.0264115787
 20
184.523649243
 11
208.0259981833
 21
184.523649243
  0
LINE
  5
334
100
AcDbEntity
  8
0
100
AcDbLine
 62
7
  6
BYLAYER
 10
127.0759981885
 20
185.066946943
 11
165.0760592646
 21
185.0669469412
  0
LINE
  5
335
100
AcDbEntity
  8
0
100
AcDbLine
 62
7
  6
BYLAYER
 10
193.5759981833
 20
186.523649243
 11
190.575998183
 21
186.523649243
  0
LINE
  5
336
100
AcDbEntity
  8
0
100
AcDbLine
 62
7
  6
BYLAYER
 10
185.5759981833
 20
186.523649243
 11
182.575998183
 21
186.523649243
  0
LINE
  5
337
100
AcDbEntity
  8
0
100
AcDbLine
 62
7
  6
BYLAYER
 10
127.4759981825
 20
187.423649243
 11
148.0759981837
 21
187.423649243
  0
LINE
  5
338
100
AcDbEntity
  8
0
100
AcDbLine
 62
7
  6
BYLAYER
 10
105.8759981838
 20
188.023649243
 11
33.8759981834
 21
188.023649243
  0
LINE
  5
339
100
AcDbEntity
  8
0
100
AcDbLine
 62
7
  6
BYLAYER
 10
32.8759981848
 20
188.323649243
 11
105.8759981827
 21
188.323649243
  0
LINE
  5
33A
100
AcDbEntity
  8
0
100
AcDbLine
 62
7
  6
BYLAYER
 10
128.0759981838
 20
188.4736492437
 11
147.4759981823
 21
188.4736492437
  0
LINE
  5
33B
100
AcDbEntity
  8
0
100
AcDbLine
 62
7
  6
BYLAYER
 10
208.5589070469
 20
103.5432079392
 11
209.0784657431
 21
103.023649243
  0
LINE
  5
33C
100
AcDbEntity
  8
0
100
AcDbLine
 62
7
  6
BYLAYER
 10
195.0759981835
 20
103.023649243
 11
194.6956198097
 21
103.4801826838
  0
LINE
  5
33D
100
AcDbEntity
  8
0
100
AcDbLine
 62
7
  6
BYLAYER
 10
144.2135626175
 20
196.5736492434
 11
144.2135626175
 21
196.4736492437
  0
LINE
  5
33E
100
AcDbEntity
  8
0
100
AcDbLine
 62
7
  6
BYLAYER
 10
144.2759981831
 20
195.723649243
 11
144.2759981831
 21
195.073649243
  0
LINE
  5
33F
100
AcDbEntity
  8
0
100
AcDbLine
 62
7
  6
BYLAYER
 10
144.4517341144
 20
123.023649243
 11
144.4517341144
 21
118.023649243
  0
LINE
  5
340
100
AcDbEntity
  8
0
100
AcDbLine
 62
7
  6
BYLAYER
 10
144.8759981829
 20
192.7736492432
 11
144.8759981829
 21
191.9736492428
  0
LINE
  5
341
100
AcDbEntity
  8
0
100
AcDbLine
 62
7
  6
BYLAYER
 10
144.9259981828
 20
194.873649243
 11
144.9259981828
 21
194.3736492424
  0
LINE
  5
342
100
AcDbEntity
  8
0
100
AcDbLine
 62
7
  6
BYLAYER
 10
144.9809981824
 20
207.3636492429
 11
144.9809981824
 21
208.8636492429
  0
LINE
  5
343
100
AcDbEntity
  8
0
100
AcDbLine
 62
7
  6
BYLAYER
 10
144.9809981824
 20
209.273649243
 11
144.9809981824
 21
210.773649243
  0
LINE
  5
344
100
AcDbEntity
  8
0
100
AcDbLine
 62
7
  6
BYLAYER
 10
144.9809981824
 20
211.1836492431
 11
144.9809981824
 21
212.6836492431
  0
LINE
  5
345
100
AcDbEntity
  8
0
100
AcDbLine
 62
7
  6
BYLAYER
 10
145.3759981831
 20
190.373649243
 11
145.3759981828
 21
189.273649243
  0
LINE
  5
346
100
AcDbEntity
  8
0
100
AcDbLine
 62
7
  6
BYLAYER
 10
145.3909981826
 20
212.6836492431
 11
145.3909981826
 21
211.1836492431
  0
LINE
  5
347
100
AcDbEntity
  8
0
100
AcDbLine
 62
7
  6
BYLAYER
 10
145.3909981826
 20
210.773649243
 11
145.3909981826
 21
209.273649243
  0
LINE
  5
348
100
AcDbEntity
  8
0
100
AcDbLine
 62
7
  6
BYLAYER
 10
145.3909981826
 20
208.8636492429
 11
145.3909981826
 21
207.3636492429
  0
LINE
  5
349
100
AcDbEntity
  8
0
100
AcDbLine
 62
7
  6
BYLAYER
 10
145.4759981846
 20
123.023649243
 11
145.4759981846
 21
118.023649243
  0
LINE
  5
34A
100
AcDbEntity
  8
0
100
AcDbLine
 62
7
  6
BYLAYER
 10
145.625998184
 20
194.3736492424
 11
145.6259981839
 21
194.8736492422
  0
LINE
  5
34B
100
AcDbEntity
  8
0
100
AcDbLine
 62
7
  6
BYLAYER
 10
145.6759981833
 20
191.9736492428
 11
145.6759981833
 21
192.7736492432
  0
LINE
  5
34C
100
AcDbEntity
  8
0
100
AcDbLine
 62
7
  6
BYLAYER
 10
146.2759981831
 20
195.073649243
 11
146.2759981831
 21
195.723649243
  0
LINE
  5
34D
100
AcDbEntity
  8
0
100
AcDbLine
 62
7
  6
BYLAYER
 10
146.4259981828
 20
189.273649243
 11
146.4259981828
 21
194.3736492424
  0
LINE
  5
34E
100
AcDbEntity
  8
0
100
AcDbLine
 62
7
  6
BYLAYER
 10
146.8759981839
 20
118.0236492457
 11
146.8759981839
 21
123.0236492401
  0
LINE
  5
34F
100
AcDbEntity
  8
0
100
AcDbLine
 62
7
  6
BYLAYER
 10
146.8909981826
 20
207.3636492429
 11
146.8909981826
 21
208.8636492429
  0
LINE
  5
350
100
AcDbEntity
  8
0
100
AcDbLine
 62
7
  6
BYLAYER
 10
146.8909981826
 20
209.273649243
 11
146.8909981826
 21
210.773649243
  0
LINE
  5
351
100
AcDbEntity
  8
0
100
AcDbLine
 62
7
  6
BYLAYER
 10
146.8909981826
 20
211.1836492431
 11
146.8909981826
 21
212.6836492431
  0
LINE
  5
352
100
AcDbEntity
  8
0
100
AcDbLine
 62
7
  6
BYLAYER
 10
147.3009981827
 20
212.6836492431
 11
147.3009981827
 21
211.1836492431
  0
LINE
  5
353
100
AcDbEntity
  8
0
100
AcDbLine
 62
7
  6
BYLAYER
 10
147.3009981827
 20
210.773649243
 11
147.3009981827
 21
209.273649243
  0
LINE
  5
354
100
AcDbEntity
  8
0
100
AcDbLine
 62
7
  6
BYLAYER
 10
147.3009981827
 20
208.8636492429
 11
147.3009981827
 21
207.3636492429
  0
LINE
  5
355
100
AcDbEntity
  8
0
100
AcDbLine
 62
7
  6
BYLAYER
 10
147.4759981823
 20
188.4736492437
 11
147.4759981823
 21
196.5736492434
  0
LINE
  5
356
100
AcDbEntity
  8
0
100
AcDbLine
 62
7
  6
BYLAYER
 10
148.5759981838
 20
187.9236492448
 11
148.5759981838
 21
196.9236492411
  0
LINE
  5
357
100
AcDbEntity
  8
0
100
AcDbLine
 62
7
  6
BYLAYER
 10
148.8009981827
 20
207.3636492429
 11
148.8009981827
 21
208.8636492429
  0
LINE
  5
358
100
AcDbEntity
  8
0
100
AcDbLine
 62
7
  6
BYLAYER
 10
148.8009981827
 20
209.273649243
 11
148.8009981827
 21
210.773649243
  0
LINE
  5
359
100
AcDbEntity
  8
0
100
AcDbLine
 62
7
  6
BYLAYER
 10
148.8009981827
 20
211.1836492431
 11
148.8009981827
 21
212.6836492431
  0
LINE
  5
35A
100
AcDbEntity
  8
0
100
AcDbLine
 62
7
  6
BYLAYER
 10
149.2109981828
 20
212.6836492431
 11
149.2109981828
 21
211.1836492431
  0
LINE
  5
35B
100
AcDbEntity
  8
0
100
AcDbLine
 62
7
  6
BYLAYER
 10
149.2109981828
 20
210.773649243
 11
149.2109981828
 21
209.273649243
  0
LINE
  5
35C
100
AcDbEntity
  8
0
100
AcDbLine
 62
7
  6
BYLAYER
 10
149.2109981828
 20
208.8636492429
 11
149.2109981828
 21
207.3636492429
  0
LINE
  5
35D
100
AcDbEntity
  8
0
100
AcDbLine
 62
7
  6
BYLAYER
 10
149.4759981835
 20
132.0240626394
 11
149.4759981835
 21
135.0236492428
  0
LINE
  5
35E
100
AcDbEntity
  8
0
100
AcDbLine
 62
7
  6
BYLAYER
 10
150.03270048
 20
187.0236492442
 11
150.03270048
 21
201.5236492418
  0
LINE
  5
35F
100
AcDbEntity
  8
0
100
AcDbLine
 62
7
  6
BYLAYER
 10
150.6759981828
 20
135.0232358466
 11
150.6759981828
 21
132.0236492431
  0
LINE
  5
360
100
AcDbEntity
  8
0
100
AcDbLine
 62
7
  6
BYLAYER
 10
150.7109981828
 20
207.3636492429
 11
150.7109981828
 21
208.8636492429
  0
LINE
  5
361
100
AcDbEntity
  8
0
100
AcDbLine
 62
7
  6
BYLAYER
 10
150.7109981828
 20
209.273649243
 11
150.7109981828
 21
210.773649243
  0
LINE
  5
362
100
AcDbEntity
  8
0
100
AcDbLine
 62
7
  6
BYLAYER
 10
150.7109981828
 20
211.1836492431
 11
150.7109981828
 21
212.6836492431
  0
LINE
  5
363
100
AcDbEntity
  8
0
100
AcDbLine
 62
7
  6
BYLAYER
 10
158.0576054936
 20
208.800006579
 11
157.7146315479
 21
207.5200103906
  0
LINE
  5
364
100
AcDbEntity
  8
0
100
AcDbLine
 62
7
  6
BYLAYER
 10
214.0759981832
 20
224.023649243
 11
213.5564402046
 21
223.5040906929
  0
LINE
  5
365
100
AcDbEntity
  8
0
100
AcDbLine
 62
7
  6
BYLAYER
 10
130.3759981831
 20
189.273649243
 11
131.5259981831
 21
189.273649243
  0
LINE
  5
366
100
AcDbEntity
  8
0
100
AcDbLine
 62
7
  6
BYLAYER
 10
145.3759981828
 20
189.273649243
 11
146.4259981828
 21
189.273649243
  0
LINE
  5
367
100
AcDbEntity
  8
0
100
AcDbLine
 62
7
  6
BYLAYER
 10
171.075998183
 20
190.2236492423
 11
195.0759981833
 21
190.2236492423
  0
LINE
  5
368
100
AcDbEntity
  8
0
100
AcDbLine
 62
7
  6
BYLAYER
 10
129.1259981837
 20
190.373649243
 11
146.4259981829
 21
190.373649243
  0
LINE
  5
369
100
AcDbEntity
  8
0
100
AcDbLine
 62
7
  6
BYLAYER
 10
171.0759984345
 20
190.523649243
 11
195.0759981809
 21
190.523649243
  0
LINE
  5
36A
100
AcDbEntity
  8
0
100
AcDbLine
 62
7
  6
BYLAYER
 10
129.8759981829
 20
191.9736492428
 11
130.6759981833
 21
191.9736492428
  0
LINE
  5
36B
100
AcDbEntity
  8
0
100
AcDbLine
 62
7
  6
BYLAYER
 10
132.3759981828
 20
191.9736492428
 11
133.1759981833
 21
191.9736492428
  0
LINE
  5
36C
100
AcDbEntity
  8
0
100
AcDbLine
 62
7
  6
BYLAYER
 10
134.8759981829
 20
191.9736492428
 11
135.6759981833
 21
191.9736492428
  0
LINE
  5
36D
100
AcDbEntity
  8
0
100
AcDbLine
 62
7
  6
BYLAYER
 10
137.3759981828
 20
191.9736492428
 11
138.1759981834
 21
191.9736492428
  0
LINE
  5
36E
100
AcDbEntity
  8
0
100
AcDbLine
 62
7
  6
BYLAYER
 10
139.8759981828
 20
191.9736492428
 11
140.6759981833
 21
191.9736492428
  0
LINE
  5
36F
100
AcDbEntity
  8
0
100
AcDbLine
 62
7
  6
BYLAYER
 10
142.3759981828
 20
191.9736492428
 11
143.1759981833
 21
191.9736492428
  0
LINE
  5
370
100
AcDbEntity
  8
0
100
AcDbLine
 62
7
  6
BYLAYER
 10
144.8759981828
 20
191.9736492428
 11
145.6759981834
 21
191.9736492428
  0
LINE
  5
371
100
AcDbEntity
  8
0
100
AcDbLine
 62
7
  6
BYLAYER
 10
128.1759981834
 20
192.1860848078
 11
128.0759981838
 21
192.1860848078
  0
LINE
  5
372
100
AcDbEntity
  8
0
100
AcDbLine
 62
7
  6
BYLAYER
 10
128.0759981838
 20
192.5612136786
 11
128.1759981834
 21
192.5612136786
  0
LINE
  5
373
100
AcDbEntity
  8
0
100
AcDbLine
 62
7
  6
BYLAYER
 10
145.6759981834
 20
192.7736492432
 11
144.8759981829
 21
192.7736492432
  0
LINE
  5
374
100
AcDbEntity
  8
0
100
AcDbLine
 62
7
  6
BYLAYER
 10
143.1759981834
 20
192.7736492432
 11
142.3759981828
 21
192.7736492432
  0
LINE
  5
375
100
AcDbEntity
  8
0
100
AcDbLine
 62
7
  6
BYLAYER
 10
140.6759981834
 20
192.7736492432
 11
139.8759981828
 21
192.7736492432
  0
LINE
  5
376
100
AcDbEntity
  8
0
100
AcDbLine
 62
7
  6
BYLAYER
 10
138.1759981834
 20
192.7736492432
 11
137.3759981829
 21
192.7736492432
  0
LINE
  5
377
100
AcDbEntity
  8
0
100
AcDbLine
 62
7
  6
BYLAYER
 10
135.6759981834
 20
192.7736492432
 11
134.8759981829
 21
192.7736492432
  0
LINE
  5
378
100
AcDbEntity
  8
0
100
AcDbLine
 62
7
  6
BYLAYER
 10
133.1759981834
 20
192.7736492432
 11
132.3759981828
 21
192.7736492432
  0
LINE
  5
379
100
AcDbEntity
  8
0
100
AcDbLine
 62
7
  6
BYLAYER
 10
130.6759981834
 20
192.7736492432
 11
129.8759981829
 21
192.7736492432
  0
LINE
  5
37A
100
AcDbEntity
  8
0
100
AcDbLine
 62
7
  6
BYLAYER
 10
146.4259981828
 20
194.3736492424
 11
145.625998184
 21
194.3736492424
  0
LINE
  5
37B
100
AcDbEntity
  8
0
100
AcDbLine
 62
7
  6
BYLAYER
 10
144.9259981828
 20
194.3736492424
 11
143.125998184
 21
194.3736492424
  0
LINE
  5
37C
100
AcDbEntity
  8
0
100
AcDbLine
 62
7
  6
BYLAYER
 10
142.4259981828
 20
194.3736492424
 11
140.625998184
 21
194.3736492424
  0
LINE
  5
37D
100
AcDbEntity
  8
0
100
AcDbLine
 62
7
  6
BYLAYER
 10
139.9259981828
 20
194.3736492424
 11
138.125998184
 21
194.3736492424
  0
LINE
  5
37E
100
AcDbEntity
  8
0
100
AcDbLine
 62
7
  6
BYLAYER
 10
137.4259981828
 20
194.3736492424
 11
135.625998184
 21
194.3736492424
  0
LINE
  5
37F
100
AcDbEntity
  8
0
100
AcDbLine
 62
7
  6
BYLAYER
 10
134.9259981828
 20
194.3736492424
 11
133.125998184
 21
194.3736492424
  0
LINE
  5
380
100
AcDbEntity
  8
0
100
AcDbLine
 62
7
  6
BYLAYER
 10
132.4259981828
 20
194.3736492424
 11
130.625998184
 21
194.3736492424
  0
LINE
  5
381
100
AcDbEntity
  8
0
100
AcDbLine
 62
7
  6
BYLAYER
 10
129.9259981828
 20
194.3736492424
 11
129.125998184
 21
194.3736492424
  0
LINE
  5
382
100
AcDbEntity
  8
0
100
AcDbLine
 62
7
  6
BYLAYER
 10
129.2759981828
 20
195.073649243
 11
129.7259981861
 21
195.0736492432
  0
LINE
  5
383
100
AcDbEntity
  8
0
100
AcDbLine
 62
7
  6
BYLAYER
 10
130.8259981798
 20
195.0736492432
 11
131.2759981831
 21
195.073649243
  0
LINE
  5
384
100
AcDbEntity
  8
0
100
AcDbLine
 62
7
  6
BYLAYER
 10
131.7759981833
 20
195.073649243
 11
132.225998186
 21
195.0736492432
  0
LINE
  5
385
100
AcDbEntity
  8
0
100
AcDbLine
 62
7
  6
BYLAYER
 10
133.3259981798
 20
195.0736492432
 11
133.7759981831
 21
195.073649243
  0
LINE
  5
386
100
AcDbEntity
  8
0
100
AcDbLine
 62
7
  6
BYLAYER
 10
134.2759981833
 20
195.073649243
 11
134.725998186
 21
195.0736492432
  0
LINE
  5
387
100
AcDbEntity
  8
0
100
AcDbLine
 62
7
  6
BYLAYER
 10
135.8259981798
 20
195.0736492432
 11
136.2759981831
 21
195.073649243
  0
LINE
  5
388
100
AcDbEntity
  8
0
100
AcDbLine
 62
7
  6
BYLAYER
 10
136.7759981833
 20
195.073649243
 11
137.225998186
 21
195.0736492432
  0
LINE
  5
389
100
AcDbEntity
  8
0
100
AcDbLine
 62
7
  6
BYLAYER
 10
138.3259981798
 20
195.0736492432
 11
138.7759981831
 21
195.073649243
  0
LINE
  5
38A
100
AcDbEntity
  8
0
100
AcDbLine
 62
7
  6
BYLAYER
 10
139.2759981833
 20
195.073649243
 11
139.725998186
 21
195.0736492432
  0
LINE
  5
38B
100
AcDbEntity
  8
0
100
AcDbLine
 62
7
  6
BYLAYER
 10
140.8259981798
 20
195.0736492432
 11
141.2759981831
 21
195.073649243
  0
LINE
  5
38C
100
AcDbEntity
  8
0
100
AcDbLine
 62
7
  6
BYLAYER
 10
141.7759981831
 20
195.0736492428
 11
142.2259981857
 21
195.0736492432
  0
LINE
  5
38D
100
AcDbEntity
  8
0
100
AcDbLine
 62
7
  6
BYLAYER
 10
143.3259981798
 20
195.0736492432
 11
143.7759981831
 21
195.073649243
  0
LINE
  5
38E
100
AcDbEntity
  8
0
100
AcDbLine
 62
7
  6
BYLAYER
 10
144.2759981831
 20
195.073649243
 11
144.7259981857
 21
195.0736492432
  0
LINE
  5
38F
100
AcDbEntity
  8
0
100
AcDbLine
 62
7
  6
BYLAYER
 10
145.8259981798
 20
195.0736492432
 11
146.2759981831
 21
195.073649243
  0
LINE
  5
390
100
AcDbEntity
  8
0
100
AcDbLine
 62
7
  6
BYLAYER
 10
146.2759981831
 20
195.723649243
 11
144.2759981831
 21
195.723649243
  0
LINE
  5
391
100
AcDbEntity
  8
0
100
AcDbLine
 62
7
  6
BYLAYER
 10
143.7759981833
 20
195.723649243
 11
141.7759981831
 21
195.723649243
  0
LINE
  5
392
100
AcDbEntity
  8
0
100
AcDbLine
 62
7
  6
BYLAYER
 10
141.2759981831
 20
195.723649243
 11
139.2759981831
 21
195.723649243
  0
LINE
  5
393
100
AcDbEntity
  8
0
100
AcDbLine
 62
7
  6
BYLAYER
 10
138.7759981833
 20
195.723649243
 11
136.7759981831
 21
195.723649243
  0
LINE
  5
394
100
AcDbEntity
  8
0
100
AcDbLine
 62
7
  6
BYLAYER
 10
136.2759981833
 20
195.723649243
 11
134.2759981831
 21
195.723649243
  0
LINE
  5
395
100
AcDbEntity
  8
0
100
AcDbLine
 62
7
  6
BYLAYER
 10
133.7759981831
 20
195.723649243
 11
131.7759981831
 21
195.723649243
  0
LINE
  5
396
100
AcDbEntity
  8
0
100
AcDbLine
 62
7
  6
BYLAYER
 10
131.2759981829
 20
195.7236492431
 11
129.2759981824
 21
195.7236492432
  0
LINE
  5
397
100
AcDbEntity
  8
0
100
AcDbLine
 62
7
  6
BYLAYER
 10
214.0759981831
 20
108.0211816831
 11
213.5564394869
 21
108.5407403793
  0
LINE
  5
398
100
AcDbEntity
  8
0
100
AcDbLine
 62
7
  6
BYLAYER
 10
134.4373648183
 20
207.5200103905
 11
134.0943908725
 21
208.8000065794
  0
LINE
  5
399
100
AcDbEntity
  8
0
100
AcDbLine
 62
7
  6
BYLAYER
 10
152.9983981826
 20
210.2786492438
 11
152.9983981826
 21
209.7686492422
  0
LINE
  5
39A
100
AcDbEntity
  8
0
100
AcDbLine
 62
7
  6
BYLAYER
 10
155.7383981829
 20
209.7686492422
 11
155.7383981829
 21
210.2786492438
  0
LINE
  5
39B
100
AcDbEntity
  8
0
100
AcDbLine
 62
7
  6
BYLAYER
 10
158.0759981831
 20
146.273649243
 11
158.0759981831
 21
159.273649243
  0
LINE
  5
39C
100
AcDbEntity
  8
0
100
AcDbLine
 62
7
  6
BYLAYER
 10
158.0909981836
 20
209.0536492429
 11
158.0909981836
 21
212.6136492425
  0
LINE
  5
39D
100
AcDbEntity
  8
0
100
AcDbLine
 62
7
  6
BYLAYER
 10
144.2135626175
 20
196.4736492437
 11
143.8384337486
 21
196.4736492437
  0
LINE
  5
39E
100
AcDbEntity
  8
0
100
AcDbLine
 62
7
  6
BYLAYER
 10
141.7135626175
 20
196.4736492437
 11
141.3384337486
 21
196.4736492437
  0
LINE
  5
39F
100
AcDbEntity
  8
0
100
AcDbLine
 62
7
  6
BYLAYER
 10
139.2135626175
 20
196.4736492437
 11
138.8384337486
 21
196.4736492437
  0
LINE
  5
3A0
100
AcDbEntity
  8
0
100
AcDbLine
 62
7
  6
BYLAYER
 10
136.7135626175
 20
196.4736492437
 11
136.3384337486
 21
196.4736492437
  0
LINE
  5
3A1
100
AcDbEntity
  8
0
100
AcDbLine
 62
7
  6
BYLAYER
 10
134.2135626175
 20
196.4736492437
 11
133.8384337486
 21
196.4736492437
  0
LINE
  5
3A2
100
AcDbEntity
  8
0
100
AcDbLine
 62
7
  6
BYLAYER
 10
131.7135626175
 20
196.4736492437
 11
131.3384337486
 21
196.4736492437
  0
LINE
  5
3A3
100
AcDbEntity
  8
0
100
AcDbLine
 62
7
  6
BYLAYER
 10
147.4759981823
 20
196.5736492434
 11
144.2135626175
 21
196.5736492434
  0
LINE
  5
3A4
100
AcDbEntity
  8
0
100
AcDbLine
 62
7
  6
BYLAYER
 10
143.8384337486
 20
196.5736492434
 11
141.7135626175
 21
196.5736492434
  0
LINE
  5
3A5
100
AcDbEntity
  8
0
100
AcDbLine
 62
7
  6
BYLAYER
 10
141.3384337486
 20
196.5736492434
 11
139.2135626175
 21
196.5736492434
  0
LINE
  5
3A6
100
AcDbEntity
  8
0
100
AcDbLine
 62
7
  6
BYLAYER
 10
138.8384337486
 20
196.5736492434
 11
136.7135626175
 21
196.5736492434
  0
LINE
  5
3A7
100
AcDbEntity
  8
0
100
AcDbLine
 62
7
  6
BYLAYER
 10
136.3384337486
 20
196.5736492434
 11
134.2135626175
 21
196.5736492434
  0
LINE
  5
3A8
100
AcDbEntity
  8
0
100
AcDbLine
 62
7
  6
BYLAYER
 10
133.8384337486
 20
196.5736492434
 11
131.7135626175
 21
196.5736492434
  0
LINE
  5
3A9
100
AcDbEntity
  8
0
100
AcDbLine
 62
7
  6
BYLAYER
 10
131.3384337486
 20
196.5736492434
 11
128.0759981838
 21
196.5736492434
  0
LINE
  5
3AA
100
AcDbEntity
  8
0
100
AcDbLine
 62
7
  6
BYLAYER
 10
148.0759981837
 20
197.423649243
 11
127.4759981825
 21
197.423649243
  0
LINE
  5
3AB
100
AcDbEntity
  8
0
100
AcDbLine
 62
7
  6
BYLAYER
 10
148.0759981832
 20
203.4803515398
 11
127.0759981789
 21
203.4803515398
  0
LINE
  5
3AC
100
AcDbEntity
  8
0
100
AcDbLine
 62
7
  6
BYLAYER
 10
159.8309981839
 20
211.4670249161
 11
159.8309981839
 21
208.5802735699
  0
LINE
  5
3AD
100
AcDbEntity
  8
0
100
AcDbLine
 62
7
  6
BYLAYER
 10
160.2535140542
 20
158.3155754668
 11
160.2535140542
 21
147.2317230195
  0
LINE
  5
3AE
100
AcDbEntity
  8
0
100
AcDbLine
 62
7
  6
BYLAYER
 10
160.3259981831
 20
205.4236492422
 11
160.3259981831
 21
206.1236492426
  0
LINE
  5
3AF
100
AcDbEntity
  8
0
100
AcDbLine
 62
7
  6
BYLAYER
 10
160.3259981831
 20
213.9236492434
 11
160.3259981831
 21
214.6236492428
  0
LINE
  5
3B0
100
AcDbEntity
  8
0
100
AcDbLine
 62
7
  6
BYLAYER
 10
160.6759981828
 20
132.0240626353
 11
160.6759981828
 21
135.0236492432
  0
LINE
  5
3B1
100
AcDbEntity
  8
0
100
AcDbLine
 62
7
  6
BYLAYER
 10
161.2759981823
 20
123.0236492395
 11
161.2759981823
 21
118.0236492461
  0
LINE
  5
3B2
100
AcDbEntity
  8
0
100
AcDbLine
 62
7
  6
BYLAYER
 10
162.0759981831
 20
130.523649243
 11
162.0759981831
 21
145.773649243
  0
LINE
  5
3B3
100
AcDbEntity
  8
0
100
AcDbLine
 62
7
  6
BYLAYER
 10
162.0759981831
 20
159.773649243
 11
162.0759981831
 21
175.023649243
  0
LINE
  5
3B4
100
AcDbEntity
  8
0
100
AcDbLine
 62
7
  6
BYLAYER
 10
162.4972583854
 20
147.2317230194
 11
162.4972583854
 21
158.3155754668
  0
LINE
  5
3B5
100
AcDbEntity
  8
0
100
AcDbLine
 62
7
  6
BYLAYER
 10
162.5759981831
 20
130.5236514212
 11
162.5759981831
 21
143.7736492399
  0
LINE
  5
3B6
100
AcDbEntity
  8
0
100
AcDbLine
 62
7
  6
BYLAYER
 10
162.5759981831
 20
161.7736492429
 11
162.5759981831
 21
175.0236492429
  0
LINE
  5
3B7
100
AcDbEntity
  8
0
100
AcDbLine
 62
7
  6
BYLAYER
 10
162.6759981821
 20
123.023649243
 11
162.6759981821
 21
118.023649243
  0
LINE
  5
3B8
100
AcDbEntity
  8
0
100
AcDbLine
 62
7
  6
BYLAYER
 10
163.7002622521
 20
118.023649243
 11
163.7002622521
 21
123.023649243
  0
LINE
  5
3B9
100
AcDbEntity
  8
0
100
AcDbLine
 62
7
  6
BYLAYER
 10
164.1245305651
 20
123.023649243
 11
164.1245305651
 21
118.023649243
  0
LINE
  5
3BA
100
AcDbEntity
  8
0
100
AcDbLine
 62
7
  6
BYLAYER
 10
164.8309981831
 20
208.5802735698
 11
164.8309981831
 21
211.4670249161
  0
LINE
  5
3BB
100
AcDbEntity
  8
0
100
AcDbLine
 62
7
  6
BYLAYER
 10
132.3259981798
 20
204.9236492432
 11
159.8259981865
 21
204.9236492432
  0
LINE
  5
3BC
100
AcDbEntity
  8
0
100
AcDbLine
 62
7
  6
BYLAYER
 10
195.075997932
 20
205.7236492423
 11
191.1759981826
 21
205.7236492423
  0
LINE
  5
3BD
100
AcDbEntity
  8
0
100
AcDbLine
 62
7
  6
BYLAYER
 10
196.3759981838
 20
206.023649243
 11
191.0259981824
 21
206.023649243
  0
LINE
  5
3BE
100
AcDbEntity
  8
0
100
AcDbLine
 62
7
  6
BYLAYER
 10
129.8259981835
 20
206.1236492426
 11
131.8259981831
 21
206.1236492426
  0
LINE
  5
3BF
100
AcDbEntity
  8
0
100
AcDbLine
 62
7
  6
BYLAYER
 10
160.3259981831
 20
206.1236492426
 11
162.3259981781
 21
206.1236492427
  0
LINE
  5
3C0
100
AcDbEntity
  8
0
100
AcDbLine
 62
7
  6
BYLAYER
 10
136.2050090803
 20
206.1636492436
 11
155.9469872859
 21
206.1636492436
  0
LINE
  5
3C1
100
AcDbEntity
  8
0
100
AcDbLine
 62
7
  6
BYLAYER
 10
208.0255847875
 20
206.523649243
 11
205.0259981829
 21
206.523649243
  0
LINE
  5
3C2
100
AcDbEntity
  8
0
100
AcDbLine
 62
7
  6
BYLAYER
 10
135.8409981837
 20
207.3636492429
 11
137.3409981837
 21
207.3636492429
  0
LINE
  5
3C3
100
AcDbEntity
  8
0
100
AcDbLine
 62
7
  6
BYLAYER
 10
137.7509981838
 20
207.3636492429
 11
139.2509981838
 21
207.3636492429
  0
LINE
  5
3C4
100
AcDbEntity
  8
0
100
AcDbLine
 62
7
  6
BYLAYER
 10
139.660998184
 20
207.3636492429
 11
141.160998184
 21
207.3636492429
  0
LINE
  5
3C5
100
AcDbEntity
  8
0
100
AcDbLine
 62
7
  6
BYLAYER
 10
141.5709981823
 20
207.3636492429
 11
143.0709981823
 21
207.3636492429
  0
LINE
  5
3C6
100
AcDbEntity
  8
0
100
AcDbLine
 62
7
  6
BYLAYER
 10
143.4809981824
 20
207.3636492429
 11
144.9809981824
 21
207.3636492429
  0
LINE
  5
3C7
100
AcDbEntity
  8
0
100
AcDbLine
 62
7
  6
BYLAYER
 10
145.3909981826
 20
207.3636492429
 11
146.8909981826
 21
207.3636492429
  0
LINE
  5
3C8
100
AcDbEntity
  8
0
100
AcDbLine
 62
7
  6
BYLAYER
 10
147.3009981827
 20
207.3636492429
 11
148.8009981827
 21
207.3636492429
  0
LINE
  5
3C9
100
AcDbEntity
  8
0
100
AcDbLine
 62
7
  6
BYLAYER
 10
149.2109981828
 20
207.3636492429
 11
150.7109981828
 21
207.3636492429
  0
LINE
  5
3CA
100
AcDbEntity
  8
0
100
AcDbLine
 62
7
  6
BYLAYER
 10
105.875998185
 20
208.323649243
 11
33.8759981836
 21
208.323649243
  0
LINE
  5
3CB
100
AcDbEntity
  8
0
100
AcDbLine
 62
7
  6
BYLAYER
 10
105.8759981844
 20
208.6236492426
 11
94.5759996851
 21
208.6236492426
  0
LINE
  5
3CC
100
AcDbEntity
  8
0
100
AcDbLine
 62
7
  6
BYLAYER
 10
48.0759981763
 20
208.6236492426
 11
33.5759981808
 21
208.6236492437
  0
LINE
  5
3CD
100
AcDbEntity
  8
0
100
AcDbLine
 62
7
  6
BYLAYER
 10
50.3759984347
 20
208.8236492437
 11
92.3759981815
 21
208.8236492437
  0
LINE
  5
3CE
100
AcDbEntity
  8
0
100
AcDbLine
 62
7
  6
BYLAYER
 10
150.7109981828
 20
208.8636492429
 11
149.2109981828
 21
208.8636492429
  0
LINE
  5
3CF
100
AcDbEntity
  8
0
100
AcDbLine
 62
7
  6
BYLAYER
 10
148.8009981827
 20
208.8636492429
 11
147.3009981827
 21
208.8636492429
  0
LINE
  5
3D0
100
AcDbEntity
  8
0
100
AcDbLine
 62
7
  6
BYLAYER
 10
146.8909981826
 20
208.8636492429
 11
145.3909981826
 21
208.8636492429
  0
LINE
  5
3D1
100
AcDbEntity
  8
0
100
AcDbLine
 62
7
  6
BYLAYER
 10
144.9809981824
 20
208.8636492429
 11
143.4809981824
 21
208.8636492429
  0
LINE
  5
3D2
100
AcDbEntity
  8
0
100
AcDbLine
 62
7
  6
BYLAYER
 10
143.0709981823
 20
208.8636492429
 11
141.5709981823
 21
208.8636492429
  0
LINE
  5
3D3
100
AcDbEntity
  8
0
100
AcDbLine
 62
7
  6
BYLAYER
 10
141.160998184
 20
208.8636492429
 11
139.660998184
 21
208.8636492429
  0
LINE
  5
3D4
100
AcDbEntity
  8
0
100
AcDbLine
 62
7
  6
BYLAYER
 10
139.2509981838
 20
208.8636492429
 11
137.7509981838
 21
208.8636492429
  0
LINE
  5
3D5
100
AcDbEntity
  8
0
100
AcDbLine
 62
7
  6
BYLAYER
 10
137.3409981837
 20
208.8636492429
 11
135.8409981837
 21
208.8636492429
  0
LINE
  5
3D6
100
AcDbEntity
  8
0
100
AcDbLine
 62
7
  6
BYLAYER
 10
135.8409981837
 20
209.273649243
 11
137.3409981837
 21
209.273649243
  0
LINE
  5
3D7
100
AcDbEntity
  8
0
100
AcDbLine
 62
7
  6
BYLAYER
 10
137.7509981838
 20
209.273649243
 11
139.2509981838
 21
209.273649243
  0
LINE
  5
3D8
100
AcDbEntity
  8
0
100
AcDbLine
 62
7
  6
BYLAYER
 10
139.660998184
 20
209.273649243
 11
141.160998184
 21
209.273649243
  0
LINE
  5
3D9
100
AcDbEntity
  8
0
100
AcDbLine
 62
7
  6
BYLAYER
 10
141.5709981823
 20
209.273649243
 11
143.0709981823
 21
209.273649243
  0
LINE
  5
3DA
100
AcDbEntity
  8
0
100
AcDbLine
 62
7
  6
BYLAYER
 10
143.4809981824
 20
209.273649243
 11
144.9809981824
 21
209.273649243
  0
LINE
  5
3DB
100
AcDbEntity
  8
0
100
AcDbLine
 62
7
  6
BYLAYER
 10
145.3909981826
 20
209.273649243
 11
146.8909981826
 21
209.273649243
  0
LINE
  5
3DC
100
AcDbEntity
  8
0
100
AcDbLine
 62
7
  6
BYLAYER
 10
147.3009981827
 20
209.273649243
 11
148.8009981827
 21
209.273649243
  0
LINE
  5
3DD
100
AcDbEntity
  8
0
100
AcDbLine
 62
7
  6
BYLAYER
 10
149.2109981828
 20
209.273649243
 11
150.7109981828
 21
209.273649243
  0
LINE
  5
3DE
100
AcDbEntity
  8
0
100
AcDbLine
 62
7
  6
BYLAYER
 10
152.9983981826
 20
209.7686492422
 11
155.7383981829
 21
209.7686492422
  0
LINE
  5
3DF
100
AcDbEntity
  8
0
100
AcDbLine
 62
7
  6
BYLAYER
 10
191.0259981824
 20
210.023649243
 11
190.9759981835
 21
210.023649243
  0
LINE
  5
3E0
100
AcDbEntity
  8
0
100
AcDbLine
 62
7
  6
BYLAYER
 10
155.7383981829
 20
210.2786492438
 11
152.9983981826
 21
210.2786492438
  0
LINE
  5
3E1
100
AcDbEntity
  8
0
100
AcDbLine
 62
7
  6
BYLAYER
 10
150.7109981828
 20
210.773649243
 11
149.2109981828
 21
210.773649243
  0
LINE
  5
3E2
100
AcDbEntity
  8
0
100
AcDbLine
 62
7
  6
BYLAYER
 10
148.8009981827
 20
210.773649243
 11
147.3009981827
 21
210.773649243
  0
LINE
  5
3E3
100
AcDbEntity
  8
0
100
AcDbLine
 62
7
  6
BYLAYER
 10
146.8909981826
 20
210.773649243
 11
145.3909981826
 21
210.773649243
  0
LINE
  5
3E4
100
AcDbEntity
  8
0
100
AcDbLine
 62
7
  6
BYLAYER
 10
144.9809981824
 20
210.773649243
 11
143.4809981824
 21
210.773649243
  0
LINE
  5
3E5
100
AcDbEntity
  8
0
100
AcDbLine
 62
7
  6
BYLAYER
 10
143.0709981823
 20
210.773649243
 11
141.5709981823
 21
210.773649243
  0
LINE
  5
3E6
100
AcDbEntity
  8
0
100
AcDbLine
 62
7
  6
BYLAYER
 10
141.160998184
 20
210.773649243
 11
139.660998184
 21
210.773649243
  0
LINE
  5
3E7
100
AcDbEntity
  8
0
100
AcDbLine
 62
7
  6
BYLAYER
 10
139.2509981838
 20
210.773649243
 11
137.7509981838
 21
210.773649243
  0
LINE
  5
3E8
100
AcDbEntity
  8
0
100
AcDbLine
 62
7
  6
BYLAYER
 10
137.3409981837
 20
210.773649243
 11
135.8409981837
 21
210.773649243
  0
LINE
  5
3E9
100
AcDbEntity
  8
0
100
AcDbLine
 62
7
  6
BYLAYER
 10
32.0759981833
 20
211.1236492426
 11
45.075998183
 21
211.1236492426
  0
LINE
  5
3EA
100
AcDbEntity
  8
0
100
AcDbLine
 62
7
  6
BYLAYER
 10
135.8409981837
 20
211.1836492431
 11
137.3409981837
 21
211.1836492431
  0
LINE
  5
3EB
100
AcDbEntity
  8
0
100
AcDbLine
 62
7
  6
BYLAYER
 10
137.7509981838
 20
211.1836492431
 11
139.2509981838
 21
211.1836492431
  0
LINE
  5
3EC
100
AcDbEntity
  8
0
100
AcDbLine
 62
7
  6
BYLAYER
 10
139.660998184
 20
211.1836492431
 11
141.160998184
 21
211.1836492431
  0
LINE
  5
3ED
100
AcDbEntity
  8
0
100
AcDbLine
 62
7
  6
BYLAYER
 10
141.5709981823
 20
211.1836492431
 11
143.0709981823
 21
211.1836492431
  0
LINE
  5
3EE
100
AcDbEntity
  8
0
100
AcDbLine
 62
7
  6
BYLAYER
 10
143.4809981824
 20
211.1836492431
 11
144.9809981824
 21
211.1836492431
  0
LINE
  5
3EF
100
AcDbEntity
  8
0
100
AcDbLine
 62
7
  6
BYLAYER
 10
145.3909981826
 20
211.1836492431
 11
146.8909981826
 21
211.1836492431
  0
LINE
  5
3F0
100
AcDbEntity
  8
0
100
AcDbLine
 62
7
  6
BYLAYER
 10
147.3009981827
 20
211.1836492431
 11
148.8009981827
 21
211.1836492431
  0
LINE
  5
3F1
100
AcDbEntity
  8
0
100
AcDbLine
 62
7
  6
BYLAYER
 10
149.2109981828
 20
211.1836492431
 11
150.7109981828
 21
211.1836492431
  0
LINE
  5
3F2
100
AcDbEntity
  8
0
100
AcDbLine
 62
7
  6
BYLAYER
 10
129.8209981825
 20
207.1368978969
 11
127.3209981831
 21
208.5802735699
  0
LINE
  5
3F3
100
AcDbEntity
  8
0
100
AcDbLine
 62
7
  6
BYLAYER
 10
129.8209981825
 20
212.9104005891
 11
132.3209981822
 21
211.4670249161
  0
LINE
  5
3F4
100
AcDbEntity
  8
0
100
AcDbLine
 62
7
  6
BYLAYER
 10
167.0996397637
 20
187.1048829861
 11
167.100830594
 21
216.5236492459
  0
LINE
  5
3F5
100
AcDbEntity
  8
0
100
AcDbLine
 62
7
  6
BYLAYER
 10
168.0274700463
 20
118.023649243
 11
168.0274700463
 21
123.023649243
  0
LINE
  5
3F6
100
AcDbEntity
  8
0
100
AcDbLine
 62
7
  6
BYLAYER
 10
168.4517341143
 20
123.023649243
 11
168.4517341143
 21
118.023649243
  0
LINE
  5
3F7
100
AcDbEntity
  8
0
100
AcDbLine
 62
7
  6
BYLAYER
 10
168.5759981831
 20
145.7736499972
 11
168.5759981831
 21
159.7736492364
  0
LINE
  5
3F8
100
AcDbEntity
  8
0
100
AcDbLine
 62
7
  6
BYLAYER
 10
169.4759981845
 20
123.023649243
 11
169.4759981845
 21
118.023649243
  0
LINE
  5
3F9
100
AcDbEntity
  8
0
100
AcDbLine
 62
7
  6
BYLAYER
 10
169.7759981824
 20
220.523649242
 11
169.7759981824
 21
191.5236492439
  0
LINE
  5
3FA
100
AcDbEntity
  8
0
100
AcDbLine
 62
7
  6
BYLAYER
 10
170.0759981831
 20
220.5236489916
 11
170.0759981831
 21
191.5236492452
  0
LINE
  5
3FB
100
AcDbEntity
  8
0
100
AcDbLine
 62
7
  6
BYLAYER
 10
170.8759981839
 20
118.0236492457
 11
170.8759981839
 21
123.0236492401
  0
LINE
  5
3FC
100
AcDbEntity
  8
0
100
AcDbLine
 62
7
  6
BYLAYER
 10
41.1759981827
 20
212.1236492426
 11
42.9759981835
 21
212.1236492426
  0
LINE
  5
3FD
100
AcDbEntity
  8
0
100
AcDbLine
 62
7
  6
BYLAYER
 10
150.7109981828
 20
212.6836492431
 11
149.2109981828
 21
212.6836492431
  0
LINE
  5
3FE
100
AcDbEntity
  8
0
100
AcDbLine
 62
7
  6
BYLAYER
 10
148.8009981827
 20
212.6836492431
 11
147.3009981827
 21
212.6836492431
  0
LINE
  5
3FF
100
AcDbEntity
  8
0
100
AcDbLine
 62
7
  6
BYLAYER
 10
146.8909981826
 20
212.6836492431
 11
145.3909981826
 21
212.6836492431
  0
LINE
  5
400
100
AcDbEntity
  8
0
100
AcDbLine
 62
7
  6
BYLAYER
 10
144.9809981824
 20
212.6836492431
 11
143.4809981824
 21
212.6836492431
  0
LINE
  5
401
100
AcDbEntity
  8
0
100
AcDbLine
 62
7
  6
BYLAYER
 10
143.0709981823
 20
212.6836492431
 11
141.5709981823
 21
212.6836492431
  0
LINE
  5
402
100
AcDbEntity
  8
0
100
AcDbLine
 62
7
  6
BYLAYER
 10
141.160998184
 20
212.6836492431
 11
139.660998184
 21
212.6836492431
  0
LINE
  5
403
100
AcDbEntity
  8
0
100
AcDbLine
 62
7
  6
BYLAYER
 10
139.2509981838
 20
212.6836492431
 11
137.7509981838
 21
212.6836492431
  0
LINE
  5
404
100
AcDbEntity
  8
0
100
AcDbLine
 62
7
  6
BYLAYER
 10
137.3409981837
 20
212.6836492431
 11
135.8409981837
 21
212.6836492431
  0
LINE
  5
405
100
AcDbEntity
  8
0
100
AcDbLine
 62
7
  6
BYLAYER
 10
35.1259981827
 20
213.6236492426
 11
37.4759981835
 21
213.6236492426
  0
LINE
  5
406
100
AcDbEntity
  8
0
100
AcDbLine
 62
7
  6
BYLAYER
 10
156.8209981823
 20
213.8836492424
 11
135.3309981838
 21
213.8836492424
  0
LINE
  5
407
100
AcDbEntity
  8
0
100
AcDbLine
 62
7
  6
BYLAYER
 10
162.3259981781
 20
213.9236492432
 11
160.3259981831
 21
213.9236492434
  0
LINE
  5
408
100
AcDbEntity
  8
0
100
AcDbLine
 62
7
  6
BYLAYER
 10
131.8259981831
 20
213.9236492434
 11
129.8259981831
 21
213.9236492434
  0
LINE
  5
409
100
AcDbEntity
  8
0
100
AcDbLine
 62
7
  6
BYLAYER
 10
39.8174195399
 20
214.6236492426
 11
41.0259981836
 21
214.6236492426
  0
LINE
  5
40A
100
AcDbEntity
  8
0
100
AcDbLine
 62
7
  6
BYLAYER
 10
43.1259981827
 20
214.6236492426
 11
44.3345768263
 21
214.6236492426
  0
LINE
  5
40B
100
AcDbEntity
  8
0
100
AcDbLine
 62
7
  6
BYLAYER
 10
159.8259981831
 20
215.1236492426
 11
132.3259981827
 21
215.1236492426
  0
LINE
  5
40C
100
AcDbEntity
  8
0
100
AcDbLine
 62
7
  6
BYLAYER
 10
37.4759981836
 20
215.6236492426
 11
35.1259981837
 21
215.6236492426
  0
LINE
  5
40D
100
AcDbEntity
  8
0
100
AcDbLine
 62
7
  6
BYLAYER
 10
45.075998183
 20
218.1236492426
 11
32.0759981833
 21
218.1236492426
  0
LINE
  5
40E
100
AcDbEntity
  8
0
100
AcDbLine
 62
7
  6
BYLAYER
 10
165.0759981827
 20
218.5484816538
 11
127.0759981786
 21
218.5484816539
  0
LINE
  5
40F
100
AcDbEntity
  8
0
100
AcDbLine
 62
7
  6
BYLAYER
 10
178.5759981831
 20
141.023649243
 11
178.5759981831
 21
130.023649243
  0
LINE
  5
410
100
AcDbEntity
  8
0
100
AcDbLine
 62
7
  6
BYLAYER
 10
182.0759981831
 20
186.0236492432
 11
182.0759981831
 21
175.0236492428
  0
LINE
  5
411
100
AcDbEntity
  8
0
100
AcDbLine
 62
7
  6
BYLAYER
 10
182.0759981831
 20
171.0236492432
 11
182.0759981831
 21
160.0236492428
  0
LINE
  5
412
100
AcDbEntity
  8
0
100
AcDbLine
 62
7
  6
BYLAYER
 10
182.0759981831
 20
156.0236492432
 11
182.0759981831
 21
145.0236492428
  0
LINE
  5
413
100
AcDbEntity
  8
0
100
AcDbLine
 62
7
  6
BYLAYER
 10
97.7259981839
 20
220.023649243
 11
120.4259981831
 21
220.023649243
  0
LINE
  5
414
100
AcDbEntity
  8
0
100
AcDbLine
 62
7
  6
BYLAYER
 10
189.6759979316
 20
221.523649243
 11
171.0759981854
 21
221.523649243
  0
LINE
  5
415
100
AcDbEntity
  8
0
100
AcDbLine
 62
7
  6
BYLAYER
 10
189.6759981829
 20
221.8236492437
 11
171.075998183
 21
221.8236492437
  0
LINE
  5
416
100
AcDbEntity
  8
0
100
AcDbLine
 62
7
  6
BYLAYER
 10
102.5761654285
 20
222.4839245941
 11
115.5759981834
 21
222.4839245941
  0
LINE
  5
417
100
AcDbEntity
  8
0
100
AcDbLine
 62
7
  6
BYLAYER
 10
46.0759981831
 20
222.5044784164
 11
27.5950633672
 21
222.5044908268
  0
LINE
  5
418
100
AcDbEntity
  8
0
100
AcDbLine
 62
7
  6
BYLAYER
 10
212.5569329989
 20
222.5045059025
 11
193.7759981831
 21
222.5044960015
  0
LINE
  5
419
100
AcDbEntity
  8
0
100
AcDbLine
 62
7
  6
BYLAYER
 10
92.3759979308
 20
222.8236492437
 11
51.3759981838
 21
222.8236492437
  0
LINE
  5
41A
100
AcDbEntity
  8
0
100
AcDbLine
 62
7
  6
BYLAYER
 10
92.575998183
 20
223.1236492426
 11
51.0759981831
 21
223.1236492426
  0
LINE
  5
41B
100
AcDbEntity
  8
0
100
AcDbLine
 62
7
  6
BYLAYER
 10
26.5955902767
 20
223.5040715956
 11
46.0759981831
 21
223.5040787289
  0
LINE
  5
41C
100
AcDbEntity
  8
0
100
AcDbLine
 62
7
  6
BYLAYER
 10
193.7759981831
 20
223.5040966119
 11
213.5564402046
 21
223.5040906929
  0
LINE
  5
41D
100
AcDbEntity
  8
0
100
AcDbLine
 62
7
  6
BYLAYER
 10
214.0759981831
 20
224.023649243
 11
193.7759981831
 21
224.023649243
  0
LINE
  5
41E
100
AcDbEntity
  8
0
100
AcDbLine
 62
7
  6
BYLAYER
 10
26.0759981831
 20
224.023649243
 11
46.0759981833
 21
224.023649243
  0
LINE
  5
41F
100
AcDbEntity
  8
0
100
AcDbLine
 62
7
  6
BYLAYER
 10
214.1326827801
 20
224.0753475887
 11
193.7759981831
 21
224.0753477254
  0
LINE
  5
420
100
AcDbEntity
  8
0
100
AcDbLine
 62
7
  6
BYLAYER
 10
193.7759981831
 20
224.075649243
 11
192.0569329997
 21
224.075649243
  0
LINE
  5
421
100
AcDbEntity
  8
0
100
AcDbLine
 62
7
  6
BYLAYER
 10
26.1326827828
 20
224.0753475887
 11
48.0950633643
 21
224.075649243
  0
LINE
  5
422
100
AcDbEntity
  8
0
100
AcDbLine
 62
7
  6
BYLAYER
 10
119.9259975079
 20
220.463790919
 11
98.2259981839
 21
220.4692060938
  0
LINE
  5
423
100
AcDbEntity
  8
0
100
AcDbLine
 62
7
  6
BYLAYER
 10
162.3309981837
 20
207.1368978969
 11
159.8309981839
 21
208.5802735699
  0
LINE
  5
424
100
AcDbEntity
  8
0
100
AcDbLine
 62
7
  6
BYLAYER
 10
182.5759981831
 20
130.023649243
 11
182.5759981831
 21
141.023649243
  0
LINE
  5
425
100
AcDbEntity
  8
0
100
AcDbLine
 62
7
  6
BYLAYER
 10
186.0759981831
 20
145.0238559408
 11
186.0759981831
 21
156.023649243
  0
LINE
  5
426
100
AcDbEntity
  8
0
100
AcDbLine
 62
7
  6
BYLAYER
 10
186.0759981831
 20
160.0238559408
 11
186.0759981831
 21
171.023649243
  0
LINE
  5
427
100
AcDbEntity
  8
0
100
AcDbLine
 62
7
  6
BYLAYER
 10
186.0759981831
 20
175.0238559408
 11
186.0759981831
 21
186.023649243
  0
LINE
  5
428
100
AcDbEntity
  8
0
100
AcDbLine
 62
7
  6
BYLAYER
 10
115.575830935
 20
227.481457396
 11
102.5759981835
 21
227.481457396
  0
LINE
  5
429
100
AcDbEntity
  8
0
100
AcDbLine
 62
7
  6
BYLAYER
 10
122.4244608968
 20
227.5355188818
 11
121.9255861782
 21
227.5355188745
  0
LINE
  5
42A
100
AcDbEntity
  8
0
100
AcDbLine
 62
7
  6
BYLAYER
 10
96.226410187
 20
227.5355188745
 11
95.7275324865
 21
227.5355188818
  0
LINE
  5
42B
100
AcDbEntity
  8
0
100
AcDbLine
 62
7
  6
BYLAYER
 10
192.0569329989
 20
228.5045840588
 11
122.4259981831
 21
228.5045840605
  0
LINE
  5
42C
100
AcDbEntity
  8
0
100
AcDbLine
 62
7
  6
BYLAYER
 10
121.9250165291
 20
228.5045840588
 11
96.2269798338
 21
228.5045840588
  0
LINE
  5
42D
100
AcDbEntity
  8
0
100
AcDbLine
 62
7
  6
BYLAYER
 10
95.7259908949
 20
228.504584061
 11
48.0950633673
 21
228.5045840588
  0
LINE
  5
42E
100
AcDbEntity
  8
0
100
AcDbLine
 62
7
  6
BYLAYER
 10
47.0955568793
 20
229.5040905468
 11
95.7276481798
 21
229.5040900069
  0
LINE
  5
42F
100
AcDbEntity
  8
0
100
AcDbLine
 62
7
  6
BYLAYER
 10
96.2265703113
 20
229.5040898275
 11
121.9254260533
 21
229.5040898275
  0
LINE
  5
430
100
AcDbEntity
  8
0
100
AcDbLine
 62
7
  6
BYLAYER
 10
122.4243442302
 20
229.504090472
 11
193.0564394869
 21
229.5040905468
  0
LINE
  5
431
100
AcDbEntity
  8
0
100
AcDbLine
 62
7
  6
BYLAYER
 10
102.725998183
 20
229.6228169973
 11
115.4259981833
 21
229.6228169973
  0
LINE
  5
432
100
AcDbEntity
  8
0
100
AcDbLine
 62
7
  6
BYLAYER
 10
97.2259981837
 20
229.9516669323
 11
100.7259981831
 21
229.9516669323
  0
LINE
  5
433
100
AcDbEntity
  8
0
100
AcDbLine
 62
7
  6
BYLAYER
 10
117.4259981831
 20
229.9516669323
 11
120.9259981834
 21
229.9516669323
  0
LINE
  5
434
100
AcDbEntity
  8
0
100
AcDbLine
 62
7
  6
BYLAYER
 10
120.9259981834
 20
229.9607921001
 11
97.2259981837
 21
229.9607921001
  0
LINE
  5
435
100
AcDbEntity
  8
0
100
AcDbLine
 62
7
  6
BYLAYER
 10
46.5759981831
 20
230.023649243
 11
193.5759981831
 21
230.023649243
  0
LINE
  5
436
100
AcDbEntity
  8
0
100
AcDbLine
 62
7
  6
BYLAYER
 10
46.6326826825
 20
230.0754482503
 11
193.6326827827
 21
230.0755488018
  0
LINE
  5
437
100
AcDbEntity
  8
0
100
AcDbLine
 62
7
  6
BYLAYER
 10
162.3309981837
 20
212.910400589
 11
164.8309981831
 21
211.4670249161
  0
LINE
  5
438
100
AcDbEntity
  8
0
100
AcDbLine
 62
7
  6
BYLAYER
 10
190.0759981831
 20
186.0236492432
 11
190.0759981831
 21
175.0236492428
  0
LINE
  5
439
100
AcDbEntity
  8
0
100
AcDbLine
 62
7
  6
BYLAYER
 10
190.0759981831
 20
171.0236492432
 11
190.0759981831
 21
160.0236492428
  0
LINE
  5
43A
100
AcDbEntity
  8
0
100
AcDbLine
 62
7
  6
BYLAYER
 10
190.0759981831
 20
156.0236492432
 11
190.0759981831
 21
145.0236492428
  0
LINE
  5
43B
100
AcDbEntity
  8
0
100
AcDbLine
 62
7
  6
BYLAYER
 10
190.0759981831
 20
141.0236492432
 11
190.0759981831
 21
130.0236492428
  0
LINE
  5
43C
100
AcDbEntity
  8
0
100
AcDbLine
 62
7
  6
BYLAYER
 10
190.0759981831
 20
103.4236492432
 11
190.0759981831
 21
106.1236492426
  0
LINE
  5
43D
100
AcDbEntity
  8
0
100
AcDbLine
 62
7
  6
BYLAYER
 10
190.3759981839
 20
103.1236492453
 11
190.3759981839
 21
106.4236492406
  0
LINE
  5
43E
100
AcDbEntity
  8
0
100
AcDbLine
 62
7
  6
BYLAYER
 10
190.6759981827
 20
206.2236492423
 11
190.6759981827
 21
220.5236489919
  0
LINE
  5
43F
100
AcDbEntity
  8
0
100
AcDbLine
 62
7
  6
BYLAYER
 10
190.9759981835
 20
210.023649243
 11
190.9759981835
 21
220.5236492419
  0
LINE
  5
440
100
AcDbEntity
  8
0
100
AcDbLine
 62
7
  6
BYLAYER
 10
191.0259981824
 20
206.023649243
 11
191.0259981824
 21
210.023649243
  0
LINE
  5
441
100
AcDbEntity
  8
0
100
AcDbLine
 62
7
  6
BYLAYER
 10
192.0569329993
 20
224.075649243
 11
192.0569329989
 21
228.5045840588
  0
LINE
  5
442
100
AcDbEntity
  8
0
100
AcDbLine
 62
7
  6
BYLAYER
 10
193.0564394869
 20
229.5040905468
 11
193.0564394869
 21
224.075649243
  0
LINE
  5
443
100
AcDbEntity
  8
0
100
AcDbLine
 62
7
  6
BYLAYER
 10
193.1759981831
 20
99.5107921001
 11
193.1759981831
 21
104.5427144265
  0
LINE
  5
444
100
AcDbEntity
  8
0
100
AcDbLine
 62
7
  6
BYLAYER
 10
193.5759981831
 20
230.023649243
 11
193.5759981831
 21
224.075649243
  0
LINE
  5
445
100
AcDbEntity
  8
0
100
AcDbLine
 62
7
  6
BYLAYER
 10
193.6326827827
 20
230.0755488018
 11
193.6326827827
 21
224.075649243
  0
LINE
  5
446
100
AcDbEntity
  8
0
100
AcDbLine
 62
7
  6
BYLAYER
 10
193.7759981831
 20
224.075649243
 11
193.7759981831
 21
222.5044960015
  0
LINE
  5
447
100
AcDbEntity
  8
0
100
AcDbLine
 62
7
  6
BYLAYER
 10
194.0759981831
 20
130.0238559408
 11
194.0759981831
 21
141.023649243
  0
LINE
  5
448
100
AcDbEntity
  8
0
100
AcDbLine
 62
7
  6
BYLAYER
 10
194.0759981831
 20
145.0238559408
 11
194.0759981831
 21
156.023649243
  0
LINE
  5
449
100
AcDbEntity
  8
0
100
AcDbLine
 62
7
  6
BYLAYER
 10
194.0759981831
 20
160.0238559408
 11
194.0759981831
 21
171.023649243
  0
LINE
  5
44A
100
AcDbEntity
  8
0
100
AcDbLine
 62
7
  6
BYLAYER
 10
194.0759981831
 20
175.0238559408
 11
194.0759981831
 21
186.023649243
  0
LINE
  5
44B
100
AcDbEntity
  8
0
100
AcDbLine
 62
7
  6
BYLAYER
 10
196.0759981831
 20
191.5236494943
 11
196.0759981831
 21
204.7236489912
  0
LINE
  5
44C
100
AcDbEntity
  8
0
100
AcDbLine
 62
7
  6
BYLAYER
 10
196.3759981838
 20
191.5236492463
 11
196.3759981838
 21
206.023649243
  0
LINE
  5
44D
100
AcDbEntity
  8
0
100
AcDbLine
 62
7
  6
BYLAYER
 10
204.0259981831
 20
205.5232358474
 11
204.0259981831
 21
185.5236492428
  0
LINE
  5
44E
100
AcDbEntity
  8
0
100
AcDbLine
 62
7
  6
BYLAYER
 10
204.0259981831
 20
161.7732358473
 11
204.0259981831
 21
149.7736492428
  0
LINE
  5
44F
100
AcDbEntity
  8
0
100
AcDbLine
 62
7
  6
BYLAYER
 10
209.0259981831
 20
149.7740626385
 11
209.0259981831
 21
161.7736492431
  0
LINE
  5
450
100
AcDbEntity
  8
0
100
AcDbLine
 62
7
  6
BYLAYER
 10
209.0259981831
 20
185.5240626385
 11
209.0259981831
 21
205.5236492432
  0
LINE
  5
451
100
AcDbEntity
  8
0
100
AcDbLine
 62
7
  6
BYLAYER
 10
212.5569329989
 20
105.6130264496
 11
212.5569329989
 21
222.5045059025
  0
LINE
  5
452
100
AcDbEntity
  8
0
100
AcDbLine
 62
7
  6
BYLAYER
 10
213.5564396865
 20
223.5040370706
 11
213.5564394869
 21
108.5407403793
  0
LINE
  5
453
100
AcDbEntity
  8
0
100
AcDbLine
 62
7
  6
BYLAYER
 10
214.0759981831
 20
224.023649243
 11
214.0759981831
 21
108.0211816831
  0
LINE
  5
454
100
AcDbEntity
  8
0
100
AcDbLine
 62
7
  6
BYLAYER
 10
214.1326827801
 20
224.0753475887
 11
214.1326827801
 21
117.9499378471
  0
ARC
  5
455
100
AcDbEntity
  8
0
100
AcDbCircle
 62
7
  6
BYLAYER
 10
59.7759989388
 20
107.5236484865
 40
1.0000007565
100
AcDbArc
 50
90.000043527
 51
180.0000434348
  0
ARC
  5
456
100
AcDbEntity
  8
0
100
AcDbCircle
 62
7
  6
BYLAYER
 10
59.7759989386
 20
103.4236499996
 40
1.0000007562
100
AcDbArc
 50
180.0000433584
 51
270.0000434185
  0
ARC
  5
457
100
AcDbEntity
  8
0
100
AcDbCircle
 62
7
  6
BYLAYER
 10
54.0759989369
 20
127.5236499969
 40
1.0000007539
100
AcDbArc
 50
180.0000428256
 51
270.0000000116
  0
ARC
  5
458
100
AcDbEntity
  8
0
100
AcDbCircle
 62
7
  6
BYLAYER
 10
68.0759974292
 20
127.5236499969
 40
1.0000007539
100
AcDbArc
 50
270.000042817
 51
360.0
  0
ARC
  5
459
100
AcDbEntity
  8
0
100
AcDbCircle
 62
7
  6
BYLAYER
 10
59.4759981835
 20
107.8236492438
 40
1.0
100
AcDbArc
 50
89.9999999913
 51
179.9999999794
  0
ARC
  5
45A
100
AcDbEntity
  8
0
100
AcDbCircle
 62
7
  6
BYLAYER
 10
59.4759981835
 20
103.1236492426
 40
1.0
100
AcDbArc
 50
179.9999999973
 51
270.0000000046
  0
ARC
  5
45B
100
AcDbEntity
  8
0
100
AcDbCircle
 62
7
  6
BYLAYER
 10
32.875998184
 20
154.0236492432
 40
1.3000000009
100
AcDbArc
 50
180.0000000163
 51
269.9999999692
  0
ARC
  5
45C
100
AcDbEntity
  8
0
100
AcDbCircle
 62
7
  6
BYLAYER
 10
61.9994348832
 20
139.8700627053
 40
1.0854983503
100
AcDbArc
 50
211.5492114907
 51
234.0866705144
  0
ARC
  5
45D
100
AcDbEntity
  8
0
100
AcDbCircle
 62
7
  6
BYLAYER
 10
64.7759989393
 20
142.6236499996
 40
1.0000007569
100
AcDbArc
 50
180.0000437126
 51
270.000043508
  0
ARC
  5
45E
100
AcDbEntity
  8
0
100
AcDbCircle
 62
7
  6
BYLAYER
 10
54.0759989369
 20
137.5236484891
 40
1.0000007539
100
AcDbArc
 50
90.0000431899
 51
179.9999568047
  0
ARC
  5
45F
100
AcDbEntity
  8
0
100
AcDbCircle
 62
7
  6
BYLAYER
 10
68.0759974292
 20
137.5236484891
 40
1.0000007539
100
AcDbArc
 50
0.0000428285
 51
90.0000000179
  0
ARC
  5
460
100
AcDbEntity
  8
0
100
AcDbCircle
 62
7
  6
BYLAYER
 10
32.875998937
 20
154.0236499962
 40
1.0000007532
100
AcDbArc
 50
180.000042821
 51
270.0000429553
  0
ARC
  5
461
100
AcDbEntity
  8
0
100
AcDbCircle
 62
7
  6
BYLAYER
 10
59.9259981827
 20
149.273649243
 40
1.0
100
AcDbArc
 50
0.0
 51
90.0000000088
  0
ARC
  5
462
100
AcDbEntity
  8
0
100
AcDbCircle
 62
7
  6
BYLAYER
 10
42.2259981834
 20
149.273649243
 40
1.0
100
AcDbArc
 50
89.9999999745
 51
179.9999999594
  0
ARC
  5
463
100
AcDbEntity
  8
0
100
AcDbCircle
 62
7
  6
BYLAYER
 10
42.2259981834
 20
139.273649243
 40
1.0
100
AcDbArc
 50
180.0000000233
 51
270.0000000106
  0
ARC
  5
464
100
AcDbEntity
  8
0
100
AcDbCircle
 62
7
  6
BYLAYER
 10
64.4759981803
 20
142.3236492405
 40
0.9999999968
100
AcDbArc
 50
180.0000000002
 51
269.9999999988
  0
ARC
  5
465
100
AcDbEntity
  8
0
100
AcDbCircle
 62
7
  6
BYLAYER
 10
61.9252814085
 20
139.8260610348
 40
0.9992832426
100
AcDbArc
 50
180.0000208295
 51
211.6238379849
  0
ARC
  5
466
100
AcDbEntity
  8
0
100
AcDbCircle
 62
7
  6
BYLAYER
 10
61.9433522976
 20
139.7877973114
 40
0.9859780018
100
AcDbArc
 50
233.9221046297
 51
267.4680486405
  0
ARC
  5
467
100
AcDbEntity
  8
0
100
AcDbCircle
 62
7
  6
BYLAYER
 10
52.2726680008
 20
137.7731729832
 40
0.5004762623
100
AcDbArc
 50
69.3818293384
 51
89.9942419801
  0
ARC
  5
468
100
AcDbEntity
  8
0
100
AcDbCircle
 62
7
  6
BYLAYER
 10
66.5761180014
 20
135.973529424
 40
0.300119843
100
AcDbArc
 50
90.0228744859
 51
179.9999659936
  0
ARC
  5
469
100
AcDbEntity
  8
0
100
AcDbCircle
 62
7
  6
BYLAYER
 10
66.5761180009
 20
129.0737690615
 40
0.3001198424
100
AcDbArc
 50
180.0228743736
 51
269.9999660831
  0
ARC
  5
46A
100
AcDbEntity
  8
0
100
AcDbCircle
 62
7
  6
BYLAYER
 10
55.5758783654
 20
135.9735294245
 40
0.3001198424
100
AcDbArc
 50
0.0228743653
 51
89.9999660827
  0
ARC
  5
46B
100
AcDbEntity
  8
0
100
AcDbCircle
 62
7
  6
BYLAYER
 10
56.1759981832
 20
129.373649243
 40
0.3
100
AcDbArc
 50
89.9999998056
 51
179.9999996785
  0
ARC
  5
46C
100
AcDbEntity
  8
0
100
AcDbCircle
 62
7
  6
BYLAYER
 10
55.5759981832
 20
129.073649243
 40
0.3
100
AcDbArc
 50
270.0228498018
 51
0.0228840339
  0
ARC
  5
46D
100
AcDbEntity
  8
0
100
AcDbCircle
 62
7
  6
BYLAYER
 10
65.9759981847
 20
129.3736492456
 40
0.2999999978
100
AcDbArc
 50
359.9762653349
 51
89.9763018332
  0
ARC
  5
46E
100
AcDbEntity
  8
0
100
AcDbCircle
 62
7
  6
BYLAYER
 10
56.1759981817
 20
135.6736492404
 40
0.2999999978
100
AcDbArc
 50
179.9999994072
 51
269.9999994463
  0
ARC
  5
46F
100
AcDbEntity
  8
0
100
AcDbCircle
 62
7
  6
BYLAYER
 10
65.9759981847
 20
135.6736492404
 40
0.2999999978
100
AcDbArc
 50
269.9999997702
 51
359.9999997838
  0
ARC
  5
470
100
AcDbEntity
  8
0
100
AcDbCircle
 62
7
  6
BYLAYER
 10
83.5759989373
 20
108.6236499969
 40
1.0000007542
100
AcDbArc
 50
180.0000432209
 51
270.0000431573
  0
ARC
  5
471
100
AcDbEntity
  8
0
100
AcDbCircle
 62
7
  6
BYLAYER
 10
81.2759974295
 20
108.4236499962
 40
1.0000007528
100
AcDbArc
 50
270.0000427826
 51
0.0000427668
  0
ARC
  5
472
100
AcDbEntity
  8
0
100
AcDbCircle
 62
7
  6
BYLAYER
 10
77.5760011154
 20
107.9236521757
 40
0.5000029323
100
AcDbArc
 50
180.0003360095
 51
269.9996639898
  0
ARC
  5
473
100
AcDbEntity
  8
0
100
AcDbCircle
 62
7
  6
BYLAYER
 10
76.2759952514
 20
108.023646312
 40
0.500002931
100
AcDbArc
 50
0.0003358604
 51
89.99966391
  0
ARC
  5
474
100
AcDbEntity
  8
0
100
AcDbCircle
 62
7
  6
BYLAYER
 10
77.2759981839
 20
107.6236492442
 40
0.5000000016
100
AcDbArc
 50
180.000000242
 51
270.0000001306
  0
ARC
  5
475
100
AcDbEntity
  8
0
100
AcDbCircle
 62
7
  6
BYLAYER
 10
76.5759981815
 20
108.3236492422
 40
0.5000000016
100
AcDbArc
 50
0.0
 51
89.9999997416
  0
CIRCLE
  5
476
100
AcDbEntity
  8
0
100
AcDbCircle
 62
7
  6
BYLAYER
 10
84.0759981831
 20
139.523649243
 40
1.5
  0
CIRCLE
  5
477
100
AcDbEntity
  8
0
100
AcDbCircle
 62
7
  6
BYLAYER
 10
112.575998183
 20
131.0236492433
 40
1.4999995119
  0
ARC
  5
478
100
AcDbEntity
  8
0
100
AcDbCircle
 62
7
  6
BYLAYER
 10
105.8759981818
 20
154.0236492432
 40
1.3000000009
100
AcDbArc
 50
270.0000001103
 51
359.9999999871
  0
CIRCLE
  5
479
100
AcDbEntity
  8
0
100
AcDbCircle
 62
7
  6
BYLAYER
 10
86.3259981831
 20
135.6265349251
 40
1.25
  0
CIRCLE
  5
47A
100
AcDbEntity
  8
0
100
AcDbCircle
 62
7
  6
BYLAYER
 10
88.5759981831
 20
139.523649243
 40
1.25
  0
CIRCLE
  5
47B
100
AcDbEntity
  8
0
100
AcDbCircle
 62
7
  6
BYLAYER
 10
86.3259981831
 20
143.4207635609
 40
1.25
  0
CIRCLE
  5
47C
100
AcDbEntity
  8
0
100
AcDbCircle
 62
7
  6
BYLAYER
 10
81.8259981831
 20
143.4207635609
 40
1.25
  0
CIRCLE
  5
47D
100
AcDbEntity
  8
0
100
AcDbCircle
 62
7
  6
BYLAYER
 10
79.5759981831
 20
139.523649243
 40
1.25
  0
CIRCLE
  5
47E
100
AcDbEntity
  8
0
100
AcDbCircle
 62
7
  6
BYLAYER
 10
81.8259981831
 20
135.6265349251
 40
1.25
  0
ARC
  5
47F
100
AcDbEntity
  8
0
100
AcDbCircle
 62
7
  6
BYLAYER
 10
105.8759974274
 20
154.0236499995
 40
1.0000007565
100
AcDbArc
 50
270.0000433383
 51
0.0000431871
  0
ARC
  5
480
100
AcDbEntity
  8
0
100
AcDbCircle
 62
7
  6
BYLAYER
 10
77.2759974274
 20
142.6236499976
 40
1.000000755
100
AcDbArc
 50
270.0000434809
 51
0.0000435535
  0
ARC
  5
481
100
AcDbEntity
  8
0
100
AcDbCircle
 62
7
  6
BYLAYER
 10
77.2759974295
 20
148.6236484898
 40
1.0000007529
100
AcDbArc
 50
0.0000428124
 51
90.0000430223
  0
ARC
  5
482
100
AcDbEntity
  8
0
100
AcDbCircle
 62
7
  6
BYLAYER
 10
77.5759981799
 20
148.9236492402
 40
1.0000000032
100
AcDbArc
 50
0.0000000027
 51
90.0000000189
  0
ARC
  5
483
100
AcDbEntity
  8
0
100
AcDbCircle
 62
7
  6
BYLAYER
 10
77.5759981831
 20
142.3236492437
 40
1.0
100
AcDbArc
 50
270.000000003
 51
360.0
  0
ARC
  5
484
100
AcDbEntity
  8
0
100
AcDbCircle
 62
7
  6
BYLAYER
 10
32.8759989363
 20
189.3236499962
 40
1.0000007525
100
AcDbArc
 50
180.000042821
 51
270.0000430895
  0
ARC
  5
485
100
AcDbEntity
  8
0
100
AcDbCircle
 62
7
  6
BYLAYER
 10
48.0759974274
 20
209.6236499983
 40
1.0000007557
100
AcDbArc
 50
270.000042904
 51
0.0000429213
  0
ARC
  5
486
100
AcDbEntity
  8
0
100
AcDbCircle
 62
7
  6
BYLAYER
 10
50.3759989363
 20
209.8236499962
 40
1.0000007525
100
AcDbArc
 50
180.0000427445
 51
270.0000427448
  0
ARC
  5
487
100
AcDbEntity
  8
0
100
AcDbCircle
 62
7
  6
BYLAYER
 10
45.0759981815
 20
217.623649241
 40
0.5000000016
100
AcDbArc
 50
0.0
 51
89.9999998334
  0
ARC
  5
488
100
AcDbEntity
  8
0
100
AcDbCircle
 62
7
  6
BYLAYER
 10
32.0759981847
 20
217.623649241
 40
0.5000000016
100
AcDbArc
 50
90.000000166
 51
179.9999998338
  0
ARC
  5
489
100
AcDbEntity
  8
0
100
AcDbCircle
 62
7
  6
BYLAYER
 10
32.0759981847
 20
211.6236492442
 40
0.5000000016
100
AcDbArc
 50
180.0000001662
 51
269.9999998342
  0
ARC
  5
48A
100
AcDbEntity
  8
0
100
AcDbCircle
 62
7
  6
BYLAYER
 10
45.0759981815
 20
211.6236492442
 40
0.5000000016
100
AcDbArc
 50
270.0000001664
 51
360.0
  0
ARC
  5
48B
100
AcDbEntity
  8
0
100
AcDbCircle
 62
7
  6
BYLAYER
 10
37.4759582442
 20
213.7236891815
 40
0.1000399469
100
AcDbArc
 50
270.0228744294
 51
359.9847353382
  0
ARC
  5
48C
100
AcDbEntity
  8
0
100
AcDbCircle
 62
7
  6
BYLAYER
 10
42.9759582442
 20
212.2236891815
 40
0.1000399469
100
AcDbArc
 50
270.0228744295
 51
359.9847353551
  0
ARC
  5
48D
100
AcDbEntity
  8
0
100
AcDbCircle
 62
7
  6
BYLAYER
 10
41.176038122
 20
212.2236891815
 40
0.1000399469
100
AcDbArc
 50
180.0228743704
 51
269.9771255826
  0
ARC
  5
48E
100
AcDbEntity
  8
0
100
AcDbCircle
 62
7
  6
BYLAYER
 10
37.4759582449
 20
215.5236093045
 40
0.1000399461
100
AcDbArc
 50
0.0000334249
 51
89.9771258803
  0
ARC
  5
48F
100
AcDbEntity
  8
0
100
AcDbCircle
 62
7
  6
BYLAYER
 10
42.0759981831
 20
216.9821714059
 40
0.1000399457
100
AcDbArc
 50
45.0228737254
 51
134.97712619
  0
ARC
  5
490
100
AcDbEntity
  8
0
100
AcDbCircle
 62
7
  6
BYLAYER
 10
32.7174760189
 20
214.6236492426
 40
0.1000399451
100
AcDbArc
 50
135.0228735589
 51
224.9771264277
  0
ARC
  5
491
100
AcDbEntity
  8
0
100
AcDbCircle
 62
7
  6
BYLAYER
 10
44.3345534566
 20
214.7236589237
 40
0.1000096838
100
AcDbArc
 50
270.0133885391
 51
43.4676709258
  0
ARC
  5
492
100
AcDbEntity
  8
0
100
AcDbCircle
 62
7
  6
BYLAYER
 10
39.8174429085
 20
214.7236589232
 40
0.1000096833
100
AcDbArc
 50
135.0133885107
 51
269.9866120667
  0
ARC
  5
493
100
AcDbEntity
  8
0
100
AcDbCircle
 62
7
  6
BYLAYER
 10
34.9759885034
 20
216.8822045174
 40
0.1000096825
100
AcDbArc
 50
0.0000074034
 51
134.9866112666
  0
ARC
  5
494
100
AcDbEntity
  8
0
100
AcDbCircle
 62
7
  6
BYLAYER
 10
34.9759885048
 20
212.3650939663
 40
0.1000096811
100
AcDbArc
 50
225.0133868288
 51
359.9910720653
  0
ARC
  5
495
100
AcDbEntity
  8
0
100
AcDbCircle
 62
7
  6
BYLAYER
 10
35.1259981833
 20
215.6736492428
 40
0.0500000002
100
AcDbArc
 50
180.0000000578
 51
270.000000318
  0
ARC
  5
496
100
AcDbEntity
  8
0
100
AcDbCircle
 62
7
  6
BYLAYER
 10
35.1259981801
 20
213.5736492456
 40
0.049999997
100
AcDbArc
 50
90.0000000189
 51
180.0000001427
  0
ARC
  5
497
100
AcDbEntity
  8
0
100
AcDbCircle
 62
7
  6
BYLAYER
 10
43.1259981801
 20
214.5736492456
 40
0.049999997
100
AcDbArc
 50
90.0000000496
 51
180.0000001427
  0
ARC
  5
498
100
AcDbEntity
  8
0
100
AcDbCircle
 62
7
  6
BYLAYER
 10
41.0259981861
 20
214.5736492456
 40
0.049999997
100
AcDbArc
 50
0.0000000191
 51
90.000000139
  0
ARC
  5
499
100
AcDbEntity
  8
0
100
AcDbCircle
 62
7
  6
BYLAYER
 10
96.5247440995
 20
205.8059560312
 40
24.1548361015
100
AcDbArc
 50
89.9970252889
 51
90.7682671086
  0
CIRCLE
  5
49A
100
AcDbEntity
  8
0
100
AcDbCircle
 62
7
  6
BYLAYER
 10
112.575998183
 20
206.0236492431
 40
1.499999512
  0
ARC
  5
49B
100
AcDbEntity
  8
0
100
AcDbCircle
 62
7
  6
BYLAYER
 10
105.8759974273
 20
187.0236484864
 40
1.0000007566
100
AcDbArc
 50
0.0000437011
 51
90.0000435511
  0
ARC
  5
49C
100
AcDbEntity
  8
0
100
AcDbCircle
 62
7
  6
BYLAYER
 10
105.875997428
 20
189.3236499996
 40
1.0000007558
100
AcDbArc
 50
270.0000429527
 51
0.0000429681
  0
ARC
  5
49D
100
AcDbEntity
  8
0
100
AcDbCircle
 62
7
  6
BYLAYER
 10
98.2264974029
 20
222.4697053102
 40
2.0004992786
100
AcDbArc
 50
179.9999833344
 51
269.9857019972
  0
ARC
  5
49E
100
AcDbEntity
  8
0
100
AcDbCircle
 62
7
  6
BYLAYER
 10
119.9255002875
 20
222.4642901338
 40
2.0004992766
100
AcDbArc
 50
270.0142407587
 51
0.0092460677
  0
ARC
  5
49F
100
AcDbEntity
  8
0
100
AcDbCircle
 62
7
  6
BYLAYER
 10
97.7260003607
 20
222.0236514202
 40
2.0000021772
100
AcDbArc
 50
180.0000627929
 51
269.9999376376
  0
ARC
  5
4A0
100
AcDbEntity
  8
0
100
AcDbCircle
 62
7
  6
BYLAYER
 10
105.875998185
 20
207.3236492449
 40
1.2999999978
100
AcDbArc
 50
0.000000022
 51
90.0000000286
  0
ARC
  5
4A1
100
AcDbEntity
  8
0
100
AcDbCircle
 62
7
  6
BYLAYER
 10
115.5758307956
 20
226.4812898036
 40
1.0001676064
100
AcDbArc
 50
0.0378680006
 51
89.9999920117
  0
ARC
  5
4A2
100
AcDbEntity
  8
0
100
AcDbCircle
 62
7
  6
BYLAYER
 10
115.5758307956
 20
223.4840921865
 40
1.0001676064
100
AcDbArc
 50
270.0095890103
 51
359.9998752341
  0
ARC
  5
4A3
100
AcDbEntity
  8
0
100
AcDbCircle
 62
7
  6
BYLAYER
 10
102.5761655682
 20
226.4812898068
 40
1.0001676032
100
AcDbArc
 50
90.0095888344
 51
179.9998752002
  0
ARC
  5
4A4
100
AcDbEntity
  8
0
100
AcDbCircle
 62
7
  6
BYLAYER
 10
102.5761655682
 20
223.4840921833
 40
1.0001676032
100
AcDbArc
 50
180.0378678317
 51
269.9999919956
  0
ARC
  5
4A5
100
AcDbEntity
  8
0
100
AcDbCircle
 62
7
  6
BYLAYER
 10
105.8759974246
 20
207.3236484845
 40
1.0000007592
100
AcDbArc
 50
0.0000438329
 51
90.0000435647
  0
ARC
  5
4A6
100
AcDbEntity
  8
0
100
AcDbCircle
 62
7
  6
BYLAYER
 10
92.3759974246
 20
221.8236484845
 40
1.0000007592
100
AcDbArc
 50
0.0
 51
89.9999999998
  0
ARC
  5
4A7
100
AcDbEntity
  8
0
100
AcDbCircle
 62
7
  6
BYLAYER
 10
92.375997428
 20
209.8236499996
 40
1.0000007558
100
AcDbArc
 50
270.0000428898
 51
0.000042905
  0
ARC
  5
4A8
100
AcDbEntity
  8
0
100
AcDbCircle
 62
7
  6
BYLAYER
 10
94.5759989373
 20
209.6236499968
 40
1.0000007542
100
AcDbArc
 50
180.0000428509
 51
270.0000428456
  0
ARC
  5
4A9
100
AcDbEntity
  8
0
100
AcDbCircle
 62
7
  6
BYLAYER
 10
92.5759981831
 20
222.1236492426
 40
1.0
100
AcDbArc
 50
0.0000000027
 51
90.0000000089
  0
ARC
  5
4AA
100
AcDbEntity
  8
0
100
AcDbCircle
 62
7
  6
BYLAYER
 10
160.5759960049
 20
130.5236514212
 40
2.0000021782
100
AcDbArc
 50
270.0000624005
 51
360.0
  0
ARC
  5
4AB
100
AcDbEntity
  8
0
100
AcDbCircle
 62
7
  6
BYLAYER
 10
127.5759981831
 20
130.523649243
 40
2.0
100
AcDbArc
 50
179.9999999998
 51
270.0
  0
ARC
  5
4AC
100
AcDbEntity
  8
0
100
AcDbCircle
 62
7
  6
BYLAYER
 10
127.5759981831
 20
130.523649243
 40
1.5
100
AcDbArc
 50
179.9999999998
 51
270.0
  0
ARC
  5
4AD
100
AcDbEntity
  8
0
100
AcDbCircle
 62
7
  6
BYLAYER
 10
160.5759981831
 20
130.523649243
 40
1.5
100
AcDbArc
 50
270.0000000002
 51
360.0
  0
CIRCLE
  5
4AE
100
AcDbEntity
  8
0
100
AcDbCircle
 62
7
  6
BYLAYER
 10
129.0759981831
 20
110.523649243
 40
1.0999999996
  0
ARC
  5
4AF
100
AcDbEntity
  8
0
100
AcDbCircle
 62
7
  6
BYLAYER
 10
151.676412434
 20
132.0240634942
 40
1.000414337
100
AcDbArc
 50
180.0237250078
 51
269.9999509972
  0
ARC
  5
4B0
100
AcDbEntity
  8
0
100
AcDbCircle
 62
7
  6
BYLAYER
 10
148.4755839322
 20
132.0240634942
 40
1.000414337
100
AcDbArc
 50
270.0237250278
 51
359.9999510436
  0
ARC
  5
4B1
100
AcDbEntity
  8
0
100
AcDbCircle
 62
7
  6
BYLAYER
 10
159.6755839347
 20
132.0240634911
 40
1.0004143338
100
AcDbArc
 50
270.0237248293
 51
359.9999509865
  0
ARC
  5
4B2
100
AcDbEntity
  8
0
100
AcDbCircle
 62
7
  6
BYLAYER
 10
128.4764124316
 20
132.0240634911
 40
1.0004143338
100
AcDbArc
 50
180.0237248362
 51
269.9999510328
  0
ARC
  5
4B3
100
AcDbEntity
  8
0
100
AcDbCircle
 62
7
  6
BYLAYER
 10
122.7759989386
 20
108.4236499996
 40
1.0000007562
100
AcDbArc
 50
180.0000429578
 51
270.0000429487
  0
ARC
  5
4B4
100
AcDbEntity
  8
0
100
AcDbCircle
 62
7
  6
BYLAYER
 10
120.5759974275
 20
108.6236499983
 40
1.0000007557
100
AcDbArc
 50
270.0000434788
 51
0.0000434106
  0
ARC
  5
4B5
100
AcDbEntity
  8
0
100
AcDbCircle
 62
7
  6
BYLAYER
 10
120.5759974296
 20
126.6236484891
 40
1.0000007535
100
AcDbArc
 50
0.0000431955
 51
90.000043265
  0
ARC
  5
4B6
100
AcDbEntity
  8
0
100
AcDbCircle
 62
7
  6
BYLAYER
 10
162.2759981855
 20
123.0236492398
 40
1.0000000032
100
AcDbArc
 50
90.0000000028
 51
180.0000000171
  0
ARC
  5
4B7
100
AcDbEntity
  8
0
100
AcDbCircle
 62
7
  6
BYLAYER
 10
162.2759981855
 20
118.0236492462
 40
1.0000000032
100
AcDbArc
 50
180.0000000063
 51
270.0000000207
  0
ARC
  5
4B8
100
AcDbEntity
  8
0
100
AcDbCircle
 62
7
  6
BYLAYER
 10
138.2759981855
 20
118.0236492462
 40
1.0000000032
100
AcDbArc
 50
180.0000000063
 51
270.0000000207
  0
ARC
  5
4B9
100
AcDbEntity
  8
0
100
AcDbCircle
 62
7
  6
BYLAYER
 10
145.8759981807
 20
118.0236492462
 40
1.0000000032
100
AcDbArc
 50
269.9999999743
 51
359.9999999743
  0
ARC
  5
4BA
100
AcDbEntity
  8
0
100
AcDbCircle
 62
7
  6
BYLAYER
 10
145.8759981807
 20
123.0236492398
 40
1.0000000032
100
AcDbArc
 50
0.0000000194
 51
90.0000000193
  0
ARC
  5
4BB
100
AcDbEntity
  8
0
100
AcDbCircle
 62
7
  6
BYLAYER
 10
138.2759981855
 20
123.0236492398
 40
1.0000000032
100
AcDbArc
 50
90.0000000028
 51
180.0000000171
  0
ARC
  5
4BC
100
AcDbEntity
  8
0
100
AcDbCircle
 62
7
  6
BYLAYER
 10
120.7759981824
 20
126.9236492434
 40
1.0
100
AcDbArc
 50
0.0000000052
 51
90.0000000101
  0
ARC
  5
4BD
100
AcDbEntity
  8
0
100
AcDbCircle
 62
7
  6
BYLAYER
 10
151.676412434
 20
135.0232349918
 40
1.000414337
100
AcDbArc
 50
90.0237250278
 51
179.9999510436
  0
ARC
  5
4BE
100
AcDbEntity
  8
0
100
AcDbCircle
 62
7
  6
BYLAYER
 10
148.4755839322
 20
135.0232349918
 40
1.000414337
100
AcDbArc
 50
0.0237250078
 51
89.9999510033
  0
ARC
  5
4BF
100
AcDbEntity
  8
0
100
AcDbCircle
 62
7
  6
BYLAYER
 10
159.6755839347
 20
135.0232349949
 40
1.0004143338
100
AcDbArc
 50
0.0237248493
 51
89.9999510397
  0
ARC
  5
4C0
100
AcDbEntity
  8
0
100
AcDbCircle
 62
7
  6
BYLAYER
 10
128.4764124316
 20
135.0232349949
 40
1.0004143338
100
AcDbArc
 50
90.0237248293
 51
179.9999510168
  0
ARC
  5
4C1
100
AcDbEntity
  8
0
100
AcDbCircle
 62
7
  6
BYLAYER
 10
163.5759981863
 20
143.7736492398
 40
1.0000000032
100
AcDbArc
 50
89.9999999807
 51
179.9999999938
  0
ARC
  5
4C2
100
AcDbEntity
  8
0
100
AcDbCircle
 62
7
  6
BYLAYER
 10
163.5759981831
 20
161.773649243
 40
1.0
100
AcDbArc
 50
180.0000000029
 51
269.9999999999
  0
ARC
  5
4C3
100
AcDbEntity
  8
0
100
AcDbCircle
 62
7
  6
BYLAYER
 10
161.5759981831
 20
159.773649243
 40
0.5
100
AcDbArc
 50
270.0000000006
 51
360.0
  0
ARC
  5
4C4
100
AcDbEntity
  8
0
100
AcDbCircle
 62
7
  6
BYLAYER
 10
161.5759981831
 20
145.773649243
 40
0.5
100
AcDbArc
 50
0.0
 51
90.0000000003
  0
ARC
  5
4C5
100
AcDbEntity
  8
0
100
AcDbCircle
 62
7
  6
BYLAYER
 10
208.5099232978
 20
108.5897294798
 40
5.0238479726
100
AcDbArc
 50
306.3355404091
 51
323.6643477824
  0
CIRCLE
  5
4C6
100
AcDbEntity
  8
0
100
AcDbCircle
 62
7
  6
BYLAYER
 10
179.0759981831
 20
110.523649243
 40
1.0999999996
  0
ARC
  5
4C7
100
AcDbEntity
  8
0
100
AcDbCircle
 62
7
  6
BYLAYER
 10
189.0759974296
 20
103.4236499969
 40
1.0000007535
100
AcDbArc
 50
270.0000429894
 51
0.0000430505
  0
ARC
  5
4C8
100
AcDbEntity
  8
0
100
AcDbCircle
 62
7
  6
BYLAYER
 10
189.0759974296
 20
106.1236484891
 40
1.0000007535
100
AcDbArc
 50
0.000043178
 51
90.0000431106
  0
ARC
  5
4C9
100
AcDbEntity
  8
0
100
AcDbCircle
 62
7
  6
BYLAYER
 10
189.3759981807
 20
103.1236492458
 40
1.0000000032
100
AcDbArc
 50
269.9999999745
 51
359.9999999714
  0
ARC
  5
4CA
100
AcDbEntity
  8
0
100
AcDbCircle
 62
7
  6
BYLAYER
 10
189.3759981807
 20
106.4236492402
 40
1.0000000032
100
AcDbArc
 50
0.0000000227
 51
90.0000000197
  0
ARC
  5
4CB
100
AcDbEntity
  8
0
100
AcDbCircle
 62
7
  6
BYLAYER
 10
169.8759981807
 20
118.0236492462
 40
1.0000000032
100
AcDbArc
 50
269.9999999744
 51
359.9999999743
  0
ARC
  5
4CC
100
AcDbEntity
  8
0
100
AcDbCircle
 62
7
  6
BYLAYER
 10
169.8759981807
 20
123.0236492398
 40
1.0000000032
100
AcDbArc
 50
0.0000000194
 51
90.0000000193
  0
ARC
  5
4CD
100
AcDbEntity
  8
0
100
AcDbCircle
 62
7
  6
BYLAYER
 10
190.5762053087
 20
130.0238563686
 40
0.5002071685
100
AcDbArc
 50
180.0237250386
 51
269.9762749667
  0
ARC
  5
4CE
100
AcDbEntity
  8
0
100
AcDbCircle
 62
7
  6
BYLAYER
 10
193.5757910575
 20
130.0238563686
 40
0.5002071685
100
AcDbArc
 50
270.0237250342
 51
359.9999510002
  0
ARC
  5
4CF
100
AcDbEntity
  8
0
100
AcDbCircle
 62
7
  6
BYLAYER
 10
205.0264124343
 20
161.7732349917
 40
1.000414337
100
AcDbArc
 50
90.0237250189
 51
179.9999509979
  0
ARC
  5
4D0
100
AcDbEntity
  8
0
100
AcDbCircle
 62
7
  6
BYLAYER
 10
205.0264124343
 20
149.7740634942
 40
1.000414337
100
AcDbArc
 50
180.0237250249
 51
269.9999509954
  0
ARC
  5
4D1
100
AcDbEntity
  8
0
100
AcDbCircle
 62
7
  6
BYLAYER
 10
208.0255839319
 20
149.7740634942
 40
1.000414337
100
AcDbArc
 50
270.0237250278
 51
359.9999509951
  0
ARC
  5
4D2
100
AcDbEntity
  8
0
100
AcDbCircle
 62
7
  6
BYLAYER
 10
208.0255839319
 20
161.7732349917
 40
1.000414337
100
AcDbArc
 50
0.0237250278
 51
89.9999510218
  0
ARC
  5
4D3
100
AcDbEntity
  8
0
100
AcDbCircle
 62
7
  6
BYLAYER
 10
167.5759974292
 20
145.7736499969
 40
1.0000007539
100
AcDbArc
 50
270.000042817
 51
360.0
  0
ARC
  5
4D4
100
AcDbEntity
  8
0
100
AcDbCircle
 62
7
  6
BYLAYER
 10
167.5759974292
 20
159.7736484891
 40
1.0000007539
100
AcDbArc
 50
0.0000428141
 51
89.9999999997
  0
ARC
  5
4D5
100
AcDbEntity
  8
0
100
AcDbCircle
 62
7
  6
BYLAYER
 10
182.5762053087
 20
160.0238563686
 40
0.5002071685
100
AcDbArc
 50
180.0237250407
 51
269.9762749857
  0
ARC
  5
4D6
100
AcDbEntity
  8
0
100
AcDbCircle
 62
7
  6
BYLAYER
 10
185.5757910575
 20
160.0238563686
 40
0.5002071685
100
AcDbArc
 50
270.0237250171
 51
359.9999510002
  0
ARC
  5
4D7
100
AcDbEntity
  8
0
100
AcDbCircle
 62
7
  6
BYLAYER
 10
190.5762053087
 20
160.0238563686
 40
0.5002071685
100
AcDbArc
 50
180.0237250407
 51
269.9762749857
  0
ARC
  5
4D8
100
AcDbEntity
  8
0
100
AcDbCircle
 62
7
  6
BYLAYER
 10
193.5757910575
 20
160.0238563686
 40
0.5002071685
100
AcDbArc
 50
270.0237250171
 51
359.9999510002
  0
ARC
  5
4D9
100
AcDbEntity
  8
0
100
AcDbCircle
 62
7
  6
BYLAYER
 10
182.5762053087
 20
156.0234421174
 40
0.5002071685
100
AcDbArc
 50
90.0237250157
 51
179.9762749593
  0
ARC
  5
4DA
100
AcDbEntity
  8
0
100
AcDbCircle
 62
7
  6
BYLAYER
 10
182.5762053087
 20
145.0238563686
 40
0.5002071685
100
AcDbArc
 50
180.0237250386
 51
269.9762749686
  0
ARC
  5
4DB
100
AcDbEntity
  8
0
100
AcDbCircle
 62
7
  6
BYLAYER
 10
185.5757910575
 20
145.0238563686
 40
0.5002071685
100
AcDbArc
 50
270.0237250342
 51
359.9999510002
  0
ARC
  5
4DC
100
AcDbEntity
  8
0
100
AcDbCircle
 62
7
  6
BYLAYER
 10
185.5757910575
 20
156.0234421174
 40
0.5002071685
100
AcDbArc
 50
0.0237250238
 51
89.976274983
  0
ARC
  5
4DD
100
AcDbEntity
  8
0
100
AcDbCircle
 62
7
  6
BYLAYER
 10
190.5762053087
 20
156.0234421174
 40
0.5002071685
100
AcDbArc
 50
90.0237250157
 51
179.9762749593
  0
ARC
  5
4DE
100
AcDbEntity
  8
0
100
AcDbCircle
 62
7
  6
BYLAYER
 10
190.5762053087
 20
145.0238563686
 40
0.5002071685
100
AcDbArc
 50
180.0237250386
 51
269.9762749686
  0
ARC
  5
4DF
100
AcDbEntity
  8
0
100
AcDbCircle
 62
7
  6
BYLAYER
 10
193.5757910575
 20
145.0238563686
 40
0.5002071685
100
AcDbArc
 50
270.0237250342
 51
359.9999510002
  0
ARC
  5
4E0
100
AcDbEntity
  8
0
100
AcDbCircle
 62
7
  6
BYLAYER
 10
193.5757910575
 20
156.0234421174
 40
0.5002071685
100
AcDbArc
 50
0.0237250238
 51
89.976274983
  0
ARC
  5
4E1
100
AcDbEntity
  8
0
100
AcDbCircle
 62
7
  6
BYLAYER
 10
190.5762053087
 20
141.0234421174
 40
0.5002071685
100
AcDbArc
 50
90.023725026
 51
179.9762749616
  0
ARC
  5
4E2
100
AcDbEntity
  8
0
100
AcDbCircle
 62
7
  6
BYLAYER
 10
193.5757910575
 20
141.0234421174
 40
0.5002071685
100
AcDbArc
 50
0.0237250238
 51
89.9762749659
  0
ARC
  5
4E3
100
AcDbEntity
  8
0
100
AcDbCircle
 62
7
  6
BYLAYER
 10
127.5759981831
 20
175.023649243
 40
2.0
100
AcDbArc
 50
90.0
 51
180.0000000002
  0
ARC
  5
4E4
100
AcDbEntity
  8
0
100
AcDbCircle
 62
7
  6
BYLAYER
 10
127.5759981831
 20
175.023649243
 40
1.5
100
AcDbArc
 50
90.0000000001
 51
180.0000000002
  0
CIRCLE
  5
4E5
100
AcDbEntity
  8
0
100
AcDbCircle
 62
7
  6
BYLAYER
 10
129.0759981831
 20
181.5236476244
 40
1.1
  0
ARC
  5
4E6
100
AcDbEntity
  8
0
100
AcDbCircle
 62
7
  6
BYLAYER
 10
127.0759981831
 20
187.023649243
 40
1.9567022991
100
AcDbArc
 50
180.0000001174
 51
270.0000001571
  0
ARC
  5
4E7
100
AcDbEntity
  8
0
100
AcDbCircle
 62
7
  6
BYLAYER
 10
127.4759981839
 20
187.9236492446
 40
0.5000000016
100
AcDbArc
 50
180.0000001839
 51
269.9999998364
  0
CIRCLE
  5
4E8
100
AcDbEntity
  8
0
100
AcDbCircle
 62
7
  6
BYLAYER
 10
132.7759981824
 20
192.3736487744
 40
0.7999999998
  0
ARC
  5
4E9
100
AcDbEntity
  8
0
100
AcDbCircle
 62
7
  6
BYLAYER
 10
130.2759978792
 20
192.3736492429
 40
0.7999998105
100
AcDbArc
 50
231.317829586
 51
128.6821704143
  0
ARC
  5
4EA
100
AcDbEntity
  8
0
100
AcDbCircle
 62
7
  6
BYLAYER
 10
134.7259981822
 20
194.8736492429
 40
0.2000000006
100
AcDbArc
 50
0.0000000259
 51
89.9999989038
  0
ARC
  5
4EB
100
AcDbEntity
  8
0
100
AcDbCircle
 62
7
  6
BYLAYER
 10
132.2259981822
 20
194.8736492429
 40
0.2000000006
100
AcDbArc
 50
0.0000000259
 51
89.9999989038
  0
ARC
  5
4EC
100
AcDbEntity
  8
0
100
AcDbCircle
 62
7
  6
BYLAYER
 10
129.7259981822
 20
194.8736492429
 40
0.2000000006
100
AcDbArc
 50
0.0
 51
89.9999988961
  0
ARC
  5
4ED
100
AcDbEntity
  8
0
100
AcDbCircle
 62
7
  6
BYLAYER
 10
133.3259981814
 20
194.8736492461
 40
0.1999999975
100
AcDbArc
 50
90.0000004534
 51
180.0000011201
  0
ARC
  5
4EE
100
AcDbEntity
  8
0
100
AcDbCircle
 62
7
  6
BYLAYER
 10
130.8259981814
 20
194.8736492461
 40
0.1999999975
100
AcDbArc
 50
90.0000004534
 51
180.0000011201
  0
CIRCLE
  5
4EF
100
AcDbEntity
  8
0
100
AcDbCircle
 62
7
  6
BYLAYER
 10
142.7759981824
 20
192.3736487744
 40
0.7999999998
  0
CIRCLE
  5
4F0
100
AcDbEntity
  8
0
100
AcDbCircle
 62
7
  6
BYLAYER
 10
140.2759981824
 20
192.3736497115
 40
0.7999999998
  0
CIRCLE
  5
4F1
100
AcDbEntity
  8
0
100
AcDbCircle
 62
7
  6
BYLAYER
 10
137.7759981824
 20
192.3736487744
 40
0.7999999998
  0
CIRCLE
  5
4F2
100
AcDbEntity
  8
0
100
AcDbCircle
 62
7
  6
BYLAYER
 10
135.2759981824
 20
192.3736497115
 40
0.7999999998
  0
ARC
  5
4F3
100
AcDbEntity
  8
0
100
AcDbCircle
 62
7
  6
BYLAYER
 10
142.2259981822
 20
194.8736492429
 40
0.2000000006
100
AcDbArc
 50
0.0000000259
 51
89.9999989897
  0
ARC
  5
4F4
100
AcDbEntity
  8
0
100
AcDbCircle
 62
7
  6
BYLAYER
 10
139.7259981822
 20
194.8736492429
 40
0.2000000006
100
AcDbArc
 50
0.0000000259
 51
89.9999989038
  0
ARC
  5
4F5
100
AcDbEntity
  8
0
100
AcDbCircle
 62
7
  6
BYLAYER
 10
137.2259981822
 20
194.8736492429
 40
0.2000000006
100
AcDbArc
 50
0.0000000259
 51
89.9999989038
  0
ARC
  5
4F6
100
AcDbEntity
  8
0
100
AcDbCircle
 62
7
  6
BYLAYER
 10
140.8259981814
 20
194.8736492461
 40
0.1999999975
100
AcDbArc
 50
90.0000004534
 51
180.0000011201
  0
ARC
  5
4F7
100
AcDbEntity
  8
0
100
AcDbCircle
 62
7
  6
BYLAYER
 10
138.3259981814
 20
194.8736492461
 40
0.1999999975
100
AcDbArc
 50
90.0000004534
 51
180.0000011201
  0
ARC
  5
4F8
100
AcDbEntity
  8
0
100
AcDbCircle
 62
7
  6
BYLAYER
 10
135.8259981814
 20
194.8736492461
 40
0.1999999975
100
AcDbArc
 50
90.0000004534
 51
180.0000011201
  0
ARC
  5
4F9
100
AcDbEntity
  8
0
100
AcDbCircle
 62
7
  6
BYLAYER
 10
143.3259981814
 20
194.8736492461
 40
0.1999999975
100
AcDbArc
 50
90.0000004534
 51
180.0000011201
  0
ARC
  5
4FA
100
AcDbEntity
  8
0
100
AcDbCircle
 62
7
  6
BYLAYER
 10
160.5759981831
 20
175.023649243
 40
2.0
100
AcDbArc
 50
0.0
 51
89.9999999998
  0
ARC
  5
4FB
100
AcDbEntity
  8
0
100
AcDbCircle
 62
7
  6
BYLAYER
 10
160.5759981831
 20
175.023649243
 40
1.5
100
AcDbArc
 50
0.0
 51
90.0000000001
  0
CIRCLE
  5
4FC
100
AcDbEntity
  8
0
100
AcDbCircle
 62
7
  6
BYLAYER
 10
158.0759981831
 20
192.523649243
 40
6.9999989135
  0
CIRCLE
  5
4FD
100
AcDbEntity
  8
0
100
AcDbCircle
 62
7
  6
BYLAYER
 10
158.0759981831
 20
192.523649243
 40
4.0
  0
CIRCLE
  5
4FE
100
AcDbEntity
  8
0
100
AcDbCircle
 62
7
  6
BYLAYER
 10
158.0759981831
 20
192.523649243
 40
3.0
  0
ARC
  5
4FF
100
AcDbEntity
  8
0
100
AcDbCircle
 62
7
  6
BYLAYER
 10
148.0759981831
 20
187.023649243
 40
1.9567022968
100
AcDbArc
 50
269.9999994256
 51
360.0
  0
CIRCLE
  5
500
100
AcDbEntity
  8
0
100
AcDbCircle
 62
7
  6
BYLAYER
 10
158.0759981831
 20
192.523649243
 40
1.8
  0
CIRCLE
  5
501
100
AcDbEntity
  8
0
100
AcDbCircle
 62
7
  6
BYLAYER
 10
145.2759981824
 20
192.3736497115
 40
0.7999999998
  0
ARC
  5
502
100
AcDbEntity
  8
0
100
AcDbCircle
 62
7
  6
BYLAYER
 10
148.0759981822
 20
187.9236492446
 40
0.5000000016
100
AcDbArc
 50
270.0000001699
 51
360.0
  0
ARC
  5
503
100
AcDbEntity
  8
0
100
AcDbCircle
 62
7
  6
BYLAYER
 10
144.7259981822
 20
194.8736492429
 40
0.2000000006
100
AcDbArc
 50
0.0000000259
 51
89.9999989897
  0
ARC
  5
504
100
AcDbEntity
  8
0
100
AcDbCircle
 62
7
  6
BYLAYER
 10
145.8259981814
 20
194.8736492461
 40
0.1999999975
100
AcDbArc
 50
90.0000004534
 51
180.0000011201
  0
ARC
  5
505
100
AcDbEntity
  8
0
100
AcDbCircle
 62
7
  6
BYLAYER
 10
121.6342757663
 20
206.8575657042
 40
23.1032278788
100
AcDbArc
 50
89.2142022102
 51
90.0205283238
  0
ARC
  5
506
100
AcDbEntity
  8
0
100
AcDbCircle
 62
7
  6
BYLAYER
 10
162.3259981831
 20
210.023649243
 40
3.9
100
AcDbArc
 50
269.9999999259
 51
90.0000000737
  0
ARC
  5
507
100
AcDbEntity
  8
0
100
AcDbCircle
 62
7
  6
BYLAYER
 10
129.8259981831
 20
210.023649243
 40
3.9000000004
100
AcDbArc
 50
90.0000000011
 51
270.0000000051
  0
ARC
  5
508
100
AcDbEntity
  8
0
100
AcDbCircle
 62
7
  6
BYLAYER
 10
127.0713326174
 20
216.5283148087
 40
2.0201722326
100
AcDbArc
 50
89.8676760321
 51
180.1323241008
  0
ARC
  5
509
100
AcDbEntity
  8
0
100
AcDbCircle
 62
7
  6
BYLAYER
 10
120.4259981831
 20
222.023649243
 40
2.0
100
AcDbArc
 50
270.0
 51
359.9999999999
  0
ARC
  5
50A
100
AcDbEntity
  8
0
100
AcDbCircle
 62
7
  6
BYLAYER
 10
148.0759981831
 20
201.523649243
 40
1.9567022968
100
AcDbArc
 50
0.0
 51
89.9999999985
  0
ARC
  5
50B
100
AcDbEntity
  8
0
100
AcDbCircle
 62
7
  6
BYLAYER
 10
127.0759981831
 20
201.523649243
 40
1.9567022967
100
AcDbArc
 50
90.0000001237
 51
180.0000000701
  0
ARC
  5
50C
100
AcDbEntity
  8
0
100
AcDbCircle
 62
7
  6
BYLAYER
 10
155.9469872868
 20
207.9936492425
 40
1.8299999989
100
AcDbArc
 50
269.9999999599
 51
345.0000000127
  0
ARC
  5
50D
100
AcDbEntity
  8
0
100
AcDbCircle
 62
7
  6
BYLAYER
 10
136.2050090794
 20
207.9936492425
 40
1.8299999989
100
AcDbArc
 50
194.9999999906
 51
270.0000000338
  0
CIRCLE
  5
50E
100
AcDbEntity
  8
0
100
AcDbCircle
 62
7
  6
BYLAYER
 10
129.8209981831
 20
210.023649243
 40
1.5
  0
CIRCLE
  5
50F
100
AcDbEntity
  8
0
100
AcDbCircle
 62
7
  6
BYLAYER
 10
162.3309981831
 20
210.023649243
 40
1.5
  0
ARC
  5
510
100
AcDbEntity
  8
0
100
AcDbCircle
 62
7
  6
BYLAYER
 10
135.3309981833
 20
212.6136492416
 40
1.2700000008
100
AcDbArc
 50
89.999999987
 51
179.9999999526
  0
ARC
  5
511
100
AcDbEntity
  8
0
100
AcDbCircle
 62
7
  6
BYLAYER
 10
156.8209981828
 20
212.6136492416
 40
1.2700000008
100
AcDbArc
 50
0.0000000045
 51
90.0000000194
  0
ARC
  5
512
100
AcDbEntity
  8
0
100
AcDbCircle
 62
7
  6
BYLAYER
 10
157.1109981694
 20
209.0536492446
 40
0.9800000143
100
AcDbArc
 50
345.0000001427
 51
359.999999844
  0
ARC
  5
513
100
AcDbEntity
  8
0
100
AcDbCircle
 62
7
  6
BYLAYER
 10
135.0409981968
 20
209.0536492446
 40
0.9800000143
100
AcDbArc
 50
179.9999999679
 51
194.999999834
  0
ARC
  5
514
100
AcDbEntity
  8
0
100
AcDbCircle
 62
7
  6
BYLAYER
 10
159.8259952508
 20
214.6236463103
 40
0.5000029323
100
AcDbArc
 50
0.000336043
 51
89.9996639827
  0
ARC
  5
515
100
AcDbEntity
  8
0
100
AcDbCircle
 62
7
  6
BYLAYER
 10
132.3260011155
 20
214.6236463103
 40
0.5000029324
100
AcDbArc
 50
90.0003360731
 51
179.9996641142
  0
ARC
  5
516
100
AcDbEntity
  8
0
100
AcDbCircle
 62
7
  6
BYLAYER
 10
127.4759981839
 20
196.9236492414
 40
0.5000000016
100
AcDbArc
 50
90.0000001636
 51
179.9999998161
  0
ARC
  5
517
100
AcDbEntity
  8
0
100
AcDbCircle
 62
7
  6
BYLAYER
 10
148.0759981822
 20
196.9236492414
 40
0.5000000016
100
AcDbArc
 50
0.0
 51
89.9999998298
  0
ARC
  5
518
100
AcDbEntity
  8
0
100
AcDbCircle
 62
7
  6
BYLAYER
 10
132.3259981831
 20
205.423649243
 40
0.5
100
AcDbArc
 50
179.9999999943
 51
269.9999996214
  0
ARC
  5
519
100
AcDbEntity
  8
0
100
AcDbCircle
 62
7
  6
BYLAYER
 10
159.8259981831
 20
205.423649243
 40
0.5
100
AcDbArc
 50
270.000000386
 51
359.9999999143
  0
ARC
  5
51A
100
AcDbEntity
  8
0
100
AcDbCircle
 62
7
  6
BYLAYER
 10
165.0724289469
 20
187.0917760975
 40
2.0248324107
100
AcDbArc
 50
270.1027255348
 51
0.3704394883
  0
ARC
  5
51B
100
AcDbEntity
  8
0
100
AcDbCircle
 62
7
  6
BYLAYER
 10
171.0759981865
 20
191.5236492464
 40
1.3000000041
100
AcDbArc
 50
180.0000001081
 51
269.9999998448
  0
ARC
  5
51C
100
AcDbEntity
  8
0
100
AcDbCircle
 62
7
  6
BYLAYER
 10
195.0759981797
 20
191.5236492464
 40
1.3000000041
100
AcDbArc
 50
270.0000001554
 51
359.9999999954
  0
CIRCLE
  5
51D
100
AcDbEntity
  8
0
100
AcDbCircle
 62
7
  6
BYLAYER
 10
179.0759981831
 20
181.523649243
 40
1.0999999996
  0
ARC
  5
51E
100
AcDbEntity
  8
0
100
AcDbCircle
 62
7
  6
BYLAYER
 10
205.0264124343
 20
185.5240634942
 40
1.000414337
100
AcDbArc
 50
180.0237250249
 51
269.9999509954
  0
ARC
  5
51F
100
AcDbEntity
  8
0
100
AcDbCircle
 62
7
  6
BYLAYER
 10
208.0255839319
 20
185.5240634942
 40
1.000414337
100
AcDbArc
 50
270.0237250278
 51
359.9999509951
  0
ARC
  5
520
100
AcDbEntity
  8
0
100
AcDbCircle
 62
7
  6
BYLAYER
 10
171.075998937
 20
191.5236499969
 40
1.0000007539
100
AcDbArc
 50
180.0000428083
 51
270.0000428189
  0
ARC
  5
521
100
AcDbEntity
  8
0
100
AcDbCircle
 62
7
  6
BYLAYER
 10
195.0759974292
 20
191.5236499969
 40
1.0000007539
100
AcDbArc
 50
270.000042814
 51
0.00004282
  0
ARC
  5
522
100
AcDbEntity
  8
0
100
AcDbCircle
 62
7
  6
BYLAYER
 10
182.5762053087
 20
171.0234421174
 40
0.5002071685
100
AcDbArc
 50
90.0237250157
 51
179.9762749593
  0
ARC
  5
523
100
AcDbEntity
  8
0
100
AcDbCircle
 62
7
  6
BYLAYER
 10
185.5757910575
 20
171.0234421174
 40
0.5002071685
100
AcDbArc
 50
0.0237250238
 51
89.976274983
  0
ARC
  5
524
100
AcDbEntity
  8
0
100
AcDbCircle
 62
7
  6
BYLAYER
 10
190.5762053087
 20
171.0234421174
 40
0.5002071685
100
AcDbArc
 50
90.0237250157
 51
179.9762749593
  0
ARC
  5
525
100
AcDbEntity
  8
0
100
AcDbCircle
 62
7
  6
BYLAYER
 10
193.5757910575
 20
171.0234421174
 40
0.5002071685
100
AcDbArc
 50
0.0237250238
 51
89.976274983
  0
ARC
  5
526
100
AcDbEntity
  8
0
100
AcDbCircle
 62
7
  6
BYLAYER
 10
190.5762053087
 20
186.0234421174
 40
0.5002071685
100
AcDbArc
 50
90.023725026
 51
179.9762749616
  0
ARC
  5
527
100
AcDbEntity
  8
0
100
AcDbCircle
 62
7
  6
BYLAYER
 10
190.5762053087
 20
175.0238563686
 40
0.5002071685
100
AcDbArc
 50
180.0237250386
 51
269.9762749686
  0
ARC
  5
528
100
AcDbEntity
  8
0
100
AcDbCircle
 62
7
  6
BYLAYER
 10
193.5757910575
 20
175.0238563686
 40
0.5002071685
100
AcDbArc
 50
270.0237250342
 51
359.9999510002
  0
ARC
  5
529
100
AcDbEntity
  8
0
100
AcDbCircle
 62
7
  6
BYLAYER
 10
193.5757910575
 20
186.0234421174
 40
0.5002071685
100
AcDbArc
 50
0.0237250238
 51
89.9762749659
  0
ARC
  5
52A
100
AcDbEntity
  8
0
100
AcDbCircle
 62
7
  6
BYLAYER
 10
182.5762053087
 20
186.0234421174
 40
0.5002071685
100
AcDbArc
 50
90.023725026
 51
179.9762749616
  0
ARC
  5
52B
100
AcDbEntity
  8
0
100
AcDbCircle
 62
7
  6
BYLAYER
 10
182.5762053087
 20
175.0238563686
 40
0.5002071685
100
AcDbArc
 50
180.0237250386
 51
269.9762749686
  0
ARC
  5
52C
100
AcDbEntity
  8
0
100
AcDbCircle
 62
7
  6
BYLAYER
 10
185.5757910575
 20
175.0238563686
 40
0.5002071685
100
AcDbArc
 50
270.0237250342
 51
359.9999510002
  0
ARC
  5
52D
100
AcDbEntity
  8
0
100
AcDbCircle
 62
7
  6
BYLAYER
 10
185.5757910575
 20
186.0234421174
 40
0.5002071685
100
AcDbArc
 50
0.0237250238
 51
89.9762749659
  0
ARC
  5
52E
100
AcDbEntity
  8
0
100
AcDbCircle
 62
7
  6
BYLAYER
 10
165.0759981831
 20
216.523649243
 40
2.0248324108
100
AcDbArc
 50
0.0000000821
 51
90.0000000114
  0
ARC
  5
52F
100
AcDbEntity
  8
0
100
AcDbCircle
 62
7
  6
BYLAYER
 10
189.6759981794
 20
220.5236492396
 40
1.3000000041
100
AcDbArc
 50
0.0000001033
 51
89.9999998488
  0
ARC
  5
530
100
AcDbEntity
  8
0
100
AcDbCircle
 62
7
  6
BYLAYER
 10
171.0759981865
 20
220.5236492396
 40
1.3000000041
100
AcDbArc
 50
90.0000001551
 51
179.9999998917
  0
ARC
  5
531
100
AcDbEntity
  8
0
100
AcDbCircle
 62
7
  6
BYLAYER
 10
205.0264124343
 20
205.5232349918
 40
1.000414337
100
AcDbArc
 50
90.0237250278
 51
179.9999509979
  0
ARC
  5
532
100
AcDbEntity
  8
0
100
AcDbCircle
 62
7
  6
BYLAYER
 10
208.0255839319
 20
205.5232349918
 40
1.000414337
100
AcDbArc
 50
0.0237250278
 51
89.9999510015
  0
ARC
  5
533
100
AcDbEntity
  8
0
100
AcDbCircle
 62
7
  6
BYLAYER
 10
171.075998937
 20
220.5236484891
 40
1.0000007539
100
AcDbArc
 50
90.0000428084
 51
180.0000428199
  0
ARC
  5
534
100
AcDbEntity
  8
0
100
AcDbCircle
 62
7
  6
BYLAYER
 10
195.0759974299
 20
204.7236484891
 40
1.0000007532
100
AcDbArc
 50
0.0
 51
89.9999999972
  0
ARC
  5
535
100
AcDbEntity
  8
0
100
AcDbCircle
 62
7
  6
BYLAYER
 10
189.6759974292
 20
220.5236484895
 40
1.0000007535
100
AcDbArc
 50
0.0000000143
 51
90.0000000029
  0
CIRCLE
  5
536
100
AcDbEntity
  8
0
100
AcDbCircle
 62
7
  6
BYLAYER
 10
186.5759981831
 20
214.523649243
 40
1.0
  0
CIRCLE
  5
537
100
AcDbEntity
  8
0
100
AcDbCircle
 62
7
  6
BYLAYER
 10
179.5759981831
 20
214.523649243
 40
1.0
  0
ARC
  5
538
100
AcDbEntity
  8
0
100
AcDbCircle
 62
7
  6
BYLAYER
 10
191.1759981843
 20
206.2236492438
 40
0.5000000016
100
AcDbArc
 50
180.0000001632
 51
269.9999997422
  0
SPLINE
  5
539
100
AcDbEntity
  8
0
100
AcDbSpline
 62
7
  6
BYLAYER
 70
0
 71
3
 72
12
 73
8
 74
0
 42
0.0000001
 43
0.0000001
 44
0.0000000001
 40
0.0
 40
0.0
 40
0.0
 40
0.0
 40
0.4174357351
 40
0.6154383664
 40
0.90623743
 40
0.9531187149
 40
1.0
 40
1.0
 40
1.0
 40
1.0
 10
52.4489049565
 20
138.2415926932
 30
0.0
 10
52.5378279135
 20
138.2081229485
 30
0.0
 10
52.6513488532
 20
138.1248733713
 30
0.0
 10
52.7534275396
 20
137.9674303628
 30
0.0
 10
52.7802016233
 20
137.8763282937
 30
0.0
 10
52.7872665709
 20
137.8139787
 30
0.0
 10
52.7881793289
 20
137.7981767899
 30
0.0
 10
52.7884022574
 20
137.7907036696
 30
0.0
  0
SPLINE
  5
53A
100
AcDbEntity
  8
0
100
AcDbSpline
 62
7
  6
BYLAYER
 70
0
 71
3
 72
17
 73
13
 74
0
 42
0.0000001
 43
0.0000001
 44
0.0000000001
 40
0.0
 40
0.0
 40
0.0
 40
0.0
 40
0.005729865
 40
0.0204543894
 40
0.0444248614
 40
0.0775258
 40
0.1700042376
 40
0.2941349366
 40
0.4453426502
 40
0.6179904078
 40
0.8056635839
 40
1.0
 40
1.0
 40
1.0
 40
1.0
 10
96.2259981838
 20
229.9202538713
 30
0.0
 10
96.2259981838
 20
229.9221673723
 30
0.0
 10
96.2351492028
 20
229.9243591482
 30
0.0
 10
96.2474314882
 20
229.9270549784
 30
0.0
 10
96.2725200025
 20
229.9298224927
 30
0.0
 10
96.3215396494
 20
229.9340421721
 30
0.0
 10
96.4053666675
 20
229.9384881257
 30
0.0
 10
96.527868435
 20
229.9430252952
 30
0.0
 10
96.6775216353
 20
229.9467461186
 30
0.0
 10
96.8482963219
 20
229.9495560121
 30
0.0
 10
97.0335280341
 20
229.9512713885
 30
0.0
 10
97.1610991094
 20
229.9516669323
 30
0.0
 10
97.2259981837
 20
229.9516669323
 30
0.0
  0
SPLINE
  5
53B
100
AcDbEntity
  8
0
100
AcDbSpline
 62
7
  6
BYLAYER
 70
0
 71
3
 72
17
 73
13
 74
0
 42
0.0000001
 43
0.0000001
 44
0.0000000001
 40
0.0
 40
0.0
 40
0.0
 40
0.0
 40
0.1943364161
 40
0.3820095922
 40
0.5546573499
 40
0.7058650634
 40
0.8299957624
 40
0.9224742
 40
0.9555751386
 40
0.9795456106
 40
0.994270135
 40
1.0
 40
1.0
 40
1.0
 40
1.0
 10
120.9259981834
 20
229.9516669323
 30
0.0
 10
120.9908972577
 20
229.9516669323
 30
0.0
 10
121.118468333
 20
229.9512713885
 30
0.0
 10
121.3037000451
 20
229.9495560121
 30
0.0
 10
121.4744747317
 20
229.9467461186
 30
0.0
 10
121.624127932
 20
229.9430252952
 30
0.0
 10
121.7466296995
 20
229.9384881257
 30
0.0
 10
121.8304567176
 20
229.9340421721
 30
0.0
 10
121.8794763645
 20
229.9298224927
 30
0.0
 10
121.9045648788
 20
229.9270549784
 30
0.0
 10
121.9168471641
 20
229.9243591482
 30
0.0
 10
121.9259981831
 20
229.9221673723
 30
0.0
 10
121.9259981831
 20
229.9202538713
 30
0.0
  0
SPLINE
  5
53C
100
AcDbEntity
  8
0
100
AcDbSpline
 62
7
  6
BYLAYER
 70
0
 71
3
 72
16
 73
12
 74
0
 42
0.0000001
 43
0.0000001
 44
0.0000000001
 40
0.0
 40
0.0
 40
0.0
 40
0.0
 40
0.3763204927
 40
0.5469917031
 40
0.6972092148
 40
0.8215305605
 40
0.9155318936
 40
0.949925654
 40
0.9755326792
 40
0.9922104945
 40
1.0
 40
1.0
 40
1.0
 40
1.0
 10
193.6960620814
 20
103.5107921002
 30
0.0
 10
193.821631562
 20
103.5107920498
 30
0.0
 10
194.0041583104
 20
103.5097699676
 30
0.0
 10
194.2367618141
 20
103.506016235
 30
0.0
 10
194.3853017407
 20
103.5024090573
 30
0.0
 10
194.5081280968
 20
103.4979506058
 30
0.0
 10
194.5925044081
 20
103.4936870767
 30
0.0
 10
194.6435166375
 20
103.489458487
 30
0.0
 10
194.6693416572
 20
103.4869464525
 30
0.0
 10
194.6850861669
 20
103.4837834277
 30
0.0
 10
194.6939558814
 20
103.4821794492
 30
0.0
 10
194.6956198097
 20
103.4801826838
 30
0.0
  0
SPLINE
  5
53D
100
AcDbEntity
  8
0
100
AcDbSpline
 62
7
  6
BYLAYER
 70
0
 71
3
 72
18
 73
14
 74
0
 42
0.0000001
 43
0.0000001
 44
0.0000000001
 40
0.0
 40
0.0
 40
0.0
 40
0.0
 40
0.1915608723
 40
0.376348396
 40
0.5469175896
 40
0.6971637066
 40
0.8216033698
 40
0.8726126871
 40
0.915537603
 40
0.9499651112
 40
0.9755692071
 40
0.9922216089
 40
1.0
 40
1.0
 40
1.0
 40
1.0
 10
60.430102524
 20
99.5107921003
 30
0.0
 10
60.3022555815
 20
99.5107920895
 30
0.0
 10
60.0510811701
 20
99.5100342217
 30
0.0
 10
59.6860850448
 20
99.5066858466
 30
0.0
 10
59.3486833499
 20
99.5012624334
 30
0.0
 10
59.0516217907
 20
99.4939622884
 30
0.0
 10
58.8343484917
 20
99.4862802744
 30
0.0
 10
58.6888365943
 20
99.4790261853
 30
0.0
 10
58.6032106913
 20
99.4738076584
 30
0.0
 10
58.5350302993
 20
99.468138349
 30
0.0
 10
58.4833699355
 20
99.4631189445
 30
0.0
 10
58.4518984071
 20
99.4568011982
 30
0.0
 10
58.4341967833
 20
99.453564712
 30
0.0
 10
58.4308749302
 20
99.4495754089
 30
0.0
  0
SPLINE
  5
53E
100
AcDbEntity
  8
0
100
AcDbSpline
 62
7
  6
BYLAYER
 70
0
 71
3
 72
14
 73
10
 74
0
 42
0.0000001
 43
0.0000001
 44
0.0000000001
 40
0.0
 40
0.0
 40
0.0
 40
0.0
 40
0.0190207745
 40
0.071353045
 40
0.1567974639
 40
0.2738809197
 40
0.4198973669
 40
0.5919563492
 40
1.0
 40
1.0
 40
1.0
 40
1.0
 10
95.725998168
 20
227.9366382828
 30
0.0
 10
95.725978879
 20
227.9396576931
 30
0.0
 10
95.7426402566
 20
227.9405913082
 30
0.0
 10
95.7622373509
 20
227.9451289532
 30
0.0
 10
95.805408606
 20
227.9474304646
 30
0.0
 10
95.8594463725
 20
227.9508017556
 30
0.0
 10
95.9289226423
 20
227.9534587094
 30
0.0
 10
96.0439358627
 20
227.9570139279
 30
0.0
 10
96.1361005731
 20
227.9587028871
 30
0.0
 10
96.2008695506
 20
227.9596077626
 30
0.0
  0
SPLINE
  5
53F
100
AcDbEntity
  8
0
100
AcDbSpline
 62
7
  6
BYLAYER
 70
0
 71
3
 72
14
 73
10
 74
0
 42
0.0000001
 43
0.0000001
 44
0.0000000001
 40
0.0
 40
0.0
 40
0.0
 40
0.0
 40
0.407994041
 40
0.5800349042
 40
0.726041223
 40
0.8431308021
 40
0.9286034788
 40
0.9809693231
 40
1.0
 40
1.0
 40
1.0
 40
1.0
 10
121.9511210285
 20
227.9596078447
 30
0.0
 10
122.0158827745
 20
227.9587030927
 30
0.0
 10
122.1080377868
 20
227.9570144554
 30
0.0
 10
122.2230394852
 20
227.9534598044
 30
0.0
 10
122.2925136871
 20
227.9508034572
 30
0.0
 10
122.3465536468
 20
227.9474319077
 30
0.0
 10
122.3897422882
 20
227.945132416
 30
0.0
 10
122.4093384612
 20
227.9405923027
 30
0.0
 10
122.4260213696
 20
227.9396632997
 30
0.0
 10
122.4259982137
 20
227.9366423146
 30
0.0
  0
SPLINE
  5
540
100
AcDbEntity
  8
0
100
AcDbSpline
 62
7
  6
BYLAYER
 70
0
 71
3
 72
11
 73
7
 74
0
 42
0.0000001
 43
0.0000001
 44
0.0000000001
 40
0.0
 40
0.0
 40
0.0
 40
0.0
 40
0.2500254307
 40
0.5000000233
 40
0.7499745506
 40
1.0
 40
1.0
 40
1.0
 40
1.0
 10
47.0955568242
 20
133.1263512084
 30
0.0
 10
47.0942978658
 20
133.2456257307
 30
0.0
 10
47.0483086635
 20
133.4868149034
 30
0.0
 10
46.8434525917
 20
133.7913663754
 30
0.0
 10
46.5388145255
 20
133.9961172186
 30
0.0
 10
46.2976076604
 20
134.0419676735
 30
0.0
 10
46.1783329333
 20
134.0432079394
 30
0.0
  0
SPLINE
  5
541
100
AcDbEntity
  8
0
100
AcDbSpline
 62
7
  6
BYLAYER
 70
0
 71
3
 72
9
 73
5
 74
0
 42
0.0000001
 43
0.0000001
 44
0.0000000001
 40
0.0
 40
0.0
 40
0.0
 40
0.0
 40
0.4858413803
 40
1.0
 40
1.0
 40
1.0
 40
1.0
 10
213.5564394869
 20
108.5407403793
 30
0.0
 10
213.5492187111
 20
108.0337129623
 30
0.0
 10
213.3686375422
 20
106.986641464
 30
0.0
 10
212.8745178725
 20
106.0455952704
 30
0.0
 10
212.5569329989
 20
105.6130264496
 30
0.0
  0
SPLINE
  5
542
100
AcDbEntity
  8
0
100
AcDbSpline
 62
7
  6
BYLAYER
 70
0
 71
3
 72
9
 73
5
 74
0
 42
0.0000001
 43
0.0000001
 44
0.0000000001
 40
0.0
 40
0.0
 40
0.0
 40
0.0
 40
0.3286331169
 40
1.0
 40
1.0
 40
1.0
 40
1.0
 10
212.5569329989
 20
222.5045059025
 30
0.0
 10
212.6664246565
 20
222.6139975889
 30
0.0
 10
213.0000436799
 20
222.9467242977
 30
0.0
 10
213.3327088394
 20
223.2804051306
 30
0.0
 10
213.5564394869
 20
223.5040370706
 30
0.0
  0
SPLINE
  5
543
100
AcDbEntity
  8
0
100
AcDbSpline
 62
7
  6
BYLAYER
 70
0
 71
3
 72
14
 73
10
 74
0
 42
0.0000001
 43
0.0000001
 44
0.0000000001
 40
0.0
 40
0.0
 40
0.0
 40
0.0
 40
0.0190306769
 40
0.0713965212
 40
0.1568691978
 40
0.2739587769
 40
0.4199650958
 40
0.592005959
 40
1.0
 40
1.0
 40
1.0
 40
1.0
 10
122.4259982137
 20
229.9356552906
 30
0.0
 10
122.4260213696
 20
229.9386762757
 30
0.0
 10
122.4093384612
 20
229.9396052787
 30
0.0
 10
122.3897422882
 20
229.944145392
 30
0.0
 10
122.3465536468
 20
229.9464448837
 30
0.0
 10
122.2925136871
 20
229.9498164332
 30
0.0
 10
122.2230394853
 20
229.9524727804
 30
0.0
 10
122.1080377868
 20
229.9560274314
 30
0.0
 10
122.0158827745
 20
229.9577160688
 30
0.0
 10
121.9511210285
 20
229.9586208208
 30
0.0
  0
SPLINE
  5
544
100
AcDbEntity
  8
0
100
AcDbSpline
 62
7
  6
BYLAYER
 70
0
 71
3
 72
14
 73
10
 74
0
 42
0.0000001
 43
0.0000001
 44
0.0000000001
 40
0.0
 40
0.0
 40
0.0
 40
0.0
 40
0.4080685087
 40
0.5801362108
 40
0.72615732
 40
0.8432379923
 40
0.928669757
 40
0.9809862436
 40
1.0
 40
1.0
 40
1.0
 40
1.0
 10
96.2008666662
 20
229.9586206978
 30
0.0
 10
96.1360940534
 20
229.9577157607
 30
0.0
 10
96.0439244575
 20
229.9560266297
 30
0.0
 10
95.9289057173
 20
229.9524711594
 30
0.0
 10
95.8594281393
 20
229.949813819
 30
0.0
 10
95.8053921595
 20
229.9464428425
 30
0.0
 10
95.7622269794
 20
229.9441398671
 30
0.0
 10
95.7426332343
 20
229.9396043885
 30
0.0
 10
95.7259789017
 20
229.9386675248
 30
0.0
 10
95.7259981835
 20
229.935649243
 30
0.0
  0
SPLINE
  5
545
100
AcDbEntity
  8
0
100
AcDbSpline
 62
7
  6
BYLAYER
 70
0
 71
3
 72
9
 73
5
 74
0
 42
0.0000001
 43
0.0000001
 44
0.0000000001
 40
0.0
 40
0.0
 40
0.0
 40
0.0
 40
0.5141471748
 40
1.0
 40
1.0
 40
1.0
 40
1.0
 10
211.4866191531
 20
104.5427144272
 30
0.0
 10
211.0540599195
 20
104.2251369045
 30
0.0
 10
210.1130194431
 20
103.7310085376
 30
0.0
 10
209.0659462822
 20
103.5504288834
 30
0.0
 10
208.558907047
 20
103.5432079392
 30
0.0
  0
SPLINE
  5
546
100
AcDbEntity
  8
0
100
AcDbSpline
 62
7
  6
BYLAYER
 70
0
 71
3
 72
14
 73
10
 74
0
 42
0.0000001
 43
0.0000001
 44
0.0000000001
 40
0.0
 40
0.0
 40
0.0
 40
0.0
 40
0.3753358652
 40
0.5456382965
 40
0.695640921
 40
0.8199760034
 40
0.9142968576
 40
0.974942563
 40
1.0
 40
1.0
 40
1.0
 40
1.0
 10
47.0955568732
 20
100.058380557
 30
0.0
 10
47.0955569984
 20
99.995775058
 30
0.0
 10
47.0950990912
 20
99.9047400903
 30
0.0
 10
47.0932714815
 20
99.7887732665
 30
0.0
 10
47.0917280679
 20
99.7145007429
 30
0.0
 10
47.0892038252
 20
99.6533968563
 30
0.0
 10
47.0880457217
 20
99.605991117
 30
0.0
 10
47.0835212839
 20
99.5777340067
 30
0.0
 10
47.0840841337
 20
99.5615560734
 30
0.0
 10
47.081163193
 20
99.558566641
 30
0.0
  0
SPLINE
  5
547
100
AcDbEntity
  8
0
100
AcDbSpline
 62
7
  6
BYLAYER
 70
0
 71
3
 72
9
 73
5
 74
0
 42
0.0000001
 43
0.0000001
 44
0.0000000001
 40
0.0
 40
0.0
 40
0.0
 40
0.0
 40
0.5000478483
 40
1.0
 40
1.0
 40
1.0
 40
1.0
 10
46.0760202777
 20
133.3849249637
 30
0.0
 10
46.2253821975
 20
133.2967382005
 30
0.0
 10
46.4848182795
 20
133.0393779817
 30
0.0
 10
46.5741869014
 20
132.6859510704
 30
0.0
 10
46.5759982264
 20
132.5125408829
 30
0.0
  0
SPLINE
  5
548
100
AcDbEntity
  8
0
100
AcDbSpline
 62
7
  6
BYLAYER
 70
0
 71
3
 72
9
 73
5
 74
0
 42
0.0000001
 43
0.0000001
 44
0.0000000001
 40
0.0
 40
0.0
 40
0.0
 40
0.0
 40
0.3286510654
 40
1.0
 40
1.0
 40
1.0
 40
1.0
 10
27.595069449
 20
222.5044846216
 30
0.0
 10
27.4855780342
 20
222.6139801205
 30
0.0
 10
27.1528510453
 20
222.947573342
 30
0.0
 10
26.8191883129
 20
223.2802310846
 30
0.0
 10
26.5955839601
 20
223.5039602141
 30
0.0
  0
ELLIPSE
  5
549
100
AcDbEntity
  8
0
100
AcDbEllipse
 62
7
  6
BYLAYER
 10
115.4259981831
 20
229.685643124
 30
0.0
 11
2.0
 21
0.0
 31
0.0
 40
0.0314130633
 41
-1.5707963267
 42
0.0
  0
ELLIPSE
  5
54A
100
AcDbEntity
  8
0
100
AcDbEllipse
 62
7
  6
BYLAYER
 10
102.7259981831
 20
229.685643124
 30
0.0
 11
2.0
 21
0.0
 31
0.0
 40
0.0314130633
 41
-3.1415926536
 42
-1.5707963269
  0
ELLIPSE
  5
54B
100
AcDbEntity
  8
0
100
AcDbEllipse
 62
7
  6
BYLAYER
 10
193.794537728
 20
103.4639016857
 30
0.0
 11
1.0000039766
 21
0.0
 31
0.0
 40
0.0301204819
 41
0.2519851132
 42
1.5707924534
  0
ELLIPSE
  5
54C
100
AcDbEntity
  8
0
100
AcDbEllipse
 62
7
  6
BYLAYER
 10
209.0735294049
 20
108.0261180212
 30
0.0
 11
-3.5390244245
 21
3.5390244245
 31
0.0
 40
0.999013706
 41
-2.8519128491
 42
-2.3566878805
  0
ELLIPSE
  5
54D
100
AcDbEntity
  8
0
100
AcDbEllipse
 62
7
  6
BYLAYER
 10
209.0735294049
 20
108.0261180212
 30
0.0
 11
-3.5390244245
 21
3.5390244245
 31
0.0
 40
0.999013706
 41
2.3566878805
 42
2.8519124219
  0
ELLIPSE
  5
54E
100
AcDbEntity
  8
0
100
AcDbEllipse
 62
7
  6
BYLAYER
 10
209.0735294049
 20
108.0261180212
 30
0.0
 11
3.5390244245
 21
-3.5390244245
 31
0.0
 40
0.999013706
 41
-0.2896802317
 42
0.2896798045
  0
ENDSEC
  0
SECTION
  2
OBJECTS
  0
DICTIONARY
  5
C
100
AcDbDictionary
280
0
281
1
  3
ACAD_GROUP
350
D
  3
ACAD_MLINESTYLE
350
17
  3
ACAD_LAYOUT
350
1A
  3
ACAD_PLOTSETTINGS
350
19
  3
ACAD_PLOTSTYLENAME
350
E
  0
DICTIONARY
  5
D
102
{ACAD_REACTORS
330
C
102
}
100
AcDbDictionary
280
0
281
1
  0
ACDBDICTIONARYWDFLT
  5
E
102
{ACAD_REACTORS
330
C
102
}
100
AcDbDictionary
281
1
  3
Normal
350
F
100
AcDbDictionaryWithDefault
340
F
  0
DICTIONARY
  5
17
102
{ACAD_REACTORS
330
C
102
}
100
AcDbDictionary
280
0
281
1
  3
Standard
350
18
  0
DICTIONARY
  5
19
102
{ACAD_REACTORS
330
C
102
}
100
AcDbDictionary
281
1
  0
DICTIONARY
  5
1A
102
{ACAD_REACTORS
330
C
102
}
100
AcDbDictionary
281
1
  3
Model
350
54F
  3
Layout1
350
550
  0
ACDBPLACEHOLDER
  5
F
102
{ACAD_REACTORS
330
E
102
}
  0
MLINESTYLE
  5
18
102
{ACAD_REACTORS
330
17
102
}
100
AcDbMlineStyle
  2
STANDARD
 70
0
  3

 62
256
 51
90.0
 52
90.0
 71
2
 49
0.5
 62
256
  6
BYLAYER
 49
-0.5
 62
256
  6
BYLAYER
  0
LAYOUT
  5
54F
102
{ACAD_REACTORS
330
1A
102
}
100
AcDbPlotSettings
  1

  2
none_device
  4

  6

 40
0.0
 41
0.0
 42
0.0
 43
0.0
 44
210.0
 45
297.0
 46
0.0
 47
0.0
 48
0.0
 49
0.0
140
0.0
141
0.0
142
1.0
143
1.0
 70
1024
 72
1
 73
0
 74
0
  7

 75
0
147
1.0
148
0.0
149
0.0
100
AcDbLayout
  1
Model
 70
0
 71
0
 10
0.0
 20
0.0
 11
210.0
 21
297.0
 12
0.0
 22
0.0
 32
0.0
 14
0.0
 24
0.0
 34
0.0
 15
0.0
 25
0.0
 35
0.0
146
0.0
 13
0.0
 23
0.0
 33
0.0
 16
1.0
 26
0.0
 36
0.0
 17
0.0
 27
1.0
 37
0.0
 76
0
330
210
345
0
346
0
  0
LAYOUT
  5
550
102
{ACAD_REACTORS
330
1A
102
}
100
AcDbPlotSettings
  1

  2
none_device
  4

  6

 40
0.0
 41
0.0
 42
0.0
 43
0.0
 44
210.0
 45
297.0
 46
0.0
 47
0.0
 48
0.0
 49
0.0
140
0.0
141
0.0
142
1.0
143
1.0
 70
0
 72
1
 73
0
 74
0
  7

 75
0
147
1.0
148
0.0
149
0.0
100
AcDbLayout
  1
Layout1
 70
0
 71
1
 10
0.0
 20
0.0
 11
210.0
 21
297.0
 12
0.0
 22
0.0
 32
0.0
 14
0.0
 24
0.0
 34
0.0
 15
0.0
 25
0.0
 35
0.0
146
0.0
 13
0.0
 23
0.0
 33
0.0
 16
1.0
 26
0.0
 36
0.0
 17
0.0
 27
1.0
 37
0.0
 76
0
330
211
345
0
346
0
  0
ENDSEC
  0
EOF
