999
DXF file: C:\Users\sesa63760\Dev\_Creo\CAD\MCADID0003700_3D-CAD\drw0001_1.dxf
999
Pro/ENGINEER 2019471 by Parametric Technology Corporation
  0
SECTION
  2
HEADER
  9
$ACADVER
  1
AC1024
  9
$DWGCODEPAGE
  3
ANSI_1252
  9
$EXTMAX
 10
73.7932014444
 20
104.3646706143
 30
0.0
  9
$EXTMIN
 10
0.0
 20
0.0
 30
0.0
  9
$LIMMIN
 10
0.0
 20
0.0
  9
$LIMMAX
 10
73.7932014444
 20
104.3646706143
  9
$VIEWCTR
 10
36.8966007222
 20
52.1823353071
  9
$VIEWSIZE
 40
104.3646706143
  9
$CLAYER
  8
0
  9
$LTSCALE
 40
6.8030303808
  9
$CELTYPE
  6
BYLAYER
  9
$DIMSCALE
 40
1.0
  9
$DIMASZ
 40
0.8784904934
  9
$DIMEXO
 40
1.0
  9
$DIMDLI
 40
4.7002755358
  9
$DIMEXE
 40
1.0
  9
$DIMCEN
 40
1.1132231532
  9
$DIMLFAC
 40
1.0
  9
$DIMBLK
  1
_FILLED
  9
$DIMALT
 70
0
  9
$DIMALTF
 40
0.0393700787
  9
$DIMTXT
 40
1.2298866907
  9
$DIMTOL
 70
1
  9
$DIMLIM
 70
0
  9
$DIMTFAC
 40
1.0
  9
$DIMTP
 40
0.01
  9
$DIMTM
 40
0.01
  9
$DIMGAP
 40
0.625
  9
$DIMDSEP
 70
46
  9
$AUNITS
 70
0
  9
$PDMODE
 70
3
  9
$PDSIZE
 40
0.3125
  9
$HANDSEED
  5
293
  9
$TILEMODE
 70
1
  9
$MEASUREMENT
 70
1
  9
$INSUNITS
 70
4
  0
ENDSEC
  0
SECTION
  2
CLASSES
  0
CLASS
  1
ACDBDICTIONARYWDFLT
  2
AcDbDictionaryWithDefault
  3
AutoCAD 2000
 90
0
 91
1
280
0
281
0
  0
CLASS
  1
ACDBPLACEHOLDER
  2
AcDbPlaceHolder
  3
AutoCAD 2000
 90
0
 91
1
280
0
281
0
  0
CLASS
  1
LAYOUT
  2
AcDbLayout
  3
AutoCAD 2000
 90
0
 91
0
280
0
281
0
  0
ENDSEC
  0
SECTION
  2
TABLES
  0
TABLE
  2
VPORT
  5
8
100
AcDbSymbolTable
 70
2
  0
VPORT
  5
1F4
100
AcDbSymbolTableRecord
100
AcDbViewportTableRecord
  2
*ACTIVE
 70
0
 10
0.0
 20
0.0
 11
1.0
 21
1.0
 12
36.8966007222
 22
52.1823353071
 13
0.0
 23
0.0
 14
1.0
 24
1.0
 15
0.0
 25
0.0
 16
0.0
 26
0.0
 36
1.0
 17
0.0
 27
0.0
 37
0.0
 40
104.3646706143
 41
0.7070707071
 42
50.0
 43
0.0
 44
0.0
 50
0.0
 51
0.0
 71
0
 72
100
 73
1
 74
1
 75
0
 76
0
 77
0
 78
0
  0
ENDTAB
  0
TABLE
  2
LTYPE
  5
5
100
AcDbSymbolTable
 70
6
  0
LTYPE
  5
14
100
AcDbSymbolTableRecord
100
AcDbLinetypeTableRecord
  2
BYBLOCK
 70
0
  3

 72
65
 73
0
 40
0.0
  0
LTYPE
  5
15
100
AcDbSymbolTableRecord
100
AcDbLinetypeTableRecord
  2
BYLAYER
 70
0
  3

 72
65
 73
0
 40
0.0
  0
LTYPE
  5
16
100
AcDbSymbolTableRecord
100
AcDbLinetypeTableRecord
  2
CONTINUOUS
 70
64
  3
Solid line
 72
65
 73
0
 40
0.0
  0
LTYPE
  5
1F5
100
AcDbSymbolTableRecord
100
AcDbLinetypeTableRecord
  2
CENTER
 70
64
  3
____ _ ____ _ ____ _ ____ _ ____ _ ____ _ ____
 72
65
 73
4
 40
0.6
 49
0.375
 74
0
 49
-0.075
 74
0
 49
0.075
 74
0
 49
-0.075
 74
0
  0
LTYPE
  5
1F6
100
AcDbSymbolTableRecord
100
AcDbLinetypeTableRecord
  2
HIDDEN
 70
64
  3
- - - - - - - - - - - - - - - - - - - -
 72
65
 73
2
 40
0.2
 49
0.1
 74
0
 49
-0.1
 74
0
  0
LTYPE
  5
1F7
100
AcDbSymbolTableRecord
100
AcDbLinetypeTableRecord
  2
PHANTOM
 70
64
  3
_____ _ _ _____ _ _ _____ _ _ _____
 72
65
 73
6
 40
0.8
 49
0.45
 74
0
 49
-0.05
 74
0
 49
0.1
 74
0
 49
-0.05
 74
0
 49
0.1
 74
0
 49
-0.05
 74
0
  0
LTYPE
  5
1F8
100
AcDbSymbolTableRecord
100
AcDbLinetypeTableRecord
  2
DOT
 70
64
  3
. . . . . . . . . . . . . . . . . . . .
 72
65
 73
2
 40
0.2
 49
0.1
 74
0
 49
-0.1
 74
0
  0
LTYPE
  5
1F9
100
AcDbSymbolTableRecord
100
AcDbLinetypeTableRecord
  2
DASHED
 70
64
  3
- - - - - - - - - - - - - - - - - - - -
 72
65
 73
2
 40
0.2
 49
0.1
 74
0
 49
-0.1
 74
0
  0
ENDTAB
  0
TABLE
  2
LAYER
  5
2
100
AcDbSymbolTable
 70
36
  0
LAYER
  5
10
100
AcDbSymbolTableRecord
100
AcDbLayerTableRecord
  2
0
 70
0
 62
7
  6
CONTINUOUS
370
-3
390
F
  0
LAYER
  5
1FA
100
AcDbSymbolTableRecord
100
AcDbLayerTableRecord
  2
DEFAULT_1
 70
0
 62
7
  6
CENTER
370
-3
390
F
  0
LAYER
  5
1FB
100
AcDbSymbolTableRecord
100
AcDbLayerTableRecord
  2
DEFAULT_2
 70
0
 62
7
  6
HIDDEN
370
-3
390
F
  0
LAYER
  5
1FC
100
AcDbSymbolTableRecord
100
AcDbLayerTableRecord
  2
DEFAULT_3
 70
0
 62
7
  6
PHANTOM
370
-3
390
F
  0
LAYER
  5
1FD
100
AcDbSymbolTableRecord
100
AcDbLayerTableRecord
  2
00_COMPONENTS
 70
0
 62
7
  6
CONTINUOUS
370
-3
390
F
  0
LAYER
  5
1FE
100
AcDbSymbolTableRecord
100
AcDbLayerTableRecord
  2
01_1_DEFAULT_DATUMS
 70
0
 62
7
  6
CONTINUOUS
370
-3
390
F
  0
LAYER
  5
1FF
100
AcDbSymbolTableRecord
100
AcDbLayerTableRecord
  2
01_PLANES
 70
0
 62
7
  6
CONTINUOUS
370
-3
390
F
  0
LAYER
  5
200
100
AcDbSymbolTableRecord
100
AcDbLayerTableRecord
  2
02_COORD_SYS
 70
0
 62
7
  6
CONTINUOUS
370
-3
390
F
  0
LAYER
  5
201
100
AcDbSymbolTableRecord
100
AcDbLayerTableRecord
  2
03_AXES
 70
0
 62
7
  6
CONTINUOUS
370
-3
390
F
  0
LAYER
  5
202
100
AcDbSymbolTableRecord
100
AcDbLayerTableRecord
  2
04_POINTS
 70
0
 62
7
  6
CONTINUOUS
370
-3
390
F
  0
LAYER
  5
203
100
AcDbSymbolTableRecord
100
AcDbLayerTableRecord
  2
05_CURVES
 70
0
 62
7
  6
CONTINUOUS
370
-3
390
F
  0
LAYER
  5
204
100
AcDbSymbolTableRecord
100
AcDbLayerTableRecord
  2
06_SURFS
 70
0
 62
7
  6
CONTINUOUS
370
-3
390
F
  0
LAYER
  5
205
100
AcDbSymbolTableRecord
100
AcDbLayerTableRecord
  2
07_COSMETICS
 70
0
 62
7
  6
CONTINUOUS
370
-3
390
F
  0
LAYER
  5
206
100
AcDbSymbolTableRecord
100
AcDbLayerTableRecord
  2
1
 70
0
 62
7
  6
CONTINUOUS
370
-3
390
F
  0
LAYER
  5
207
100
AcDbSymbolTableRecord
100
AcDbLayerTableRecord
  2
10_NOTES
 70
0
 62
7
  6
CONTINUOUS
370
-3
390
F
  0
LAYER
  5
208
100
AcDbSymbolTableRecord
100
AcDbLayerTableRecord
  2
11_NOTES_PUB
 70
0
 62
7
  6
CONTINUOUS
370
-3
390
F
  0
LAYER
  5
209
100
AcDbSymbolTableRecord
100
AcDbLayerTableRecord
  2
13_REF_GTOL
 70
0
 62
7
  6
CONTINUOUS
370
-3
390
F
  0
LAYER
  5
20A
100
AcDbSymbolTableRecord
100
AcDbLayerTableRecord
  2
16_MISC
 70
0
 62
7
  6
CONTINUOUS
370
-3
390
F
  0
LAYER
  5
20B
100
AcDbSymbolTableRecord
100
AcDbLayerTableRecord
  2
17_NO_PRINT
 70
0
 62
7
  6
CONTINUOUS
370
-3
390
F
  0
LAYER
  5
20C
100
AcDbSymbolTableRecord
100
AcDbLayerTableRecord
  2
18_DATUM_CAMS_JOINTS
 70
0
 62
7
  6
CONTINUOUS
370
-3
390
F
  0
LAYER
  5
20D
100
AcDbSymbolTableRecord
100
AcDbLayerTableRecord
  2
19_DATUM_FUNCTIONAL
 70
0
 62
7
  6
CONTINUOUS
370
-3
390
F
  0
LAYER
  5
20E
100
AcDbSymbolTableRecord
100
AcDbLayerTableRecord
  2
20_DATUM_KINEMATIC_SCHEME
 70
0
 62
7
  6
CONTINUOUS
370
-3
390
F
  0
LAYER
  5
20F
100
AcDbSymbolTableRecord
100
AcDbLayerTableRecord
  2
INTFCLR_3474
 70
0
 62
7
  6
CONTINUOUS
370
-3
390
F
  0
ENDTAB
  0
TABLE
  2
STYLE
  5
3
100
AcDbSymbolTable
 70
1
  0
STYLE
  5
11
100
AcDbSymbolTableRecord
100
AcDbTextStyleTableRecord
  2
STANDARD
 70
0
 40
0.0
 41
1.0
 50
0.0
 71
0
 42
0.2
  3
ARIAL.TTF
  4

  0
STYLE
  5
210
100
AcDbSymbolTableRecord
100
AcDbTextStyleTableRecord
  2
TEXTSTYLE_1
 70
0
 40
0.0
 41
0.8
 50
0.0
 71
0
 42
0.2
  3
gdt
  4

  0
ENDTAB
  0
TABLE
  2
VIEW
  5
6
100
AcDbSymbolTable
 70
0
  0
ENDTAB
  0
TABLE
  2
UCS
  5
7
100
AcDbSymbolTable
 70
0
  0
ENDTAB
  0
TABLE
  2
APPID
  5
9
100
AcDbSymbolTable
 70
1
  0
APPID
  5
211
100
AcDbSymbolTableRecord
100
AcDbRegAppTableRecord
  2
ACAD
 70
0
  0
ENDTAB
  0
TABLE
  2
BLOCK_RECORD
  5
1
100
AcDbSymbolTable
 70
0
  0
BLOCK_RECORD
  5
212
100
AcDbSymbolTableRecord
100
AcDbBlockTableRecord
  2
*Model_Space
  0
BLOCK_RECORD
  5
213
100
AcDbSymbolTableRecord
100
AcDbBlockTableRecord
  2
*Paper_Space
  0
BLOCK_RECORD
  5
214
100
AcDbSymbolTableRecord
100
AcDbBlockTableRecord
  2
_FILLED
  0
ENDTAB
  0
TABLE
  2
DIMSTYLE
  5
A
100
AcDbSymbolTable
 70
1
100
AcDbDimStyleTable
 71
0
  0
DIMSTYLE
105
215
100
AcDbSymbolTableRecord
100
AcDbDimStyleTableRecord
  2
STANDARD
 70
0
  3

  4

 40
1.0
 41
0.8784904934
 42
1.0
 43
0.38
 44
1.0
 45
0.0
 46
0.0
 47
0.01
 48
0.01
140
1.2298866907
141
0.09
142
0.0
143
25.4
144
1.0
145
0.0
146
1.0
147
0.625
 71
1
 72
0
 73
0
 74
0
 75
0
 76
0
 77
1
 78
8
 79
2
170
0
171
1
172
0
173
0
174
0
175
0
176
0
177
0
178
0
270
2
179
2
271
2
272
2
273
2
274
2
275
0
280
0
281
0
282
0
283
1
284
8
285
0
286
0
287
3
288
0
340
11
278
46
341
214
342
214
343
214
344
214
  0
ENDTAB
  0
ENDSEC
  0
SECTION
  2
BLOCKS
  0
BLOCK
  5
20
100
AcDbEntity
  8
0
100
AcDbBlockBegin
  2
*Model_Space
 70
0
 10
0.0
 20
0.0
 30
0.0
  3
*Model_Space
  1

  0
ENDBLK
  5
21
100
AcDbEntity
  8
0
100
AcDbBlockEnd
  0
BLOCK
  5
1C
100
AcDbEntity
  8
0
100
AcDbBlockBegin
  2
*Paper_Space
 70
0
 10
0.0
 20
0.0
 30
0.0
  3
*Paper_Space
  1

  0
ENDBLK
  5
1D
100
AcDbEntity
  8
0
100
AcDbBlockEnd
  0
BLOCK
  5
216
100
AcDbEntity
  8
0
100
AcDbBlockBegin
  2
_FILLED
 70
64
 10
0.0
 20
0.0
  3
_FILLED
  1

  0
SOLID
  5
217
100
AcDbEntity
  8
0
  6
BYBLOCK
 62
0
100
AcDbTrace
 10
0.0
 20
0.0
 11
-1.0
 21
0.25
 12
-1.0
 22
-0.25
 13
-1.0
 23
-0.25
  0
ENDBLK
  5
218
100
AcDbEntity
  8
0
  6
BYBLOCK
 62
0
100
AcDbBlockEnd
  0
ENDSEC
  0
SECTION
  2
ENTITIES
  0
LINE
  5
219
100
AcDbEntity
  8
1
100
AcDbLine
 62
7
  6
BYLAYER
 10
30.7220415633
 20
8.2443877752
 11
30.0126628515
 21
8.6539385001
  0
LINE
  5
21A
100
AcDbEntity
  8
1
100
AcDbLine
 62
7
  6
BYLAYER
 10
16.5821160469
 20
16.4078928952
 11
15.8727373352
 21
16.8174436201
  0
LINE
  5
21B
100
AcDbEntity
  8
1
100
AcDbLine
 62
7
  6
BYLAYER
 10
28.9448056189
 20
10.5261704034
 11
27.840125723
 21
11.1639432103
  0
LINE
  5
21C
100
AcDbEntity
  8
1
100
AcDbLine
 62
7
  6
BYLAYER
 10
18.7546531754
 20
16.409324565
 11
17.6499732796
 21
17.0470973719
  0
LINE
  5
21D
100
AcDbEntity
  8
1
100
AcDbLine
 62
7
  6
BYLAYER
 10
26.9939689837
 20
90.5673892905
 11
29.5906985333
 21
92.1015444029
  0
LINE
  5
21E
100
AcDbEntity
  8
1
100
AcDbLine
 62
7
  6
BYLAYER
 10
33.9642630842
 20
96.5643825421
 11
12.6907141324
 21
84.2821666432
  0
LINE
  5
21F
100
AcDbEntity
  8
1
100
AcDbLine
 62
7
  6
BYLAYER
 10
27.840125723
 20
14.1755263589
 11
18.7546531754
 21
19.4209077136
  0
LINE
  5
220
100
AcDbEntity
  8
1
100
AcDbLine
 62
7
  6
BYLAYER
 10
17.2869567855
 20
22.4762432178
 11
29.307822113
 21
15.536150391
  0
LINE
  5
221
100
AcDbEntity
  8
1
100
AcDbLine
 62
7
  6
BYLAYER
 10
19.0547163785
 20
23.4968536025
 11
29.307822113
 21
17.5773541637
  0
LINE
  5
222
100
AcDbEntity
  8
1
100
AcDbLine
 62
7
  6
BYLAYER
 10
19.7618113838
 20
80.1997590979
 11
21.1760190583
 21
81.0162474057
  0
LINE
  5
223
100
AcDbEntity
  8
1
100
AcDbLine
 62
7
  6
BYLAYER
 10
19.7618261037
 20
76.2180081917
 11
17.9940665106
 21
75.197397807
  0
LINE
  5
224
100
AcDbEntity
  8
1
100
AcDbLine
 62
7
  6
BYLAYER
 10
28.9448056189
 20
10.5261704034
 11
30.0126628515
 21
8.6539385001
  0
LINE
  5
225
100
AcDbEntity
  8
1
100
AcDbLine
 62
7
  6
BYLAYER
 10
12.6907141324
 20
84.2821666432
 11
12.6907141324
 21
71.3708795926
  0
LINE
  5
226
100
AcDbEntity
  8
1
100
AcDbLine
 62
7
  6
BYLAYER
 10
14.4585178849
 20
19.2669299634
 11
14.4585178849
 21
44.5785048944
  0
LINE
  5
227
100
AcDbEntity
  8
1
100
AcDbLine
 62
7
  6
BYLAYER
 10
17.2869567855
 20
38.8062915604
 11
17.2869567855
 21
22.4762432178
  0
LINE
  5
228
100
AcDbEntity
  8
1
100
AcDbLine
 62
7
  6
BYLAYER
 10
27.1971210105
 20
72.1170683886
 11
27.0310733346
 21
72.0212012905
  0
LINE
  5
229
100
AcDbEntity
  8
1
100
AcDbLine
 62
7
  6
BYLAYER
 10
23.0457758341
 20
69.7203024403
 11
14.4455208325
 21
64.754972539
  0
LINE
  5
22A
100
AcDbEntity
  8
1
100
AcDbLine
 62
7
  6
BYLAYER
 10
29.307822113
 20
31.8661987336
 11
17.2869567855
 21
38.8062915604
  0
LINE
  5
22B
100
AcDbEntity
  8
1
100
AcDbLine
 62
7
  6
BYLAYER
 10
17.9940665106
 20
42.5373011218
 11
17.9940665106
 21
48.0756400812
  0
LINE
  5
22C
100
AcDbEntity
  8
1
100
AcDbLine
 62
7
  6
BYLAYER
 10
17.9940665106
 20
56.6093277998
 11
17.9940665106
 21
61.9539790882
  0
LINE
  5
22D
100
AcDbEntity
  8
1
100
AcDbLine
 62
7
  6
BYLAYER
 10
17.9940665106
 20
66.8037141122
 11
17.9940665106
 21
75.197397807
  0
LINE
  5
22E
100
AcDbEntity
  8
1
100
AcDbLine
 62
7
  6
BYLAYER
 10
18.7546531754
 20
19.4209077136
 11
18.7546531754
 21
16.409324565
  0
LINE
  5
22F
100
AcDbEntity
  8
1
100
AcDbLine
 62
7
  6
BYLAYER
 10
19.0547163785
 20
37.7856981724
 11
19.0547163785
 21
23.4968536025
  0
LINE
  5
230
100
AcDbEntity
  8
1
100
AcDbLine
 62
7
  6
BYLAYER
 10
19.7618113838
 20
76.2180081917
 11
19.7618113838
 21
80.1997590979
  0
LINE
  5
231
100
AcDbEntity
  8
1
100
AcDbLine
 62
7
  6
BYLAYER
 10
20.5224127685
 20
18.4003143256
 11
20.5224127685
 21
17.4299349497
  0
LINE
  5
232
100
AcDbEntity
  8
1
100
AcDbLine
 62
7
  6
BYLAYER
 10
30.3684719809
 20
70.0943968739
 11
28.6007123878
 21
69.0737864892
  0
LINE
  5
233
100
AcDbEntity
  8
1
100
AcDbLine
 62
7
  6
BYLAYER
 10
33.9040058868
 20
72.0349440075
 11
35.3182135612
 21
72.8514323153
  0
LINE
  5
234
100
AcDbEntity
  8
1
100
AcDbLine
 62
7
  6
BYLAYER
 10
25.0930284147
 20
66.0525421894
 11
16.545511431
 21
61.1176604152
  0
LINE
  5
235
100
AcDbEntity
  8
1
100
AcDbLine
 62
7
  6
BYLAYER
 10
14.4585178849
 20
44.5785048944
 11
17.9940665106
 21
42.5373011218
  0
LINE
  5
236
100
AcDbEntity
  8
1
100
AcDbLine
 62
7
  6
BYLAYER
 10
28.6007123878
 20
36.413689804
 11
32.1362610136
 21
34.3724860314
  0
LINE
  5
237
100
AcDbEntity
  8
1
100
AcDbLine
 62
7
  6
BYLAYER
 10
21.1760190583
 20
81.0162474057
 11
21.1760190583
 21
75.4015419796
  0
LINE
  5
238
100
AcDbEntity
  8
1
100
AcDbLine
 62
7
  6
BYLAYER
 10
14.8081259603
 20
54.7699351452
 11
21.6445781298
 21
58.7169390851
  0
LINE
  5
239
100
AcDbEntity
  8
1
100
AcDbLine
 62
7
  6
BYLAYER
 10
54.5187155983
 20
77.7096726277
 11
51.8614646314
 21
76.2104587814
  0
LINE
  5
23A
100
AcDbEntity
  8
1
100
AcDbLine
 62
7
  6
BYLAYER
 10
16.2262774779
 20
45.5991152791
 11
17.9940665106
 21
44.5785048945
  0
LINE
  5
23B
100
AcDbEntity
  8
1
100
AcDbLine
 62
7
  6
BYLAYER
 10
30.3684719809
 20
37.4343001887
 11
33.9040206066
 21
35.3930964161
  0
LINE
  5
23C
100
AcDbEntity
  8
1
100
AcDbLine
 62
7
  6
BYLAYER
 10
26.9939689837
 20
89.0102331806
 11
26.9939689837
 21
90.5673892905
  0
LINE
  5
23D
100
AcDbEntity
  8
1
100
AcDbLine
 62
7
  6
BYLAYER
 10
32.4897746606
 20
63.2061131171
 11
31.0755669862
 21
62.3896248094
  0
LINE
  5
23E
100
AcDbEntity
  8
1
100
AcDbLine
 62
7
  6
BYLAYER
 10
62.24865209
 20
80.2347523613
 11
40.9751031382
 21
67.9525364623
  0
LINE
  5
23F
100
AcDbEntity
  8
1
100
AcDbLine
 62
7
  6
BYLAYER
 10
12.6907141324
 20
71.3708795926
 11
15.9466265329
 21
65.621631146
  0
LINE
  5
240
100
AcDbEntity
  8
1
100
AcDbLine
 62
7
  6
BYLAYER
 10
27.840125723
 20
11.1639432103
 11
27.840125723
 21
14.1755263589
  0
LINE
  5
241
100
AcDbEntity
  8
1
100
AcDbLine
 62
7
  6
BYLAYER
 10
28.6007123878
 20
69.0737864892
 11
28.6007123878
 21
36.413689804
  0
LINE
  5
242
100
AcDbEntity
  8
1
100
AcDbLine
 62
7
  6
BYLAYER
 10
29.307822113
 20
15.536150391
 11
29.307822113
 21
31.8661987336
  0
LINE
  5
243
100
AcDbEntity
  8
1
100
AcDbLine
 62
7
  6
BYLAYER
 10
29.5906985333
 20
92.1015444029
 11
29.5906985333
 21
88.2483487868
  0
LINE
  5
244
100
AcDbEntity
  8
1
100
AcDbLine
 62
7
  6
BYLAYER
 10
30.3684719809
 20
70.0943968739
 11
30.3684719809
 21
37.4343001887
  0
LINE
  5
245
100
AcDbEntity
  8
1
100
AcDbLine
 62
7
  6
BYLAYER
 10
32.1362610136
 20
34.3724860314
 11
32.1362610136
 21
9.0609111004
  0
LINE
  5
246
100
AcDbEntity
  8
1
100
AcDbLine
 62
7
  6
BYLAYER
 10
32.4353211033
 20
88.446570592
 11
32.4353211033
 21
92.1110099185
  0
LINE
  5
247
100
AcDbEntity
  8
1
100
AcDbLine
 62
7
  6
BYLAYER
 10
33.9040058868
 20
72.0349440075
 11
33.9040058868
 21
64.0226714598
  0
LINE
  5
248
100
AcDbEntity
  8
1
100
AcDbLine
 62
7
  6
BYLAYER
 10
33.9040206066
 20
35.3930964161
 11
33.9040206066
 21
10.0815214851
  0
LINE
  5
249
100
AcDbEntity
  8
1
100
AcDbLine
 62
7
  6
BYLAYER
 10
34.2927775748
 20
91.0386311852
 11
34.2927775748
 21
88.9178258399
  0
LINE
  5
24A
100
AcDbEntity
  8
1
100
AcDbLine
 62
7
  6
BYLAYER
 10
18.6081089481
 20
48.1881322545
 11
25.8375493904
 21
52.3620267251
  0
LINE
  5
24B
100
AcDbEntity
  8
1
100
AcDbLine
 62
7
  6
BYLAYER
 10
16.2262774779
 20
45.5991152791
 11
14.4585178849
 21
44.5785048944
  0
LINE
  5
24C
100
AcDbEntity
  8
1
100
AcDbLine
 62
7
  6
BYLAYER
 10
31.9264346474
 20
49.5114924055
 11
30.3684719809
 21
50.4109622217
  0
LINE
  5
24D
100
AcDbEntity
  8
1
100
AcDbLine
 62
7
  6
BYLAYER
 10
31.9264346474
 20
49.5114924055
 11
40.9751031382
 21
55.0412494118
  0
LINE
  5
24E
100
AcDbEntity
  8
1
100
AcDbLine
 62
7
  6
BYLAYER
 10
36.5226095893
 20
52.1650794056
 11
51.0612002518
 21
60.8644255357
  0
LINE
  5
24F
100
AcDbEntity
  8
1
100
AcDbLine
 62
7
  6
BYLAYER
 10
40.9751031382
 20
55.0412494118
 11
62.24865209
 21
67.3234653108
  0
LINE
  5
250
100
AcDbEntity
  8
1
100
AcDbLine
 62
7
  6
BYLAYER
 10
36.5226095893
 20
52.1650794056
 11
31.9264346474
 21
49.5114924055
  0
LINE
  5
251
100
AcDbEntity
  8
1
100
AcDbLine
 62
7
  6
BYLAYER
 10
40.9751031382
 20
67.9525364623
 11
40.9751031382
 21
55.0412494118
  0
LINE
  5
252
100
AcDbEntity
  8
1
100
AcDbLine
 62
7
  6
BYLAYER
 10
31.0755669862
 20
62.3896248094
 11
30.3684719809
 21
62.7978570656
  0
LINE
  5
253
100
AcDbEntity
  8
1
100
AcDbLine
 62
7
  6
BYLAYER
 10
30.3684719809
 20
64.4308200837
 11
32.4897746606
 21
63.2061131171
  0
LINE
  5
254
100
AcDbEntity
  8
1
100
AcDbLine
 62
7
  6
BYLAYER
 10
28.6007123878
 20
36.413689804
 11
30.3684719809
 21
37.4343001887
  0
LINE
  5
255
100
AcDbEntity
  8
1
100
AcDbLine
 62
7
  6
BYLAYER
 10
17.9940665106
 20
75.197397807
 11
28.6007123878
 21
69.0737864892
  0
LINE
  5
256
100
AcDbEntity
  8
1
100
AcDbLine
 62
7
  6
BYLAYER
 10
48.5280797741
 20
76.4585003411
 11
48.5280797741
 21
78.5586196332
  0
LINE
  5
257
100
AcDbEntity
  8
1
100
AcDbLine
 62
7
  6
BYLAYER
 10
33.9040206066
 20
35.3930964161
 11
32.1362610136
 21
34.3724860314
  0
LINE
  5
258
100
AcDbEntity
  8
1
100
AcDbLine
 62
7
  6
BYLAYER
 10
19.7618261037
 20
76.2180081917
 11
30.3684719809
 21
70.0943968739
  0
LINE
  5
259
100
AcDbEntity
  8
1
100
AcDbLine
 62
7
  6
BYLAYER
 10
52.6776304286
 20
76.6709373283
 11
52.6776304286
 21
80.4243715677
  0
LINE
  5
25A
100
AcDbEntity
  8
1
100
AcDbLine
 62
7
  6
BYLAYER
 10
54.5350869001
 20
79.3519928343
 11
54.5350869001
 21
77.7212817758
  0
LINE
  5
25B
100
AcDbEntity
  8
1
100
AcDbLine
 62
7
  6
BYLAYER
 10
19.0547163785
 20
23.4968536025
 11
17.2869567855
 21
22.4762432178
  0
LINE
  5
25C
100
AcDbEntity
  8
1
100
AcDbLine
 62
7
  6
BYLAYER
 10
40.9751031382
 20
67.9525364623
 11
33.9040058868
 21
72.0349440075
  0
LINE
  5
25D
100
AcDbEntity
  8
1
100
AcDbLine
 62
7
  6
BYLAYER
 10
19.7618113838
 20
80.1997590979
 11
12.6907141324
 21
84.2821666432
  0
LINE
  5
25E
100
AcDbEntity
  8
1
100
AcDbLine
 62
7
  6
BYLAYER
 10
35.3182135612
 20
72.8514323153
 11
21.1760190583
 21
81.0162474057
  0
LINE
  5
25F
100
AcDbEntity
  8
1
100
AcDbLine
 62
7
  6
BYLAYER
 10
16.5821160469
 20
16.4078928952
 11
17.6499732796
 21
17.0470973719
  0
LINE
  5
260
100
AcDbEntity
  8
1
100
AcDbLine
 62
7
  6
BYLAYER
 10
17.6696154462
 20
17.0357572183
 11
16.5821160469
 21
16.4078928952
  0
LINE
  5
261
100
AcDbEntity
  8
1
100
AcDbLine
 62
7
  6
BYLAYER
 10
20.5224127685
 20
17.4299349497
 11
18.7546531754
 21
16.409324565
  0
LINE
  5
262
100
AcDbEntity
  8
1
100
AcDbLine
 62
7
  6
BYLAYER
 10
62.24865209
 20
67.3234653108
 11
62.24865209
 21
80.2347523613
  0
LINE
  5
263
100
AcDbEntity
  8
1
100
AcDbLine
 62
7
  6
BYLAYER
 10
54.5350869001
 20
79.3519928343
 11
52.6776304286
 21
80.4243715677
  0
LINE
  5
264
100
AcDbEntity
  8
1
100
AcDbLine
 62
7
  6
BYLAYER
 10
32.4353211033
 20
92.1110099185
 11
34.2927775748
 21
91.0386311852
  0
LINE
  5
265
100
AcDbEntity
  8
1
100
AcDbLine
 62
7
  6
BYLAYER
 10
33.9040206066
 20
10.0815214851
 11
32.1362610136
 21
9.0609111004
  0
LINE
  5
266
100
AcDbEntity
  8
1
100
AcDbLine
 62
7
  6
BYLAYER
 10
33.4897966794
 20
9.1659496018
 11
31.7220370864
 21
8.1453392171
  0
LINE
  5
267
100
AcDbEntity
  8
1
100
AcDbLine
 62
7
  6
BYLAYER
 10
62.24865209
 20
80.2347523613
 11
33.9642630842
 21
96.5643825421
  0
SPLINE
  5
268
100
AcDbEntity
  8
1
100
AcDbSpline
 62
7
  6
BYLAYER
 70
0
 71
3
 72
15
 73
11
 74
0
 42
0.0000001
 43
0.0000001
 44
0.0000000001
 40
0.0
 40
0.0
 40
0.0
 40
0.0
 40
0.1483265626
 40
0.2891181025
 40
0.422333898
 40
0.5483571988
 40
0.6678764011
 40
0.781968631
 40
0.8920880417
 40
1.0
 40
1.0
 40
1.0
 40
1.0
 10
31.7768551536
 20
54.4702254409
 30
0.0
 10
31.7768551536
 20
54.2908383743
 30
0.0
 10
31.7626003614
 20
53.9409442656
 30
0.0
 10
31.6948045521
 20
53.4339073959
 30
0.0
 10
31.5815459494
 20
52.962565707
 30
0.0
 10
31.4237135034
 20
52.5313417153
 30
0.0
 10
31.2224638946
 20
52.1442632447
 30
0.0
 10
30.979331755
 20
51.8051418179
 30
0.0
 10
30.6964962936
 20
51.5176259252
 30
0.0
 10
30.4820519554
 20
51.3617038099
 30
0.0
 10
30.3704073448
 20
51.2941154781
 30
0.0
  0
SPLINE
  5
269
100
AcDbEntity
  8
1
100
AcDbSpline
 62
7
  6
BYLAYER
 70
0
 71
3
 72
14
 73
10
 74
0
 42
0.0000001
 43
0.0000001
 44
0.0000000001
 40
0.0
 40
0.0
 40
0.0
 40
0.0
 40
0.2660941848
 40
0.3969294133
 40
0.5252324235
 40
0.650290347
 40
0.7714524825
 40
0.8881912572
 40
1.0
 40
1.0
 40
1.0
 40
1.0
 10
30.3963619099
 20
59.2244104888
 30
0.0
 10
30.6138116611
 20
58.8377760875
 30
0.0
 10
30.9070327553
 20
58.2425594031
 30
0.0
 10
31.2257195353
 20
57.426671307
 30
0.0
 10
31.4234773269
 20
56.8170645939
 30
0.0
 10
31.579437732
 20
56.2120979231
 30
0.0
 10
31.6922133654
 20
55.6171609771
 30
0.0
 10
31.7607172917
 20
55.037744394
 30
0.0
 10
31.7768551536
 20
54.6566145083
 30
0.0
 10
31.7768551536
 20
54.4702254409
 30
0.0
  0
SPLINE
  5
26A
100
AcDbEntity
  8
1
100
AcDbSpline
 62
7
  6
BYLAYER
 70
0
 71
3
 72
14
 73
10
 74
0
 42
0.0000001
 43
0.0000001
 44
0.0000000001
 40
0.0
 40
0.0
 40
0.0
 40
0.0
 40
0.1080471438
 40
0.2181317193
 40
0.3321125724
 40
0.4515014986
 40
0.5774450424
 40
0.710727948
 40
1.0
 40
1.0
 40
1.0
 40
1.0
 10
21.3014891696
 20
58.6501883194
 30
0.0
 10
21.3669352921
 20
58.6879734303
 30
0.0
 10
21.5058995722
 20
58.753017749
 30
0.0
 10
21.7307271488
 20
58.815234128
 30
0.0
 10
21.9704138365
 20
58.8419148705
 30
0.0
 10
22.2223670347
 20
58.8332009137
 30
0.0
 10
22.4842256752
 20
58.789261886
 30
0.0
 10
22.8531514774
 20
58.681701811
 30
0.0
 10
23.1221713703
 20
58.5536618706
 30
0.0
 10
23.2973894492
 20
58.452501954
 30
0.0
  0
SPLINE
  5
26B
100
AcDbEntity
  8
1
100
AcDbSpline
 62
7
  6
BYLAYER
 70
0
 71
3
 72
12
 73
8
 74
0
 42
0.0000001
 43
0.0000001
 44
0.0000000001
 40
0.0
 40
0.0
 40
0.0
 40
0.0
 40
0.2894847231
 40
0.5486751865
 40
0.7816263484
 40
0.8918293154
 40
1.0
 40
1.0
 40
1.0
 40
1.0
 10
33.9040206066
 20
10.0815214851
 30
0.0
 10
33.9040206066
 20
9.9801851963
 30
0.0
 10
33.8886077397
 20
9.7874386929
 30
0.0
 10
33.8107523791
 20
9.5227561073
 30
0.0
 10
33.6987109186
 20
9.3401324468
 30
0.0
 10
33.5856082065
 20
9.2289278479
 30
0.0
 10
33.5225846245
 20
9.1848911268
 30
0.0
 10
33.4897916896
 20
9.1659582446
 30
0.0
  0
SPLINE
  5
26C
100
AcDbEntity
  8
1
100
AcDbSpline
 62
7
  6
BYLAYER
 70
0
 71
3
 72
20
 73
16
 74
0
 42
0.0000001
 43
0.0000001
 44
0.0000000001
 40
0.0
 40
0.0
 40
0.0
 40
0.0
 40
0.0428310466
 40
0.0874316591
 40
0.1352329421
 40
0.1871651245
 40
0.2436339241
 40
0.3046147975
 40
0.369739925
 40
0.4383745691
 40
0.5826256522
 40
0.729691347
 40
0.8711893335
 40
0.9376085942
 40
1.0
 40
1.0
 40
1.0
 40
1.0
 10
21.9745758807
 20
69.7318972354
 30
0.0
 10
22.0398054446
 20
69.7695424447
 30
0.0
 10
22.1835675498
 20
69.8293334753
 30
0.0
 10
22.4209094149
 20
69.8640622914
 30
0.0
 10
22.6757712094
 20
69.8453581804
 30
0.0
 10
22.9424940949
 20
69.7744603242
 30
0.0
 10
23.2158501424
 20
69.6536578247
 30
0.0
 10
23.4904027628
 20
69.485717195
 30
0.0
 10
23.7605578065
 20
69.2741929776
 30
0.0
 10
24.113143846
 20
68.9346058666
 30
0.0
 10
24.5049348247
 20
68.4328283315
 30
0.0
 10
24.8686370848
 20
67.7607147192
 30
0.0
 10
25.0699554777
 20
67.1656756413
 30
0.0
 10
25.1532360569
 20
66.6970037413
 30
0.0
 10
25.1681574051
 20
66.4703468235
 30
0.0
 10
25.1681574051
 20
66.360639301
 30
0.0
  0
SPLINE
  5
26D
100
AcDbEntity
  8
1
100
AcDbSpline
 62
7
  6
BYLAYER
 70
0
 71
3
 72
13
 73
9
 74
0
 42
0.0000001
 43
0.0000001
 44
0.0000000001
 40
0.0
 40
0.0
 40
0.0
 40
0.0
 40
0.2893468671
 40
0.5483221042
 40
0.6677483105
 40
0.7817628677
 40
0.8919044903
 40
1.0
 40
1.0
 40
1.0
 40
1.0
 10
25.1681574051
 20
66.360639301
 30
0.0
 10
25.1681574051
 20
66.2265687876
 30
0.0
 10
25.1479310577
 20
65.9717400392
 30
0.0
 10
25.0594147559
 20
65.6719614771
 30
0.0
 10
24.9519592709
 20
65.4698920224
 30
0.0
 10
24.8571423174
 20
65.3412225341
 30
0.0
 10
24.746985349
 20
65.2327453246
 30
0.0
 10
24.6635836916
 20
65.1745450674
 30
0.0
 10
24.6202030178
 20
65.1495092638
 30
0.0
  0
SPLINE
  5
26E
100
AcDbEntity
  8
1
100
AcDbSpline
 62
7
  6
BYLAYER
 70
0
 71
3
 72
15
 73
11
 74
0
 42
0.0000001
 43
0.0000001
 44
0.0000000001
 40
0.0
 40
0.0
 40
0.0
 40
0.0
 40
0.1141546703
 40
0.2373261017
 40
0.3669753162
 40
0.4999989361
 40
0.6330227034
 40
0.7626723508
 40
0.8858444607
 40
1.0
 40
1.0
 40
1.0
 40
1.0
 10
23.2973894492
 20
58.452501954
 30
0.0
 10
23.4906230148
 20
58.3409410268
 30
0.0
 10
23.8722940003
 20
58.0733964909
 30
0.0
 10
24.3974528063
 20
57.5820745011
 30
0.0
 10
24.8814150196
 20
57.0012945731
 30
0.0
 10
25.3059519501
 20
56.3528436235
 30
0.0
 10
25.6552621231
 20
55.6609592782
 30
0.0
 10
25.9162557345
 20
54.9514448145
 30
0.0
 10
26.0791789635
 20
54.2509802418
 30
0.0
 10
26.1200479011
 20
53.7866685816
 30
0.0
 10
26.1200479011
 20
53.5635412427
 30
0.0
  0
SPLINE
  5
26F
100
AcDbEntity
  8
1
100
AcDbSpline
 62
7
  6
BYLAYER
 70
0
 71
3
 72
14
 73
10
 74
0
 42
0.0000001
 43
0.0000001
 44
0.0000000001
 40
0.0
 40
0.0
 40
0.0
 40
0.0
 40
0.2892730352
 40
0.4225562199
 40
0.5484998506
 40
0.6678886669
 40
0.7818692291
 40
0.8919533702
 40
1.0
 40
1.0
 40
1.0
 40
1.0
 10
26.1200479011
 20
53.5635412427
 30
0.0
 10
26.1200479011
 20
53.3612118692
 30
0.0
 10
26.0964259143
 20
53.0642047413
 30
0.0
 10
26.0051132259
 20
52.6909138928
 30
0.0
 10
25.9122354727
 20
52.4421606227
 30
0.0
 10
25.7938035573
 20
52.2195993191
 30
0.0
 10
25.6508511653
 20
52.0253596913
 30
0.0
 10
25.4845526062
 20
51.8617576296
 30
0.0
 10
25.3587372933
 20
51.7739316093
 30
0.0
 10
25.2932897289
 20
51.7361456659
 30
0.0
  0
SPLINE
  5
270
100
AcDbEntity
  8
1
100
AcDbSpline
 62
7
  6
BYLAYER
 70
0
 71
3
 72
12
 73
8
 74
0
 42
0.0000001
 43
0.0000001
 44
0.0000000001
 40
0.0
 40
0.0
 40
0.0
 40
0.0
 40
0.2894837333
 40
0.5486738489
 40
0.7816254185
 40
0.8918288095
 40
1.0
 40
1.0
 40
1.0
 40
1.0
 10
30.7220415633
 20
8.2443877752
 30
0.0
 10
30.8097992114
 20
8.1937220196
 30
0.0
 10
30.984424693
 20
8.1107007938
 30
0.0
 10
31.2525672206
 20
8.0457882538
 30
0.0
 10
31.4667389844
 20
8.0515081079
 30
0.0
 10
31.6195926651
 20
8.0938546842
 30
0.0
 10
31.6892398947
 20
8.1264153804
 30
0.0
 10
31.7220320965
 20
8.1453478599
 30
0.0
  0
SPLINE
  5
271
100
AcDbEntity
  8
1
100
AcDbSpline
 62
7
  6
BYLAYER
 70
0
 71
3
 72
15
 73
11
 74
0
 42
0.0000001
 43
0.0000001
 44
0.0000000001
 40
0.0
 40
0.0
 40
0.0
 40
0.0
 40
0.1141241598
 40
0.2373483675
 40
0.3669736385
 40
0.5000010132
 40
0.6330282465
 40
0.7626531028
 40
0.8858766831
 40
1.0
 40
1.0
 40
1.0
 40
1.0
 10
14.4585178849
 20
19.2669299634
 30
0.0
 10
14.4585178849
 20
19.1551690234
 30
0.0
 10
14.4790387459
 20
18.9225241724
 30
0.0
 10
14.5606029137
 20
18.5715651763
 30
0.0
 10
14.6914218446
 20
18.2160694843
 30
0.0
 10
14.8663911374
 20
17.8694180748
 30
0.0
 10
15.0791166987
 20
17.5445658398
 30
0.0
 10
15.3215762937
 20
17.253527603
 30
0.0
 10
15.5847338436
 20
17.0074143898
 30
0.0
 10
15.7759496894
 20
16.8733227293
 30
0.0
 10
15.8727373352
 20
16.8174436201
 30
0.0
  0
SPLINE
  5
272
100
AcDbEntity
  8
1
100
AcDbSpline
 62
7
  6
BYLAYER
 70
0
 71
3
 72
9
 73
5
 74
0
 42
0.0000001
 43
0.0000001
 44
0.0000000001
 40
0.0
 40
0.0
 40
0.0
 40
0.0
 40
0.2525454707
 40
1.0
 40
1.0
 40
1.0
 40
1.0
 10
21.031434804
 20
58.4448592671
 30
0.0
 10
21.0518916324
 20
58.4648468193
 30
0.0
 10
21.1352577065
 20
58.541530322
 30
0.0
 10
21.2281815872
 20
58.6078644196
 30
0.0
 10
21.3014891696
 20
58.6501883194
 30
0.0
  0
SPLINE
  5
273
100
AcDbEntity
  8
1
100
AcDbSpline
 62
7
  6
BYLAYER
 70
0
 71
3
 72
10
 73
6
 74
0
 42
0.0000001
 43
0.0000001
 44
0.0000000001
 40
0.0
 40
0.0
 40
0.0
 40
0.0
 40
0.2415804223
 40
0.486795286
 40
1.0
 40
1.0
 40
1.0
 40
1.0
 10
25.2932897289
 20
51.7361456659
 30
0.0
 10
25.2349908893
 20
51.7024870161
 30
0.0
 10
25.1120962308
 20
51.6435659353
 30
0.0
 10
24.8449646226
 20
51.5616182021
 30
0.0
 10
24.6308861617
 20
51.5448823146
 30
0.0
 10
24.4879935494
 20
51.5506029408
 30
0.0
  0
SPLINE
  5
274
100
AcDbEntity
  8
1
100
AcDbSpline
 62
7
  6
BYLAYER
 70
0
 71
3
 72
11
 73
7
 74
0
 42
0.0000001
 43
0.0000001
 44
0.0000000001
 40
0.0
 40
0.0
 40
0.0
 40
0.0
 40
0.225384664
 40
0.4619955649
 40
0.7185151979
 40
1.0
 40
1.0
 40
1.0
 40
1.0
 10
24.6202030178
 20
65.1495092638
 30
0.0
 10
24.5481423539
 20
65.1079216981
 30
0.0
 10
24.3873222045
 20
65.0436555348
 30
0.0
 10
24.1208881695
 20
65.0149422019
 30
0.0
 10
23.8351015445
 20
65.0512766416
 30
0.0
 10
23.6455217475
 20
65.1143442315
 30
0.0
 10
23.5497224117
 20
65.154589029
 30
0.0
  0
SPLINE
  5
275
100
AcDbEntity
  8
1
100
AcDbSpline
 62
7
  6
BYLAYER
 70
0
 71
3
 72
12
 73
8
 74
0
 42
0.0000001
 43
0.0000001
 44
0.0000000001
 40
0.0
 40
0.0
 40
0.0
 40
0.0
 40
0.1081706625
 40
0.2183736045
 40
0.4513247406
 40
0.7105152752
 40
1.0
 40
1.0
 40
1.0
 40
1.0
 10
31.7220320965
 20
8.1453478599
 30
0.0
 10
31.7548250157
 20
8.1642807534
 30
0.0
 10
31.8178485809
 20
8.2083174629
 30
0.0
 10
31.9309513059
 20
8.319522012
 30
0.0
 10
32.0429927705
 20
8.5021456841
 30
0.0
 10
32.1208481124
 20
8.7668282871
 30
0.0
 10
32.1362610136
 20
8.9595748116
 30
0.0
 10
32.1362610136
 20
9.0609111004
 30
0.0
  0
SPLINE
  5
276
100
AcDbEntity
  8
1
100
AcDbSpline
 62
7
  6
BYLAYER
 70
0
 71
3
 72
11
 73
7
 74
0
 42
0.0000001
 43
0.0000001
 44
0.0000000001
 40
0.0
 40
0.0
 40
0.0
 40
0.0
 40
0.2794848735
 40
0.5353272535
 40
0.7727828521
 40
1.0
 40
1.0
 40
1.0
 40
1.0
 10
21.4529632995
 20
68.8665698896
 30
0.0
 10
21.4683310907
 20
68.9624969855
 30
0.0
 10
21.5118477697
 20
69.144529451
 30
0.0
 10
21.6234470206
 20
69.3909763803
 30
0.0
 10
21.7767934215
 20
69.5919843914
 30
0.0
 10
21.9061688089
 20
69.6924182264
 30
0.0
 10
21.9745758807
 20
69.7318972354
 30
0.0
  0
SPLINE
  5
277
100
AcDbEntity
  8
1
100
AcDbSpline
 62
7
  6
BYLAYER
 70
0
 71
3
 72
14
 73
10
 74
0
 42
0.0000001
 43
0.0000001
 44
0.0000000001
 40
0.0
 40
0.0
 40
0.0
 40
0.0
 40
0.2892730352
 40
0.4225562199
 40
0.5484998506
 40
0.6678886669
 40
0.7818692291
 40
0.8919533702
 40
1.0
 40
1.0
 40
1.0
 40
1.0
 10
33.9040058868
 20
64.0226714598
 30
0.0
 10
33.9040058868
 20
63.8199277412
 30
0.0
 10
33.8803355251
 20
63.5223123802
 30
0.0
 10
33.7888358398
 20
63.1482570791
 30
0.0
 10
33.6957678847
 20
62.8989943937
 30
0.0
 10
33.5770934357
 20
62.6759773126
 30
0.0
 10
33.4338482952
 20
62.4813399065
 30
0.0
 10
33.2672091776
 20
62.3174028085
 30
0.0
 10
33.1411362108
 20
62.2293969315
 30
0.0
 10
33.075554618
 20
62.1915336073
 30
0.0
  0
SPLINE
  5
278
100
AcDbEntity
  8
1
100
AcDbSpline
 62
7
  6
BYLAYER
 70
0
 71
3
 72
20
 73
16
 74
0
 42
0.0000001
 43
0.0000001
 44
0.0000000001
 40
0.0
 40
0.0
 40
0.0
 40
0.0
 40
0.0428304645
 40
0.087430447
 40
0.135231293
 40
0.1871633143
 40
0.2436322238
 40
0.3046132633
 40
0.3697386048
 40
0.4383733058
 40
0.5826237936
 40
0.7296897269
 40
0.8711882762
 40
0.9376083452
 40
1.0
 40
1.0
 40
1.0
 40
1.0
 10
14.4455268169
 20
64.7549621716
 30
0.0
 10
14.393761021
 20
64.7250637799
 30
0.0
 10
14.295604738
 20
64.6499702819
 30
0.0
 10
14.1775351072
 20
64.5006039987
 30
0.0
 10
14.089242956
 20
64.3179864522
 30
0.0
 10
14.0321204184
 20
64.1065000713
 30
0.0
 10
14.0066717205
 20
63.8706464161
 30
0.0
 10
14.0131508319
 20
63.6152614641
 30
0.0
 10
14.0513362177
 20
63.345601968
 30
0.0
 10
14.1448385385
 20
62.9684534358
 30
0.0
 10
14.3342728368
 20
62.4999840726
 30
0.0
 10
14.6519485282
 20
61.9832204388
 30
0.0
 10
14.9810893893
 20
61.608668848
 30
0.0
 10
15.2702135156
 20
61.3654148639
 30
0.0
 10
15.4201006562
 20
61.2652015613
 30
0.0
 10
15.4955161318
 20
61.2216614012
 30
0.0
  0
SPLINE
  5
279
100
AcDbEntity
  8
1
100
AcDbSpline
 62
7
  6
BYLAYER
 70
0
 71
3
 72
13
 73
9
 74
0
 42
0.0000001
 43
0.0000001
 44
0.0000000001
 40
0.0
 40
0.0
 40
0.0
 40
0.0
 40
0.2893754074
 40
0.5483104581
 40
0.6677382441
 40
0.7817612311
 40
0.8919013484
 40
1.0
 40
1.0
 40
1.0
 40
1.0
 10
27.3631481942
 20
88.670808294
 30
0.0
 10
27.2468393496
 20
88.7379577177
 30
0.0
 10
27.0359180276
 20
88.8831062415
 30
0.0
 10
26.8202158498
 20
89.1100237679
 30
0.0
 10
26.6987787032
 20
89.3044313372
 30
0.0
 10
26.6346118371
 20
89.4511024287
 30
0.0
 10
26.5956794154
 20
89.6009914872
 30
0.0
 10
26.5870015447
 20
89.7024859747
 30
0.0
 10
26.5870026029
 20
89.7526553058
 30
0.0
  0
SPLINE
  5
27A
100
AcDbEntity
  8
1
100
AcDbSpline
 62
7
  6
BYLAYER
 70
0
 71
3
 72
15
 73
11
 74
0
 42
0.0000001
 43
0.0000001
 44
0.0000000001
 40
0.0
 40
0.0
 40
0.0
 40
0.0
 40
0.1151486317
 40
0.2389207345
 40
0.3687409738
 40
0.5016122542
 40
0.6342601697
 40
0.7634274688
 40
0.886168439
 40
1.0
 40
1.0
 40
1.0
 40
1.0
 10
31.0611887837
 20
88.6429057114
 30
0.0
 10
30.9320674777
 20
88.5721575159
 30
0.0
 10
30.6515338541
 20
88.4478279062
 30
0.0
 10
30.1974474215
 20
88.3166666856
 30
0.0
 10
29.7085108977
 20
88.2376081666
 30
0.0
 10
29.2025603402
 20
88.2134529187
 30
0.0
 10
28.6978576551
 20
88.2451399039
 30
0.0
 10
28.212609757
 20
88.3314609633
 30
0.0
 10
27.7645083777
 20
88.469355075
 30
0.0
 10
27.4891981754
 20
88.5980349498
 30
0.0
 10
27.3631481942
 20
88.670808294
 30
0.0
  0
SPLINE
  5
27B
100
AcDbEntity
  8
1
100
AcDbSpline
 62
7
  6
BYLAYER
 70
0
 71
3
 72
11
 73
7
 74
0
 42
0.0000001
 43
0.0000001
 44
0.0000000001
 40
0.0
 40
0.0
 40
0.0
 40
0.0
 40
0.2738415404
 40
0.5285894605
 40
0.7683392016
 40
1.0
 40
1.0
 40
1.0
 40
1.0
 10
48.5280797741
 20
78.5586196332
 30
0.0
 10
48.469609647
 20
78.6151988388
 30
0.0
 10
48.364524506
 20
78.7330049889
 30
0.0
 10
48.2441818389
 20
78.9286092665
 30
0.0
 10
48.170489892
 20
79.1331247889
 30
0.0
 10
48.1538112872
 20
79.2736940064
 30
0.0
 10
48.1538295205
 20
79.3425245123
 30
0.0
  0
SPLINE
  5
27C
100
AcDbEntity
  8
1
100
AcDbSpline
 62
7
  6
BYLAYER
 70
0
 71
3
 72
13
 73
9
 74
0
 42
0.0000001
 43
0.0000001
 44
0.0000000001
 40
0.0
 40
0.0
 40
0.0
 40
0.0
 40
0.2893844586
 40
0.548315
 40
0.6677443162
 40
0.781769451
 40
0.8919064936
 40
1.0
 40
1.0
 40
1.0
 40
1.0
 10
48.5764399486
 20
76.4235856584
 30
0.0
 10
48.4601273331
 20
76.4907372591
 30
0.0
 10
48.2492042841
 20
76.6358865345
 30
0.0
 10
48.0334967866
 20
76.8628055098
 30
0.0
 10
47.9120700949
 20
77.0572189058
 30
0.0
 10
47.8478977589
 20
77.203888337
 30
0.0
 10
47.8089734025
 20
77.3537763771
 30
0.0
 10
47.8002848491
 20
77.4552656793
 30
0.0
 10
47.8002829316
 20
77.5054326798
 30
0.0
  0
SPLINE
  5
27D
100
AcDbEntity
  8
1
100
AcDbSpline
 62
7
  6
BYLAYER
 70
0
 71
3
 72
15
 73
11
 74
0
 42
0.0000001
 43
0.0000001
 44
0.0000000001
 40
0.0
 40
0.0
 40
0.0
 40
0.0
 40
0.1220594811
 40
0.2496810832
 40
0.3805010352
 40
0.512175402
 40
0.6422055385
 40
0.7681913105
 40
0.8880718241
 40
1.0
 40
1.0
 40
1.0
 40
1.0
 10
51.8614646314
 20
76.2104587814
 30
0.0
 10
51.7320634584
 20
76.1634550918
 30
0.0
 10
51.4612872584
 20
76.0834914399
 30
0.0
 10
51.0383994054
 20
76.0062865727
 30
0.0
 10
50.5990983124
 20
75.9707466626
 30
0.0
 10
50.1557303948
 20
75.9777516464
 30
0.0
 10
49.7205379699
 20
76.0272074932
 30
0.0
 10
49.3054935843
 20
76.1176604601
 30
0.0
 10
48.9222408785
 20
76.24670798
 30
0.0
 10
48.6857730209
 20
76.3604636077
 30
0.0
 10
48.5764399486
 20
76.4235856584
 30
0.0
  0
SPLINE
  5
27E
100
AcDbEntity
  8
1
100
AcDbSpline
 62
7
  6
BYLAYER
 70
0
 71
3
 72
12
 73
8
 74
0
 42
0.0000001
 43
0.0000001
 44
0.0000000001
 40
0.0
 40
0.0
 40
0.0
 40
0.0
 40
0.1078240852
 40
0.2177461995
 40
0.4504559131
 40
0.7097917869
 40
1.0
 40
1.0
 40
1.0
 40
1.0
 10
55.1208641423
 20
78.535504532
 30
0.0
 10
55.120863454
 20
78.497085608
 30
0.0
 10
55.114099767
 20
78.419332363
 30
0.0
 10
55.073061319
 20
78.2634824841
 30
0.0
 10
54.9678465026
 20
78.0725482687
 30
0.0
 10
54.7722010176
 20
77.8707341078
 30
0.0
 10
54.6087749723
 20
77.7604838842
 30
0.0
 10
54.5187155983
 20
77.7096726277
 30
0.0
  0
SPLINE
  5
27F
100
AcDbEntity
  8
1
100
AcDbSpline
 62
7
  6
BYLAYER
 70
0
 71
3
 72
18
 73
14
 74
0
 42
0.0000001
 43
0.0000001
 44
0.0000000001
 40
0.0
 40
0.0
 40
0.0
 40
0.0
 40
0.0429016435
 40
0.087235344
 40
0.1342108559
 40
0.1846869673
 40
0.2974540292
 40
0.359971432
 40
0.4260818799
 40
0.5666351254
 40
0.7135750838
 40
0.8602275969
 40
1.0
 40
1.0
 40
1.0
 40
1.0
 10
35.0689349868
 20
89.9567842366
 30
0.0
 10
35.0689227591
 20
89.8893286667
 30
0.0
 10
35.0529548776
 20
89.7516832473
 30
0.0
 10
34.9821851055
 20
89.5512640978
 30
0.0
 10
34.8666947308
 20
89.3589867083
 30
0.0
 10
34.6484965362
 20
89.1089002842
 30
0.0
 10
34.3560103809
 20
88.8992168096
 30
0.0
 10
34.0158525516
 20
88.7302962081
 30
0.0
 10
33.6191889059
 20
88.580657073
 30
0.0
 10
33.0743475073
 20
88.4565438115
 30
0.0
 10
32.3907932993
 20
88.4096664997
 30
0.0
 10
31.7091947772
 20
88.464772316
 30
0.0
 10
31.2689756338
 20
88.571332029
 30
0.0
 10
31.0611887837
 20
88.6429057114
 30
0.0
  0
SPLINE
  5
280
100
AcDbEntity
  8
1
100
AcDbSpline
 62
7
  6
BYLAYER
 70
0
 71
3
 72
23
 73
19
 74
0
 42
0.0000001
 43
0.0000001
 44
0.0000000001
 40
0.0
 40
0.0
 40
0.0
 40
0.0
 40
0.0428135698
 40
0.0873952028
 40
0.135178627
 40
0.1870888653
 40
0.2435348806
 40
0.3044917356
 40
0.3695902019
 40
0.4381976523
 40
0.5094947246
 40
0.5825306477
 40
0.6562717267
 40
0.7296607681
 40
0.8016507367
 40
0.8712476218
 40
0.9376209008
 40
1.0
 40
1.0
 40
1.0
 40
1.0
 10
14.8081324064
 20
54.7699239758
 30
0.0
 10
14.7144432718
 20
54.7158454644
 30
0.0
 10
14.5368765683
 20
54.5798867912
 30
0.0
 10
14.3231339307
 20
54.3096709538
 30
0.0
 10
14.1634350013
 20
53.9791640783
 30
0.0
 10
14.0600483275
 20
53.5964759781
 30
0.0
 10
14.013998165
 20
53.1696809956
 30
0.0
 10
14.0257464879
 20
52.7075410013
 30
0.0
 10
14.094831938
 20
52.2195967459
 30
0.0
 10
14.2196603481
 20
51.716040363
 30
0.0
 10
14.3975588655
 20
51.2074916221
 30
0.0
 10
14.6247751434
 20
50.704766499
 30
0.0
 10
14.8964378008
 20
50.2185602986
 30
0.0
 10
15.206756829
 20
49.7592392634
 30
0.0
 10
15.5491073239
 20
49.3366232475
 30
0.0
 10
15.916271952
 20
48.9596110509
 30
0.0
 10
16.300400917
 20
48.6364240097
 30
0.0
 10
16.5716203685
 20
48.4551293611
 30
0.0
 10
16.7081174542
 20
48.3763245147
 30
0.0
  0
SPLINE
  5
281
100
AcDbEntity
  8
1
100
AcDbSpline
 62
7
  6
BYLAYER
 70
0
 71
3
 72
14
 73
10
 74
0
 42
0.0000001
 43
0.0000001
 44
0.0000000001
 40
0.0
 40
0.0
 40
0.0
 40
0.0
 40
0.2892621871
 40
0.4225613799
 40
0.5485062065
 40
0.6678890455
 40
0.781869301
 40
0.8919545898
 40
1.0
 40
1.0
 40
1.0
 40
1.0
 10
16.7081174542
 20
48.3763245147
 30
0.0
 10
16.8749097533
 20
48.2800291145
 30
0.0
 10
17.1310090013
 20
48.1581498126
 30
0.0
 10
17.4822067772
 20
48.0557420454
 30
0.0
 10
17.7314896892
 20
48.0139152331
 30
0.0
 10
17.971333238
 20
48.0056227273
 30
0.0
 10
18.1994926908
 20
48.0310426196
 30
0.0
 10
18.4135281176
 20
48.0902299306
 30
0.0
 10
18.545798756
 20
48.1521809417
 30
0.0
 10
18.608102502
 20
48.1881434239
 30
0.0
  0
SPLINE
  5
282
100
AcDbEntity
  8
1
100
AcDbSpline
 62
7
  6
BYLAYER
 70
0
 71
3
 72
12
 73
8
 74
0
 42
0.0000001
 43
0.0000001
 44
0.0000000001
 40
0.0
 40
0.0
 40
0.0
 40
0.0
 40
0.2895267924
 40
0.548663432
 40
0.7816287289
 40
0.8918383153
 40
1.0
 40
1.0
 40
1.0
 40
1.0
 10
15.4955161318
 20
61.2216614012
 30
0.0
 10
15.5876760778
 20
61.1684540352
 30
0.0
 10
15.7710213162
 20
61.0812640955
 30
0.0
 10
16.0525858264
 20
61.0131209476
 30
0.0
 10
16.2774436181
 20
61.0191612749
 30
0.0
 10
16.4379644199
 20
61.0635648097
 30
0.0
 10
16.5110797261
 20
61.0977875053
 30
0.0
 10
16.5455054466
 20
61.1176707827
 30
0.0
  0
SPLINE
  5
283
100
AcDbEntity
  8
1
100
AcDbSpline
 62
7
  6
BYLAYER
 70
0
 71
3
 72
12
 73
8
 74
0
 42
0.0000001
 43
0.0000001
 44
0.0000000001
 40
0.0
 40
0.0
 40
0.0
 40
0.0
 40
0.1081631292
 40
0.2183739341
 40
0.4513413552
 40
0.7104807322
 40
1.0
 40
1.0
 40
1.0
 40
1.0
 10
27.1971271902
 20
72.1170576759
 30
0.0
 10
27.2315532
 20
72.1369414291
 30
0.0
 10
27.3046713834
 20
72.1711600022
 30
0.0
 10
27.4651919672
 20
72.2155688053
 30
0.0
 10
27.6900528233
 20
72.221605815
 30
0.0
 10
27.9716153748
 20
72.1534625493
 30
0.0
 10
28.1549588573
 20
72.066273329
 30
0.0
 10
28.2471163097
 20
72.0130674027
 30
0.0
  0
SPLINE
  5
284
100
AcDbEntity
  8
1
100
AcDbSpline
 62
7
  6
BYLAYER
 70
0
 71
3
 72
13
 73
9
 74
0
 42
0.0000001
 43
0.0000001
 44
0.0000000001
 40
0.0
 40
0.0
 40
0.0
 40
0.0
 40
0.2893494552
 40
0.5483242433
 40
0.6677493574
 40
0.7817626978
 40
0.8919035373
 40
1.0
 40
1.0
 40
1.0
 40
1.0
 10
34.2927775748
 20
91.0386311852
 30
0.0
 10
34.4090757449
 20
90.9714879243
 30
0.0
 10
34.6199940291
 20
90.8263240423
 30
0.0
 10
34.8357035187
 20
90.5994127742
 30
0.0
 10
34.9571706876
 20
90.405006942
 30
0.0
 10
35.0212989599
 20
90.258323705
 30
0.0
 10
35.0602292964
 20
90.1084448777
 30
0.0
 10
35.0689440808
 20
90.006952446
 30
0.0
 10
35.0689349868
 20
89.9567842366
 30
0.0
  0
SPLINE
  5
285
100
AcDbEntity
  8
1
100
AcDbSpline
 62
7
  6
BYLAYER
 70
0
 71
3
 72
15
 73
11
 74
0
 42
0.0000001
 43
0.0000001
 44
0.0000000001
 40
0.0
 40
0.0
 40
0.0
 40
0.0
 40
0.1136996981
 40
0.2366258335
 40
0.3661837531
 40
0.4992736117
 40
0.6324646729
 40
0.7623180408
 40
0.8857093923
 40
1.0
 40
1.0
 40
1.0
 40
1.0
 10
29.5906985333
 20
92.1015444029
 30
0.0
 10
29.6871733716
 20
92.1585420085
 30
0.0
 10
29.8988046383
 20
92.2592231997
 30
0.0
 10
30.2443516075
 20
92.3666132596
 30
0.0
 10
30.6194135298
 20
92.4332322757
 30
0.0
 10
31.0096623195
 20
92.4566057412
 30
0.0
 10
31.4003462445
 20
92.4357972831
 30
0.0
 10
31.7766933435
 20
92.371647325
 30
0.0
 10
32.1243225317
 20
92.2665377797
 30
0.0
 10
32.3377745176
 20
92.167327192
 30
0.0
 10
32.4353211033
 20
92.1110099185
 30
0.0
  0
SPLINE
  5
286
100
AcDbEntity
  8
1
100
AcDbSpline
 62
7
  6
BYLAYER
 70
0
 71
3
 72
11
 73
7
 74
0
 42
0.0000001
 43
0.0000001
 44
0.0000000001
 40
0.0
 40
0.0
 40
0.0
 40
0.0
 40
0.2303681232
 40
0.469416691
 40
0.7245045072
 40
1.0
 40
1.0
 40
1.0
 40
1.0
 10
26.5870026029
 20
89.7526553058
 30
0.0
 10
26.5870041193
 20
89.8245402073
 30
0.0
 10
26.6052123877
 20
89.9715918133
 30
0.0
 10
26.685680997
 20
90.1848329578
 30
0.0
 10
26.8166689089
 20
90.3879386213
 30
0.0
 10
26.9306296119
 20
90.5092654413
 30
0.0
 10
26.9939689837
 20
90.5673892905
 30
0.0
  0
SPLINE
  5
287
100
AcDbEntity
  8
1
100
AcDbSpline
 62
7
  6
BYLAYER
 70
0
 71
3
 72
12
 73
8
 74
0
 42
0.0000001
 43
0.0000001
 44
0.0000000001
 40
0.0
 40
0.0
 40
0.0
 40
0.0
 40
0.2895559737
 40
0.5486569748
 40
0.781633396
 40
0.8918399196
 40
1.0
 40
1.0
 40
1.0
 40
1.0
 10
54.5350869001
 20
79.3519928343
 30
0.0
 10
54.6228677616
 20
79.3013136768
 30
0.0
 10
54.7820981457
 20
79.1916261602
 30
0.0
 10
54.9723710678
 20
78.9918303572
 30
0.0
 10
55.0744676796
 20
78.8035098802
 30
0.0
 10
55.1142991554
 20
78.6499676635
 30
0.0
 10
55.1208648207
 20
78.573366329
 30
0.0
 10
55.1208641423
 20
78.535504532
 30
0.0
  0
SPLINE
  5
288
100
AcDbEntity
  8
1
100
AcDbSpline
 62
7
  6
BYLAYER
 70
0
 71
3
 72
20
 73
16
 74
0
 42
0.0000001
 43
0.0000001
 44
0.0000000001
 40
0.0
 40
0.0
 40
0.0
 40
0.0
 40
0.0428304645
 40
0.087430447
 40
0.135231293
 40
0.1871633143
 40
0.2436322238
 40
0.3046132633
 40
0.3697386048
 40
0.4383733058
 40
0.5826237936
 40
0.7296897269
 40
0.8711882762
 40
0.9376083452
 40
1.0
 40
1.0
 40
1.0
 40
1.0
 10
16.5455054466
 20
61.1176707827
 30
0.0
 10
16.5972712426
 20
61.1475691744
 30
0.0
 10
16.6954275256
 20
61.2226626724
 30
0.0
 10
16.8134971563
 20
61.3720289556
 30
0.0
 10
16.9017893076
 20
61.5546465021
 30
0.0
 10
16.9589118451
 20
61.766132883
 30
0.0
 10
16.984360543
 20
62.0019865382
 30
0.0
 10
16.9778814317
 20
62.2573714902
 30
0.0
 10
16.9396960459
 20
62.5270309862
 30
0.0
 10
16.846193725
 20
62.9041795185
 30
0.0
 10
16.6567594268
 20
63.3726488817
 30
0.0
 10
16.3390837353
 20
63.8894125154
 30
0.0
 10
16.0099428743
 20
64.2639641063
 30
0.0
 10
15.720818748
 20
64.5072180904
 30
0.0
 10
15.5709316073
 20
64.607431393
 30
0.0
 10
15.4955161318
 20
64.6509715531
 30
0.0
  0
SPLINE
  5
289
100
AcDbEntity
  8
1
100
AcDbSpline
 62
7
  6
BYLAYER
 70
0
 71
3
 72
23
 73
19
 74
0
 42
0.0000001
 43
0.0000001
 44
0.0000000001
 40
0.0
 40
0.0
 40
0.0
 40
0.0
 40
0.0428135698
 40
0.0873952028
 40
0.135178627
 40
0.1870888653
 40
0.2435348806
 40
0.3044917356
 40
0.3695902019
 40
0.4381976523
 40
0.5094947246
 40
0.5825306477
 40
0.6562717267
 40
0.7296607681
 40
0.8016507367
 40
0.8712476218
 40
0.9376209008
 40
1.0
 40
1.0
 40
1.0
 40
1.0
 10
18.608102502
 20
48.1881434239
 30
0.0
 10
18.7017916366
 20
48.2422219353
 30
0.0
 10
18.8793583401
 20
48.3781806085
 30
0.0
 10
19.0931009778
 20
48.6483964459
 30
0.0
 10
19.2527999072
 20
48.9789033214
 30
0.0
 10
19.356186581
 20
49.3615914215
 30
0.0
 10
19.4022367434
 20
49.7883864041
 30
0.0
 10
19.3904884206
 20
50.2505263983
 30
0.0
 10
19.3214029704
 20
50.7384706538
 30
0.0
 10
19.1965745603
 20
51.2420270367
 30
0.0
 10
19.018676043
 20
51.7505757776
 30
0.0
 10
18.791459765
 20
52.2533009006
 30
0.0
 10
18.5197971076
 20
52.739507101
 30
0.0
 10
18.2094780794
 20
53.1988281362
 30
0.0
 10
17.8671275845
 20
53.6214441522
 30
0.0
 10
17.4999629564
 20
53.9984563488
 30
0.0
 10
17.1158339914
 20
54.3216433899
 30
0.0
 10
16.8446145399
 20
54.5029380386
 30
0.0
 10
16.7081174542
 20
54.5817428849
 30
0.0
  0
SPLINE
  5
28A
100
AcDbEntity
  8
1
100
AcDbSpline
 62
7
  6
BYLAYER
 70
0
 71
3
 72
14
 73
10
 74
0
 42
0.0000001
 43
0.0000001
 44
0.0000000001
 40
0.0
 40
0.0
 40
0.0
 40
0.0
 40
0.1080471438
 40
0.2181317193
 40
0.3321125724
 40
0.4515014986
 40
0.5774450424
 40
0.710727948
 40
1.0
 40
1.0
 40
1.0
 40
1.0
 10
33.075554618
 20
62.1915336073
 30
0.0
 10
33.0099744701
 20
62.1536711172
 30
0.0
 10
32.8707256087
 20
62.0884935959
 30
0.0
 10
32.6454376135
 20
62.0261498057
 30
0.0
 10
32.4052600777
 20
61.9994144243
 30
0.0
 10
32.1527909111
 20
62.0081462262
 30
0.0
 10
31.8903960171
 20
62.0521752355
 30
0.0
 10
31.5207147014
 20
62.15995558
 30
0.0
 10
31.2511438897
 20
62.2882577301
 30
0.0
 10
31.0755669862
 20
62.3896248094
 30
0.0
  0
SPLINE
  5
28B
100
AcDbEntity
  8
1
100
AcDbSpline
 62
7
  6
BYLAYER
 70
0
 71
3
 72
10
 73
6
 74
0
 42
0.0000001
 43
0.0000001
 44
0.0000000001
 40
0.0
 40
0.0
 40
0.0
 40
0.0
 40
0.2726447618
 40
0.5303136163
 40
1.0
 40
1.0
 40
1.0
 40
1.0
 10
32.4897746606
 20
63.2061131171
 30
0.0
 10
32.5864984738
 20
63.1502708608
 30
0.0
 10
32.7797185469
 20
63.0499200509
 30
0.0
 10
33.1606192706
 20
62.8986089629
 30
0.0
 10
33.4562113289
 20
62.8350950263
 30
0.0
 10
33.6482825628
 20
62.8238063076
 30
0.0
  0
SPLINE
  5
28C
100
AcDbEntity
  8
1
100
AcDbSpline
 62
7
  6
BYLAYER
 70
0
 71
3
 72
14
 73
10
 74
0
 42
0.0000001
 43
0.0000001
 44
0.0000000001
 40
0.0
 40
0.0
 40
0.0
 40
0.0
 40
0.2892621871
 40
0.4225613799
 40
0.5485062065
 40
0.6678890455
 40
0.781869301
 40
0.8919545898
 40
1.0
 40
1.0
 40
1.0
 40
1.0
 10
16.7081174542
 20
54.5817428849
 30
0.0
 10
16.5413251552
 20
54.6780382852
 30
0.0
 10
16.2852259072
 20
54.799917587
 30
0.0
 10
15.9340281312
 20
54.9023253542
 30
0.0
 10
15.6847452192
 20
54.9441521666
 30
0.0
 10
15.4449016704
 20
54.9524446723
 30
0.0
 10
15.2167422177
 20
54.92702478
 30
0.0
 10
15.0027067908
 20
54.867837469
 30
0.0
 10
14.8704361524
 20
54.805886458
 30
0.0
 10
14.8081324064
 20
54.7699239758
 30
0.0
  0
SPLINE
  5
28D
100
AcDbEntity
  8
1
100
AcDbSpline
 62
7
  6
BYLAYER
 70
0
 71
3
 72
12
 73
8
 74
0
 42
0.0000001
 43
0.0000001
 44
0.0000000001
 40
0.0
 40
0.0
 40
0.0
 40
0.0
 40
0.2895267924
 40
0.548663432
 40
0.7816287289
 40
0.8918383153
 40
1.0
 40
1.0
 40
1.0
 40
1.0
 10
15.4955161318
 20
64.6509715531
 30
0.0
 10
15.4033561857
 20
64.7041789191
 30
0.0
 10
15.2200109473
 20
64.7913688588
 30
0.0
 10
14.9384464372
 20
64.8595120067
 30
0.0
 10
14.7135886454
 20
64.8534716794
 30
0.0
 10
14.5530678437
 20
64.8090681446
 30
0.0
 10
14.4799525374
 20
64.774845449
 30
0.0
 10
14.4455268169
 20
64.7549621716
 30
0.0
  0
SPLINE
  5
28E
100
AcDbEntity
  8
1
100
AcDbSpline
 62
7
  6
BYLAYER
 70
0
 71
3
 72
13
 73
9
 74
0
 42
0.0000001
 43
0.0000001
 44
0.0000000001
 40
0.0
 40
0.0
 40
0.0
 40
0.0
 40
0.108864032
 40
0.2196560015
 40
0.334117654
 40
0.4537122742
 40
0.7121229281
 40
1.0
 40
1.0
 40
1.0
 40
1.0
 10
47.8002829316
 20
77.5054326798
 30
0.0
 10
47.8002810783
 20
77.553922883
 30
0.0
 10
47.8083886018
 20
77.6519503806
 30
0.0
 10
47.8447448091
 20
77.796877094
 30
0.0
 10
47.9046923689
 20
77.9389230285
 30
0.0
 10
48.018149033
 20
78.1274058898
 30
0.0
 10
48.2200412092
 20
78.3486880045
 30
0.0
 10
48.4185325294
 20
78.4919761678
 30
0.0
 10
48.5280797741
 20
78.5586196332
 30
0.0
  0
SPLINE
  5
28F
100
AcDbEntity
  8
1
100
AcDbSpline
 62
7
  6
BYLAYER
 70
0
 71
3
 72
21
 73
17
 74
0
 42
0.0000001
 43
0.0000001
 44
0.0000000001
 40
0.0
 40
0.0
 40
0.0
 40
0.0
 40
0.0428267287
 40
0.0874213481
 40
0.1352152437
 40
0.1871398818
 40
0.2436006554
 40
0.3045739877
 40
0.3696905071
 40
0.4383157897
 40
0.5825469593
 40
0.7295890602
 40
0.8015914239
 40
0.8712103694
 40
0.9376178912
 40
1.0
 40
1.0
 40
1.0
 40
1.0
 10
48.1538295205
 20
79.3425245123
 30
0.0
 10
48.1538495048
 20
79.4179647203
 30
0.0
 10
48.1739749748
 20
79.5726187907
 30
0.0
 10
48.2627080095
 20
79.7959029399
 30
0.0
 10
48.4065903567
 20
80.0076044916
 30
0.0
 10
48.6016774969
 20
80.2034572824
 30
0.0
 10
48.84337282
 20
80.3800801761
 30
0.0
 10
49.1265659275
 20
80.5341221986
 30
0.0
 10
49.4453546105
 20
80.6625285804
 30
0.0
 10
49.9165370425
 20
80.7983023412
 30
0.0
 10
50.547867176
 20
80.8868379883
 30
0.0
 10
51.1907363012
 20
80.8691428816
 30
0.0
 10
51.6935294129
 20
80.7895003953
 30
0.0
 10
52.0492804749
 20
80.6992088367
 30
0.0
 10
52.378388574
 20
80.5798690824
 30
0.0
 10
52.5824645789
 20
80.4793143536
 30
0.0
 10
52.6776304286
 20
80.4243715677
 30
0.0
  0
SPLINE
  5
290
100
AcDbEntity
  8
1
100
AcDbSpline
 62
7
  6
BYLAYER
 70
0
 71
3
 72
11
 73
7
 74
0
 42
0.0000001
 43
0.0000001
 44
0.0000000001
 40
0.0
 40
0.0
 40
0.0
 40
0.0
 40
0.227707536
 40
0.4755207921
 40
0.735933542
 40
1.0
 40
1.0
 40
1.0
 40
1.0
 10
28.2471163097
 20
72.0130674027
 30
0.0
 10
28.3679245472
 20
71.9433203122
 30
0.0
 10
28.6052765055
 20
71.7711901351
 30
0.0
 10
28.9242141383
 20
71.4503894954
 30
0.0
 10
29.2082460801
 20
71.0702355351
 30
0.0
 10
29.3653823559
 20
70.7887040202
 30
0.0
 10
29.4345352957
 20
70.6424591508
 30
0.0
  0
ENDSEC
  0
SECTION
  2
OBJECTS
  0
DICTIONARY
  5
C
100
AcDbDictionary
280
0
281
1
  3
ACAD_GROUP
350
D
  3
ACAD_MLINESTYLE
350
17
  3
ACAD_LAYOUT
350
1A
  3
ACAD_PLOTSETTINGS
350
19
  3
ACAD_PLOTSTYLENAME
350
E
  0
DICTIONARY
  5
D
102
{ACAD_REACTORS
330
C
102
}
100
AcDbDictionary
280
0
281
1
  0
ACDBDICTIONARYWDFLT
  5
E
102
{ACAD_REACTORS
330
C
102
}
100
AcDbDictionary
281
1
  3
Normal
350
F
100
AcDbDictionaryWithDefault
340
F
  0
DICTIONARY
  5
17
102
{ACAD_REACTORS
330
C
102
}
100
AcDbDictionary
280
0
281
1
  3
Standard
350
18
  0
DICTIONARY
  5
19
102
{ACAD_REACTORS
330
C
102
}
100
AcDbDictionary
281
1
  0
DICTIONARY
  5
1A
102
{ACAD_REACTORS
330
C
102
}
100
AcDbDictionary
281
1
  3
Model
350
291
  3
Layout1
350
292
  0
ACDBPLACEHOLDER
  5
F
102
{ACAD_REACTORS
330
E
102
}
  0
MLINESTYLE
  5
18
102
{ACAD_REACTORS
330
17
102
}
100
AcDbMlineStyle
  2
STANDARD
 70
0
  3

 62
256
 51
90.0
 52
90.0
 71
2
 49
0.5
 62
256
  6
BYLAYER
 49
-0.5
 62
256
  6
BYLAYER
  0
LAYOUT
  5
291
102
{ACAD_REACTORS
330
1A
102
}
100
AcDbPlotSettings
  1

  2
none_device
  4

  6

 40
0.0
 41
0.0
 42
0.0
 43
0.0
 44
210.0
 45
297.0
 46
0.0
 47
0.0
 48
0.0
 49
0.0
140
0.0
141
0.0
142
1.0
143
1.0
 70
1024
 72
1
 73
0
 74
0
  7

 75
0
147
1.0
148
0.0
149
0.0
100
AcDbLayout
  1
Model
 70
0
 71
0
 10
0.0
 20
0.0
 11
210.0
 21
297.0
 12
0.0
 22
0.0
 32
0.0
 14
0.0
 24
0.0
 34
0.0
 15
0.0
 25
0.0
 35
0.0
146
0.0
 13
0.0
 23
0.0
 33
0.0
 16
1.0
 26
0.0
 36
0.0
 17
0.0
 27
1.0
 37
0.0
 76
0
330
212
345
0
346
0
  0
LAYOUT
  5
292
102
{ACAD_REACTORS
330
1A
102
}
100
AcDbPlotSettings
  1

  2
none_device
  4

  6

 40
0.0
 41
0.0
 42
0.0
 43
0.0
 44
210.0
 45
297.0
 46
0.0
 47
0.0
 48
0.0
 49
0.0
140
0.0
141
0.0
142
1.0
143
1.0
 70
0
 72
1
 73
0
 74
0
  7

 75
0
147
1.0
148
0.0
149
0.0
100
AcDbLayout
  1
Layout1
 70
0
 71
1
 10
0.0
 20
0.0
 11
210.0
 21
297.0
 12
0.0
 22
0.0
 32
0.0
 14
0.0
 24
0.0
 34
0.0
 15
0.0
 25
0.0
 35
0.0
146
0.0
 13
0.0
 23
0.0
 33
0.0
 16
1.0
 26
0.0
 36
0.0
 17
0.0
 27
1.0
 37
0.0
 76
0
330
213
345
0
346
0
  0
ENDSEC
  0
EOF
