999
DXF file: C:\Gen2D\CAD\GV2ME013_3D-CAD\drw0001_4.dxf
999
Pro/ENGINEER 2019471 by Parametric Technology Corporation
  0
SECTION
  2
HEADER
  9
$ACADVER
  1
AC1024
  9
$DWGCODEPAGE
  3
ANSI_1252
  9
$EXTMAX
 10
86.4852772328
 20
122.3148920863
 30
0.0
  9
$EXTMIN
 10
0.0
 20
0.0
 30
0.0
  9
$LIMMIN
 10
0.0
 20
0.0
  9
$LIMMAX
 10
86.4852772328
 20
122.3148920863
  9
$VIEWCTR
 10
43.2426386164
 20
61.1574460432
  9
$VIEWSIZE
 40
122.3148920863
  9
$CLAYER
  8
0
  9
$LTSCALE
 40
7.9731188916
  9
$CELTYPE
  6
BYLAYER
  9
$DIMSCALE
 40
1.0
  9
$DIMASZ
 40
1.0295866337
  9
$DIMEXO
 40
1.0
  9
$DIMDLI
 40
5.5087003251
  9
$DIMEXE
 40
1.0
  9
$DIMCEN
 40
1.3046921823
  9
$DIMLFAC
 40
1.0
  9
$DIMBLK
  1
_FILLED
  9
$DIMALT
 70
0
  9
$DIMALTF
 40
0.0393700787
  9
$DIMTXT
 40
1.4414212872
  9
$DIMTOL
 70
1
  9
$DIMLIM
 70
0
  9
$DIMTFAC
 40
1.0
  9
$DIMTP
 40
0.01
  9
$DIMTM
 40
0.01
  9
$DIMGAP
 40
0.625
  9
$DIMDSEP
 70
46
  9
$AUNITS
 70
0
  9
$PDMODE
 70
3
  9
$PDSIZE
 40
0.3125
  9
$HANDSEED
  5
349
  9
$TILEMODE
 70
1
  9
$MEASUREMENT
 70
1
  9
$INSUNITS
 70
4
  0
ENDSEC
  0
SECTION
  2
CLASSES
  0
CLASS
  1
ACDBDICTIONARYWDFLT
  2
AcDbDictionaryWithDefault
  3
AutoCAD 2000
 90
0
 91
1
280
0
281
0
  0
CLASS
  1
ACDBPLACEHOLDER
  2
AcDbPlaceHolder
  3
AutoCAD 2000
 90
0
 91
1
280
0
281
0
  0
CLASS
  1
LAYOUT
  2
AcDbLayout
  3
AutoCAD 2000
 90
0
 91
0
280
0
281
0
  0
ENDSEC
  0
SECTION
  2
TABLES
  0
TABLE
  2
VPORT
  5
8
100
AcDbSymbolTable
 70
2
  0
VPORT
  5
1F4
100
AcDbSymbolTableRecord
100
AcDbViewportTableRecord
  2
*ACTIVE
 70
0
 10
0.0
 20
0.0
 11
1.0
 21
1.0
 12
43.2426386164
 22
61.1574460432
 13
0.0
 23
0.0
 14
1.0
 24
1.0
 15
0.0
 25
0.0
 16
0.0
 26
0.0
 36
1.0
 17
0.0
 27
0.0
 37
0.0
 40
122.3148920863
 41
0.7070707071
 42
50.0
 43
0.0
 44
0.0
 50
0.0
 51
0.0
 71
0
 72
100
 73
1
 74
1
 75
0
 76
0
 77
0
 78
0
  0
ENDTAB
  0
TABLE
  2
LTYPE
  5
5
100
AcDbSymbolTable
 70
6
  0
LTYPE
  5
14
100
AcDbSymbolTableRecord
100
AcDbLinetypeTableRecord
  2
BYBLOCK
 70
0
  3

 72
65
 73
0
 40
0.0
  0
LTYPE
  5
15
100
AcDbSymbolTableRecord
100
AcDbLinetypeTableRecord
  2
BYLAYER
 70
0
  3

 72
65
 73
0
 40
0.0
  0
LTYPE
  5
16
100
AcDbSymbolTableRecord
100
AcDbLinetypeTableRecord
  2
CONTINUOUS
 70
64
  3
Solid line
 72
65
 73
0
 40
0.0
  0
LTYPE
  5
1F5
100
AcDbSymbolTableRecord
100
AcDbLinetypeTableRecord
  2
CENTER
 70
64
  3
____ _ ____ _ ____ _ ____ _ ____ _ ____ _ ____
 72
65
 73
4
 40
0.6
 49
0.375
 74
0
 49
-0.075
 74
0
 49
0.075
 74
0
 49
-0.075
 74
0
  0
LTYPE
  5
1F6
100
AcDbSymbolTableRecord
100
AcDbLinetypeTableRecord
  2
HIDDEN
 70
64
  3
- - - - - - - - - - - - - - - - - - - -
 72
65
 73
2
 40
0.2
 49
0.1
 74
0
 49
-0.1
 74
0
  0
LTYPE
  5
1F7
100
AcDbSymbolTableRecord
100
AcDbLinetypeTableRecord
  2
PHANTOM
 70
64
  3
_____ _ _ _____ _ _ _____ _ _ _____
 72
65
 73
6
 40
0.8
 49
0.45
 74
0
 49
-0.05
 74
0
 49
0.1
 74
0
 49
-0.05
 74
0
 49
0.1
 74
0
 49
-0.05
 74
0
  0
LTYPE
  5
1F8
100
AcDbSymbolTableRecord
100
AcDbLinetypeTableRecord
  2
DOT
 70
64
  3
. . . . . . . . . . . . . . . . . . . .
 72
65
 73
2
 40
0.2
 49
0.1
 74
0
 49
-0.1
 74
0
  0
LTYPE
  5
1F9
100
AcDbSymbolTableRecord
100
AcDbLinetypeTableRecord
  2
DASHED
 70
64
  3
- - - - - - - - - - - - - - - - - - - -
 72
65
 73
2
 40
0.2
 49
0.1
 74
0
 49
-0.1
 74
0
  0
ENDTAB
  0
TABLE
  2
LAYER
  5
2
100
AcDbSymbolTable
 70
36
  0
LAYER
  5
10
100
AcDbSymbolTableRecord
100
AcDbLayerTableRecord
  2
0
 70
0
 62
7
  6
CONTINUOUS
370
-3
390
F
  0
LAYER
  5
1FA
100
AcDbSymbolTableRecord
100
AcDbLayerTableRecord
  2
DEFAULT_1
 70
0
 62
7
  6
CENTER
370
-3
390
F
  0
LAYER
  5
1FB
100
AcDbSymbolTableRecord
100
AcDbLayerTableRecord
  2
DEFAULT_2
 70
0
 62
8
  6
HIDDEN
370
-3
390
F
  0
LAYER
  5
1FC
100
AcDbSymbolTableRecord
100
AcDbLayerTableRecord
  2
DEFAULT_3
 70
0
 62
7
  6
PHANTOM
370
-3
390
F
  0
LAYER
  5
1FD
100
AcDbSymbolTableRecord
100
AcDbLayerTableRecord
  2
00_COMPONENTS
 70
0
 62
7
  6
CONTINUOUS
370
-3
390
F
  0
LAYER
  5
1FE
100
AcDbSymbolTableRecord
100
AcDbLayerTableRecord
  2
01_1_DEFAULT_DATUMS
 70
0
 62
7
  6
CONTINUOUS
370
-3
390
F
  0
LAYER
  5
1FF
100
AcDbSymbolTableRecord
100
AcDbLayerTableRecord
  2
01_PLANES
 70
0
 62
7
  6
CONTINUOUS
370
-3
390
F
  0
LAYER
  5
200
100
AcDbSymbolTableRecord
100
AcDbLayerTableRecord
  2
02_COORD_SYS
 70
0
 62
7
  6
CONTINUOUS
370
-3
390
F
  0
LAYER
  5
201
100
AcDbSymbolTableRecord
100
AcDbLayerTableRecord
  2
03_AXES
 70
0
 62
7
  6
CONTINUOUS
370
-3
390
F
  0
LAYER
  5
202
100
AcDbSymbolTableRecord
100
AcDbLayerTableRecord
  2
04_POINTS
 70
0
 62
7
  6
CONTINUOUS
370
-3
390
F
  0
LAYER
  5
203
100
AcDbSymbolTableRecord
100
AcDbLayerTableRecord
  2
05_CURVES
 70
0
 62
7
  6
CONTINUOUS
370
-3
390
F
  0
LAYER
  5
204
100
AcDbSymbolTableRecord
100
AcDbLayerTableRecord
  2
06_SURFS
 70
0
 62
7
  6
CONTINUOUS
370
-3
390
F
  0
LAYER
  5
205
100
AcDbSymbolTableRecord
100
AcDbLayerTableRecord
  2
07_COSMETICS
 70
0
 62
7
  6
CONTINUOUS
370
-3
390
F
  0
LAYER
  5
206
100
AcDbSymbolTableRecord
100
AcDbLayerTableRecord
  2
10_NOTES
 70
0
 62
7
  6
CONTINUOUS
370
-3
390
F
  0
LAYER
  5
207
100
AcDbSymbolTableRecord
100
AcDbLayerTableRecord
  2
11_NOTES_PUB
 70
0
 62
7
  6
CONTINUOUS
370
-3
390
F
  0
LAYER
  5
208
100
AcDbSymbolTableRecord
100
AcDbLayerTableRecord
  2
13_REF_GTOL
 70
0
 62
7
  6
CONTINUOUS
370
-3
390
F
  0
LAYER
  5
209
100
AcDbSymbolTableRecord
100
AcDbLayerTableRecord
  2
16_MISC
 70
0
 62
7
  6
CONTINUOUS
370
-3
390
F
  0
LAYER
  5
20A
100
AcDbSymbolTableRecord
100
AcDbLayerTableRecord
  2
17_NO_PRINT
 70
0
 62
7
  6
CONTINUOUS
370
-3
390
F
  0
LAYER
  5
20B
100
AcDbSymbolTableRecord
100
AcDbLayerTableRecord
  2
18_DATUM_CAMS_JOINTS
 70
0
 62
7
  6
CONTINUOUS
370
-3
390
F
  0
LAYER
  5
20C
100
AcDbSymbolTableRecord
100
AcDbLayerTableRecord
  2
19_DATUM_FUNCTIONAL
 70
0
 62
7
  6
CONTINUOUS
370
-3
390
F
  0
LAYER
  5
20D
100
AcDbSymbolTableRecord
100
AcDbLayerTableRecord
  2
20_DATUM_KINEMATIC_SCHEME
 70
0
 62
7
  6
CONTINUOUS
370
-3
390
F
  0
LAYER
  5
20E
100
AcDbSymbolTableRecord
100
AcDbLayerTableRecord
  2
INTFCLR_65
 70
0
 62
7
  6
CONTINUOUS
370
-3
390
F
  0
ENDTAB
  0
TABLE
  2
STYLE
  5
3
100
AcDbSymbolTable
 70
1
  0
STYLE
  5
11
100
AcDbSymbolTableRecord
100
AcDbTextStyleTableRecord
  2
STANDARD
 70
0
 40
0.0
 41
0.8
 50
0.0
 71
0
 42
0.2
  3
txt
  4

  0
STYLE
  5
20F
100
AcDbSymbolTableRecord
100
AcDbTextStyleTableRecord
  2
TEXTSTYLE_1
 70
0
 40
0.0
 41
0.8
 50
0.0
 71
0
 42
0.2
  3
gdt
  4

  0
ENDTAB
  0
TABLE
  2
VIEW
  5
6
100
AcDbSymbolTable
 70
0
  0
ENDTAB
  0
TABLE
  2
UCS
  5
7
100
AcDbSymbolTable
 70
0
  0
ENDTAB
  0
TABLE
  2
APPID
  5
9
100
AcDbSymbolTable
 70
1
  0
APPID
  5
210
100
AcDbSymbolTableRecord
100
AcDbRegAppTableRecord
  2
ACAD
 70
0
  0
ENDTAB
  0
TABLE
  2
BLOCK_RECORD
  5
1
100
AcDbSymbolTable
 70
0
  0
BLOCK_RECORD
  5
211
100
AcDbSymbolTableRecord
100
AcDbBlockTableRecord
  2
*Model_Space
  0
BLOCK_RECORD
  5
212
100
AcDbSymbolTableRecord
100
AcDbBlockTableRecord
  2
*Paper_Space
  0
BLOCK_RECORD
  5
213
100
AcDbSymbolTableRecord
100
AcDbBlockTableRecord
  2
_FILLED
  0
ENDTAB
  0
TABLE
  2
DIMSTYLE
  5
A
100
AcDbSymbolTable
 70
1
100
AcDbDimStyleTable
 71
0
  0
DIMSTYLE
105
214
100
AcDbSymbolTableRecord
100
AcDbDimStyleTableRecord
  2
STANDARD
 70
0
  3

  4

 40
1.0
 41
1.0295866337
 42
1.0
 43
0.38
 44
1.0
 45
0.0
 46
0.0
 47
0.01
 48
0.01
140
1.4414212872
141
0.09
142
0.0
143
25.4
144
1.0
145
0.0
146
1.0
147
0.625
 71
1
 72
0
 73
0
 74
0
 75
0
 76
0
 77
1
 78
8
 79
2
170
0
171
1
172
0
173
0
174
0
175
0
176
0
177
0
178
0
270
2
179
2
271
2
272
2
273
2
274
2
275
0
280
0
281
0
282
0
283
1
284
8
285
0
286
0
287
3
288
0
340
11
278
46
341
213
342
213
343
213
344
213
  0
ENDTAB
  0
ENDSEC
  0
SECTION
  2
BLOCKS
  0
BLOCK
  5
20
100
AcDbEntity
  8
0
100
AcDbBlockBegin
  2
*Model_Space
 70
0
 10
0.0
 20
0.0
 30
0.0
  3
*Model_Space
  1

  0
ENDBLK
  5
21
100
AcDbEntity
  8
0
100
AcDbBlockEnd
  0
BLOCK
  5
1C
100
AcDbEntity
  8
0
100
AcDbBlockBegin
  2
*Paper_Space
 70
0
 10
0.0
 20
0.0
 30
0.0
  3
*Paper_Space
  1

  0
ENDBLK
  5
1D
100
AcDbEntity
  8
0
100
AcDbBlockEnd
  0
BLOCK
  5
215
100
AcDbEntity
  8
0
100
AcDbBlockBegin
  2
_FILLED
 70
64
 10
0.0
 20
0.0
  3
_FILLED
  1

  0
SOLID
  5
216
100
AcDbEntity
  8
0
  6
BYBLOCK
 62
0
100
AcDbTrace
 10
0.0
 20
0.0
 11
-1.0
 21
0.25
 12
-1.0
 22
-0.25
 13
-1.0
 23
-0.25
  0
ENDBLK
  5
217
100
AcDbEntity
  8
0
  6
BYBLOCK
 62
0
100
AcDbBlockEnd
  0
ENDSEC
  0
SECTION
  2
ENTITIES
  0
LINE
  5
218
100
AcDbEntity
  8
0
100
AcDbLine
 62
7
  6
CONTINUOUS
 10
66.615480343
 20
8.7581654676
 11
64.965480343
 21
8.7581654676
  0
LINE
  5
219
100
AcDbEntity
  8
0
100
AcDbLine
 62
7
  6
CONTINUOUS
 10
23.765480343
 20
8.7581654676
 11
22.115480343
 21
8.7581654676
  0
LINE
  5
21A
100
AcDbEntity
  8
0
100
AcDbLine
 62
7
  6
CONTINUOUS
 10
22.115480343
 20
9.2581654676
 11
24.265480343
 21
9.2581654676
  0
LINE
  5
21B
100
AcDbEntity
  8
0
100
AcDbLine
 62
7
  6
CONTINUOUS
 10
64.465480343
 20
9.2581654676
 11
66.615480343
 21
9.2581654676
  0
LINE
  5
21C
100
AcDbEntity
  8
0
100
AcDbLine
 62
7
  6
CONTINUOUS
 10
24.265480343
 20
10.4587914137
 11
23.365480343
 21
10.4587914137
  0
LINE
  5
21D
100
AcDbEntity
  8
0
100
AcDbLine
 62
7
  6
CONTINUOUS
 10
64.465480343
 20
10.4587914137
 11
65.365480343
 21
10.4587914137
  0
LINE
  5
21E
100
AcDbEntity
  8
0
100
AcDbLine
 62
7
  6
CONTINUOUS
 10
24.265480343
 20
10.755614681
 11
23.365480343
 21
10.755614681
  0
LINE
  5
21F
100
AcDbEntity
  8
0
100
AcDbLine
 62
7
  6
CONTINUOUS
 10
64.465480343
 20
10.755614681
 11
65.365480343
 21
10.755614681
  0
LINE
  5
220
100
AcDbEntity
  8
0
100
AcDbLine
 62
7
  6
CONTINUOUS
 10
47.865480343
 20
11.759795555
 11
40.865480343
 21
11.759795555
  0
LINE
  5
221
100
AcDbEntity
  8
0
100
AcDbLine
 62
7
  6
CONTINUOUS
 10
49.365480343
 20
13.1581654676
 11
47.865480343
 21
13.1562094385
  0
LINE
  5
222
100
AcDbEntity
  8
0
100
AcDbLine
 62
7
  6
CONTINUOUS
 10
24.265480343
 20
12.4608402664
 11
23.365480343
 21
12.4608402664
  0
LINE
  5
223
100
AcDbEntity
  8
0
100
AcDbLine
 62
7
  6
CONTINUOUS
 10
64.465480343
 20
12.4608402664
 11
65.365480343
 21
12.4608402664
  0
LINE
  5
224
100
AcDbEntity
  8
0
100
AcDbLine
 62
7
  6
CONTINUOUS
 10
24.265480343
 20
12.7588628015
 11
23.365480343
 21
12.7588628015
  0
LINE
  5
225
100
AcDbEntity
  8
0
100
AcDbLine
 62
7
  6
CONTINUOUS
 10
64.465480343
 20
12.7588628015
 11
65.365480343
 21
12.7588628015
  0
LINE
  5
226
100
AcDbEntity
  8
0
100
AcDbLine
 62
7
  6
CONTINUOUS
 10
47.865480343
 20
13.0281654676
 11
40.865480343
 21
13.0281654676
  0
LINE
  5
227
100
AcDbEntity
  8
0
100
AcDbLine
 62
7
  6
CONTINUOUS
 10
66.615480343
 20
13.1581654676
 11
49.365480343
 21
13.1581654676
  0
LINE
  5
228
100
AcDbEntity
  8
0
100
AcDbLine
 62
7
  6
CONTINUOUS
 10
39.365480343
 20
13.1581654676
 11
22.115480343
 21
13.1581654676
  0
LINE
  5
229
100
AcDbEntity
  8
0
100
AcDbLine
 62
7
  6
CONTINUOUS
 10
22.115480343
 20
13.6581654676
 11
39.865480343
 21
13.6581654676
  0
LINE
  5
22A
100
AcDbEntity
  8
0
100
AcDbLine
 62
7
  6
CONTINUOUS
 10
48.865480343
 20
13.6581654676
 11
66.615480343
 21
13.6581654676
  0
LINE
  5
22B
100
AcDbEntity
  8
0
100
AcDbLine
 62
7
  6
CONTINUOUS
 10
47.865480343
 20
13.7881654676
 11
40.865480343
 21
13.7881654676
  0
LINE
  5
22C
100
AcDbEntity
  8
0
100
AcDbLine
 62
7
  6
CONTINUOUS
 10
39.865480343
 20
15.2581654676
 11
48.865480343
 21
15.2581654676
  0
LINE
  5
22D
100
AcDbEntity
  8
0
100
AcDbLine
 62
7
  6
CONTINUOUS
 10
63.5974635384
 20
15.5881654676
 11
58.8274635384
 21
15.5881654676
  0
LINE
  5
22E
100
AcDbEntity
  8
0
100
AcDbLine
 62
7
  6
CONTINUOUS
 10
56.8974635384
 20
15.5881654676
 11
52.1274635384
 21
15.5881654676
  0
LINE
  5
22F
100
AcDbEntity
  8
0
100
AcDbLine
 62
7
  6
CONTINUOUS
 10
50.0974635384
 20
15.5881654676
 11
45.3274635384
 21
15.5881654676
  0
LINE
  5
230
100
AcDbEntity
  8
0
100
AcDbLine
 62
7
  6
CONTINUOUS
 10
43.3974635384
 20
15.5881654676
 11
38.6274635384
 21
15.5881654676
  0
LINE
  5
231
100
AcDbEntity
  8
0
100
AcDbLine
 62
7
  6
CONTINUOUS
 10
36.5974635384
 20
15.5881654676
 11
31.8274635384
 21
15.5881654676
  0
LINE
  5
232
100
AcDbEntity
  8
0
100
AcDbLine
 62
7
  6
CONTINUOUS
 10
29.8974635384
 20
15.5881654676
 11
25.1274635384
 21
15.5881654676
  0
LINE
  5
233
100
AcDbEntity
  8
0
100
AcDbLine
 62
7
  6
CONTINUOUS
 10
40.865480343
 20
13.1552451814
 11
39.365480343
 21
13.1581654676
  0
LINE
  5
234
100
AcDbEntity
  8
0
100
AcDbLine
 62
7
  6
CONTINUOUS
 10
25.330480343
 20
22.5381654676
 11
29.700480343
 21
22.5381654676
  0
LINE
  5
235
100
AcDbEntity
  8
0
100
AcDbLine
 62
7
  6
CONTINUOUS
 10
32.030480343
 20
22.5381654676
 11
36.400480343
 21
22.5381654676
  0
LINE
  5
236
100
AcDbEntity
  8
0
100
AcDbLine
 62
7
  6
CONTINUOUS
 10
38.830480343
 20
22.5381654676
 11
43.200480343
 21
22.5381654676
  0
LINE
  5
237
100
AcDbEntity
  8
0
100
AcDbLine
 62
7
  6
CONTINUOUS
 10
45.530480343
 20
22.5381654676
 11
49.900480343
 21
22.5381654676
  0
LINE
  5
238
100
AcDbEntity
  8
0
100
AcDbLine
 62
7
  6
CONTINUOUS
 10
52.330480343
 20
22.5381654676
 11
56.700480343
 21
22.5381654676
  0
LINE
  5
239
100
AcDbEntity
  8
0
100
AcDbLine
 62
7
  6
CONTINUOUS
 10
59.030480343
 20
22.5381654676
 11
63.400480343
 21
22.5381654676
  0
LINE
  5
23A
100
AcDbEntity
  8
0
100
AcDbLine
 62
7
  6
CONTINUOUS
 10
25.8774635384
 20
109.9581654676
 11
25.215480343
 21
108.0561398566
  0
LINE
  5
23B
100
AcDbEntity
  8
0
100
AcDbLine
 62
7
  6
CONTINUOUS
 10
62.465480343
 20
24.1381654676
 11
58.265480343
 21
24.1381654676
  0
LINE
  5
23C
100
AcDbEntity
  8
0
100
AcDbLine
 62
7
  6
CONTINUOUS
 10
57.465480343
 20
24.1381654676
 11
53.265480343
 21
24.1381654676
  0
LINE
  5
23D
100
AcDbEntity
  8
0
100
AcDbLine
 62
7
  6
CONTINUOUS
 10
48.965480343
 20
24.1381654676
 11
44.765480343
 21
24.1381654676
  0
LINE
  5
23E
100
AcDbEntity
  8
0
100
AcDbLine
 62
7
  6
CONTINUOUS
 10
43.965480343
 20
24.1381654676
 11
39.765480343
 21
24.1381654676
  0
LINE
  5
23F
100
AcDbEntity
  8
0
100
AcDbLine
 62
7
  6
CONTINUOUS
 10
35.465480343
 20
24.1381654676
 11
31.265480343
 21
24.1381654676
  0
LINE
  5
240
100
AcDbEntity
  8
0
100
AcDbLine
 62
7
  6
CONTINUOUS
 10
30.465480343
 20
24.1381654676
 11
26.265480343
 21
24.1381654676
  0
LINE
  5
241
100
AcDbEntity
  8
0
100
AcDbLine
 62
7
  6
CONTINUOUS
 10
26.265480343
 20
27.8381654676
 11
30.465480343
 21
27.8381654676
  0
LINE
  5
242
100
AcDbEntity
  8
0
100
AcDbLine
 62
7
  6
CONTINUOUS
 10
31.265480343
 20
27.8381654676
 11
35.465480343
 21
27.8381654676
  0
LINE
  5
243
100
AcDbEntity
  8
0
100
AcDbLine
 62
7
  6
CONTINUOUS
 10
39.765480343
 20
27.8381654676
 11
43.965480343
 21
27.8381654676
  0
LINE
  5
244
100
AcDbEntity
  8
0
100
AcDbLine
 62
7
  6
CONTINUOUS
 10
44.765480343
 20
27.8381654676
 11
48.965480343
 21
27.8381654676
  0
LINE
  5
245
100
AcDbEntity
  8
0
100
AcDbLine
 62
7
  6
CONTINUOUS
 10
53.265480343
 20
27.8381654676
 11
57.465480343
 21
27.8381654676
  0
LINE
  5
246
100
AcDbEntity
  8
0
100
AcDbLine
 62
7
  6
CONTINUOUS
 10
58.265480343
 20
27.8381654676
 11
62.465480343
 21
27.8381654676
  0
LINE
  5
247
100
AcDbEntity
  8
0
100
AcDbLine
 62
7
  6
CONTINUOUS
 10
24.465480343
 20
17.4901910787
 11
25.1274635384
 21
15.5881654676
  0
LINE
  5
248
100
AcDbEntity
  8
0
100
AcDbLine
 62
7
  6
CONTINUOUS
 10
31.825480343
 20
109.9581654676
 11
31.165480343
 21
108.0824560487
  0
LINE
  5
249
100
AcDbEntity
  8
0
100
AcDbLine
 62
7
  6
CONTINUOUS
 10
26.765480343
 20
31.5381654676
 11
29.965480343
 21
31.5381654676
  0
LINE
  5
24A
100
AcDbEntity
  8
0
100
AcDbLine
 62
7
  6
CONTINUOUS
 10
31.765480343
 20
31.5381654676
 11
34.965480343
 21
31.5381654676
  0
LINE
  5
24B
100
AcDbEntity
  8
0
100
AcDbLine
 62
7
  6
CONTINUOUS
 10
40.265480343
 20
31.5381654676
 11
43.465480343
 21
31.5381654676
  0
LINE
  5
24C
100
AcDbEntity
  8
0
100
AcDbLine
 62
7
  6
CONTINUOUS
 10
45.265480343
 20
31.5381654676
 11
48.465480343
 21
31.5381654676
  0
LINE
  5
24D
100
AcDbEntity
  8
0
100
AcDbLine
 62
7
  6
CONTINUOUS
 10
53.765480343
 20
31.5381654676
 11
56.965480343
 21
31.5381654676
  0
LINE
  5
24E
100
AcDbEntity
  8
0
100
AcDbLine
 62
7
  6
CONTINUOUS
 10
58.765480343
 20
31.5381654676
 11
61.965480343
 21
31.5381654676
  0
LINE
  5
24F
100
AcDbEntity
  8
0
100
AcDbLine
 62
7
  6
CONTINUOUS
 10
31.165480343
 20
17.4901910787
 11
31.8274635384
 21
15.5881654676
  0
LINE
  5
250
100
AcDbEntity
  8
0
100
AcDbLine
 62
7
  6
CONTINUOUS
 10
22.115480343
 20
8.7581654676
 11
22.115480343
 21
112.8081654676
  0
LINE
  5
251
100
AcDbEntity
  8
0
100
AcDbLine
 62
7
  6
CONTINUOUS
 10
22.215480343
 20
40.0181654676
 11
22.215480343
 21
84.6415252857
  0
LINE
  5
252
100
AcDbEntity
  8
0
100
AcDbLine
 62
7
  6
CONTINUOUS
 10
23.0859568445
 20
40.0181654676
 11
23.0859568445
 21
84.6358336452
  0
LINE
  5
253
100
AcDbEntity
  8
0
100
AcDbLine
 62
7
  6
CONTINUOUS
 10
23.365480343
 20
12.7588628015
 11
23.365480343
 21
10.4587914137
  0
LINE
  5
254
100
AcDbEntity
  8
0
100
AcDbLine
 62
7
  6
CONTINUOUS
 10
24.265480343
 20
9.2581654676
 11
24.265480343
 21
10.755614681
  0
LINE
  5
255
100
AcDbEntity
  8
0
100
AcDbLine
 62
7
  6
CONTINUOUS
 10
24.265480343
 20
12.4608402664
 11
24.265480343
 21
13.1581654676
  0
LINE
  5
256
100
AcDbEntity
  8
0
100
AcDbLine
 62
7
  6
CONTINUOUS
 10
24.465480343
 20
17.4901910787
 11
24.465480343
 21
20.4101910787
  0
LINE
  5
257
100
AcDbEntity
  8
0
100
AcDbLine
 62
7
  6
CONTINUOUS
 10
25.215480343
 20
105.1361398566
 11
25.215480343
 21
108.0561398566
  0
LINE
  5
258
100
AcDbEntity
  8
0
100
AcDbLine
 62
7
  6
CONTINUOUS
 10
36.677374406
 20
103.0081654676
 11
37.265480343
 21
105.1131057859
  0
LINE
  5
259
100
AcDbEntity
  8
0
100
AcDbLine
 62
7
  6
CONTINUOUS
 10
38.625480343
 20
109.9581654676
 11
37.965480343
 21
108.0824560487
  0
LINE
  5
25A
100
AcDbEntity
  8
0
100
AcDbLine
 62
7
  6
CONTINUOUS
 10
66.615480343
 20
39.6570555788
 11
22.115480343
 21
39.6570555788
  0
LINE
  5
25B
100
AcDbEntity
  8
0
100
AcDbLine
 62
7
  6
CONTINUOUS
 10
66.615480343
 20
39.7181654676
 11
22.115480343
 21
39.7181654676
  0
LINE
  5
25C
100
AcDbEntity
  8
0
100
AcDbLine
 62
7
  6
CONTINUOUS
 10
22.215480343
 20
40.0181654676
 11
66.515480343
 21
40.0181654676
  0
LINE
  5
25D
100
AcDbEntity
  8
0
100
AcDbLine
 62
7
  6
CONTINUOUS
 10
64.645480343
 20
40.2481654676
 11
49.9667296985
 21
40.2481654676
  0
LINE
  5
25E
100
AcDbEntity
  8
0
100
AcDbLine
 62
7
  6
CONTINUOUS
 10
37.965480343
 20
17.4901910787
 11
38.6274635384
 21
15.5881654676
  0
LINE
  5
25F
100
AcDbEntity
  8
0
100
AcDbLine
 62
7
  6
CONTINUOUS
 10
26.265480343
 20
24.1381654676
 11
26.265480343
 21
31.0381654676
  0
LINE
  5
260
100
AcDbEntity
  8
0
100
AcDbLine
 62
7
  6
CONTINUOUS
 10
26.265480343
 20
94.2081654676
 11
26.265480343
 21
101.4081654676
  0
LINE
  5
261
100
AcDbEntity
  8
0
100
AcDbLine
 62
7
  6
CONTINUOUS
 10
26.825480343
 20
62.0381654676
 11
26.825480343
 21
63.2381654676
  0
LINE
  5
262
100
AcDbEntity
  8
0
100
AcDbLine
 62
7
  6
CONTINUOUS
 10
28.475480343
 20
63.2381654676
 11
28.475480343
 21
62.0381654676
  0
LINE
  5
263
100
AcDbEntity
  8
0
100
AcDbLine
 62
7
  6
CONTINUOUS
 10
28.675480343
 20
62.0381654676
 11
28.675480343
 21
63.2381654676
  0
LINE
  5
264
100
AcDbEntity
  8
0
100
AcDbLine
 62
7
  6
CONTINUOUS
 10
45.425480343
 20
109.9581654676
 11
44.765480343
 21
108.0824560487
  0
LINE
  5
265
100
AcDbEntity
  8
0
100
AcDbLine
 62
7
  6
CONTINUOUS
 10
30.325480343
 20
63.2381654676
 11
30.325480343
 21
62.0381654676
  0
LINE
  5
266
100
AcDbEntity
  8
0
100
AcDbLine
 62
7
  6
CONTINUOUS
 10
30.465480343
 20
101.4081654676
 11
30.465480343
 21
94.2081654676
  0
LINE
  5
267
100
AcDbEntity
  8
0
100
AcDbLine
 62
7
  6
CONTINUOUS
 10
30.465480343
 20
31.0381654676
 11
30.465480343
 21
24.1381654676
  0
LINE
  5
268
100
AcDbEntity
  8
0
100
AcDbLine
 62
7
  6
CONTINUOUS
 10
30.565480343
 20
108.0561398566
 11
30.565480343
 21
105.1361398566
  0
LINE
  5
269
100
AcDbEntity
  8
0
100
AcDbLine
 62
7
  6
CONTINUOUS
 10
30.565480343
 20
20.4101910787
 11
30.565480343
 21
17.4901910787
  0
LINE
  5
26A
100
AcDbEntity
  8
0
100
AcDbLine
 62
7
  6
CONTINUOUS
 10
31.165480343
 20
17.4901910787
 11
31.165480343
 21
20.4101910787
  0
LINE
  5
26B
100
AcDbEntity
  8
0
100
AcDbLine
 62
7
  6
CONTINUOUS
 10
31.165480343
 20
105.1624560487
 11
31.165480343
 21
108.0824560487
  0
LINE
  5
26C
100
AcDbEntity
  8
0
100
AcDbLine
 62
7
  6
CONTINUOUS
 10
31.265480343
 20
24.1381654676
 11
31.265480343
 21
31.0381654676
  0
LINE
  5
26D
100
AcDbEntity
  8
0
100
AcDbLine
 62
7
  6
CONTINUOUS
 10
31.265480343
 20
94.9081654676
 11
31.265480343
 21
101.4081654676
  0
LINE
  5
26E
100
AcDbEntity
  8
0
100
AcDbLine
 62
7
  6
CONTINUOUS
 10
43.477374406
 20
103.0081654676
 11
44.065480343
 21
105.1131057859
  0
LINE
  5
26F
100
AcDbEntity
  8
0
100
AcDbLine
 62
7
  6
CONTINUOUS
 10
49.9667296985
 20
48.1981654676
 11
64.645480343
 21
48.1981654676
  0
LINE
  5
270
100
AcDbEntity
  8
0
100
AcDbLine
 62
7
  6
CONTINUOUS
 10
44.665480343
 20
17.4901910787
 11
45.3274635384
 21
15.5881654676
  0
LINE
  5
271
100
AcDbEntity
  8
0
100
AcDbLine
 62
7
  6
CONTINUOUS
 10
35.465480343
 20
101.4081654676
 11
35.465480343
 21
94.9081654676
  0
LINE
  5
272
100
AcDbEntity
  8
0
100
AcDbLine
 62
7
  6
CONTINUOUS
 10
35.465480343
 20
31.0381654676
 11
35.465480343
 21
24.1381654676
  0
LINE
  5
273
100
AcDbEntity
  8
0
100
AcDbLine
 62
7
  6
CONTINUOUS
 10
35.5351073802
 20
82.6284212175
 11
35.5351073802
 21
55.6288660272
  0
LINE
  5
274
100
AcDbEntity
  8
0
100
AcDbLine
 62
7
  6
CONTINUOUS
 10
35.865480343
 20
55.2381654676
 11
35.865480343
 21
84.62915289
  0
LINE
  5
275
100
AcDbEntity
  8
0
100
AcDbLine
 62
7
  6
CONTINUOUS
 10
36.0684198908
 20
55.2381654676
 11
36.0684198908
 21
40.0181654676
  0
LINE
  5
276
100
AcDbEntity
  8
0
100
AcDbLine
 62
7
  6
CONTINUOUS
 10
36.115480343
 20
80.1022996835
 11
36.115480343
 21
60.9881654676
  0
LINE
  5
277
100
AcDbEntity
  8
0
100
AcDbLine
 62
7
  6
CONTINUOUS
 10
37.265480343
 20
108.033105786
 11
37.265480343
 21
105.113105786
  0
LINE
  5
278
100
AcDbEntity
  8
0
100
AcDbLine
 62
7
  6
CONTINUOUS
 10
37.265480343
 20
20.4101910787
 11
37.265480343
 21
17.4901910787
  0
LINE
  5
279
100
AcDbEntity
  8
0
100
AcDbLine
 62
7
  6
CONTINUOUS
 10
52.225480343
 20
109.9581654676
 11
51.565480343
 21
108.0824560487
  0
LINE
  5
27A
100
AcDbEntity
  8
0
100
AcDbLine
 62
7
  6
CONTINUOUS
 10
51.465480343
 20
17.4901910787
 11
52.1274635384
 21
15.5881654676
  0
LINE
  5
27B
100
AcDbEntity
  8
0
100
AcDbLine
 62
7
  6
CONTINUOUS
 10
37.965480343
 20
17.4901910787
 11
37.965480343
 21
20.4101910787
  0
LINE
  5
27C
100
AcDbEntity
  8
0
100
AcDbLine
 62
7
  6
CONTINUOUS
 10
37.965480343
 20
105.1624560487
 11
37.965480343
 21
108.0824560487
  0
LINE
  5
27D
100
AcDbEntity
  8
0
100
AcDbLine
 62
7
  6
CONTINUOUS
 10
39.765480343
 20
24.1381654676
 11
39.765480343
 21
31.0381654676
  0
LINE
  5
27E
100
AcDbEntity
  8
0
100
AcDbLine
 62
7
  6
CONTINUOUS
 10
39.765480343
 20
94.2081654676
 11
39.765480343
 21
101.4081654676
  0
LINE
  5
27F
100
AcDbEntity
  8
0
100
AcDbLine
 62
7
  6
CONTINUOUS
 10
39.865480343
 20
15.2581654676
 11
39.865480343
 21
13.6581654676
  0
LINE
  5
280
100
AcDbEntity
  8
0
100
AcDbLine
 62
7
  6
CONTINUOUS
 10
39.865480343
 20
111.6165081904
 11
39.865480343
 21
112.8081654676
  0
LINE
  5
281
100
AcDbEntity
  8
0
100
AcDbLine
 62
7
  6
CONTINUOUS
 10
40.865480343
 20
13.7881654676
 11
40.865480343
 21
11.7587088301
  0
LINE
  5
282
100
AcDbEntity
  8
0
100
AcDbLine
 62
7
  6
CONTINUOUS
 10
50.277374406
 20
103.0081654676
 11
50.865480343
 21
105.1131057859
  0
LINE
  5
283
100
AcDbEntity
  8
0
100
AcDbLine
 62
7
  6
CONTINUOUS
 10
63.365480343
 20
55.2381654676
 11
51.865480343
 21
55.2381654676
  0
LINE
  5
284
100
AcDbEntity
  8
0
100
AcDbLine
 62
7
  6
CONTINUOUS
 10
47.365480343
 20
55.2381654676
 11
35.865480343
 21
55.2381654676
  0
LINE
  5
285
100
AcDbEntity
  8
0
100
AcDbLine
 62
7
  6
CONTINUOUS
 10
43.965480343
 20
101.4081654676
 11
43.965480343
 21
94.2081654676
  0
LINE
  5
286
100
AcDbEntity
  8
0
100
AcDbLine
 62
7
  6
CONTINUOUS
 10
43.965480343
 20
31.0381654676
 11
43.965480343
 21
24.1381654676
  0
LINE
  5
287
100
AcDbEntity
  8
0
100
AcDbLine
 62
7
  6
CONTINUOUS
 10
44.065480343
 20
108.033105786
 11
44.065480343
 21
105.113105786
  0
LINE
  5
288
100
AcDbEntity
  8
0
100
AcDbLine
 62
7
  6
CONTINUOUS
 10
44.065480343
 20
20.4101910787
 11
44.065480343
 21
17.4901910787
  0
LINE
  5
289
100
AcDbEntity
  8
0
100
AcDbLine
 62
7
  6
CONTINUOUS
 10
44.665480343
 20
17.4901910787
 11
44.665480343
 21
20.4101910787
  0
LINE
  5
28A
100
AcDbEntity
  8
0
100
AcDbLine
 62
7
  6
CONTINUOUS
 10
44.765480343
 20
24.1381654676
 11
44.765480343
 21
31.0381654676
  0
LINE
  5
28B
100
AcDbEntity
  8
0
100
AcDbLine
 62
7
  6
CONTINUOUS
 10
44.765480343
 20
94.9081654676
 11
44.765480343
 21
101.4081654676
  0
LINE
  5
28C
100
AcDbEntity
  8
0
100
AcDbLine
 62
7
  6
CONTINUOUS
 10
44.765480343
 20
105.1624560487
 11
44.765480343
 21
108.0824560487
  0
LINE
  5
28D
100
AcDbEntity
  8
0
100
AcDbLine
 62
7
  6
CONTINUOUS
 10
58.8274635384
 20
109.9581654676
 11
58.165480343
 21
108.0561398566
  0
LINE
  5
28E
100
AcDbEntity
  8
0
100
AcDbLine
 62
7
  6
CONTINUOUS
 10
47.115480343
 20
60.9881654676
 11
36.115480343
 21
60.9881654676
  0
LINE
  5
28F
100
AcDbEntity
  8
0
100
AcDbLine
 62
7
  6
CONTINUOUS
 10
58.165480343
 20
17.4901910787
 11
58.8274635384
 21
15.5881654676
  0
LINE
  5
290
100
AcDbEntity
  8
0
100
AcDbLine
 62
7
  6
CONTINUOUS
 10
31.165480343
 20
105.1624560487
 11
31.767374406
 21
103.0081654676
  0
LINE
  5
291
100
AcDbEntity
  8
0
100
AcDbLine
 62
7
  6
CONTINUOUS
 10
47.115480343
 20
60.9881654676
 11
47.115480343
 21
80.1022996835
  0
LINE
  5
292
100
AcDbEntity
  8
0
100
AcDbLine
 62
7
  6
CONTINUOUS
 10
47.365480343
 20
55.2381654676
 11
47.365480343
 21
84.6281355103
  0
LINE
  5
293
100
AcDbEntity
  8
0
100
AcDbLine
 62
7
  6
CONTINUOUS
 10
47.865480343
 20
11.7587088301
 11
47.865480343
 21
13.7881654676
  0
LINE
  5
294
100
AcDbEntity
  8
0
100
AcDbLine
 62
7
  6
CONTINUOUS
 10
57.077374406
 20
103.0081654676
 11
57.665480343
 21
105.1131057859
  0
LINE
  5
295
100
AcDbEntity
  8
0
100
AcDbLine
 62
7
  6
CONTINUOUS
 10
29.8974635384
 20
15.5881654676
 11
30.565480343
 21
17.4901910787
  0
LINE
  5
296
100
AcDbEntity
  8
0
100
AcDbLine
 62
7
  6
CONTINUOUS
 10
26.825480343
 20
62.0381654676
 11
30.325480343
 21
62.0381654676
  0
LINE
  5
297
100
AcDbEntity
  8
0
100
AcDbLine
 62
7
  6
CONTINUOUS
 10
61.715480343
 20
62.0662527528
 11
53.515480343
 21
62.0662527528
  0
LINE
  5
298
100
AcDbEntity
  8
0
100
AcDbLine
 62
7
  6
CONTINUOUS
 10
36.115480343
 20
62.2305446498
 11
47.115480343
 21
62.2305446498
  0
LINE
  5
299
100
AcDbEntity
  8
0
100
AcDbLine
 62
7
  6
CONTINUOUS
 10
26.825480343
 20
63.2381654676
 11
30.325480343
 21
63.2381654676
  0
LINE
  5
29A
100
AcDbEntity
  8
0
100
AcDbLine
 62
7
  6
CONTINUOUS
 10
30.565480343
 20
108.0561398566
 11
29.8974635384
 21
109.9581654676
  0
LINE
  5
29B
100
AcDbEntity
  8
0
100
AcDbLine
 62
7
  6
CONTINUOUS
 10
48.865480343
 20
15.2581654676
 11
48.865480343
 21
13.6581654676
  0
LINE
  5
29C
100
AcDbEntity
  8
0
100
AcDbLine
 62
7
  6
CONTINUOUS
 10
48.865480343
 20
111.6165081903
 11
48.865480343
 21
112.8081654676
  0
LINE
  5
29D
100
AcDbEntity
  8
0
100
AcDbLine
 62
7
  6
CONTINUOUS
 10
48.965480343
 20
101.4081654676
 11
48.965480343
 21
94.9081654676
  0
LINE
  5
29E
100
AcDbEntity
  8
0
100
AcDbLine
 62
7
  6
CONTINUOUS
 10
48.965480343
 20
31.0381654676
 11
48.965480343
 21
24.1381654676
  0
LINE
  5
29F
100
AcDbEntity
  8
0
100
AcDbLine
 62
7
  6
CONTINUOUS
 10
49.9667296985
 20
48.1981654676
 11
49.9667296985
 21
40.2481654676
  0
LINE
  5
2A0
100
AcDbEntity
  8
0
100
AcDbLine
 62
7
  6
CONTINUOUS
 10
50.765480343
 20
20.4101910787
 11
50.765480343
 21
17.4901910787
  0
LINE
  5
2A1
100
AcDbEntity
  8
0
100
AcDbLine
 62
7
  6
CONTINUOUS
 10
50.865480343
 20
108.033105786
 11
50.865480343
 21
105.113105786
  0
LINE
  5
2A2
100
AcDbEntity
  8
0
100
AcDbLine
 62
7
  6
CONTINUOUS
 10
51.465480343
 20
17.4901910787
 11
51.465480343
 21
20.4101910787
  0
LINE
  5
2A3
100
AcDbEntity
  8
0
100
AcDbLine
 62
7
  6
CONTINUOUS
 10
51.565480343
 20
105.1624560487
 11
51.565480343
 21
108.0824560487
  0
LINE
  5
2A4
100
AcDbEntity
  8
0
100
AcDbLine
 62
7
  6
CONTINUOUS
 10
51.865480343
 20
84.6289614512
 11
51.865480343
 21
55.2381654676
  0
LINE
  5
2A5
100
AcDbEntity
  8
0
100
AcDbLine
 62
7
  6
CONTINUOUS
 10
52.115480343
 20
84.0773157924
 11
52.115480343
 21
66.6747574923
  0
LINE
  5
2A6
100
AcDbEntity
  8
0
100
AcDbLine
 62
7
  6
CONTINUOUS
 10
36.5974635384
 20
15.5881654676
 11
37.265480343
 21
17.4901910787
  0
LINE
  5
2A7
100
AcDbEntity
  8
0
100
AcDbLine
 62
7
  6
CONTINUOUS
 10
61.715480343
 20
66.6092760192
 11
53.515480343
 21
66.6092760192
  0
LINE
  5
2A8
100
AcDbEntity
  8
0
100
AcDbLine
 62
7
  6
CONTINUOUS
 10
53.515480343
 20
66.6747574923
 11
52.115480343
 21
66.6747574923
  0
LINE
  5
2A9
100
AcDbEntity
  8
0
100
AcDbLine
 62
7
  6
CONTINUOUS
 10
61.715480343
 20
66.6747574923
 11
63.115480343
 21
66.6747574923
  0
LINE
  5
2AA
100
AcDbEntity
  8
0
100
AcDbLine
 62
7
  6
CONTINUOUS
 10
63.115480343
 20
67.6011949518
 11
52.115480343
 21
67.6011949518
  0
LINE
  5
2AB
100
AcDbEntity
  8
0
100
AcDbLine
 62
7
  6
CONTINUOUS
 10
37.965480343
 20
105.1624560487
 11
38.567374406
 21
103.0081654676
  0
LINE
  5
2AC
100
AcDbEntity
  8
0
100
AcDbLine
 62
7
  6
CONTINUOUS
 10
53.265480343
 20
24.1381654676
 11
53.265480343
 21
31.0381654676
  0
LINE
  5
2AD
100
AcDbEntity
  8
0
100
AcDbLine
 62
7
  6
CONTINUOUS
 10
53.265480343
 20
94.2081654676
 11
53.265480343
 21
101.4081654676
  0
LINE
  5
2AE
100
AcDbEntity
  8
0
100
AcDbLine
 62
7
  6
CONTINUOUS
 10
53.515480343
 20
66.6747574923
 11
53.515480343
 21
62.0661780298
  0
LINE
  5
2AF
100
AcDbEntity
  8
0
100
AcDbLine
 62
7
  6
CONTINUOUS
 10
63.115480343
 20
69.1366716884
 11
52.115480343
 21
69.1366716884
  0
LINE
  5
2B0
100
AcDbEntity
  8
0
100
AcDbLine
 62
7
  6
CONTINUOUS
 10
37.265480343
 20
108.033105786
 11
36.595480343
 21
109.9581654676
  0
LINE
  5
2B1
100
AcDbEntity
  8
0
100
AcDbLine
 62
7
  6
CONTINUOUS
 10
57.465480343
 20
101.4081654676
 11
57.465480343
 21
94.2081654676
  0
LINE
  5
2B2
100
AcDbEntity
  8
0
100
AcDbLine
 62
7
  6
CONTINUOUS
 10
57.465480343
 20
31.0381654676
 11
57.465480343
 21
24.1381654676
  0
LINE
  5
2B3
100
AcDbEntity
  8
0
100
AcDbLine
 62
7
  6
CONTINUOUS
 10
57.565480343
 20
20.4101910787
 11
57.565480343
 21
17.4901910787
  0
LINE
  5
2B4
100
AcDbEntity
  8
0
100
AcDbLine
 62
7
  6
CONTINUOUS
 10
57.665480343
 20
108.033105786
 11
57.665480343
 21
105.113105786
  0
LINE
  5
2B5
100
AcDbEntity
  8
0
100
AcDbLine
 62
7
  6
CONTINUOUS
 10
58.165480343
 20
17.4901910787
 11
58.165480343
 21
20.4101910787
  0
LINE
  5
2B6
100
AcDbEntity
  8
0
100
AcDbLine
 62
7
  6
CONTINUOUS
 10
58.165480343
 20
105.1361398566
 11
58.165480343
 21
108.0561398566
  0
LINE
  5
2B7
100
AcDbEntity
  8
0
100
AcDbLine
 62
7
  6
CONTINUOUS
 10
58.265480343
 20
24.1381654676
 11
58.265480343
 21
31.0381654676
  0
LINE
  5
2B8
100
AcDbEntity
  8
0
100
AcDbLine
 62
7
  6
CONTINUOUS
 10
58.265480343
 20
94.9081654676
 11
58.265480343
 21
101.4081654676
  0
LINE
  5
2B9
100
AcDbEntity
  8
0
100
AcDbLine
 62
7
  6
CONTINUOUS
 10
43.3974635384
 20
15.5881654676
 11
44.065480343
 21
17.4901910787
  0
LINE
  5
2BA
100
AcDbEntity
  8
0
100
AcDbLine
 62
7
  6
CONTINUOUS
 10
44.065480343
 20
108.033105786
 11
43.395480343
 21
109.9581654676
  0
LINE
  5
2BB
100
AcDbEntity
  8
0
100
AcDbLine
 62
7
  6
CONTINUOUS
 10
44.765480343
 20
105.1624560487
 11
45.367374406
 21
103.0081654676
  0
LINE
  5
2BC
100
AcDbEntity
  8
0
100
AcDbLine
 62
7
  6
CONTINUOUS
 10
61.715480343
 20
62.0661780298
 11
61.715480343
 21
66.6747574923
  0
LINE
  5
2BD
100
AcDbEntity
  8
0
100
AcDbLine
 62
7
  6
CONTINUOUS
 10
62.465480343
 20
101.4081654676
 11
62.465480343
 21
94.9081654676
  0
LINE
  5
2BE
100
AcDbEntity
  8
0
100
AcDbLine
 62
7
  6
CONTINUOUS
 10
62.465480343
 20
31.0381654676
 11
62.465480343
 21
24.1381654676
  0
LINE
  5
2BF
100
AcDbEntity
  8
0
100
AcDbLine
 62
7
  6
CONTINUOUS
 10
63.115480343
 20
66.6747574923
 11
63.115480343
 21
84.0773158681
  0
LINE
  5
2C0
100
AcDbEntity
  8
0
100
AcDbLine
 62
7
  6
CONTINUOUS
 10
63.365480343
 20
55.2381654676
 11
63.365480343
 21
84.6343060473
  0
LINE
  5
2C1
100
AcDbEntity
  8
0
100
AcDbLine
 62
7
  6
CONTINUOUS
 10
63.515480343
 20
108.0561398566
 11
63.515480343
 21
105.1361398566
  0
LINE
  5
2C2
100
AcDbEntity
  8
0
100
AcDbLine
 62
7
  6
CONTINUOUS
 10
36.115480343
 20
79.1479587135
 11
47.115480343
 21
79.1479587135
  0
LINE
  5
2C3
100
AcDbEntity
  8
0
100
AcDbLine
 62
7
  6
CONTINUOUS
 10
36.115480343
 20
79.4456640252
 11
47.115480343
 21
79.4456640252
  0
LINE
  5
2C4
100
AcDbEntity
  8
0
100
AcDbLine
 62
7
  6
CONTINUOUS
 10
36.115480343
 20
80.1022996835
 11
47.115480343
 21
80.1022996835
  0
LINE
  5
2C5
100
AcDbEntity
  8
0
100
AcDbLine
 62
7
  6
CONTINUOUS
 10
51.565480343
 20
105.1624560487
 11
52.167374406
 21
103.0081654676
  0
LINE
  5
2C6
100
AcDbEntity
  8
0
100
AcDbLine
 62
7
  6
CONTINUOUS
 10
64.265480343
 20
20.4101910787
 11
64.265480343
 21
17.4901910787
  0
LINE
  5
2C7
100
AcDbEntity
  8
0
100
AcDbLine
 62
7
  6
CONTINUOUS
 10
64.465480343
 20
13.1581654676
 11
64.465480343
 21
12.4608402664
  0
LINE
  5
2C8
100
AcDbEntity
  8
0
100
AcDbLine
 62
7
  6
CONTINUOUS
 10
64.465480343
 20
10.755614681
 11
64.465480343
 21
9.2581654676
  0
LINE
  5
2C9
100
AcDbEntity
  8
0
100
AcDbLine
 62
7
  6
CONTINUOUS
 10
64.795480343
 20
48.0481654676
 11
64.795480343
 21
40.3981654676
  0
LINE
  5
2CA
100
AcDbEntity
  8
0
100
AcDbLine
 62
7
  6
CONTINUOUS
 10
65.365480343
 20
12.7588628015
 11
65.365480343
 21
10.4587914137
  0
LINE
  5
2CB
100
AcDbEntity
  8
0
100
AcDbLine
 62
7
  6
CONTINUOUS
 10
65.645480343
 20
84.6359226659
 11
65.645480343
 21
40.0181654676
  0
LINE
  5
2CC
100
AcDbEntity
  8
0
100
AcDbLine
 62
7
  6
CONTINUOUS
 10
66.515480343
 20
84.641614136
 11
66.515480343
 21
40.0181654676
  0
LINE
  5
2CD
100
AcDbEntity
  8
0
100
AcDbLine
 62
7
  6
CONTINUOUS
 10
66.615480343
 20
8.7581654676
 11
66.615480343
 21
112.8081654676
  0
LINE
  5
2CE
100
AcDbEntity
  8
0
100
AcDbLine
 62
7
  6
CONTINUOUS
 10
50.0974635384
 20
15.5881654676
 11
50.765480343
 21
17.4901910787
  0
LINE
  5
2CF
100
AcDbEntity
  8
0
100
AcDbLine
 62
7
  6
CONTINUOUS
 10
63.115480343
 20
83.7531874986
 11
52.115480343
 21
83.7531874986
  0
LINE
  5
2D0
100
AcDbEntity
  8
0
100
AcDbLine
 62
7
  6
CONTINUOUS
 10
50.865480343
 20
108.033105786
 11
50.195480343
 21
109.9581654676
  0
LINE
  5
2D1
100
AcDbEntity
  8
0
100
AcDbLine
 62
7
  6
CONTINUOUS
 10
56.8974635384
 20
15.5881654676
 11
57.565480343
 21
17.4901910787
  0
LINE
  5
2D2
100
AcDbEntity
  8
0
100
AcDbLine
 62
7
  6
CONTINUOUS
 10
52.115480343
 20
84.0773483636
 11
63.115480343
 21
84.0773483636
  0
LINE
  5
2D3
100
AcDbEntity
  8
0
100
AcDbLine
 62
7
  6
CONTINUOUS
 10
63.365480343
 20
84.545990241
 11
51.865480343
 21
84.545990241
  0
LINE
  5
2D4
100
AcDbEntity
  8
0
100
AcDbLine
 62
7
  6
CONTINUOUS
 10
47.365480343
 20
84.545990241
 11
35.865480343
 21
84.545990241
  0
LINE
  5
2D5
100
AcDbEntity
  8
0
100
AcDbLine
 62
7
  6
CONTINUOUS
 10
66.515480343
 20
84.5610881876
 11
66.615480343
 21
84.5610869178
  0
LINE
  5
2D6
100
AcDbEntity
  8
0
100
AcDbLine
 62
7
  6
CONTINUOUS
 10
63.365480343
 20
84.6359887583
 11
51.865480343
 21
84.6359887583
  0
LINE
  5
2D7
100
AcDbEntity
  8
0
100
AcDbLine
 62
7
  6
CONTINUOUS
 10
47.365480343
 20
84.6359887583
 11
35.865480343
 21
84.6359887583
  0
LINE
  5
2D8
100
AcDbEntity
  8
0
100
AcDbLine
 62
7
  6
CONTINUOUS
 10
66.615480343
 20
84.6481654676
 11
66.515480343
 21
84.6481654676
  0
LINE
  5
2D9
100
AcDbEntity
  8
0
100
AcDbLine
 62
7
  6
CONTINUOUS
 10
22.215480343
 20
84.6481654676
 11
22.115480343
 21
84.6481654676
  0
LINE
  5
2DA
100
AcDbEntity
  8
0
100
AcDbLine
 62
7
  6
CONTINUOUS
 10
22.215480343
 20
84.6510879747
 11
66.515480343
 21
84.6510879747
  0
LINE
  5
2DB
100
AcDbEntity
  8
0
100
AcDbLine
 62
7
  6
CONTINUOUS
 10
66.615480343
 20
85.1081654676
 11
22.115480343
 21
85.1081654676
  0
LINE
  5
2DC
100
AcDbEntity
  8
0
100
AcDbLine
 62
7
  6
CONTINUOUS
 10
57.665480343
 20
108.033105786
 11
56.995480343
 21
109.9581654676
  0
LINE
  5
2DD
100
AcDbEntity
  8
0
100
AcDbLine
 62
7
  6
CONTINUOUS
 10
63.5974635384
 20
15.5881654676
 11
64.265480343
 21
17.4901910787
  0
LINE
  5
2DE
100
AcDbEntity
  8
0
100
AcDbLine
 62
7
  6
CONTINUOUS
 10
66.615480343
 20
93.2081654676
 11
22.115480343
 21
93.2081654676
  0
LINE
  5
2DF
100
AcDbEntity
  8
0
100
AcDbLine
 62
7
  6
CONTINUOUS
 10
57.265480343
 20
94.0081654676
 11
53.465480343
 21
94.0081654676
  0
LINE
  5
2E0
100
AcDbEntity
  8
0
100
AcDbLine
 62
7
  6
CONTINUOUS
 10
43.765480343
 20
94.0081654676
 11
39.965480343
 21
94.0081654676
  0
LINE
  5
2E1
100
AcDbEntity
  8
0
100
AcDbLine
 62
7
  6
CONTINUOUS
 10
30.265480343
 20
94.0081654676
 11
26.465480343
 21
94.0081654676
  0
LINE
  5
2E2
100
AcDbEntity
  8
0
100
AcDbLine
 62
7
  6
CONTINUOUS
 10
66.615480343
 20
94.1001499199
 11
57.4338033701
 21
94.1001499199
  0
LINE
  5
2E3
100
AcDbEntity
  8
0
100
AcDbLine
 62
7
  6
CONTINUOUS
 10
53.2971573159
 20
94.1001499199
 11
43.9338033701
 21
94.1001499199
  0
LINE
  5
2E4
100
AcDbEntity
  8
0
100
AcDbLine
 62
7
  6
CONTINUOUS
 10
39.7971573159
 20
94.1001499199
 11
30.4338033701
 21
94.1001499199
  0
LINE
  5
2E5
100
AcDbEntity
  8
0
100
AcDbLine
 62
7
  6
CONTINUOUS
 10
26.2971573159
 20
94.1001499199
 11
22.115480343
 21
94.1001499199
  0
LINE
  5
2E6
100
AcDbEntity
  8
0
100
AcDbLine
 62
7
  6
CONTINUOUS
 10
22.115480343
 20
94.3573001101
 11
26.265480343
 21
94.3573001101
  0
LINE
  5
2E7
100
AcDbEntity
  8
0
100
AcDbLine
 62
7
  6
CONTINUOUS
 10
30.465480343
 20
94.3573001101
 11
39.765480343
 21
94.3573001101
  0
LINE
  5
2E8
100
AcDbEntity
  8
0
100
AcDbLine
 62
7
  6
CONTINUOUS
 10
43.965480343
 20
94.3573001101
 11
53.265480343
 21
94.3573001101
  0
LINE
  5
2E9
100
AcDbEntity
  8
0
100
AcDbLine
 62
7
  6
CONTINUOUS
 10
57.465480343
 20
94.3573001101
 11
66.615480343
 21
94.3573001101
  0
LINE
  5
2EA
100
AcDbEntity
  8
0
100
AcDbLine
 62
7
  6
CONTINUOUS
 10
62.265480343
 20
94.7081654676
 11
58.465480343
 21
94.7081654676
  0
LINE
  5
2EB
100
AcDbEntity
  8
0
100
AcDbLine
 62
7
  6
CONTINUOUS
 10
48.765480343
 20
94.7081654676
 11
44.965480343
 21
94.7081654676
  0
LINE
  5
2EC
100
AcDbEntity
  8
0
100
AcDbLine
 62
7
  6
CONTINUOUS
 10
35.265480343
 20
94.7081654676
 11
31.465480343
 21
94.7081654676
  0
LINE
  5
2ED
100
AcDbEntity
  8
0
100
AcDbLine
 62
7
  6
CONTINUOUS
 10
63.515480343
 20
108.0561398566
 11
62.8474635384
 21
109.9581654676
  0
LINE
  5
2EE
100
AcDbEntity
  8
0
100
AcDbLine
 62
7
  6
CONTINUOUS
 10
62.465480343
 20
97.7081654676
 11
58.265480343
 21
97.7081654676
  0
LINE
  5
2EF
100
AcDbEntity
  8
0
100
AcDbLine
 62
7
  6
CONTINUOUS
 10
57.465480343
 20
97.7081654676
 11
53.265480343
 21
97.7081654676
  0
LINE
  5
2F0
100
AcDbEntity
  8
0
100
AcDbLine
 62
7
  6
CONTINUOUS
 10
48.965480343
 20
97.7081654676
 11
44.765480343
 21
97.7081654676
  0
LINE
  5
2F1
100
AcDbEntity
  8
0
100
AcDbLine
 62
7
  6
CONTINUOUS
 10
43.965480343
 20
97.7081654676
 11
39.765480343
 21
97.7081654676
  0
LINE
  5
2F2
100
AcDbEntity
  8
0
100
AcDbLine
 62
7
  6
CONTINUOUS
 10
35.465480343
 20
97.7081654676
 11
31.265480343
 21
97.7081654676
  0
LINE
  5
2F3
100
AcDbEntity
  8
0
100
AcDbLine
 62
7
  6
CONTINUOUS
 10
30.465480343
 20
97.7081654676
 11
26.265480343
 21
97.7081654676
  0
LINE
  5
2F4
100
AcDbEntity
  8
0
100
AcDbLine
 62
7
  6
CONTINUOUS
 10
26.265480343
 20
101.4081654676
 11
30.465480343
 21
101.4081654676
  0
LINE
  5
2F5
100
AcDbEntity
  8
0
100
AcDbLine
 62
7
  6
CONTINUOUS
 10
31.265480343
 20
101.4081654676
 11
35.465480343
 21
101.4081654676
  0
LINE
  5
2F6
100
AcDbEntity
  8
0
100
AcDbLine
 62
7
  6
CONTINUOUS
 10
39.765480343
 20
101.4081654676
 11
43.965480343
 21
101.4081654676
  0
LINE
  5
2F7
100
AcDbEntity
  8
0
100
AcDbLine
 62
7
  6
CONTINUOUS
 10
44.765480343
 20
101.4081654676
 11
48.965480343
 21
101.4081654676
  0
LINE
  5
2F8
100
AcDbEntity
  8
0
100
AcDbLine
 62
7
  6
CONTINUOUS
 10
53.265480343
 20
101.4081654676
 11
57.465480343
 21
101.4081654676
  0
LINE
  5
2F9
100
AcDbEntity
  8
0
100
AcDbLine
 62
7
  6
CONTINUOUS
 10
58.265480343
 20
101.4081654676
 11
62.465480343
 21
101.4081654676
  0
LINE
  5
2FA
100
AcDbEntity
  8
0
100
AcDbLine
 62
7
  6
CONTINUOUS
 10
62.650480343
 20
103.0081654676
 11
59.030480343
 21
103.0081654676
  0
LINE
  5
2FB
100
AcDbEntity
  8
0
100
AcDbLine
 62
7
  6
CONTINUOUS
 10
57.077374406
 20
103.0081654676
 11
52.167374406
 21
103.0081654676
  0
LINE
  5
2FC
100
AcDbEntity
  8
0
100
AcDbLine
 62
7
  6
CONTINUOUS
 10
50.277374406
 20
103.0081654676
 11
45.367374406
 21
103.0081654676
  0
LINE
  5
2FD
100
AcDbEntity
  8
0
100
AcDbLine
 62
7
  6
CONTINUOUS
 10
43.477374406
 20
103.0081654676
 11
38.567374406
 21
103.0081654676
  0
LINE
  5
2FE
100
AcDbEntity
  8
0
100
AcDbLine
 62
7
  6
CONTINUOUS
 10
36.677374406
 20
103.0081654676
 11
31.767374406
 21
103.0081654676
  0
LINE
  5
2FF
100
AcDbEntity
  8
0
100
AcDbLine
 62
7
  6
CONTINUOUS
 10
29.700480343
 20
103.0081654676
 11
26.080480343
 21
103.0081654676
  0
LINE
  5
300
100
AcDbEntity
  8
0
100
AcDbLine
 62
7
  6
CONTINUOUS
 10
25.8774635384
 20
109.9581654676
 11
29.8974635384
 21
109.9581654676
  0
LINE
  5
301
100
AcDbEntity
  8
0
100
AcDbLine
 62
7
  6
CONTINUOUS
 10
31.825480343
 20
109.9581654676
 11
36.595480343
 21
109.9581654676
  0
LINE
  5
302
100
AcDbEntity
  8
0
100
AcDbLine
 62
7
  6
CONTINUOUS
 10
38.625480343
 20
109.9581654676
 11
43.395480343
 21
109.9581654676
  0
LINE
  5
303
100
AcDbEntity
  8
0
100
AcDbLine
 62
7
  6
CONTINUOUS
 10
45.425480343
 20
109.9581654676
 11
50.195480343
 21
109.9581654676
  0
LINE
  5
304
100
AcDbEntity
  8
0
100
AcDbLine
 62
7
  6
CONTINUOUS
 10
52.225480343
 20
109.9581654676
 11
56.995480343
 21
109.9581654676
  0
LINE
  5
305
100
AcDbEntity
  8
0
100
AcDbLine
 62
7
  6
CONTINUOUS
 10
58.8274635384
 20
109.9581654676
 11
62.8474635384
 21
109.9581654676
  0
LINE
  5
306
100
AcDbEntity
  8
0
100
AcDbLine
 62
7
  6
CONTINUOUS
 10
39.865480343
 20
111.6165081903
 11
48.865480343
 21
111.6165081903
  0
LINE
  5
307
100
AcDbEntity
  8
0
100
AcDbLine
 62
7
  6
CONTINUOUS
 10
39.865480343
 20
111.7629967743
 11
48.865480343
 21
111.7629967743
  0
LINE
  5
308
100
AcDbEntity
  8
0
100
AcDbLine
 62
7
  6
CONTINUOUS
 10
66.615480343
 20
112.3081654676
 11
48.865480343
 21
112.3081654676
  0
LINE
  5
309
100
AcDbEntity
  8
0
100
AcDbLine
 62
7
  6
CONTINUOUS
 10
39.865480343
 20
112.3081654676
 11
22.115480343
 21
112.3081654676
  0
LINE
  5
30A
100
AcDbEntity
  8
0
100
AcDbLine
 62
7
  6
CONTINUOUS
 10
22.115480343
 20
112.8081654676
 11
66.615480343
 21
112.8081654676
  0
ARC
  5
30B
100
AcDbEntity
  8
0
100
AcDbCircle
 62
7
  6
CONTINUOUS
 10
27.515480343
 20
20.4101910787
 40
3.05
100
AcDbArc
 50
0.0
 51
44.2424864681
  0
ARC
  5
30C
100
AcDbEntity
  8
0
100
AcDbCircle
 62
7
  6
CONTINUOUS
 10
27.515480343
 20
20.4101910787
 40
3.05
100
AcDbArc
 50
135.7575135319
 51
180.0
  0
ARC
  5
30D
100
AcDbEntity
  8
0
100
AcDbCircle
 62
7
  6
CONTINUOUS
 10
34.215480343
 20
20.4101910787
 40
3.05
100
AcDbArc
 50
135.7575135319
 51
180.0
  0
ARC
  5
30E
100
AcDbEntity
  8
0
100
AcDbCircle
 62
7
  6
CONTINUOUS
 10
34.215480343
 20
20.4101910787
 40
3.05
100
AcDbArc
 50
0.0
 51
44.2424864681
  0
ARC
  5
30F
100
AcDbEntity
  8
0
100
AcDbCircle
 62
7
  6
CONTINUOUS
 10
41.015480343
 20
20.4101910787
 40
3.05
100
AcDbArc
 50
0.0
 51
44.2424864681
  0
ARC
  5
310
100
AcDbEntity
  8
0
100
AcDbCircle
 62
7
  6
CONTINUOUS
 10
41.015480343
 20
20.4101910787
 40
3.05
100
AcDbArc
 50
135.7575135319
 51
180.0
  0
ARC
  5
311
100
AcDbEntity
  8
0
100
AcDbCircle
 62
7
  6
CONTINUOUS
 10
31.765480343
 20
31.0381654676
 40
0.5
100
AcDbArc
 50
90.0
 51
180.0
  0
ARC
  5
312
100
AcDbEntity
  8
0
100
AcDbCircle
 62
7
  6
CONTINUOUS
 10
34.965480343
 20
31.0381654676
 40
0.5
100
AcDbArc
 50
0.0
 51
90.0
  0
ARC
  5
313
100
AcDbEntity
  8
0
100
AcDbCircle
 62
7
  6
CONTINUOUS
 10
40.265480343
 20
31.0381654676
 40
0.5
100
AcDbArc
 50
90.0
 51
180.0
  0
ARC
  5
314
100
AcDbEntity
  8
0
100
AcDbCircle
 62
7
  6
CONTINUOUS
 10
43.465480343
 20
31.0381654676
 40
0.5
100
AcDbArc
 50
0.0
 51
90.0
  0
ARC
  5
315
100
AcDbEntity
  8
0
100
AcDbCircle
 62
7
  6
CONTINUOUS
 10
26.765480343
 20
31.0381654676
 40
0.5
100
AcDbArc
 50
90.0
 51
180.0
  0
ARC
  5
316
100
AcDbEntity
  8
0
100
AcDbCircle
 62
7
  6
CONTINUOUS
 10
29.965480343
 20
31.0381654676
 40
0.5
100
AcDbArc
 50
0.0
 51
90.0
  0
ARC
  5
317
100
AcDbEntity
  8
0
100
AcDbCircle
 62
7
  6
CONTINUOUS
 10
39.365480343
 20
13.6581654676
 40
0.5
100
AcDbArc
 50
270.0
 51
360.0
  0
ARC
  5
318
100
AcDbEntity
  8
0
100
AcDbCircle
 62
7
  6
CONTINUOUS
 10
23.765480343
 20
9.2581654676
 40
0.5
100
AcDbArc
 50
270.0
 51
360.0
  0
ARC
  5
319
100
AcDbEntity
  8
0
100
AcDbCircle
 62
7
  6
CONTINUOUS
 10
27.515480343
 20
105.1361398566
 40
3.05
100
AcDbArc
 50
315.7575135319
 51
360.0
  0
ARC
  5
31A
100
AcDbEntity
  8
0
100
AcDbCircle
 62
7
  6
CONTINUOUS
 10
28.265480343
 20
105.1361398566
 40
3.05
100
AcDbArc
 50
180.0
 51
224.2424864681
  0
ARC
  5
31B
100
AcDbEntity
  8
0
100
AcDbCircle
 62
7
  6
CONTINUOUS
 10
26.465480343
 20
94.2081654676
 40
0.2
100
AcDbArc
 50
180.0
 51
270.0
  0
ARC
  5
31C
100
AcDbEntity
  8
0
100
AcDbCircle
 62
7
  6
CONTINUOUS
 10
39.965480343
 20
94.2081654676
 40
0.2
100
AcDbArc
 50
180.0
 51
270.0
  0
ARC
  5
31D
100
AcDbEntity
  8
0
100
AcDbCircle
 62
7
  6
CONTINUOUS
 10
35.265480343
 20
94.9081654676
 40
0.2
100
AcDbArc
 50
270.0
 51
360.0
  0
ARC
  5
31E
100
AcDbEntity
  8
0
100
AcDbCircle
 62
7
  6
CONTINUOUS
 10
31.465480343
 20
94.9081654676
 40
0.2
100
AcDbArc
 50
180.0
 51
270.0
  0
ARC
  5
31F
100
AcDbEntity
  8
0
100
AcDbCircle
 62
7
  6
CONTINUOUS
 10
43.765480343
 20
94.2081654676
 40
0.2
100
AcDbArc
 50
270.0
 51
360.0
  0
ARC
  5
320
100
AcDbEntity
  8
0
100
AcDbCircle
 62
7
  6
CONTINUOUS
 10
30.265480343
 20
94.2081654676
 40
0.2
100
AcDbArc
 50
270.0
 51
360.0
  0
ARC
  5
321
100
AcDbEntity
  8
0
100
AcDbCircle
 62
7
  6
CONTINUOUS
 10
47.715480343
 20
20.4101910787
 40
3.05
100
AcDbArc
 50
135.7575135319
 51
180.0
  0
ARC
  5
322
100
AcDbEntity
  8
0
100
AcDbCircle
 62
7
  6
CONTINUOUS
 10
47.715480343
 20
20.4101910787
 40
3.05
100
AcDbArc
 50
0.0
 51
44.2424864681
  0
ARC
  5
323
100
AcDbEntity
  8
0
100
AcDbCircle
 62
7
  6
CONTINUOUS
 10
54.515480343
 20
20.4101910787
 40
3.05
100
AcDbArc
 50
0.0
 51
44.2424864681
  0
ARC
  5
324
100
AcDbEntity
  8
0
100
AcDbCircle
 62
7
  6
CONTINUOUS
 10
54.515480343
 20
20.4101910787
 40
3.05
100
AcDbArc
 50
135.7575135319
 51
180.0
  0
ARC
  5
325
100
AcDbEntity
  8
0
100
AcDbCircle
 62
7
  6
CONTINUOUS
 10
61.215480343
 20
20.4101910787
 40
3.05
100
AcDbArc
 50
135.7575135319
 51
180.0
  0
ARC
  5
326
100
AcDbEntity
  8
0
100
AcDbCircle
 62
7
  6
CONTINUOUS
 10
61.215480343
 20
20.4101910787
 40
3.05
100
AcDbArc
 50
0.0
 51
44.2424864681
  0
ARC
  5
327
100
AcDbEntity
  8
0
100
AcDbCircle
 62
7
  6
CONTINUOUS
 10
45.265480343
 20
31.0381654676
 40
0.5
100
AcDbArc
 50
90.0
 51
180.0
  0
ARC
  5
328
100
AcDbEntity
  8
0
100
AcDbCircle
 62
7
  6
CONTINUOUS
 10
48.465480343
 20
31.0381654676
 40
0.5
100
AcDbArc
 50
0.0
 51
90.0
  0
ARC
  5
329
100
AcDbEntity
  8
0
100
AcDbCircle
 62
7
  6
CONTINUOUS
 10
53.765480343
 20
31.0381654676
 40
0.5
100
AcDbArc
 50
90.0
 51
180.0
  0
ARC
  5
32A
100
AcDbEntity
  8
0
100
AcDbCircle
 62
7
  6
CONTINUOUS
 10
56.965480343
 20
31.0381654676
 40
0.5
100
AcDbArc
 50
0.0
 51
90.0
  0
ARC
  5
32B
100
AcDbEntity
  8
0
100
AcDbCircle
 62
7
  6
CONTINUOUS
 10
58.765480343
 20
31.0381654676
 40
0.5
100
AcDbArc
 50
90.0
 51
180.0
  0
ARC
  5
32C
100
AcDbEntity
  8
0
100
AcDbCircle
 62
7
  6
CONTINUOUS
 10
61.965480343
 20
31.0381654676
 40
0.5
100
AcDbArc
 50
0.0
 51
90.0
  0
ARC
  5
32D
100
AcDbEntity
  8
0
100
AcDbCircle
 62
7
  6
CONTINUOUS
 10
64.965480343
 20
9.2581654676
 40
0.5
100
AcDbArc
 50
180.0
 51
270.0
  0
ARC
  5
32E
100
AcDbEntity
  8
0
100
AcDbCircle
 62
7
  6
CONTINUOUS
 10
49.365480343
 20
13.6581654676
 40
0.5
100
AcDbArc
 50
180.0
 51
270.0
  0
ARC
  5
32F
100
AcDbEntity
  8
0
100
AcDbCircle
 62
7
  6
CONTINUOUS
 10
64.645480343
 20
40.3981654676
 40
0.15
100
AcDbArc
 50
270.0
 51
360.0
  0
ARC
  5
330
100
AcDbEntity
  8
0
100
AcDbCircle
 62
7
  6
CONTINUOUS
 10
64.645480343
 20
48.0481654676
 40
0.15
100
AcDbArc
 50
0.0
 51
90.0
  0
ARC
  5
331
100
AcDbEntity
  8
0
100
AcDbCircle
 62
7
  6
CONTINUOUS
 10
60.465480343
 20
105.1361398566
 40
3.05
100
AcDbArc
 50
315.7575135319
 51
360.0
  0
ARC
  5
332
100
AcDbEntity
  8
0
100
AcDbCircle
 62
7
  6
CONTINUOUS
 10
61.215480343
 20
105.1361398566
 40
3.05
100
AcDbArc
 50
180.0
 51
224.2424864681
  0
ARC
  5
333
100
AcDbEntity
  8
0
100
AcDbCircle
 62
7
  6
CONTINUOUS
 10
62.265480343
 20
94.9081654676
 40
0.2
100
AcDbArc
 50
270.0
 51
360.0
  0
ARC
  5
334
100
AcDbEntity
  8
0
100
AcDbCircle
 62
7
  6
CONTINUOUS
 10
58.465480343
 20
94.9081654676
 40
0.2
100
AcDbArc
 50
180.0
 51
270.0
  0
ARC
  5
335
100
AcDbEntity
  8
0
100
AcDbCircle
 62
7
  6
CONTINUOUS
 10
48.765480343
 20
94.9081654676
 40
0.2
100
AcDbArc
 50
270.0
 51
360.0
  0
ARC
  5
336
100
AcDbEntity
  8
0
100
AcDbCircle
 62
7
  6
CONTINUOUS
 10
44.965480343
 20
94.9081654676
 40
0.2
100
AcDbArc
 50
180.0
 51
270.0
  0
ARC
  5
337
100
AcDbEntity
  8
0
100
AcDbCircle
 62
7
  6
CONTINUOUS
 10
53.465480343
 20
94.2081654676
 40
0.2
100
AcDbArc
 50
180.0
 51
270.0
  0
ARC
  5
338
100
AcDbEntity
  8
0
100
AcDbCircle
 62
7
  6
CONTINUOUS
 10
57.265480343
 20
94.2081654676
 40
0.2
100
AcDbArc
 50
270.0
 51
360.0
  0
SPLINE
  5
339
100
AcDbEntity
  8
0
100
AcDbSpline
 62
7
  6
CONTINUOUS
 70
0
 71
3
 72
23
 73
19
 74
0
 42
0.0000001
 43
0.0000001
 44
0.0000000001
 40
0.0
 40
0.0
 40
0.0
 40
0.0
 40
0.0010229919
 40
0.0040138566
 40
0.0090578507
 40
0.016220164
 40
0.0255636694
 40
0.0371506041
 40
0.0673025775
 40
0.1070421185
 40
0.1559513224
 40
0.2133177773
 40
0.2784284031
 40
0.350589412
 40
0.4292036921
 40
0.6035240806
 40
0.7962758827
 40
1.0
 40
1.0
 40
1.0
 40
1.0
 10
22.2179433547
 20
55.6412186323
 30
0.0
 10
22.2179433547
 20
55.6409226102
 30
0.0
 10
22.2197227066
 20
55.6410371002
 30
0.0
 10
22.2217306089
 20
55.640525379
 30
0.0
 10
22.2264700537
 20
55.6404492338
 30
0.0
 10
22.2325442243
 20
55.6401252292
 30
0.0
 10
22.2407315742
 20
55.6399038741
 30
0.0
 10
22.2554783373
 20
55.6395225897
 30
0.0
 10
22.2790724456
 20
55.6391048671
 30
0.0
 10
22.3134374042
 20
55.6386349671
 30
0.0
 10
22.3556906835
 20
55.6381875187
 30
0.0
 10
22.4052815747
 20
55.6377583296
 30
0.0
 10
22.4616027381
 20
55.637355437
 30
0.0
 10
22.5240721939
 20
55.6369815849
 30
0.0
 10
22.6181436636
 20
55.6365108118
 30
0.0
 10
22.7471106252
 20
55.6360315255
 30
0.0
 10
22.9122809203
 20
55.6356370189
 30
0.0
 10
23.0270086679
 20
55.6354907641
 30
0.0
 10
23.0859600831
 20
55.6354465639
 30
0.0
  0
LINE
  5
33A
100
AcDbEntity
  8
0
100
AcDbLine
 62
7
  6
CONTINUOUS
 10
22.215480343
 20
84.5610881876
 11
22.1488136945
 21
84.561087247
  0
LINE
  5
33B
100
AcDbEntity
  8
0
100
AcDbLine
 62
7
  6
CONTINUOUS
 10
22.1488136945
 20
84.561087247
 11
22.115480343
 21
84.5610869178
  0
SPLINE
  5
33C
100
AcDbEntity
  8
0
100
AcDbSpline
 62
7
  6
CONTINUOUS
 70
0
 71
3
 72
23
 73
19
 74
0
 42
0.0000001
 43
0.0000001
 44
0.0000000001
 40
0.0
 40
0.0
 40
0.0
 40
0.0
 40
0.2015207218
 40
0.3917462995
 40
0.5647234965
 40
0.6428835966
 40
0.7144991909
 40
0.7788992609
 40
0.8357051408
 40
0.8846112905
 40
0.9253122578
 40
0.957502782
 40
0.9703113776
 40
0.9808781761
 40
0.989165385
 40
0.9951357128
 40
0.9987536986
 40
1.0
 40
1.0
 40
1.0
 40
1.0
 10
65.645480343
 20
84.5459241486
 30
0.0
 10
65.7039264282
 20
84.5459681358
 30
0.0
 10
65.8175426864
 20
84.5461142834
 30
0.0
 10
65.9813263381
 20
84.5465081497
 30
0.0
 10
66.109331894
 20
84.5469769721
 30
0.0
 10
66.20293731
 20
84.5474374642
 30
0.0
 10
66.2650525139
 20
84.547804105
 30
0.0
 10
66.3209745895
 20
84.5482019565
 30
0.0
 10
66.3703084926
 20
84.5486274467
 30
0.0
 10
66.4127729206
 20
84.5490718391
 30
0.0
 10
66.4480850686
 20
84.5495405463
 30
0.0
 10
66.472958456
 20
84.5499464598
 30
0.0
 10
66.4890366355
 20
84.5503216206
 30
0.0
 10
66.4982875677
 20
84.5505278332
 30
0.0
 10
66.505297117
 20
84.5508796897
 30
0.0
 10
66.5109019043
 20
84.5508753411
 30
0.0
 10
66.5132799769
 20
84.5515282122
 30
0.0
 10
66.515480343
 20
84.5512541598
 30
0.0
 10
66.515480343
 20
84.5516156187
 30
0.0
  0
LINE
  5
33D
100
AcDbEntity
  8
0
100
AcDbLine
 62
7
  6
CONTINUOUS
 10
65.6454797342
 20
84.5459241482
 11
63.3654808645
 21
84.5443075303
  0
SPLINE
  5
33E
100
AcDbEntity
  8
0
100
AcDbSpline
 62
7
  6
CONTINUOUS
 70
0
 71
3
 72
23
 73
19
 74
0
 42
0.0000001
 43
0.0000001
 44
0.0000000001
 40
0.0
 40
0.0
 40
0.0
 40
0.0
 40
0.2037241173
 40
0.3964759194
 40
0.5707963079
 40
0.649410588
 40
0.7215715969
 40
0.7866822227
 40
0.8440486776
 40
0.8929578815
 40
0.9326974225
 40
0.9628493959
 40
0.9744363306
 40
0.983779836
 40
0.9909421493
 40
0.9959861434
 40
0.9989770081
 40
1.0
 40
1.0
 40
1.0
 40
1.0
 10
23.0859600831
 20
82.6350017542
 30
0.0
 10
23.0270086679
 20
82.6350459544
 30
0.0
 10
22.9122809203
 20
82.6351922092
 30
0.0
 10
22.7471106252
 20
82.6355867158
 30
0.0
 10
22.6181436636
 20
82.6360660021
 30
0.0
 10
22.5240721939
 20
82.6365367752
 30
0.0
 10
22.4616027381
 20
82.6369106273
 30
0.0
 10
22.4052815747
 20
82.6373135199
 30
0.0
 10
22.3556906835
 20
82.637742709
 30
0.0
 10
22.3134374042
 20
82.6381901574
 30
0.0
 10
22.2790724456
 20
82.6386600574
 30
0.0
 10
22.2554783373
 20
82.63907778
 30
0.0
 10
22.2407315742
 20
82.6394590644
 30
0.0
 10
22.2325442243
 20
82.6396804195
 30
0.0
 10
22.2264700537
 20
82.6400044241
 30
0.0
 10
22.2217306089
 20
82.6400805693
 30
0.0
 10
22.2197227066
 20
82.6405922905
 30
0.0
 10
22.2179433547
 20
82.6404778005
 30
0.0
 10
22.2179433547
 20
82.6407738226
 30
0.0
  0
LINE
  5
33F
100
AcDbEntity
  8
0
100
AcDbLine
 62
7
  6
CONTINUOUS
 10
51.8654802172
 20
84.5389629339
 11
47.3654803792
 21
84.538136993
  0
ELLIPSE
  5
340
100
AcDbEntity
  8
0
100
AcDbEllipse
 62
7
  6
CONTINUOUS
 10
44.365480343
 20
56.5705130445
 30
0.0
 11
164.29
 21
0.0
 31
0.0
 40
0.005739912
 41
-1.7006853846
 42
-1.624570934
  0
ELLIPSE
  5
341
100
AcDbEntity
  8
0
100
AcDbEllipse
 62
7
  6
CONTINUOUS
 10
65.515480343
 20
84.641614136
 30
0.0
 11
1.0
 21
-0.0
 31
0.0
 40
0.0057401813
 41
-1.4404273471
 42
0.0
  0
ELLIPSE
  5
342
100
AcDbEntity
  8
0
100
AcDbEllipse
 62
7
  6
CONTINUOUS
 10
44.365480343
 20
85.5710326509
 30
0.0
 11
164.29
 21
-0.0
 31
0.0
 40
0.0057401813
 41
-1.4548878098
 42
-1.4409043241
  0
ELLIPSE
  5
343
100
AcDbEntity
  8
0
100
AcDbEllipse
 62
7
  6
CONTINUOUS
 10
44.365480343
 20
85.5710326509
 30
0.0
 11
164.29
 21
-0.0
 31
0.0
 40
0.0057401813
 41
-1.5525349186
 42
-1.5251294727
  0
ELLIPSE
  5
344
100
AcDbEntity
  8
0
100
AcDbEllipse
 62
7
  6
CONTINUOUS
 10
44.365480343
 20
85.5709180009
 30
0.0
 11
164.2908333333
 21
-0.0
 31
0.0
 40
0.0057399921
 41
-1.7006847419
 42
-1.6225569545
  0
ELLIPSE
  5
345
100
AcDbEntity
  8
0
100
AcDbEllipse
 62
7
  6
CONTINUOUS
 10
44.365480343
 20
83.5700682348
 30
0.0
 11
164.29
 21
-0.0
 31
0.0
 40
0.005739912
 41
-1.7006853846
 42
-1.624570934
  0
ELLIPSE
  5
346
100
AcDbEntity
  8
0
100
AcDbEllipse
 62
7
  6
CONTINUOUS
 10
23.215480343
 20
84.6415252857
 30
0.0
 11
1.0
 21
0.0
 31
0.0
 40
0.0057399921
 41
3.1415926536
 42
4.5825005653
  0
ENDSEC
  0
SECTION
  2
OBJECTS
  0
DICTIONARY
  5
C
100
AcDbDictionary
280
0
281
1
  3
ACAD_GROUP
350
D
  3
ACAD_MLINESTYLE
350
17
  3
ACAD_LAYOUT
350
1A
  3
ACAD_PLOTSETTINGS
350
19
  3
ACAD_PLOTSTYLENAME
350
E
  0
DICTIONARY
  5
D
102
{ACAD_REACTORS
330
C
102
}
100
AcDbDictionary
280
0
281
1
  0
ACDBDICTIONARYWDFLT
  5
E
102
{ACAD_REACTORS
330
C
102
}
100
AcDbDictionary
281
1
  3
Normal
350
F
100
AcDbDictionaryWithDefault
340
F
  0
DICTIONARY
  5
17
102
{ACAD_REACTORS
330
C
102
}
100
AcDbDictionary
280
0
281
1
  3
Standard
350
18
  0
DICTIONARY
  5
19
102
{ACAD_REACTORS
330
C
102
}
100
AcDbDictionary
281
1
  0
DICTIONARY
  5
1A
102
{ACAD_REACTORS
330
C
102
}
100
AcDbDictionary
281
1
  3
Model
350
347
  3
Layout1
350
348
  0
ACDBPLACEHOLDER
  5
F
102
{ACAD_REACTORS
330
E
102
}
  0
MLINESTYLE
  5
18
102
{ACAD_REACTORS
330
17
102
}
100
AcDbMlineStyle
  2
STANDARD
 70
0
  3

 62
256
 51
90.0
 52
90.0
 71
2
 49
0.5
 62
256
  6
BYLAYER
 49
-0.5
 62
256
  6
BYLAYER
  0
LAYOUT
  5
347
102
{ACAD_REACTORS
330
1A
102
}
100
AcDbPlotSettings
  1

  2
none_device
  4

  6

 40
0.0
 41
0.0
 42
0.0
 43
0.0
 44
210.0
 45
297.0
 46
0.0
 47
0.0
 48
0.0
 49
0.0
140
0.0
141
0.0
142
1.0
143
1.0
 70
1024
 72
1
 73
0
 74
0
  7

 75
0
147
1.0
148
0.0
149
0.0
100
AcDbLayout
  1
Model
 70
0
 71
0
 10
0.0
 20
0.0
 11
210.0
 21
297.0
 12
0.0
 22
0.0
 32
0.0
 14
0.0
 24
0.0
 34
0.0
 15
0.0
 25
0.0
 35
0.0
146
0.0
 13
0.0
 23
0.0
 33
0.0
 16
1.0
 26
0.0
 36
0.0
 17
0.0
 27
1.0
 37
0.0
 76
0
330
211
345
0
346
0
  0
LAYOUT
  5
348
102
{ACAD_REACTORS
330
1A
102
}
100
AcDbPlotSettings
  1

  2
none_device
  4

  6

 40
0.0
 41
0.0
 42
0.0
 43
0.0
 44
210.0
 45
297.0
 46
0.0
 47
0.0
 48
0.0
 49
0.0
140
0.0
141
0.0
142
1.0
143
1.0
 70
0
 72
1
 73
0
 74
0
  7

 75
0
147
1.0
148
0.0
149
0.0
100
AcDbLayout
  1
Layout1
 70
0
 71
1
 10
0.0
 20
0.0
 11
210.0
 21
297.0
 12
0.0
 22
0.0
 32
0.0
 14
0.0
 24
0.0
 34
0.0
 15
0.0
 25
0.0
 35
0.0
146
0.0
 13
0.0
 23
0.0
 33
0.0
 16
1.0
 26
0.0
 36
0.0
 17
0.0
 27
1.0
 37
0.0
 76
0
330
212
345
0
346
0
  0
ENDSEC
  0
EOF
