999
DXF file: C:\Users\sesa63760\Dev\_Creo\CAD\MCADID0003544_3D-CAD\drw0001_5.dxf
999
Pro/ENGINEER 2019471 by Parametric Technology Corporation
  0
SECTION
  2
HEADER
  9
$ACADVER
  1
AC1024
  9
$DWGCODEPAGE
  3
ANSI_1252
  9
$EXTMAX
 10
79.3256937275
 20
112.1891954146
 30
0.0
  9
$EXTMIN
 10
0.0
 20
0.0
 30
0.0
  9
$LIMMIN
 10
0.0
 20
0.0
  9
$LIMMAX
 10
79.3256937275
 20
112.1891954146
  9
$VIEWCTR
 10
39.6628468637
 20
56.0945977073
  9
$VIEWSIZE
 40
112.1891954146
  9
$CLAYER
  8
0
  9
$LTSCALE
 40
7.3130734789
  9
$CELTYPE
  6
BYLAYER
  9
$DIMSCALE
 40
1.0
  9
$DIMASZ
 40
0.9443534968
  9
$DIMEXO
 40
1.0
  9
$DIMDLI
 40
5.052668949
  9
$DIMEXE
 40
1.0
  9
$DIMCEN
 40
1.1966847511
  9
$DIMLFAC
 40
1.0
  9
$DIMBLK
  1
_FILLED
  9
$DIMALT
 70
0
  9
$DIMALTF
 40
0.0393700787
  9
$DIMTXT
 40
1.3220948955
  9
$DIMTOL
 70
1
  9
$DIMLIM
 70
0
  9
$DIMTFAC
 40
1.0
  9
$DIMTP
 40
0.01
  9
$DIMTM
 40
0.01
  9
$DIMGAP
 40
0.625
  9
$DIMDSEP
 70
46
  9
$AUNITS
 70
0
  9
$PDMODE
 70
3
  9
$PDSIZE
 40
0.3125
  9
$HANDSEED
  5
27A
  9
$TILEMODE
 70
1
  9
$MEASUREMENT
 70
1
  9
$INSUNITS
 70
4
  0
ENDSEC
  0
SECTION
  2
CLASSES
  0
CLASS
  1
ACDBDICTIONARYWDFLT
  2
AcDbDictionaryWithDefault
  3
AutoCAD 2000
 90
0
 91
1
280
0
281
0
  0
CLASS
  1
ACDBPLACEHOLDER
  2
AcDbPlaceHolder
  3
AutoCAD 2000
 90
0
 91
1
280
0
281
0
  0
CLASS
  1
LAYOUT
  2
AcDbLayout
  3
AutoCAD 2000
 90
0
 91
0
280
0
281
0
  0
ENDSEC
  0
SECTION
  2
TABLES
  0
TABLE
  2
VPORT
  5
8
100
AcDbSymbolTable
 70
2
  0
VPORT
  5
1F4
100
AcDbSymbolTableRecord
100
AcDbViewportTableRecord
  2
*ACTIVE
 70
0
 10
0.0
 20
0.0
 11
1.0
 21
1.0
 12
39.6628468637
 22
56.0945977073
 13
0.0
 23
0.0
 14
1.0
 24
1.0
 15
0.0
 25
0.0
 16
0.0
 26
0.0
 36
1.0
 17
0.0
 27
0.0
 37
0.0
 40
112.1891954146
 41
0.7070707071
 42
50.0
 43
0.0
 44
0.0
 50
0.0
 51
0.0
 71
0
 72
100
 73
1
 74
1
 75
0
 76
0
 77
0
 78
0
  0
ENDTAB
  0
TABLE
  2
LTYPE
  5
5
100
AcDbSymbolTable
 70
6
  0
LTYPE
  5
14
100
AcDbSymbolTableRecord
100
AcDbLinetypeTableRecord
  2
BYBLOCK
 70
0
  3

 72
65
 73
0
 40
0.0
  0
LTYPE
  5
15
100
AcDbSymbolTableRecord
100
AcDbLinetypeTableRecord
  2
BYLAYER
 70
0
  3

 72
65
 73
0
 40
0.0
  0
LTYPE
  5
16
100
AcDbSymbolTableRecord
100
AcDbLinetypeTableRecord
  2
CONTINUOUS
 70
64
  3
Solid line
 72
65
 73
0
 40
0.0
  0
LTYPE
  5
1F5
100
AcDbSymbolTableRecord
100
AcDbLinetypeTableRecord
  2
CENTER
 70
64
  3
____ _ ____ _ ____ _ ____ _ ____ _ ____ _ ____
 72
65
 73
4
 40
0.6
 49
0.375
 74
0
 49
-0.075
 74
0
 49
0.075
 74
0
 49
-0.075
 74
0
  0
LTYPE
  5
1F6
100
AcDbSymbolTableRecord
100
AcDbLinetypeTableRecord
  2
HIDDEN
 70
64
  3
- - - - - - - - - - - - - - - - - - - -
 72
65
 73
2
 40
0.2
 49
0.1
 74
0
 49
-0.1
 74
0
  0
LTYPE
  5
1F7
100
AcDbSymbolTableRecord
100
AcDbLinetypeTableRecord
  2
PHANTOM
 70
64
  3
_____ _ _ _____ _ _ _____ _ _ _____
 72
65
 73
6
 40
0.8
 49
0.45
 74
0
 49
-0.05
 74
0
 49
0.1
 74
0
 49
-0.05
 74
0
 49
0.1
 74
0
 49
-0.05
 74
0
  0
LTYPE
  5
1F8
100
AcDbSymbolTableRecord
100
AcDbLinetypeTableRecord
  2
DOT
 70
64
  3
. . . . . . . . . . . . . . . . . . . .
 72
65
 73
2
 40
0.2
 49
0.1
 74
0
 49
-0.1
 74
0
  0
LTYPE
  5
1F9
100
AcDbSymbolTableRecord
100
AcDbLinetypeTableRecord
  2
DASHED
 70
64
  3
- - - - - - - - - - - - - - - - - - - -
 72
65
 73
2
 40
0.2
 49
0.1
 74
0
 49
-0.1
 74
0
  0
ENDTAB
  0
TABLE
  2
LAYER
  5
2
100
AcDbSymbolTable
 70
36
  0
LAYER
  5
10
100
AcDbSymbolTableRecord
100
AcDbLayerTableRecord
  2
0
 70
0
 62
7
  6
CONTINUOUS
370
-3
390
F
  0
LAYER
  5
1FA
100
AcDbSymbolTableRecord
100
AcDbLayerTableRecord
  2
DEFAULT_1
 70
0
 62
7
  6
CENTER
370
-3
390
F
  0
LAYER
  5
1FB
100
AcDbSymbolTableRecord
100
AcDbLayerTableRecord
  2
DEFAULT_2
 70
0
 62
7
  6
HIDDEN
370
-3
390
F
  0
LAYER
  5
1FC
100
AcDbSymbolTableRecord
100
AcDbLayerTableRecord
  2
DEFAULT_3
 70
0
 62
7
  6
PHANTOM
370
-3
390
F
  0
LAYER
  5
1FD
100
AcDbSymbolTableRecord
100
AcDbLayerTableRecord
  2
00_COMPONENTS
 70
0
 62
7
  6
CONTINUOUS
370
-3
390
F
  0
LAYER
  5
1FE
100
AcDbSymbolTableRecord
100
AcDbLayerTableRecord
  2
01_1_DEFAULT_DATUMS
 70
0
 62
7
  6
CONTINUOUS
370
-3
390
F
  0
LAYER
  5
1FF
100
AcDbSymbolTableRecord
100
AcDbLayerTableRecord
  2
01_PLANES
 70
0
 62
7
  6
CONTINUOUS
370
-3
390
F
  0
LAYER
  5
200
100
AcDbSymbolTableRecord
100
AcDbLayerTableRecord
  2
02_COORD_SYS
 70
0
 62
7
  6
CONTINUOUS
370
-3
390
F
  0
LAYER
  5
201
100
AcDbSymbolTableRecord
100
AcDbLayerTableRecord
  2
03_AXES
 70
0
 62
7
  6
CONTINUOUS
370
-3
390
F
  0
LAYER
  5
202
100
AcDbSymbolTableRecord
100
AcDbLayerTableRecord
  2
04_POINTS
 70
0
 62
7
  6
CONTINUOUS
370
-3
390
F
  0
LAYER
  5
203
100
AcDbSymbolTableRecord
100
AcDbLayerTableRecord
  2
05_CURVES
 70
0
 62
7
  6
CONTINUOUS
370
-3
390
F
  0
LAYER
  5
204
100
AcDbSymbolTableRecord
100
AcDbLayerTableRecord
  2
06_SURFS
 70
0
 62
7
  6
CONTINUOUS
370
-3
390
F
  0
LAYER
  5
205
100
AcDbSymbolTableRecord
100
AcDbLayerTableRecord
  2
07_COSMETICS
 70
0
 62
7
  6
CONTINUOUS
370
-3
390
F
  0
LAYER
  5
206
100
AcDbSymbolTableRecord
100
AcDbLayerTableRecord
  2
10_NOTES
 70
0
 62
7
  6
CONTINUOUS
370
-3
390
F
  0
LAYER
  5
207
100
AcDbSymbolTableRecord
100
AcDbLayerTableRecord
  2
11_NOTES_PUB
 70
0
 62
7
  6
CONTINUOUS
370
-3
390
F
  0
LAYER
  5
208
100
AcDbSymbolTableRecord
100
AcDbLayerTableRecord
  2
13_REF_GTOL
 70
0
 62
7
  6
CONTINUOUS
370
-3
390
F
  0
LAYER
  5
209
100
AcDbSymbolTableRecord
100
AcDbLayerTableRecord
  2
16_MISC
 70
0
 62
7
  6
CONTINUOUS
370
-3
390
F
  0
LAYER
  5
20A
100
AcDbSymbolTableRecord
100
AcDbLayerTableRecord
  2
17_NO_PRINT
 70
0
 62
7
  6
CONTINUOUS
370
-3
390
F
  0
LAYER
  5
20B
100
AcDbSymbolTableRecord
100
AcDbLayerTableRecord
  2
18_DATUM_CAMS_JOINTS
 70
0
 62
7
  6
CONTINUOUS
370
-3
390
F
  0
LAYER
  5
20C
100
AcDbSymbolTableRecord
100
AcDbLayerTableRecord
  2
19_DATUM_FUNCTIONAL
 70
0
 62
7
  6
CONTINUOUS
370
-3
390
F
  0
LAYER
  5
20D
100
AcDbSymbolTableRecord
100
AcDbLayerTableRecord
  2
20_DATUM_KINEMATIC_SCHEME
 70
0
 62
7
  6
CONTINUOUS
370
-3
390
F
  0
LAYER
  5
20E
100
AcDbSymbolTableRecord
100
AcDbLayerTableRecord
  2
INTFCLR_17482
 70
0
 62
7
  6
CONTINUOUS
370
-3
390
F
  0
ENDTAB
  0
TABLE
  2
STYLE
  5
3
100
AcDbSymbolTable
 70
1
  0
STYLE
  5
11
100
AcDbSymbolTableRecord
100
AcDbTextStyleTableRecord
  2
STANDARD
 70
0
 40
0.0
 41
1.0
 50
0.0
 71
0
 42
0.2
  3
ARIAL.TTF
  4

  0
STYLE
  5
20F
100
AcDbSymbolTableRecord
100
AcDbTextStyleTableRecord
  2
TEXTSTYLE_1
 70
0
 40
0.0
 41
0.8
 50
0.0
 71
0
 42
0.2
  3
gdt
  4

  0
ENDTAB
  0
TABLE
  2
VIEW
  5
6
100
AcDbSymbolTable
 70
0
  0
ENDTAB
  0
TABLE
  2
UCS
  5
7
100
AcDbSymbolTable
 70
0
  0
ENDTAB
  0
TABLE
  2
APPID
  5
9
100
AcDbSymbolTable
 70
1
  0
APPID
  5
210
100
AcDbSymbolTableRecord
100
AcDbRegAppTableRecord
  2
ACAD
 70
0
  0
ENDTAB
  0
TABLE
  2
BLOCK_RECORD
  5
1
100
AcDbSymbolTable
 70
0
  0
BLOCK_RECORD
  5
211
100
AcDbSymbolTableRecord
100
AcDbBlockTableRecord
  2
*Model_Space
  0
BLOCK_RECORD
  5
212
100
AcDbSymbolTableRecord
100
AcDbBlockTableRecord
  2
*Paper_Space
  0
BLOCK_RECORD
  5
213
100
AcDbSymbolTableRecord
100
AcDbBlockTableRecord
  2
_FILLED
  0
ENDTAB
  0
TABLE
  2
DIMSTYLE
  5
A
100
AcDbSymbolTable
 70
1
100
AcDbDimStyleTable
 71
0
  0
DIMSTYLE
105
214
100
AcDbSymbolTableRecord
100
AcDbDimStyleTableRecord
  2
STANDARD
 70
0
  3

  4

 40
1.0
 41
0.9443534968
 42
1.0
 43
0.38
 44
1.0
 45
0.0
 46
0.0
 47
0.01
 48
0.01
140
1.3220948955
141
0.09
142
0.0
143
25.4
144
1.0
145
0.0
146
1.0
147
0.625
 71
1
 72
0
 73
0
 74
0
 75
0
 76
0
 77
1
 78
8
 79
2
170
0
171
1
172
0
173
0
174
0
175
0
176
0
177
0
178
0
270
2
179
2
271
2
272
2
273
2
274
2
275
0
280
0
281
0
282
0
283
1
284
8
285
0
286
0
287
3
288
0
340
11
278
46
341
213
342
213
343
213
344
213
  0
ENDTAB
  0
ENDSEC
  0
SECTION
  2
BLOCKS
  0
BLOCK
  5
20
100
AcDbEntity
  8
0
100
AcDbBlockBegin
  2
*Model_Space
 70
0
 10
0.0
 20
0.0
 30
0.0
  3
*Model_Space
  1

  0
ENDBLK
  5
21
100
AcDbEntity
  8
0
100
AcDbBlockEnd
  0
BLOCK
  5
1C
100
AcDbEntity
  8
0
100
AcDbBlockBegin
  2
*Paper_Space
 70
0
 10
0.0
 20
0.0
 30
0.0
  3
*Paper_Space
  1

  0
ENDBLK
  5
1D
100
AcDbEntity
  8
0
100
AcDbBlockEnd
  0
BLOCK
  5
215
100
AcDbEntity
  8
0
100
AcDbBlockBegin
  2
_FILLED
 70
64
 10
0.0
 20
0.0
  3
_FILLED
  1

  0
SOLID
  5
216
100
AcDbEntity
  8
0
  6
BYBLOCK
 62
0
100
AcDbTrace
 10
0.0
 20
0.0
 11
-1.0
 21
0.25
 12
-1.0
 22
-0.25
 13
-1.0
 23
-0.25
  0
ENDBLK
  5
217
100
AcDbEntity
  8
0
  6
BYBLOCK
 62
0
100
AcDbBlockEnd
  0
ENDSEC
  0
SECTION
  2
ENTITIES
  0
LINE
  5
218
100
AcDbEntity
  8
0
100
AcDbLine
 62
7
  6
BYLAYER
 10
9.2468042881
 20
55.2319186121
 11
9.4426181275
 21
52.8985852788
  0
LINE
  5
219
100
AcDbEntity
  8
0
100
AcDbLine
 62
7
  6
BYLAYER
 10
9.2468042881
 20
55.2321161513
 11
9.2468042881
 21
57.2319183185
  0
LINE
  5
21A
100
AcDbEntity
  8
0
100
AcDbLine
 62
7
  6
BYLAYER
 10
9.442618132
 20
59.5652519718
 11
9.4426181319
 21
52.8985852524
  0
LINE
  5
21B
100
AcDbEntity
  8
0
100
AcDbLine
 62
7
  6
BYLAYER
 10
9.6398207869
 20
52.7319186121
 11
9.6398207869
 21
59.7319186121
  0
LINE
  5
21C
100
AcDbEntity
  8
0
100
AcDbLine
 62
7
  6
BYLAYER
 10
9.2468042881
 20
57.231918612
 11
9.4426181275
 21
59.5652519454
  0
LINE
  5
21D
100
AcDbEntity
  8
0
100
AcDbLine
 62
7
  6
BYLAYER
 10
15.5768042881
 20
50.2308036268
 11
15.5768042881
 21
62.2330335974
  0
LINE
  5
21E
100
AcDbEntity
  8
0
100
AcDbLine
 62
7
  6
BYLAYER
 10
15.6804517388
 20
50.0881451492
 11
15.6804517388
 21
62.375692075
  0
LINE
  5
21F
100
AcDbEntity
  8
0
100
AcDbLine
 62
7
  6
BYLAYER
 10
16.5804517389
 20
62.6681198013
 11
16.5804517389
 21
49.7957174229
  0
LINE
  5
220
100
AcDbEntity
  8
0
100
AcDbLine
 62
7
  6
BYLAYER
 10
16.7768042881
 20
62.5254494125
 11
16.7768042881
 21
49.9388488246
  0
LINE
  5
221
100
AcDbEntity
  8
0
100
AcDbLine
 62
7
  6
BYLAYER
 10
17.7968042881
 20
48.7321159883
 11
17.7968042881
 21
63.7317212359
  0
LINE
  5
222
100
AcDbEntity
  8
0
100
AcDbLine
 62
7
  6
BYLAYER
 10
18.2968042881
 20
48.2319186121
 11
18.2968042881
 21
64.2319186121
  0
LINE
  5
223
100
AcDbEntity
  8
0
100
AcDbLine
 62
7
  6
BYLAYER
 10
17.7968042881
 20
63.7319186126
 11
18.2968042883
 21
64.2319186119
  0
LINE
  5
224
100
AcDbEntity
  8
0
100
AcDbLine
 62
7
  6
BYLAYER
 10
17.7968042881
 20
48.7319186117
 11
18.2968042883
 21
48.2319186123
  0
LINE
  5
225
100
AcDbEntity
  8
0
100
AcDbLine
 62
7
  6
BYLAYER
 10
21.1068042889
 20
48.9319187614
 11
21.1068042881
 21
63.5319186213
  0
LINE
  5
226
100
AcDbEntity
  8
0
100
AcDbLine
 62
7
  6
BYLAYER
 10
16.5804517389
 20
62.6681198013
 11
15.6804517388
 21
62.375692075
  0
LINE
  5
227
100
AcDbEntity
  8
0
100
AcDbLine
 62
7
  6
BYLAYER
 10
17.7968042881
 20
62.2319186119
 11
16.776804288
 21
61.9005005221
  0
LINE
  5
228
100
AcDbEntity
  8
0
100
AcDbLine
 62
7
  6
BYLAYER
 10
15.6804517388
 20
50.0881451492
 11
16.5804517389
 21
49.7957174229
  0
LINE
  5
229
100
AcDbEntity
  8
0
100
AcDbLine
 62
7
  6
BYLAYER
 10
16.776804288
 20
50.5633367021
 11
17.7968042881
 21
50.2319186123
  0
LINE
  5
22A
100
AcDbEntity
  8
0
100
AcDbLine
 62
7
  6
BYLAYER
 10
29.2968040373
 20
64.2195133147
 11
29.2968040085
 21
64.2248345062
  0
LINE
  5
22B
100
AcDbEntity
  8
0
100
AcDbLine
 62
7
  6
BYLAYER
 10
29.2968044759
 20
48.2389986565
 11
29.2968045144
 21
48.2443201296
  0
LINE
  5
22C
100
AcDbEntity
  8
0
100
AcDbLine
 62
7
  6
BYLAYER
 10
16.6268042881
 20
49.7883759002
 11
16.580451739
 21
49.7957174227
  0
LWPOLYLINE
  5
22D
100
AcDbEntity
  8
0
100
AcDbPolyline
 62
7
  6
BYLAYER
 90
4
 70
0
 10
28.4901566405
 20
48.2318954509
 10
28.7068355858
 20
48.2334248455
 10
29.0692318103
 20
48.2379078807
 10
29.2968044759
 20
48.2389986567
  0
LINE
  5
22E
100
AcDbEntity
  8
0
100
AcDbLine
 62
7
  6
BYLAYER
 10
18.2968042885
 20
48.2319186121
 11
68.9968042929
 21
48.2319186121
  0
LINE
  5
22F
100
AcDbEntity
  8
0
100
AcDbLine
 62
7
  6
BYLAYER
 10
64.2967927148
 20
48.9319187116
 11
21.1068042889
 21
48.9319187614
  0
LINE
  5
230
100
AcDbEntity
  8
0
100
AcDbLine
 62
7
  6
BYLAYER
 10
57.7468042881
 20
49.2319186121
 11
69.2968042881
 21
49.2319186121
  0
LINE
  5
231
100
AcDbEntity
  8
0
100
AcDbLine
 62
7
  6
BYLAYER
 10
57.7468042881
 20
49.3319186121
 11
69.1968042881
 21
49.3319186121
  0
LWPOLYLINE
  5
232
100
AcDbEntity
  8
0
100
AcDbPolyline
 62
7
  6
BYLAYER
 90
4
 70
0
 10
29.2968044982
 20
48.2389892906
 10
29.5122637336
 20
48.2380196093
 10
29.874616186
 20
48.2335705146
 10
30.1034547229
 20
48.2318903118
  0
LINE
  5
233
100
AcDbEntity
  8
0
100
AcDbLine
 62
7
  6
BYLAYER
 10
64.8968042881
 20
50.9319186121
 11
57.7468042881
 21
50.9319186121
  0
LINE
  5
234
100
AcDbEntity
  8
0
100
AcDbLine
 62
7
  6
BYLAYER
 10
61.5181520575
 20
51.7319186121
 11
64.8968042881
 21
51.7319186121
  0
LINE
  5
235
100
AcDbEntity
  8
0
100
AcDbLine
 62
7
  6
BYLAYER
 10
59.3773328852
 20
52.5319186121
 11
69.1968042881
 21
52.5319186121
  0
LINE
  5
236
100
AcDbEntity
  8
0
100
AcDbLine
 62
7
  6
BYLAYER
 10
9.6398207869
 20
52.7319186121
 11
15.5768042881
 21
52.7319186121
  0
LINE
  5
237
100
AcDbEntity
  8
0
100
AcDbLine
 62
7
  6
BYLAYER
 10
9.6398207869
 20
59.7319186121
 11
15.5768042881
 21
59.7319186121
  0
LINE
  5
238
100
AcDbEntity
  8
0
100
AcDbLine
 62
7
  6
BYLAYER
 10
59.3773328852
 20
59.9319186121
 11
69.1968042881
 21
59.9319186121
  0
LINE
  5
239
100
AcDbEntity
  8
0
100
AcDbLine
 62
7
  6
BYLAYER
 10
61.5181520575
 20
60.7319186121
 11
64.8968042881
 21
60.7319186121
  0
LINE
  5
23A
100
AcDbEntity
  8
0
100
AcDbLine
 62
7
  6
BYLAYER
 10
57.7468042881
 20
61.5319186121
 11
64.8968042881
 21
61.5319186121
  0
LWPOLYLINE
  5
23B
100
AcDbEntity
  8
0
100
AcDbPolyline
 62
7
  6
BYLAYER
 90
4
 70
0
 10
30.1034515847
 20
64.2319470277
 10
29.8869860174
 20
64.2304106381
 10
29.5245883871
 20
64.2259254664
 10
29.2968041173
 20
64.2248465997
  0
LINE
  5
23C
100
AcDbEntity
  8
0
100
AcDbLine
 62
7
  6
BYLAYER
 10
69.1968042881
 20
63.1319186121
 11
57.7468042881
 21
63.1319186121
  0
LINE
  5
23D
100
AcDbEntity
  8
0
100
AcDbLine
 62
7
  6
BYLAYER
 10
57.7468042881
 20
63.2319186121
 11
69.2968042881
 21
63.2319186121
  0
LINE
  5
23E
100
AcDbEntity
  8
0
100
AcDbLine
 62
7
  6
BYLAYER
 10
21.1068042881
 20
63.5319186213
 11
64.2968042933
 21
63.5319186334
  0
LINE
  5
23F
100
AcDbEntity
  8
0
100
AcDbLine
 62
7
  6
BYLAYER
 10
18.2968042885
 20
64.2319186121
 11
68.9959077007
 21
64.2319186121
  0
LWPOLYLINE
  5
240
100
AcDbEntity
  8
0
100
AcDbPolyline
 62
7
  6
BYLAYER
 90
4
 70
0
 10
29.2968040085
 20
64.2248345062
 10
29.08192781
 20
64.2258085845
 10
28.7195751473
 20
64.2302520327
 10
28.4901537173
 20
64.2319556765
  0
LINE
  5
241
100
AcDbEntity
  8
0
100
AcDbLine
 62
7
  6
BYLAYER
 10
16.6268042881
 20
62.675461324
 11
16.580451739
 21
62.6681198015
  0
LINE
  5
242
100
AcDbEntity
  8
0
100
AcDbLine
 62
7
  6
BYLAYER
 10
57.7468042881
 20
49.2319186121
 11
57.7468042881
 21
49.3319186121
  0
LINE
  5
243
100
AcDbEntity
  8
0
100
AcDbLine
 62
7
  6
BYLAYER
 10
57.7468042881
 20
50.9319186121
 11
57.7468042881
 21
54.4887225743
  0
LINE
  5
244
100
AcDbEntity
  8
0
100
AcDbLine
 62
7
  6
BYLAYER
 10
57.7468042881
 20
57.9774112186
 11
57.7468042881
 21
61.5319186121
  0
LINE
  5
245
100
AcDbEntity
  8
0
100
AcDbLine
 62
7
  6
BYLAYER
 10
57.7468042881
 20
63.1319186121
 11
57.7468042881
 21
63.2319186121
  0
LINE
  5
246
100
AcDbEntity
  8
0
100
AcDbLine
 62
7
  6
BYLAYER
 10
61.5181520572
 20
60.7319186121
 11
61.518152057
 21
59.9319186121
  0
LINE
  5
247
100
AcDbEntity
  8
0
100
AcDbLine
 62
7
  6
BYLAYER
 10
61.518152057
 20
52.5319186121
 11
61.5181520573
 21
51.7319186121
  0
LINE
  5
248
100
AcDbEntity
  8
0
100
AcDbLine
 62
7
  6
BYLAYER
 10
64.2968042933
 20
63.5319186334
 11
64.296804291
 21
63.2319186121
  0
LINE
  5
249
100
AcDbEntity
  8
0
100
AcDbLine
 62
7
  6
BYLAYER
 10
64.2967978165
 20
49.2319186121
 11
64.2967927148
 21
48.9319187116
  0
LINE
  5
24A
100
AcDbEntity
  8
0
100
AcDbLine
 62
7
  6
BYLAYER
 10
64.6968042881
 20
51.7319186121
 11
64.6968042881
 21
52.5319186121
  0
LINE
  5
24B
100
AcDbEntity
  8
0
100
AcDbLine
 62
7
  6
BYLAYER
 10
64.6968042881
 20
59.9319186121
 11
64.6968042881
 21
60.7319186121
  0
LINE
  5
24C
100
AcDbEntity
  8
0
100
AcDbLine
 62
7
  6
BYLAYER
 10
64.8968042881
 20
61.5319186121
 11
64.8968042881
 21
59.9319186121
  0
LINE
  5
24D
100
AcDbEntity
  8
0
100
AcDbLine
 62
7
  6
BYLAYER
 10
64.8968042881
 20
50.9319186121
 11
64.8968042881
 21
52.5319186121
  0
LINE
  5
24E
100
AcDbEntity
  8
0
100
AcDbLine
 62
7
  6
BYLAYER
 10
67.7468042881
 20
63.2319186121
 11
67.7468042881
 21
63.1319186121
  0
LINE
  5
24F
100
AcDbEntity
  8
0
100
AcDbLine
 62
7
  6
BYLAYER
 10
67.7468042881
 20
49.3319186121
 11
67.7468042881
 21
49.2319186121
  0
LINE
  5
250
100
AcDbEntity
  8
0
100
AcDbLine
 62
7
  6
BYLAYER
 10
69.1968042881
 20
63.1319186121
 11
69.1968042881
 21
59.8619690852
  0
LINE
  5
251
100
AcDbEntity
  8
0
100
AcDbLine
 62
7
  6
BYLAYER
 10
69.1968042881
 20
52.601868139
 11
69.1968042881
 21
49.3319186121
  0
LINE
  5
252
100
AcDbEntity
  8
0
100
AcDbLine
 62
7
  6
BYLAYER
 10
69.2968042881
 20
48.5319186121
 11
69.2968042881
 21
49.2319186121
  0
LINE
  5
253
100
AcDbEntity
  8
0
100
AcDbLine
 62
7
  6
BYLAYER
 10
69.2968042881
 20
63.2319186121
 11
69.2968042881
 21
63.9319186121
  0
ARC
  5
254
100
AcDbEntity
  8
0
100
AcDbCircle
 62
7
  6
BYLAYER
 10
57.512829616
 20
-46.1520447421
 40
95.3071662952
100
AcDbArc
 50
84.3788058772
 51
85.2776396102
  0
ARC
  5
255
100
AcDbEntity
  8
0
100
AcDbCircle
 62
7
  6
BYLAYER
 10
57.5868193838
 20
157.824344734
 40
94.5121978531
100
AcDbArc
 50
274.7172825151
 51
275.6236274972
  0
ARC
  5
256
100
AcDbEntity
  8
0
100
AcDbCircle
 62
7
  6
BYLAYER
 10
-44.200885032
 20
56.1929967236
 40
64.0144582724
100
AcDbArc
 50
0.0348368187
 51
7.2142388398
  0
ARC
  5
257
100
AcDbEntity
  8
0
100
AcDbCircle
 62
7
  6
BYLAYER
 10
-44.2005063925
 20
56.2708165158
 40
64.0140796184
100
AcDbArc
 50
352.7857398987
 51
359.9651844428
  0
ARC
  5
258
100
AcDbEntity
  8
0
100
AcDbCircle
 62
7
  6
BYLAYER
 10
68.5759850656
 20
56.2319186121
 40
3.7
100
AcDbArc
 50
270.0
 51
90.0
  0
ARC
  5
259
100
AcDbEntity
  8
0
100
AcDbCircle
 62
7
  6
BYLAYER
 10
68.9968042881
 20
63.9319186121
 40
0.3
100
AcDbArc
 50
0.0
 51
89.9999993251
  0
ARC
  5
25A
100
AcDbEntity
  8
0
100
AcDbCircle
 62
7
  6
BYLAYER
 10
68.9968042881
 20
48.5319186121
 40
0.3
100
AcDbArc
 50
270.0000006986
 51
360.0
  0
ARC
  5
25B
100
AcDbEntity
  8
0
100
AcDbCircle
 62
7
  6
BYLAYER
 10
9.6398207869
 20
52.9319186121
 40
0.2
100
AcDbArc
 50
189.5940682266
 51
270.0
  0
ARC
  5
25C
100
AcDbEntity
  8
0
100
AcDbCircle
 62
7
  6
BYLAYER
 10
9.6398207869
 20
59.5319186121
 40
0.2
100
AcDbArc
 50
90.0
 51
170.405931773
  0
ARC
  5
25D
100
AcDbEntity
  8
0
100
AcDbCircle
 62
7
  6
BYLAYER
 10
15.7268042881
 20
50.2308036268
 40
0.15
100
AcDbArc
 50
180.0
 51
251.9999999985
  0
ARC
  5
25E
100
AcDbEntity
  8
0
100
AcDbCircle
 62
7
  6
BYLAYER
 10
15.7268042881
 20
62.2330335974
 40
0.15
100
AcDbArc
 50
108.0000000015
 51
180.0
  0
ARC
  5
25F
100
AcDbEntity
  8
0
100
AcDbCircle
 62
7
  6
BYLAYER
 10
16.6268042881
 20
62.525461324
 40
0.15
100
AcDbArc
 50
0.0
 51
90.0
  0
ARC
  5
260
100
AcDbEntity
  8
0
100
AcDbCircle
 62
7
  6
BYLAYER
 10
16.6268042881
 20
49.9383759002
 40
0.15
100
AcDbArc
 50
270.0
 51
360.0
  0
SPLINE
  5
261
100
AcDbEntity
  8
0
100
AcDbSpline
 62
7
  6
BYLAYER
 70
0
 71
3
 72
17
 73
13
 74
0
 42
0.0000001
 43
0.0000001
 44
0.0000000001
 40
0.0
 40
0.0
 40
0.0
 40
0.0
 40
0.0410413776
 40
0.0832001818
 40
0.1274725263
 40
0.1746423268
 40
0.2794768115
 40
0.3998498773
 40
0.5350547674
 40
0.6826255477
 40
0.8390487758
 40
1.0
 40
1.0
 40
1.0
 40
1.0
 10
59.3773328849
 20
59.9319066812
 30
0.0
 10
59.3159079398
 20
59.9319056118
 30
0.0
 10
59.1910712125
 20
59.9195756892
 30
0.0
 10
59.0072100084
 20
59.8649544648
 30
0.0
 10
58.8276289304
 20
59.7748962466
 30
0.0
 10
58.5878789579
 20
59.6034310762
 30
0.0
 10
58.3098368522
 20
59.2994306398
 30
0.0
 10
58.0309187916
 20
58.8348916581
 30
0.0
 10
57.8028207843
 20
58.2741284486
 30
0.0
 10
57.6335793562
 20
57.6374196789
 30
0.0
 10
57.5294495492
 20
56.9481575529
 30
0.0
 10
57.5060985025
 20
56.4728077024
 30
0.0
 10
57.5060985025
 20
56.2319186121
 30
0.0
  0
SPLINE
  5
262
100
AcDbEntity
  8
0
100
AcDbSpline
 62
7
  6
BYLAYER
 70
0
 71
3
 72
17
 73
13
 74
0
 42
0.0000001
 43
0.0000001
 44
0.0000000001
 40
0.0
 40
0.0
 40
0.0
 40
0.0
 40
0.1609509749
 40
0.3173706251
 40
0.4649396875
 40
0.6001432121
 40
0.7205171577
 40
0.8253539428
 40
0.8725252543
 40
0.9167984381
 40
0.9589581139
 40
1.0
 40
1.0
 40
1.0
 40
1.0
 10
57.5060985025
 20
56.2319186121
 30
0.0
 10
57.5060985025
 20
55.9910298621
 30
0.0
 10
57.5294483681
 20
55.5156855919
 30
0.0
 10
57.6335769223
 20
54.8264317344
 30
0.0
 10
57.8028113409
 20
54.1897313019
 30
0.0
 10
58.0309057174
 20
53.6289703762
 30
0.0
 10
58.3098209457
 20
53.1644257977
 30
0.0
 10
58.5878672457
 20
52.8604207876
 30
0.0
 10
58.8276177539
 20
52.688943779
 30
0.0
 10
59.0072050237
 20
52.5988866982
 30
0.0
 10
59.1910680142
 20
52.5442614342
 30
0.0
 10
59.315907171
 20
52.5319294736
 30
0.0
 10
59.3773328855
 20
52.531930543
 30
0.0
  0
SPLINE
  5
263
100
AcDbEntity
  8
0
100
AcDbSpline
 62
7
  6
BYLAYER
 70
0
 71
3
 72
22
 73
18
 74
0
 42
0.0000001
 43
0.0000001
 44
0.0000000001
 40
0.0
 40
0.0
 40
0.0
 40
0.0
 40
0.2177904405
 40
0.4147640556
 40
0.5872595394
 40
0.7324935056
 40
0.7941295422
 40
0.8480713341
 40
0.8940869637
 40
0.9320063087
 40
0.9616630522
 40
0.9733473172
 40
0.982923167
 40
0.9903835001
 40
0.9957211892
 40
0.9989290819
 40
1.0
 40
1.0
 40
1.0
 40
1.0
 10
66.8483895564
 20
63.7669184348
 30
0.0
 10
67.0257026926
 20
63.7845060763
 30
0.0
 10
67.3636097841
 20
63.8157358715
 30
0.0
 10
67.8425505378
 20
63.8540561454
 30
0.0
 10
68.2626644106
 20
63.882966792
 30
0.0
 10
68.5725103378
 20
63.9011616443
 30
0.0
 10
68.7856110509
 20
63.9121036061
 30
0.0
 10
68.9176728975
 20
63.9182891558
 30
0.0
 10
69.0303741281
 20
63.9230805647
 30
0.0
 10
69.1232403444
 20
63.9266317929
 30
0.0
 10
69.1880490159
 20
63.9288539207
 30
0.0
 10
69.2296859113
 20
63.9301340622
 30
0.0
 10
69.2531740912
 20
63.9308356646
 30
0.0
 10
69.2714706999
 20
63.9312764058
 30
0.0
 10
69.2845655485
 20
63.9317263409
 30
0.0
 10
69.2924243019
 20
63.9316950156
 30
0.0
 10
69.2959311981
 20
63.9319919164
 30
0.0
 10
69.2968042881
 20
63.9319186121
 30
0.0
  0
SPLINE
  5
264
100
AcDbEntity
  8
0
100
AcDbSpline
 62
7
  6
BYLAYER
 70
0
 71
3
 72
12
 73
8
 74
0
 42
0.0000001
 43
0.0000001
 44
0.0000000001
 40
0.0
 40
0.0
 40
0.0
 40
0.0
 40
0.3164859905
 40
0.6035626234
 40
0.7273144934
 40
0.8346257089
 40
1.0
 40
1.0
 40
1.0
 40
1.0
 10
66.8482747511
 20
63.7669070716
 30
0.0
 10
66.8437506795
 20
63.8229024042
 30
0.0
 10
66.8269375996
 20
63.9291876096
 30
0.0
 10
66.7865458
 20
64.0526086709
 30
0.0
 10
66.7429013645
 20
64.1341064323
 30
0.0
 10
66.7014189881
 20
64.1904623051
 30
0.0
 10
66.660400283
 20
64.2224975634
 30
0.0
 10
66.631861641
 20
64.2293711692
 30
0.0
  0
SPLINE
  5
265
100
AcDbEntity
  8
0
100
AcDbSpline
 62
7
  6
BYLAYER
 70
0
 71
3
 72
8
 73
4
 74
0
 42
0.0000001
 43
0.0000001
 44
0.0000000001
 40
0.0
 40
0.0
 40
0.0
 40
0.0
 40
1.0
 40
1.0
 40
1.0
 40
1.0
 10
66.631861641
 20
64.2293711692
 30
0.0
 10
66.6250339503
 20
64.2310156361
 30
0.0
 10
66.6179703422
 20
64.2319180494
 30
0.0
 10
66.6109474061
 20
64.2319186118
 30
0.0
  0
SPLINE
  5
266
100
AcDbEntity
  8
0
100
AcDbSpline
 62
7
  6
BYLAYER
 70
0
 71
3
 72
17
 73
13
 74
0
 42
0.0000001
 43
0.0000001
 44
0.0000000001
 40
0.0
 40
0.0
 40
0.0
 40
0.0
 40
0.0410413776
 40
0.0832001818
 40
0.1274725263
 40
0.1746423268
 40
0.2794768115
 40
0.3998498773
 40
0.5350547674
 40
0.6826255477
 40
0.8390487758
 40
1.0
 40
1.0
 40
1.0
 40
1.0
 10
59.3773328855
 20
52.531930543
 30
0.0
 10
59.4387578306
 20
52.5319316124
 30
0.0
 10
59.5635945579
 20
52.544261535
 30
0.0
 10
59.747455762
 20
52.5988827594
 30
0.0
 10
59.92703684
 20
52.6889409776
 30
0.0
 10
60.1667868125
 20
52.860406148
 30
0.0
 10
60.4448289182
 20
53.1644065844
 30
0.0
 10
60.7237469788
 20
53.6289455661
 30
0.0
 10
60.9518449861
 20
54.1897087756
 30
0.0
 10
61.1210864142
 20
54.8264175453
 30
0.0
 10
61.2252162213
 20
55.5156796713
 30
0.0
 10
61.2485672679
 20
55.9910295218
 30
0.0
 10
61.2485672679
 20
56.2319186121
 30
0.0
  0
SPLINE
  5
267
100
AcDbEntity
  8
0
100
AcDbSpline
 62
7
  6
BYLAYER
 70
0
 71
3
 72
14
 73
10
 74
0
 42
0.0000001
 43
0.0000001
 44
0.0000000001
 40
0.0
 40
0.0
 40
0.0
 40
0.0
 40
0.3248414933
 40
0.476653219
 40
0.6152555907
 40
0.7372896443
 40
0.8408605362
 40
0.9268343401
 40
1.0
 40
1.0
 40
1.0
 40
1.0
 10
66.8482740506
 20
48.6969270029
 30
0.0
 10
66.8434344989
 20
48.6370844181
 30
0.0
 10
66.8292376275
 20
48.5495482732
 30
0.0
 10
66.7958538994
 20
48.4407036384
 30
0.0
 10
66.7658714468
 20
48.3704276564
 30
0.0
 10
66.7316101921
 20
48.3122092702
 30
0.0
 10
66.6940444847
 20
48.2680438564
 30
0.0
 10
66.6539949879
 20
48.2394048867
 30
0.0
 10
66.6244620245
 20
48.2319189082
 30
0.0
 10
66.6109393779
 20
48.2319186121
 30
0.0
  0
SPLINE
  5
268
100
AcDbEntity
  8
0
100
AcDbSpline
 62
7
  6
BYLAYER
 70
0
 71
3
 72
23
 73
19
 74
0
 42
0.0000001
 43
0.0000001
 44
0.0000000001
 40
0.0
 40
0.0
 40
0.0
 40
0.0
 40
0.0010674668
 40
0.0042688921
 40
0.0096011552
 40
0.0170589342
 40
0.026634699
 40
0.0383187154
 40
0.0679615615
 40
0.1058659314
 40
0.1518755523
 40
0.2058001207
 40
0.2674159963
 40
0.3364668973
 40
0.4126640203
 40
0.5851906019
 40
0.7820785693
 40
1.0
 40
1.0
 40
1.0
 40
1.0
 10
69.2968042881
 20
48.5319186121
 30
0.0
 10
69.2959500959
 20
48.5321006833
 30
0.0
 10
69.2924118783
 20
48.5317748235
 30
0.0
 10
69.2846031767
 20
48.5323425306
 30
0.0
 10
69.271497844
 20
48.5324479753
 30
0.0
 10
69.253216391
 20
48.5330363641
 30
0.0
 10
69.2297256218
 20
48.5336757088
 30
0.0
 10
69.1880998837
 20
48.5349769646
 30
0.0
 10
69.1233104685
 20
48.537173389
 30
0.0
 10
69.0304683999
 20
48.5407231137
 30
0.0
 10
68.9177922648
 20
48.5455003413
 30
0.0
 10
68.7857591231
 20
48.5516776989
 30
0.0
 10
68.6349278252
 20
48.5594156187
 30
0.0
 10
68.4659397773
 20
48.568878096
 30
0.0
 10
68.2064223448
 20
48.5846786843
 30
0.0
 10
67.8426844938
 20
48.6097169262
 30
0.0
 10
67.3636584898
 20
48.6480472642
 30
0.0
 10
67.0257003617
 20
48.6793107598
 30
0.0
 10
66.848273603
 20
48.6969270447
 30
0.0
  0
SPLINE
  5
269
100
AcDbEntity
  8
0
100
AcDbSpline
 62
7
  6
BYLAYER
 70
0
 71
3
 72
16
 73
12
 74
0
 42
0.0000001
 43
0.0000001
 44
0.0000000001
 40
0.0
 40
0.0
 40
0.0
 40
0.0
 40
0.0281717788
 40
0.0530179489
 40
0.0865640415
 40
0.1292470059
 40
0.1810755167
 40
0.3103758066
 40
0.4677918247
 40
0.6428865313
 40
1.0
 40
1.0
 40
1.0
 40
1.0
 10
65.2318325904
 20
48.2318766146
 30
0.0
 10
65.2376601091
 20
48.2319254201
 30
0.0
 10
65.2466141927
 20
48.2414421
 30
0.0
 10
65.2551933153
 20
48.2563894865
 30
0.0
 10
65.2637422997
 20
48.2757844145
 30
0.0
 10
65.272500613
 20
48.3006993819
 30
0.0
 10
65.2856764092
 20
48.3451448622
 30
0.0
 10
65.3015756989
 20
48.413371645
 30
0.0
 10
65.3190979844
 20
48.5073114975
 30
0.0
 10
65.340477588
 20
48.648374582
 30
0.0
 10
65.3526478477
 20
48.7578513737
 30
0.0
 10
65.3592268254
 20
48.8314317117
 30
0.0
  0
SPLINE
  5
26A
100
AcDbEntity
  8
0
100
AcDbSpline
 62
7
  6
BYLAYER
 70
0
 71
3
 72
14
 73
10
 74
0
 42
0.0000001
 43
0.0000001
 44
0.0000000001
 40
0.0
 40
0.0
 40
0.0
 40
0.0
 40
0.1452504444
 40
0.2161036064
 40
0.284960457
 40
0.4169068677
 40
0.541939113
 40
0.7763889749
 40
1.0
 40
1.0
 40
1.0
 40
1.0
 10
64.2967927032
 20
48.9319187365
 30
0.0
 10
64.3146031447
 20
48.8741006356
 30
0.0
 10
64.3479181139
 20
48.7898844864
 30
0.0
 10
64.405961105
 20
48.6861910097
 30
0.0
 10
64.4705627015
 20
48.5931145253
 30
0.0
 10
64.5624443254
 20
48.4922434447
 30
0.0
 10
64.7235637503
 20
48.3648100818
 30
0.0
 10
64.9469755038
 20
48.2601950219
 30
0.0
 10
65.1387113893
 20
48.2319186121
 30
0.0
 10
65.2318489514
 20
48.2319186121
 30
0.0
  0
SPLINE
  5
26B
100
AcDbEntity
  8
0
100
AcDbSpline
 62
7
  6
BYLAYER
 70
0
 71
3
 72
15
 73
11
 74
0
 42
0.0000001
 43
0.0000001
 44
0.0000000001
 40
0.0
 40
0.0
 40
0.0
 40
0.0
 40
0.1158194214
 40
0.2331101825
 40
0.3530724281
 40
0.4764367919
 40
0.6033862125
 40
0.7335444879
 40
0.8661440918
 40
1.0
 40
1.0
 40
1.0
 40
1.0
 10
66.5162829481
 20
59.9319186121
 30
0.0
 10
66.7252038496
 20
59.9319186121
 30
0.0
 10
67.1472259196
 20
59.8834782941
 30
0.0
 10
67.7522986125
 20
59.6692051053
 30
0.0
 10
68.3084951424
 20
59.322446092
 30
0.0
 10
68.7942697315
 20
58.8575782472
 30
0.0
 10
69.1916922863
 20
58.2930646799
 30
0.0
 10
69.4864021939
 20
57.650661831
 30
0.0
 10
69.6675097871
 20
56.9550230651
 30
0.0
 10
69.7082230924
 20
56.4733746362
 30
0.0
 10
69.7082230924
 20
56.2319186121
 30
0.0
  0
SPLINE
  5
26C
100
AcDbEntity
  8
0
100
AcDbSpline
 62
7
  6
BYLAYER
 70
0
 71
3
 72
9
 73
5
 74
0
 42
0.0000001
 43
0.0000001
 44
0.0000000001
 40
0.0
 40
0.0
 40
0.0
 40
0.0
 40
0.5064675272
 40
1.0
 40
1.0
 40
1.0
 40
1.0
 10
29.2968045176
 20
48.24433339
 30
0.0
 10
29.4329954534
 20
48.244320853
 30
0.0
 10
29.7018731362
 20
48.2395865106
 30
0.0
 10
29.9707057783
 20
48.2319314189
 30
0.0
 10
30.1034184315
 20
48.2319186121
 30
0.0
  0
SPLINE
  5
26D
100
AcDbEntity
  8
0
100
AcDbSpline
 62
7
  6
BYLAYER
 70
0
 71
3
 72
12
 73
8
 74
0
 42
0.0000001
 43
0.0000001
 44
0.0000000001
 40
0.0
 40
0.0
 40
0.0
 40
0.0
 40
0.0911156265
 40
0.2061901959
 40
0.4628785727
 40
0.7310291635
 40
1.0
 40
1.0
 40
1.0
 40
1.0
 10
64.2967938898
 20
48.9318847379
 30
0.0
 10
64.3291827591
 20
48.9305800588
 30
0.0
 10
64.4024126271
 20
48.9261032427
 30
0.0
 10
64.5665465449
 20
48.91273055
 30
0.0
 10
64.7930051442
 20
48.8892405535
 30
0.0
 10
65.0736868543
 20
48.8581867896
 30
0.0
 10
65.2638562582
 20
48.8392775466
 30
0.0
 10
65.3592224647
 20
48.8314293723
 30
0.0
  0
SPLINE
  5
26E
100
AcDbEntity
  8
0
100
AcDbSpline
 62
7
  6
BYLAYER
 70
0
 71
3
 72
9
 73
5
 74
0
 42
0.0000001
 43
0.0000001
 44
0.0000000001
 40
0.0
 40
0.0
 40
0.0
 40
0.0
 40
0.4935409817
 40
1.0
 40
1.0
 40
1.0
 40
1.0
 10
30.1034169801
 20
64.2319186121
 30
0.0
 10
29.9707022005
 20
64.2319092397
 30
0.0
 10
29.7018697639
 20
64.2242570497
 30
0.0
 10
29.4329925189
 20
64.219515219
 30
0.0
 10
29.2968040373
 20
64.2195038346
 30
0.0
  0
SPLINE
  5
26F
100
AcDbEntity
  8
0
100
AcDbSpline
 62
7
  6
BYLAYER
 70
0
 71
3
 72
15
 73
11
 74
0
 42
0.0000001
 43
0.0000001
 44
0.0000000001
 40
0.0
 40
0.0
 40
0.0
 40
0.0
 40
0.1338559082
 40
0.2664555121
 40
0.3966137875
 40
0.5235632081
 40
0.6469275719
 40
0.7668898175
 40
0.8841805786
 40
1.0
 40
1.0
 40
1.0
 40
1.0
 10
69.7082230924
 20
56.2319186121
 30
0.0
 10
69.7082230924
 20
55.990462588
 30
0.0
 10
69.6675097871
 20
55.5088141592
 30
0.0
 10
69.4864021939
 20
54.8131753932
 30
0.0
 10
69.1916922863
 20
54.1707725443
 30
0.0
 10
68.7942697315
 20
53.606258977
 30
0.0
 10
68.3084951424
 20
53.1413911322
 30
0.0
 10
67.7522986125
 20
52.7946321189
 30
0.0
 10
67.1472259196
 20
52.5803589301
 30
0.0
 10
66.7252038496
 20
52.5319186121
 30
0.0
 10
66.5162829481
 20
52.5319186121
 30
0.0
  0
SPLINE
  5
270
100
AcDbEntity
  8
0
100
AcDbSpline
 62
7
  6
BYLAYER
 70
0
 71
3
 72
17
 73
13
 74
0
 42
0.0000001
 43
0.0000001
 44
0.0000000001
 40
0.0
 40
0.0
 40
0.0
 40
0.0
 40
0.1609509749
 40
0.3173706251
 40
0.4649396875
 40
0.6001432121
 40
0.7205171577
 40
0.8253539428
 40
0.8725252543
 40
0.9167984381
 40
0.9589581139
 40
1.0
 40
1.0
 40
1.0
 40
1.0
 10
61.2485672679
 20
56.2319186121
 30
0.0
 10
61.2485672679
 20
56.4728073621
 30
0.0
 10
61.2252174023
 20
56.9481516323
 30
0.0
 10
61.1210888481
 20
57.6374054898
 30
0.0
 10
60.9518544296
 20
58.2741059223
 30
0.0
 10
60.723760053
 20
58.834866848
 30
0.0
 10
60.4448448247
 20
59.2994114265
 30
0.0
 10
60.1667985247
 20
59.6034164366
 30
0.0
 10
59.9270480165
 20
59.7748934452
 30
0.0
 10
59.7474607467
 20
59.864950526
 30
0.0
 10
59.5635977562
 20
59.91957579
 30
0.0
 10
59.4387585994
 20
59.9319077506
 30
0.0
 10
59.3773328849
 20
59.9319066812
 30
0.0
  0
SPLINE
  5
271
100
AcDbEntity
  8
0
100
AcDbSpline
 62
7
  6
BYLAYER
 70
0
 71
3
 72
12
 73
8
 74
0
 42
0.0000001
 43
0.0000001
 44
0.0000000001
 40
0.0
 40
0.0
 40
0.0
 40
0.0
 40
0.2686624565
 40
0.5365111733
 40
0.7929666044
 40
0.9088408047
 40
1.0
 40
1.0
 40
1.0
 40
1.0
 10
65.3594083415
 20
63.632443661
 30
0.0
 10
65.2641359743
 20
63.6245982723
 30
0.0
 10
65.0741525058
 20
63.605688941
 30
0.0
 10
64.7937180832
 20
63.5747173929
 30
0.0
 10
64.5671419891
 20
63.5510346669
 30
0.0
 10
64.4027428245
 20
63.5379252443
 30
0.0
 10
64.3292124098
 20
63.53326447
 30
0.0
 10
64.2968042936
 20
63.5319185991
 30
0.0
  0
SPLINE
  5
272
100
AcDbEntity
  8
0
100
AcDbSpline
 62
7
  6
BYLAYER
 70
0
 71
3
 72
16
 73
12
 74
0
 42
0.0000001
 43
0.0000001
 44
0.0000000001
 40
0.0
 40
0.0
 40
0.0
 40
0.0
 40
0.35711185
 40
0.5321838662
 40
0.6896685334
 40
0.818678596
 40
0.8706323666
 40
0.9135010654
 40
0.9470174778
 40
0.9718026671
 40
1.0
 40
1.0
 40
1.0
 40
1.0
 10
65.3594277712
 20
63.6324453022
 30
0.0
 10
65.3528551993
 20
63.706016415
 30
0.0
 10
65.3407088726
 20
63.8154788775
 30
0.0
 10
65.3192440014
 20
63.956518061
 30
0.0
 10
65.3018073281
 20
64.0504115124
 30
0.0
 10
65.2858455711
 20
64.1185933463
 30
0.0
 10
65.2726791673
 20
64.1630404835
 30
0.0
 10
65.2639482411
 20
64.1880187039
 30
0.0
 10
65.2553979246
 20
64.2074435316
 30
0.0
 10
65.2467990208
 20
64.2223355478
 30
0.0
 10
65.2378576197
 20
64.2319184367
 30
0.0
 10
65.2320253545
 20
64.2319186149
 30
0.0
  0
SPLINE
  5
273
100
AcDbEntity
  8
0
100
AcDbSpline
 62
7
  6
BYLAYER
 70
0
 71
3
 72
17
 73
13
 74
0
 42
0.0000001
 43
0.0000001
 44
0.0000000001
 40
0.0
 40
0.0
 40
0.0
 40
0.0
 40
0.0215081733
 40
0.0463194553
 40
0.0764561582
 40
0.1129807634
 40
0.2064385436
 40
0.3268759248
 40
0.4714533142
 40
0.6358255315
 40
0.8144497436
 40
1.0
 40
1.0
 40
1.0
 40
1.0
 10
20.9405513663
 20
64.2319186121
 30
0.0
 10
20.9458959865
 20
64.2319186121
 30
0.0
 10
20.9574745185
 20
64.2292567261
 30
0.0
 10
20.9734719394
 20
64.2185266358
 30
0.0
 10
20.9889005239
 20
64.2016405078
 30
0.0
 10
21.0105908288
 20
64.1681405443
 30
0.0
 10
21.0348310565
 20
64.110427911
 30
0.0
 10
21.0592344998
 20
64.0246761929
 30
0.0
 10
21.0796438088
 20
63.9198261446
 30
0.0
 10
21.0949837022
 20
63.799579676
 30
0.0
 10
21.1045769856
 20
63.668535488
 30
0.0
 10
21.1068042876
 20
63.5780264783
 30
0.0
 10
21.1068042878
 20
63.5319186274
 30
0.0
  0
SPLINE
  5
274
100
AcDbEntity
  8
0
100
AcDbSpline
 62
7
  6
BYLAYER
 70
0
 71
3
 72
9
 73
5
 74
0
 42
0.0000001
 43
0.0000001
 44
0.0000000001
 40
0.0
 40
0.0
 40
0.0
 40
0.0
 40
0.5064608355
 40
1.0
 40
1.0
 40
1.0
 40
1.0
 10
29.2968040373
 20
64.2195038346
 30
0.0
 10
29.160615051
 20
64.2195132261
 30
0.0
 10
28.891737776
 20
64.2242573299
 30
0.0
 10
28.6229053069
 20
64.2319107328
 30
0.0
 10
28.4901910004
 20
64.2319186121
 30
0.0
  0
SPLINE
  5
275
100
AcDbEntity
  8
0
100
AcDbSpline
 62
7
  6
BYLAYER
 70
0
 71
3
 72
9
 73
5
 74
0
 42
0.0000001
 43
0.0000001
 44
0.0000000001
 40
0.0
 40
0.0
 40
0.0
 40
0.0
 40
0.4935403852
 40
1.0
 40
1.0
 40
1.0
 40
1.0
 10
28.4901916591
 20
48.2319186121
 30
0.0
 10
28.622906264
 20
48.2319315718
 30
0.0
 10
28.8917386762
 20
48.2395797994
 30
0.0
 10
29.1606158902
 20
48.2443185629
 30
0.0
 10
29.2968045176
 20
48.24433339
 30
0.0
  0
SPLINE
  5
276
100
AcDbEntity
  8
0
100
AcDbSpline
 62
7
  6
BYLAYER
 70
0
 71
3
 72
14
 73
10
 74
0
 42
0.0000001
 43
0.0000001
 44
0.0000000001
 40
0.0
 40
0.0
 40
0.0
 40
0.0
 40
0.0730123259
 40
0.1451403372
 40
0.2844578401
 40
0.4163390909
 40
0.541442049
 40
0.7762556024
 40
1.0
 40
1.0
 40
1.0
 40
1.0
 10
64.2968042912
 20
63.5319186274
 30
0.0
 10
64.3056653103
 20
63.5610166081
 30
0.0
 10
64.3253384377
 20
63.6182848545
 30
0.0
 10
64.3740791749
 20
63.7264583559
 30
0.0
 10
64.450433655
 20
63.848401803
 30
0.0
 10
64.5617889224
 20
63.9713985382
 30
0.0
 10
64.7231879327
 20
64.0988756082
 30
0.0
 10
64.9468446001
 20
64.2035736234
 30
0.0
 10
65.1388300183
 20
64.2319182846
 30
0.0
 10
65.2320429522
 20
64.2319186121
 30
0.0
  0
SPLINE
  5
277
100
AcDbEntity
  8
0
100
AcDbSpline
 62
7
  6
BYLAYER
 70
0
 71
3
 72
17
 73
13
 74
0
 42
0.0000001
 43
0.0000001
 44
0.0000000001
 40
0.0
 40
0.0
 40
0.0
 40
0.0
 40
0.0215234179
 40
0.0464095345
 40
0.0766218101
 40
0.1131250991
 40
0.2063076257
 40
0.326626312
 40
0.4713217591
 40
0.6358532641
 40
0.8144966096
 40
1.0
 40
1.0
 40
1.0
 40
1.0
 10
20.9405513953
 20
48.2319186121
 30
0.0
 10
20.9458992116
 20
48.2319186121
 30
0.0
 10
20.9574950137
 20
48.234640304
 30
0.0
 10
20.9734635159
 20
48.2454756237
 30
0.0
 10
20.9888737259
 20
48.2624114235
 30
0.0
 10
21.0105663284
 20
48.2958349711
 30
0.0
 10
21.0348761093
 20
48.3534003516
 30
0.0
 10
21.0592460035
 20
48.4390858886
 30
0.0
 10
21.0796315151
 20
48.5439667959
 30
0.0
 10
21.0949722604
 20
48.6642739029
 30
0.0
 10
21.1045772067
 20
48.7953352625
 30
0.0
 10
21.1068042901
 20
48.8858275105
 30
0.0
 10
21.1068042881
 20
48.931918613
 30
0.0
  0
ENDSEC
  0
SECTION
  2
OBJECTS
  0
DICTIONARY
  5
C
100
AcDbDictionary
280
0
281
1
  3
ACAD_GROUP
350
D
  3
ACAD_MLINESTYLE
350
17
  3
ACAD_LAYOUT
350
1A
  3
ACAD_PLOTSETTINGS
350
19
  3
ACAD_PLOTSTYLENAME
350
E
  0
DICTIONARY
  5
D
102
{ACAD_REACTORS
330
C
102
}
100
AcDbDictionary
280
0
281
1
  0
ACDBDICTIONARYWDFLT
  5
E
102
{ACAD_REACTORS
330
C
102
}
100
AcDbDictionary
281
1
  3
Normal
350
F
100
AcDbDictionaryWithDefault
340
F
  0
DICTIONARY
  5
17
102
{ACAD_REACTORS
330
C
102
}
100
AcDbDictionary
280
0
281
1
  3
Standard
350
18
  0
DICTIONARY
  5
19
102
{ACAD_REACTORS
330
C
102
}
100
AcDbDictionary
281
1
  0
DICTIONARY
  5
1A
102
{ACAD_REACTORS
330
C
102
}
100
AcDbDictionary
281
1
  3
Model
350
278
  3
Layout1
350
279
  0
ACDBPLACEHOLDER
  5
F
102
{ACAD_REACTORS
330
E
102
}
  0
MLINESTYLE
  5
18
102
{ACAD_REACTORS
330
17
102
}
100
AcDbMlineStyle
  2
STANDARD
 70
0
  3

 62
256
 51
90.0
 52
90.0
 71
2
 49
0.5
 62
256
  6
BYLAYER
 49
-0.5
 62
256
  6
BYLAYER
  0
LAYOUT
  5
278
102
{ACAD_REACTORS
330
1A
102
}
100
AcDbPlotSettings
  1

  2
none_device
  4

  6

 40
0.0
 41
0.0
 42
0.0
 43
0.0
 44
210.0
 45
297.0
 46
0.0
 47
0.0
 48
0.0
 49
0.0
140
0.0
141
0.0
142
1.0
143
1.0
 70
1024
 72
1
 73
0
 74
0
  7

 75
0
147
1.0
148
0.0
149
0.0
100
AcDbLayout
  1
Model
 70
0
 71
0
 10
0.0
 20
0.0
 11
210.0
 21
297.0
 12
0.0
 22
0.0
 32
0.0
 14
0.0
 24
0.0
 34
0.0
 15
0.0
 25
0.0
 35
0.0
146
0.0
 13
0.0
 23
0.0
 33
0.0
 16
1.0
 26
0.0
 36
0.0
 17
0.0
 27
1.0
 37
0.0
 76
0
330
211
345
0
346
0
  0
LAYOUT
  5
279
102
{ACAD_REACTORS
330
1A
102
}
100
AcDbPlotSettings
  1

  2
none_device
  4

  6

 40
0.0
 41
0.0
 42
0.0
 43
0.0
 44
210.0
 45
297.0
 46
0.0
 47
0.0
 48
0.0
 49
0.0
140
0.0
141
0.0
142
1.0
143
1.0
 70
0
 72
1
 73
0
 74
0
  7

 75
0
147
1.0
148
0.0
149
0.0
100
AcDbLayout
  1
Layout1
 70
0
 71
1
 10
0.0
 20
0.0
 11
210.0
 21
297.0
 12
0.0
 22
0.0
 32
0.0
 14
0.0
 24
0.0
 34
0.0
 15
0.0
 25
0.0
 35
0.0
146
0.0
 13
0.0
 23
0.0
 33
0.0
 16
1.0
 26
0.0
 36
0.0
 17
0.0
 27
1.0
 37
0.0
 76
0
330
212
345
0
346
0
  0
ENDSEC
  0
EOF
