999
DXF file: C:\Users\sesa63760\Dev\_Creo\CAD\MCADID0004250_3D-CAD\drw0001_2.dxf
999
Pro/ENGINEER 2019471 by Parametric Technology Corporation
  0
SECTION
  2
HEADER
  9
$ACADVER
  1
AC1024
  9
$DWGCODEPAGE
  3
ANSI_1252
  9
$EXTMAX
 10
1429.1149664143
 20
2021.1768810717
 30
0.0
  9
$EXTMIN
 10
0.0
 20
0.0
 30
0.0
  9
$LIMMIN
 10
0.0
 20
0.0
  9
$LIMMAX
 10
1429.1149664143
 20
2021.1768810717
  9
$VIEWCTR
 10
714.5574832072
 20
1010.5884405358
  9
$VIEWSIZE
 40
2021.1768810717
  9
$CLAYER
  8
0
  9
$LTSCALE
 40
131.7507892847
  9
$CELTYPE
  6
BYLAYER
  9
$DIMSCALE
 40
1.0
  9
$DIMASZ
 40
17.0132734097
  9
$DIMEXO
 40
1.0
  9
$DIMDLI
 40
91.0278180512
  9
$DIMEXE
 40
1.0
  9
$DIMCEN
 40
21.5592200648
  9
$DIMLFAC
 40
1.0
  9
$DIMBLK
  1
_FILLED
  9
$DIMALT
 70
0
  9
$DIMALTF
 40
0.0393700787
  9
$DIMTXT
 40
23.8185827736
  9
$DIMTOL
 70
1
  9
$DIMLIM
 70
0
  9
$DIMTFAC
 40
1.0
  9
$DIMTP
 40
0.01
  9
$DIMTM
 40
0.01
  9
$DIMGAP
 40
0.625
  9
$DIMDSEP
 70
46
  9
$AUNITS
 70
0
  9
$PDMODE
 70
3
  9
$PDSIZE
 40
0.3125
  9
$HANDSEED
  5
491
  9
$TILEMODE
 70
1
  9
$MEASUREMENT
 70
1
  9
$INSUNITS
 70
4
  0
ENDSEC
  0
SECTION
  2
CLASSES
  0
CLASS
  1
ACDBDICTIONARYWDFLT
  2
AcDbDictionaryWithDefault
  3
AutoCAD 2000
 90
0
 91
1
280
0
281
0
  0
CLASS
  1
ACDBPLACEHOLDER
  2
AcDbPlaceHolder
  3
AutoCAD 2000
 90
0
 91
1
280
0
281
0
  0
CLASS
  1
LAYOUT
  2
AcDbLayout
  3
AutoCAD 2000
 90
0
 91
0
280
0
281
0
  0
ENDSEC
  0
SECTION
  2
TABLES
  0
TABLE
  2
VPORT
  5
8
100
AcDbSymbolTable
 70
2
  0
VPORT
  5
1F4
100
AcDbSymbolTableRecord
100
AcDbViewportTableRecord
  2
*ACTIVE
 70
0
 10
0.0
 20
0.0
 11
1.0
 21
1.0
 12
714.5574832072
 22
1010.5884405358
 13
0.0
 23
0.0
 14
1.0
 24
1.0
 15
0.0
 25
0.0
 16
0.0
 26
0.0
 36
1.0
 17
0.0
 27
0.0
 37
0.0
 40
2021.1768810717
 41
0.7070707071
 42
50.0
 43
0.0
 44
0.0
 50
0.0
 51
0.0
 71
0
 72
100
 73
1
 74
1
 75
0
 76
0
 77
0
 78
0
  0
ENDTAB
  0
TABLE
  2
LTYPE
  5
5
100
AcDbSymbolTable
 70
6
  0
LTYPE
  5
14
100
AcDbSymbolTableRecord
100
AcDbLinetypeTableRecord
  2
BYBLOCK
 70
0
  3

 72
65
 73
0
 40
0.0
  0
LTYPE
  5
15
100
AcDbSymbolTableRecord
100
AcDbLinetypeTableRecord
  2
BYLAYER
 70
0
  3

 72
65
 73
0
 40
0.0
  0
LTYPE
  5
16
100
AcDbSymbolTableRecord
100
AcDbLinetypeTableRecord
  2
CONTINUOUS
 70
64
  3
Solid line
 72
65
 73
0
 40
0.0
  0
LTYPE
  5
1F5
100
AcDbSymbolTableRecord
100
AcDbLinetypeTableRecord
  2
CENTER
 70
64
  3
____ _ ____ _ ____ _ ____ _ ____ _ ____ _ ____
 72
65
 73
4
 40
0.6
 49
0.375
 74
0
 49
-0.075
 74
0
 49
0.075
 74
0
 49
-0.075
 74
0
  0
LTYPE
  5
1F6
100
AcDbSymbolTableRecord
100
AcDbLinetypeTableRecord
  2
HIDDEN
 70
64
  3
- - - - - - - - - - - - - - - - - - - -
 72
65
 73
2
 40
0.2
 49
0.1
 74
0
 49
-0.1
 74
0
  0
LTYPE
  5
1F7
100
AcDbSymbolTableRecord
100
AcDbLinetypeTableRecord
  2
PHANTOM
 70
64
  3
_____ _ _ _____ _ _ _____ _ _ _____
 72
65
 73
6
 40
0.8
 49
0.45
 74
0
 49
-0.05
 74
0
 49
0.1
 74
0
 49
-0.05
 74
0
 49
0.1
 74
0
 49
-0.05
 74
0
  0
LTYPE
  5
1F8
100
AcDbSymbolTableRecord
100
AcDbLinetypeTableRecord
  2
DOT
 70
64
  3
. . . . . . . . . . . . . . . . . . . .
 72
65
 73
2
 40
0.2
 49
0.1
 74
0
 49
-0.1
 74
0
  0
LTYPE
  5
1F9
100
AcDbSymbolTableRecord
100
AcDbLinetypeTableRecord
  2
DASHED
 70
64
  3
- - - - - - - - - - - - - - - - - - - -
 72
65
 73
2
 40
0.2
 49
0.1
 74
0
 49
-0.1
 74
0
  0
ENDTAB
  0
TABLE
  2
LAYER
  5
2
100
AcDbSymbolTable
 70
36
  0
LAYER
  5
10
100
AcDbSymbolTableRecord
100
AcDbLayerTableRecord
  2
0
 70
0
 62
7
  6
CONTINUOUS
370
-3
390
F
  0
LAYER
  5
1FA
100
AcDbSymbolTableRecord
100
AcDbLayerTableRecord
  2
DEFAULT_1
 70
0
 62
7
  6
CENTER
370
-3
390
F
  0
LAYER
  5
1FB
100
AcDbSymbolTableRecord
100
AcDbLayerTableRecord
  2
DEFAULT_2
 70
0
 62
7
  6
HIDDEN
370
-3
390
F
  0
LAYER
  5
1FC
100
AcDbSymbolTableRecord
100
AcDbLayerTableRecord
  2
DEFAULT_3
 70
0
 62
7
  6
PHANTOM
370
-3
390
F
  0
LAYER
  5
1FD
100
AcDbSymbolTableRecord
100
AcDbLayerTableRecord
  2
00_COMPONENTS
 70
0
 62
7
  6
CONTINUOUS
370
-3
390
F
  0
LAYER
  5
1FE
100
AcDbSymbolTableRecord
100
AcDbLayerTableRecord
  2
01_1_DEFAULT_DATUMS
 70
0
 62
7
  6
CONTINUOUS
370
-3
390
F
  0
LAYER
  5
1FF
100
AcDbSymbolTableRecord
100
AcDbLayerTableRecord
  2
01_PLANES
 70
0
 62
7
  6
CONTINUOUS
370
-3
390
F
  0
LAYER
  5
200
100
AcDbSymbolTableRecord
100
AcDbLayerTableRecord
  2
02_COORD_SYS
 70
0
 62
7
  6
CONTINUOUS
370
-3
390
F
  0
LAYER
  5
201
100
AcDbSymbolTableRecord
100
AcDbLayerTableRecord
  2
03_AXES
 70
0
 62
7
  6
CONTINUOUS
370
-3
390
F
  0
LAYER
  5
202
100
AcDbSymbolTableRecord
100
AcDbLayerTableRecord
  2
04_POINTS
 70
0
 62
7
  6
CONTINUOUS
370
-3
390
F
  0
LAYER
  5
203
100
AcDbSymbolTableRecord
100
AcDbLayerTableRecord
  2
05_CURVES
 70
0
 62
7
  6
CONTINUOUS
370
-3
390
F
  0
LAYER
  5
204
100
AcDbSymbolTableRecord
100
AcDbLayerTableRecord
  2
06_SURFS
 70
0
 62
7
  6
CONTINUOUS
370
-3
390
F
  0
LAYER
  5
205
100
AcDbSymbolTableRecord
100
AcDbLayerTableRecord
  2
07_COSMETICS
 70
0
 62
7
  6
CONTINUOUS
370
-3
390
F
  0
LAYER
  5
206
100
AcDbSymbolTableRecord
100
AcDbLayerTableRecord
  2
10_NOTES
 70
0
 62
7
  6
CONTINUOUS
370
-3
390
F
  0
LAYER
  5
207
100
AcDbSymbolTableRecord
100
AcDbLayerTableRecord
  2
11_NOTES_PUB
 70
0
 62
7
  6
CONTINUOUS
370
-3
390
F
  0
LAYER
  5
208
100
AcDbSymbolTableRecord
100
AcDbLayerTableRecord
  2
13_REF_GTOL
 70
0
 62
7
  6
CONTINUOUS
370
-3
390
F
  0
LAYER
  5
209
100
AcDbSymbolTableRecord
100
AcDbLayerTableRecord
  2
16_MISC
 70
0
 62
7
  6
CONTINUOUS
370
-3
390
F
  0
LAYER
  5
20A
100
AcDbSymbolTableRecord
100
AcDbLayerTableRecord
  2
17_NO_PRINT
 70
0
 62
7
  6
CONTINUOUS
370
-3
390
F
  0
LAYER
  5
20B
100
AcDbSymbolTableRecord
100
AcDbLayerTableRecord
  2
18_DATUM_CAMS_JOINTS
 70
0
 62
7
  6
CONTINUOUS
370
-3
390
F
  0
LAYER
  5
20C
100
AcDbSymbolTableRecord
100
AcDbLayerTableRecord
  2
19_DATUM_FUNCTIONAL
 70
0
 62
7
  6
CONTINUOUS
370
-3
390
F
  0
LAYER
  5
20D
100
AcDbSymbolTableRecord
100
AcDbLayerTableRecord
  2
20_DATUM_KINEMATIC_SCHEME
 70
0
 62
7
  6
CONTINUOUS
370
-3
390
F
  0
LAYER
  5
20E
100
AcDbSymbolTableRecord
100
AcDbLayerTableRecord
  2
3
 70
0
 62
7
  6
CONTINUOUS
370
-3
390
F
  0
LAYER
  5
20F
100
AcDbSymbolTableRecord
100
AcDbLayerTableRecord
  2
4
 70
0
 62
7
  6
CONTINUOUS
370
-3
390
F
  0
ENDTAB
  0
TABLE
  2
STYLE
  5
3
100
AcDbSymbolTable
 70
1
  0
STYLE
  5
11
100
AcDbSymbolTableRecord
100
AcDbTextStyleTableRecord
  2
STANDARD
 70
0
 40
0.0
 41
1.0
 50
0.0
 71
0
 42
0.2
  3
ARIAL.TTF
  4

  0
STYLE
  5
210
100
AcDbSymbolTableRecord
100
AcDbTextStyleTableRecord
  2
TEXTSTYLE_1
 70
0
 40
0.0
 41
0.8
 50
0.0
 71
0
 42
0.2
  3
gdt
  4

  0
ENDTAB
  0
TABLE
  2
VIEW
  5
6
100
AcDbSymbolTable
 70
0
  0
ENDTAB
  0
TABLE
  2
UCS
  5
7
100
AcDbSymbolTable
 70
0
  0
ENDTAB
  0
TABLE
  2
APPID
  5
9
100
AcDbSymbolTable
 70
1
  0
APPID
  5
211
100
AcDbSymbolTableRecord
100
AcDbRegAppTableRecord
  2
ACAD
 70
0
  0
ENDTAB
  0
TABLE
  2
BLOCK_RECORD
  5
1
100
AcDbSymbolTable
 70
0
  0
BLOCK_RECORD
  5
212
100
AcDbSymbolTableRecord
100
AcDbBlockTableRecord
  2
*Model_Space
  0
BLOCK_RECORD
  5
213
100
AcDbSymbolTableRecord
100
AcDbBlockTableRecord
  2
*Paper_Space
  0
BLOCK_RECORD
  5
214
100
AcDbSymbolTableRecord
100
AcDbBlockTableRecord
  2
_FILLED
  0
ENDTAB
  0
TABLE
  2
DIMSTYLE
  5
A
100
AcDbSymbolTable
 70
1
100
AcDbDimStyleTable
 71
0
  0
DIMSTYLE
105
215
100
AcDbSymbolTableRecord
100
AcDbDimStyleTableRecord
  2
STANDARD
 70
0
  3

  4

 40
1.0
 41
17.0132734097
 42
1.0
 43
0.38
 44
1.0
 45
0.0
 46
0.0
 47
0.01
 48
0.01
140
23.8185827736
141
0.09
142
0.0
143
25.4
144
1.0
145
0.0
146
1.0
147
0.625
 71
1
 72
0
 73
0
 74
0
 75
0
 76
0
 77
1
 78
8
 79
2
170
0
171
1
172
0
173
0
174
0
175
0
176
0
177
0
178
0
270
2
179
2
271
2
272
2
273
2
274
2
275
0
280
0
281
0
282
0
283
1
284
8
285
0
286
0
287
3
288
0
340
11
278
46
341
214
342
214
343
214
344
214
  0
ENDTAB
  0
ENDSEC
  0
SECTION
  2
BLOCKS
  0
BLOCK
  5
20
100
AcDbEntity
  8
0
100
AcDbBlockBegin
  2
*Model_Space
 70
0
 10
0.0
 20
0.0
 30
0.0
  3
*Model_Space
  1

  0
ENDBLK
  5
21
100
AcDbEntity
  8
0
100
AcDbBlockEnd
  0
BLOCK
  5
1C
100
AcDbEntity
  8
0
100
AcDbBlockBegin
  2
*Paper_Space
 70
0
 10
0.0
 20
0.0
 30
0.0
  3
*Paper_Space
  1

  0
ENDBLK
  5
1D
100
AcDbEntity
  8
0
100
AcDbBlockEnd
  0
BLOCK
  5
216
100
AcDbEntity
  8
0
100
AcDbBlockBegin
  2
_FILLED
 70
64
 10
0.0
 20
0.0
  3
_FILLED
  1

  0
SOLID
  5
217
100
AcDbEntity
  8
0
  6
BYBLOCK
 62
0
100
AcDbTrace
 10
0.0
 20
0.0
 11
-1.0
 21
0.25
 12
-1.0
 22
-0.25
 13
-1.0
 23
-0.25
  0
ENDBLK
  5
218
100
AcDbEntity
  8
0
  6
BYBLOCK
 62
0
100
AcDbBlockEnd
  0
ENDSEC
  0
SECTION
  2
ENTITIES
  0
LINE
  5
219
100
AcDbEntity
  8
0
100
AcDbLine
 62
7
  6
BYLAYER
 10
827.17178655
 20
134.8275887618
 11
821.5723632628
 21
134.8275887618
  0
LINE
  5
21A
100
AcDbEntity
  8
0
100
AcDbLine
 62
7
  6
BYLAYER
 10
785.172261593
 20
134.8275887618
 11
779.5718882257
 21
134.8275887618
  0
LINE
  5
21B
100
AcDbEntity
  8
0
100
AcDbLine
 62
7
  6
BYLAYER
 10
679.5226556615
 20
134.8275887618
 11
673.9232323743
 21
134.8275887618
  0
LINE
  5
21C
100
AcDbEntity
  8
0
100
AcDbLine
 62
7
  6
BYLAYER
 10
637.5231307045
 20
134.8275887618
 11
631.9227573372
 21
134.8275887618
  0
LINE
  5
21D
100
AcDbEntity
  8
0
100
AcDbLine
 62
7
  6
BYLAYER
 10
631.7231309512
 20
134.9274786233
 11
632.5503367902
 21
134.9274786233
  0
LINE
  5
21E
100
AcDbEntity
  8
0
100
AcDbLine
 62
7
  6
BYLAYER
 10
637.8959251121
 20
134.9274786233
 11
673.5503367873
 21
134.9274786233
  0
LINE
  5
21F
100
AcDbEntity
  8
0
100
AcDbLine
 62
7
  6
BYLAYER
 10
678.8959251092
 20
134.9274786233
 11
679.7231309512
 21
134.9274786233
  0
LINE
  5
220
100
AcDbEntity
  8
0
100
AcDbLine
 62
7
  6
BYLAYER
 10
779.3722618397
 20
134.9274786233
 11
780.1994676787
 21
134.9274786233
  0
LINE
  5
221
100
AcDbEntity
  8
0
100
AcDbLine
 62
7
  6
BYLAYER
 10
785.5450560006
 20
134.9274786233
 11
821.1994676758
 21
134.9274786233
  0
LINE
  5
222
100
AcDbEntity
  8
0
100
AcDbLine
 62
7
  6
BYLAYER
 10
826.5450559977
 20
134.9274786233
 11
827.3722618397
 21
134.9274786233
  0
LINE
  5
223
100
AcDbEntity
  8
0
100
AcDbLine
 62
7
  6
BYLAYER
 10
807.5137100199
 20
135.4274786233
 11
799.2317781855
 21
135.4274786233
  0
LINE
  5
224
100
AcDbEntity
  8
0
100
AcDbLine
 62
7
  6
BYLAYER
 10
659.8645791314
 20
135.4274786233
 11
651.5826472969
 21
135.4274786233
  0
LINE
  5
225
100
AcDbEntity
  8
0
100
AcDbLine
 62
7
  6
BYLAYER
 10
827.1722618368
 20
135.8275887618
 11
820.5722618368
 21
135.8275887618
  0
LINE
  5
226
100
AcDbEntity
  8
0
100
AcDbLine
 62
7
  6
BYLAYER
 10
786.1722618397
 20
135.8275887618
 11
779.5722618397
 21
135.8275887618
  0
LINE
  5
227
100
AcDbEntity
  8
0
100
AcDbLine
 62
7
  6
BYLAYER
 10
679.5231309483
 20
135.8275887618
 11
672.9231309483
 21
135.8275887618
  0
LINE
  5
228
100
AcDbEntity
  8
0
100
AcDbLine
 62
7
  6
BYLAYER
 10
638.5231309512
 20
135.8275887618
 11
631.9231309512
 21
135.8275887618
  0
LINE
  5
229
100
AcDbEntity
  8
0
100
AcDbLine
 62
7
  6
BYLAYER
 10
828.3722618397
 20
135.9274786233
 11
827.1722618368
 21
135.9274786233
  0
LINE
  5
22A
100
AcDbEntity
  8
0
100
AcDbLine
 62
7
  6
BYLAYER
 10
820.5722618368
 20
135.9274786233
 11
807.3722618397
 21
135.92747863
  0
LINE
  5
22B
100
AcDbEntity
  8
0
100
AcDbLine
 62
7
  6
BYLAYER
 10
799.3722618397
 20
135.9274786234
 11
786.1722618397
 21
135.9274786233
  0
LINE
  5
22C
100
AcDbEntity
  8
0
100
AcDbLine
 62
7
  6
BYLAYER
 10
779.5722618397
 20
135.9274786233
 11
778.3722618397
 21
135.9274786233
  0
LINE
  5
22D
100
AcDbEntity
  8
0
100
AcDbLine
 62
7
  6
BYLAYER
 10
680.7231309512
 20
135.9274786233
 11
679.5231309483
 21
135.9274786233
  0
LINE
  5
22E
100
AcDbEntity
  8
0
100
AcDbLine
 62
7
  6
BYLAYER
 10
672.9231309483
 20
135.9274786233
 11
659.7231309512
 21
135.92747863
  0
LINE
  5
22F
100
AcDbEntity
  8
0
100
AcDbLine
 62
7
  6
BYLAYER
 10
651.7231309512
 20
135.9274786234
 11
638.5231309512
 21
135.9274786233
  0
LINE
  5
230
100
AcDbEntity
  8
0
100
AcDbLine
 62
7
  6
BYLAYER
 10
631.9231309512
 20
135.9274786233
 11
630.7231309512
 21
135.9274786233
  0
LINE
  5
231
100
AcDbEntity
  8
0
100
AcDbLine
 62
7
  6
BYLAYER
 10
630.7231309512
 20
136.9274785544
 11
631.9231309512
 21
136.9274786233
  0
LINE
  5
232
100
AcDbEntity
  8
0
100
AcDbLine
 62
7
  6
BYLAYER
 10
638.5231309512
 20
136.9274786233
 11
639.7231309512
 21
136.9274785544
  0
LINE
  5
233
100
AcDbEntity
  8
0
100
AcDbLine
 62
7
  6
BYLAYER
 10
671.7231309512
 20
136.9274785544
 11
672.9231309483
 21
136.9274786233
  0
LINE
  5
234
100
AcDbEntity
  8
0
100
AcDbLine
 62
7
  6
BYLAYER
 10
679.5231309483
 20
136.9274786233
 11
680.7231309512
 21
136.9274785544
  0
LINE
  5
235
100
AcDbEntity
  8
0
100
AcDbLine
 62
7
  6
BYLAYER
 10
778.3722618397
 20
136.9274785544
 11
779.5722618397
 21
136.9274786233
  0
LINE
  5
236
100
AcDbEntity
  8
0
100
AcDbLine
 62
7
  6
BYLAYER
 10
786.1722618397
 20
136.9274786233
 11
787.3722618397
 21
136.9274785544
  0
LINE
  5
237
100
AcDbEntity
  8
0
100
AcDbLine
 62
7
  6
BYLAYER
 10
819.3722618397
 20
136.9274785544
 11
820.5722618368
 21
136.9274786233
  0
LINE
  5
238
100
AcDbEntity
  8
0
100
AcDbLine
 62
7
  6
BYLAYER
 10
827.1722618368
 20
136.9274786233
 11
828.3722618397
 21
136.9274785544
  0
LINE
  5
239
100
AcDbEntity
  8
0
100
AcDbLine
 62
7
  6
BYLAYER
 10
631.2231309512
 20
137.4274786233
 11
638.2231309512
 21
137.4274786233
  0
LINE
  5
23A
100
AcDbEntity
  8
0
100
AcDbLine
 62
7
  6
BYLAYER
 10
673.2231309512
 20
137.4274786233
 11
680.2231309512
 21
137.4274786233
  0
LINE
  5
23B
100
AcDbEntity
  8
0
100
AcDbLine
 62
7
  6
BYLAYER
 10
778.8722618397
 20
137.4274786233
 11
785.8722618397
 21
137.4274786233
  0
LINE
  5
23C
100
AcDbEntity
  8
0
100
AcDbLine
 62
7
  6
BYLAYER
 10
820.8722618397
 20
137.4274786233
 11
827.8722618397
 21
137.4274786233
  0
LINE
  5
23D
100
AcDbEntity
  8
0
100
AcDbLine
 62
7
  6
BYLAYER
 10
828.3722618397
 20
137.9274786233
 11
820.8722618397
 21
137.9274786233
  0
LINE
  5
23E
100
AcDbEntity
  8
0
100
AcDbLine
 62
7
  6
BYLAYER
 10
785.8722618397
 20
137.9274786233
 11
778.3722618397
 21
137.9274786233
  0
LINE
  5
23F
100
AcDbEntity
  8
0
100
AcDbLine
 62
7
  6
BYLAYER
 10
680.7231309512
 20
137.9274786233
 11
673.2231309512
 21
137.9274786233
  0
LINE
  5
240
100
AcDbEntity
  8
0
100
AcDbLine
 62
7
  6
BYLAYER
 10
638.2231309512
 20
137.9274786233
 11
630.7231309512
 21
137.9274786233
  0
LINE
  5
241
100
AcDbEntity
  8
0
100
AcDbLine
 62
7
  6
BYLAYER
 10
630.7231309512
 20
152.4274786233
 11
680.7231309512
 21
152.4274786233
  0
LINE
  5
242
100
AcDbEntity
  8
0
100
AcDbLine
 62
7
  6
BYLAYER
 10
778.3722618397
 20
152.4274786233
 11
828.3722618397
 21
152.4274786233
  0
LINE
  5
243
100
AcDbEntity
  8
3
100
AcDbLine
 62
7
  6
BYLAYER
 10
630.7226559081
 20
152.4276015703
 11
680.7226559081
 21
152.4276015703
  0
LINE
  5
244
100
AcDbEntity
  8
3
100
AcDbLine
 62
7
  6
BYLAYER
 10
778.3717867966
 20
152.4276015703
 11
828.3717867966
 21
152.4276015703
  0
LINE
  5
245
100
AcDbEntity
  8
4
100
AcDbLine
 62
7
  6
BYLAYER
 10
620.5339102247
 20
179.7757638851
 11
665.5339102247
 21
179.7757638851
  0
LINE
  5
246
100
AcDbEntity
  8
3
100
AcDbLine
 62
7
  6
BYLAYER
 10
768.1830411132
 20
179.7757638851
 11
813.1830411132
 21
179.7757638851
  0
LINE
  5
247
100
AcDbEntity
  8
3
100
AcDbLine
 62
7
  6
BYLAYER
 10
771.1830411132
 20
184.7757638851
 11
768.1830411132
 21
184.7757638851
  0
LINE
  5
248
100
AcDbEntity
  8
4
100
AcDbLine
 62
7
  6
BYLAYER
 10
623.5339102247
 20
184.7757638851
 11
620.5339102247
 21
184.7757638851
  0
LINE
  5
249
100
AcDbEntity
  8
3
100
AcDbLine
 62
7
  6
BYLAYER
 10
806.0722618382
 20
185.0992267046
 11
800.6722618382
 21
185.0992267046
  0
LINE
  5
24A
100
AcDbEntity
  8
4
100
AcDbLine
 62
7
  6
BYLAYER
 10
658.4231309497
 20
185.0992267046
 11
653.0231309497
 21
185.0992267046
  0
LINE
  5
24B
100
AcDbEntity
  8
4
100
AcDbLine
 62
7
  6
BYLAYER
 10
648.8339102247
 20
186.525763885
 11
650.3188214809
 21
186.525763885
  0
LINE
  5
24C
100
AcDbEntity
  8
4
100
AcDbLine
 62
7
  6
BYLAYER
 10
661.1271028789
 20
186.525763885
 11
662.3339102247
 21
186.525763885
  0
LINE
  5
24D
100
AcDbEntity
  8
3
100
AcDbLine
 62
7
  6
BYLAYER
 10
796.4830411132
 20
186.525763885
 11
797.9679523694
 21
186.525763885
  0
LINE
  5
24E
100
AcDbEntity
  8
3
100
AcDbLine
 62
7
  6
BYLAYER
 10
808.7762337674
 20
186.525763885
 11
809.9830411132
 21
186.525763885
  0
LINE
  5
24F
100
AcDbEntity
  8
3
100
AcDbLine
 62
7
  6
BYLAYER
 10
809.9830411132
 20
193.025763885
 11
808.776571307
 21
193.025763885
  0
LINE
  5
250
100
AcDbEntity
  8
3
100
AcDbLine
 62
7
  6
BYLAYER
 10
797.968289909
 20
193.025763885
 11
796.4830411132
 21
193.025763885
  0
LINE
  5
251
100
AcDbEntity
  8
4
100
AcDbLine
 62
7
  6
BYLAYER
 10
662.3339102247
 20
193.025763885
 11
661.1274404185
 21
193.025763885
  0
LINE
  5
252
100
AcDbEntity
  8
4
100
AcDbLine
 62
7
  6
BYLAYER
 10
650.3191590205
 20
193.025763885
 11
648.8339102247
 21
193.025763885
  0
LINE
  5
253
100
AcDbEntity
  8
4
100
AcDbLine
 62
7
  6
BYLAYER
 10
653.0231309497
 20
194.4523010655
 11
658.4231309497
 21
194.4523010655
  0
LINE
  5
254
100
AcDbEntity
  8
3
100
AcDbLine
 62
7
  6
BYLAYER
 10
800.6722618382
 20
194.4523010655
 11
806.0722618382
 21
194.4523010655
  0
LINE
  5
255
100
AcDbEntity
  8
3
100
AcDbLine
 62
7
  6
BYLAYER
 10
806.0722618382
 20
215.0992267046
 11
800.6722618382
 21
215.0992267046
  0
LINE
  5
256
100
AcDbEntity
  8
4
100
AcDbLine
 62
7
  6
BYLAYER
 10
658.4231309497
 20
215.0992267046
 11
653.0231309497
 21
215.0992267046
  0
LINE
  5
257
100
AcDbEntity
  8
4
100
AcDbLine
 62
7
  6
BYLAYER
 10
648.8339102247
 20
216.525763885
 11
650.3188214809
 21
216.525763885
  0
LINE
  5
258
100
AcDbEntity
  8
4
100
AcDbLine
 62
7
  6
BYLAYER
 10
661.1271028789
 20
216.525763885
 11
662.3339102247
 21
216.525763885
  0
LINE
  5
259
100
AcDbEntity
  8
3
100
AcDbLine
 62
7
  6
BYLAYER
 10
796.4830411132
 20
216.525763885
 11
797.9679523694
 21
216.525763885
  0
LINE
  5
25A
100
AcDbEntity
  8
3
100
AcDbLine
 62
7
  6
BYLAYER
 10
808.7762337674
 20
216.525763885
 11
809.9830411132
 21
216.525763885
  0
LINE
  5
25B
100
AcDbEntity
  8
3
100
AcDbLine
 62
7
  6
BYLAYER
 10
809.9830411132
 20
223.025763885
 11
808.776571307
 21
223.025763885
  0
LINE
  5
25C
100
AcDbEntity
  8
3
100
AcDbLine
 62
7
  6
BYLAYER
 10
797.968289909
 20
223.025763885
 11
796.4830411132
 21
223.025763885
  0
LINE
  5
25D
100
AcDbEntity
  8
4
100
AcDbLine
 62
7
  6
BYLAYER
 10
662.3339102247
 20
223.025763885
 11
661.1274404185
 21
223.025763885
  0
LINE
  5
25E
100
AcDbEntity
  8
4
100
AcDbLine
 62
7
  6
BYLAYER
 10
650.3191590205
 20
223.025763885
 11
648.8339102247
 21
223.025763885
  0
LINE
  5
25F
100
AcDbEntity
  8
4
100
AcDbLine
 62
7
  6
BYLAYER
 10
653.0231309497
 20
224.4523010655
 11
658.4231309497
 21
224.4523010655
  0
LINE
  5
260
100
AcDbEntity
  8
3
100
AcDbLine
 62
7
  6
BYLAYER
 10
800.6722618382
 20
224.4523010655
 11
806.0722618382
 21
224.4523010655
  0
LINE
  5
261
100
AcDbEntity
  8
4
100
AcDbLine
 62
7
  6
BYLAYER
 10
620.5339102247
 20
224.7757638851
 11
623.5339102247
 21
224.7757638851
  0
LINE
  5
262
100
AcDbEntity
  8
3
100
AcDbLine
 62
7
  6
BYLAYER
 10
768.1830411132
 20
224.7757638851
 11
771.1830411132
 21
224.7757638851
  0
LINE
  5
263
100
AcDbEntity
  8
4
100
AcDbLine
 62
7
  6
BYLAYER
 10
620.5339102247
 20
229.7757638851
 11
665.5339102247
 21
229.7757638851
  0
LINE
  5
264
100
AcDbEntity
  8
3
100
AcDbLine
 62
7
  6
BYLAYER
 10
768.1830411132
 20
229.7757638851
 11
813.1830411132
 21
229.7757638851
  0
LINE
  5
265
100
AcDbEntity
  8
0
100
AcDbLine
 62
7
  6
BYLAYER
 10
641.2224011615
 20
1878.9275887618
 11
640.7224031401
 21
1878.4275909203
  0
LINE
  5
266
100
AcDbEntity
  8
0
100
AcDbLine
 62
7
  6
BYLAYER
 10
639.4724031401
 20
1874.9275887618
 11
638.9724031401
 21
1874.4275887618
  0
LINE
  5
267
100
AcDbEntity
  8
0
100
AcDbLine
 62
7
  6
BYLAYER
 10
657.4724031401
 20
1874.9275887618
 11
656.9724031401
 21
1874.4275887618
  0
LINE
  5
268
100
AcDbEntity
  8
0
100
AcDbLine
 62
7
  6
BYLAYER
 10
788.87153205
 20
1878.9275887618
 11
788.3715340286
 21
1878.4275909203
  0
LINE
  5
269
100
AcDbEntity
  8
0
100
AcDbLine
 62
7
  6
BYLAYER
 10
787.1215340286
 20
1874.9275887618
 11
786.6215340286
 21
1874.4275887618
  0
LINE
  5
26A
100
AcDbEntity
  8
0
100
AcDbLine
 62
7
  6
BYLAYER
 10
805.1215340286
 20
1874.9275887618
 11
804.6215340286
 21
1874.4275887618
  0
LINE
  5
26B
100
AcDbEntity
  8
4
100
AcDbLine
 62
7
  6
BYLAYER
 10
653.0231309497
 20
1820.7872035263
 11
650.3231309497
 21
1816.1106663459
  0
LINE
  5
26C
100
AcDbEntity
  8
4
100
AcDbLine
 62
7
  6
BYLAYER
 10
650.3231309497
 20
189.7757638851
 11
653.0231309497
 21
185.0992267046
  0
LINE
  5
26D
100
AcDbEntity
  8
4
100
AcDbLine
 62
7
  6
BYLAYER
 10
661.1231309497
 20
189.7757638851
 11
658.4231309497
 21
194.4523010655
  0
LINE
  5
26E
100
AcDbEntity
  8
4
100
AcDbLine
 62
7
  6
BYLAYER
 10
658.4231309497
 20
1811.4341291655
 11
661.1231309497
 21
1816.1106663459
  0
LINE
  5
26F
100
AcDbEntity
  8
4
100
AcDbLine
 62
7
  6
BYLAYER
 10
653.0231309497
 20
1790.7872035263
 11
650.3231309497
 21
1786.1106663459
  0
LINE
  5
270
100
AcDbEntity
  8
4
100
AcDbLine
 62
7
  6
BYLAYER
 10
658.4231309497
 20
1781.4341291655
 11
661.1231309497
 21
1786.1106663459
  0
LINE
  5
271
100
AcDbEntity
  8
4
100
AcDbLine
 62
7
  6
BYLAYER
 10
650.3231309497
 20
219.7757638851
 11
653.0231309497
 21
215.0992267046
  0
LINE
  5
272
100
AcDbEntity
  8
4
100
AcDbLine
 62
7
  6
BYLAYER
 10
661.1231309497
 20
219.7757638851
 11
658.4231309497
 21
224.4523010655
  0
LINE
  5
273
100
AcDbEntity
  8
3
100
AcDbLine
 62
7
  6
BYLAYER
 10
797.9722618382
 20
189.7757638851
 11
800.6722618382
 21
185.0992267046
  0
LINE
  5
274
100
AcDbEntity
  8
3
100
AcDbLine
 62
7
  6
BYLAYER
 10
800.6722618382
 20
1820.7872035263
 11
797.9722618382
 21
1816.1106663459
  0
LINE
  5
275
100
AcDbEntity
  8
3
100
AcDbLine
 62
7
  6
BYLAYER
 10
806.0722618382
 20
1811.4341291655
 11
808.7722618382
 21
1816.1106663459
  0
LINE
  5
276
100
AcDbEntity
  8
3
100
AcDbLine
 62
7
  6
BYLAYER
 10
800.6722618382
 20
1790.7872035263
 11
797.9722618382
 21
1786.1106663459
  0
LINE
  5
277
100
AcDbEntity
  8
3
100
AcDbLine
 62
7
  6
BYLAYER
 10
806.0722618382
 20
1781.4341291655
 11
808.7722618382
 21
1786.1106663459
  0
LINE
  5
278
100
AcDbEntity
  8
3
100
AcDbLine
 62
7
  6
BYLAYER
 10
808.7722618382
 20
189.7757638851
 11
806.0722618382
 21
194.4523010655
  0
LINE
  5
279
100
AcDbEntity
  8
3
100
AcDbLine
 62
7
  6
BYLAYER
 10
797.9722618382
 20
219.7757638851
 11
800.6722618382
 21
215.0992267046
  0
LINE
  5
27A
100
AcDbEntity
  8
3
100
AcDbLine
 62
7
  6
BYLAYER
 10
808.7722618382
 20
219.7757638851
 11
806.0722618382
 21
224.4523010655
  0
LINE
  5
27B
100
AcDbEntity
  8
4
100
AcDbLine
 62
7
  6
BYLAYER
 10
620.5339102247
 20
179.775763885
 11
620.5339102247
 21
229.775763885
  0
LINE
  5
27C
100
AcDbEntity
  8
4
100
AcDbLine
 62
7
  6
BYLAYER
 10
620.5339102247
 20
977.0599047248
 11
620.5339102247
 21
1027.0599047248
  0
LINE
  5
27D
100
AcDbEntity
  8
4
100
AcDbLine
 62
7
  6
BYLAYER
 10
620.5339102247
 20
1776.1106663459
 11
620.5339102247
 21
1826.1106663459
  0
LINE
  5
27E
100
AcDbEntity
  8
4
100
AcDbLine
 62
7
  6
BYLAYER
 10
623.5339102247
 20
1826.1106663459
 11
623.5339102247
 21
1776.1106663459
  0
LINE
  5
27F
100
AcDbEntity
  8
4
100
AcDbLine
 62
7
  6
BYLAYER
 10
623.5339102247
 20
1027.0599047248
 11
623.5339102247
 21
977.0599047248
  0
LINE
  5
280
100
AcDbEntity
  8
4
100
AcDbLine
 62
7
  6
BYLAYER
 10
623.5339102247
 20
229.775763885
 11
623.5339102247
 21
179.775763885
  0
LINE
  5
281
100
AcDbEntity
  8
4
100
AcDbLine
 62
7
  6
BYLAYER
 10
627.5339102247
 20
179.7757638851
 11
627.5339102247
 21
229.7757638851
  0
LINE
  5
282
100
AcDbEntity
  8
4
100
AcDbLine
 62
7
  6
BYLAYER
 10
627.5339102247
 20
977.0599047248
 11
627.5339102247
 21
1027.0599047248
  0
LINE
  5
283
100
AcDbEntity
  8
4
100
AcDbLine
 62
7
  6
BYLAYER
 10
627.5339102247
 20
1776.1106663459
 11
627.5339102247
 21
1826.1106663459
  0
LINE
  5
284
100
AcDbEntity
  8
0
100
AcDbLine
 62
7
  6
BYLAYER
 10
630.7224048644
 20
1866.4276303615
 11
630.722403139
 21
1865.6288458137
  0
LINE
  5
285
100
AcDbEntity
  8
0
100
AcDbLine
 62
7
  6
BYLAYER
 10
630.7224031401
 20
1867.4275887618
 11
630.7224031401
 21
1865.4395224676
  0
LINE
  5
286
100
AcDbEntity
  8
0
100
AcDbLine
 62
7
  6
BYLAYER
 10
630.7224031401
 20
1865.4275887618
 11
630.7224031401
 21
1850.9275887618
  0
LINE
  5
287
100
AcDbEntity
  8
3
100
AcDbLine
 62
7
  6
BYLAYER
 10
630.7226559081
 20
1850.9276015703
 11
630.7226559081
 21
1826.1106663459
  0
LINE
  5
288
100
AcDbEntity
  8
3
100
AcDbLine
 62
7
  6
BYLAYER
 10
630.7226559081
 20
1776.1106663459
 11
630.7226559081
 21
1027.0599047248
  0
LINE
  5
289
100
AcDbEntity
  8
3
100
AcDbLine
 62
7
  6
BYLAYER
 10
630.7226559081
 20
977.0599047248
 11
630.7226559081
 21
229.775763885
  0
LINE
  5
28A
100
AcDbEntity
  8
3
100
AcDbLine
 62
7
  6
BYLAYER
 10
630.7226559081
 20
179.775763885
 11
630.7226559081
 21
152.4276015703
  0
LINE
  5
28B
100
AcDbEntity
  8
0
100
AcDbLine
 62
7
  6
BYLAYER
 10
630.7231309512
 20
135.9274786233
 11
630.7231309512
 21
152.4274786233
  0
LINE
  5
28C
100
AcDbEntity
  8
0
100
AcDbLine
 62
7
  6
BYLAYER
 10
631.7224031384
 20
1866.4275887618
 11
631.7224031401
 21
1868.4275887618
  0
LINE
  5
28D
100
AcDbEntity
  8
0
100
AcDbLine
 62
7
  6
BYLAYER
 10
631.7231309512
 20
134.9274786233
 11
631.7231309495
 21
136.9274786233
  0
LINE
  5
28E
100
AcDbEntity
  8
0
100
AcDbLine
 62
7
  6
BYLAYER
 10
631.9224031401
 20
1865.9275887618
 11
631.9224031401
 21
1867.5275887618
  0
LINE
  5
28F
100
AcDbEntity
  8
0
100
AcDbLine
 62
7
  6
BYLAYER
 10
631.9231309512
 20
135.8275887618
 11
631.9231309512
 21
137.4275887618
  0
LINE
  5
290
100
AcDbEntity
  8
0
100
AcDbLine
 62
7
  6
BYLAYER
 10
634.7224031401
 20
1850.9275887618
 11
634.7224031401
 21
1865.9275887618
  0
LINE
  5
291
100
AcDbEntity
  8
3
100
AcDbLine
 62
7
  6
BYLAYER
 10
634.7226559081
 20
152.4276015703
 11
634.7226559081
 21
179.775763885
  0
LINE
  5
292
100
AcDbEntity
  8
3
100
AcDbLine
 62
7
  6
BYLAYER
 10
634.7226559081
 20
229.775763885
 11
634.7226559081
 21
977.0599047248
  0
LINE
  5
293
100
AcDbEntity
  8
3
100
AcDbLine
 62
7
  6
BYLAYER
 10
634.7226559081
 20
1027.0599047248
 11
634.7226559081
 21
1776.1106663459
  0
LINE
  5
294
100
AcDbEntity
  8
3
100
AcDbLine
 62
7
  6
BYLAYER
 10
634.7226559081
 20
1826.1106663459
 11
634.7226559081
 21
1850.9276015703
  0
LINE
  5
295
100
AcDbEntity
  8
0
100
AcDbLine
 62
7
  6
BYLAYER
 10
634.7231309512
 20
137.4274786233
 11
634.7231309512
 21
152.4274786233
  0
LINE
  5
296
100
AcDbEntity
  8
0
100
AcDbLine
 62
7
  6
BYLAYER
 10
638.2224030673
 20
1865.9275887618
 11
638.2224030673
 21
1865.4275887618
  0
LINE
  5
297
100
AcDbEntity
  8
0
100
AcDbLine
 62
7
  6
BYLAYER
 10
638.2231308786
 20
137.9274786233
 11
638.2231308786
 21
137.4274786233
  0
LINE
  5
298
100
AcDbEntity
  8
0
100
AcDbLine
 62
7
  6
BYLAYER
 10
638.5224031401
 20
1867.5275887618
 11
638.5224031401
 21
1866.0317711966
  0
LINE
  5
299
100
AcDbEntity
  8
0
100
AcDbLine
 62
7
  6
BYLAYER
 10
638.5231309512
 20
137.3234116291
 11
638.5231309512
 21
135.8275887618
  0
LINE
  5
29A
100
AcDbEntity
  8
0
100
AcDbLine
 62
7
  6
BYLAYER
 10
638.7224031401
 20
1867.4275887618
 11
638.7224031401
 21
1866.4275887618
  0
LINE
  5
29B
100
AcDbEntity
  8
0
100
AcDbLine
 62
7
  6
BYLAYER
 10
638.7231309512
 20
136.9274786233
 11
638.7231309512
 21
135.9274786233
  0
LINE
  5
29C
100
AcDbEntity
  8
0
100
AcDbLine
 62
7
  6
BYLAYER
 10
638.9724031401
 20
1868.4275887618
 11
638.9724031401
 21
1874.4275887618
  0
LINE
  5
29D
100
AcDbEntity
  8
0
100
AcDbLine
 62
7
  6
BYLAYER
 10
639.7224031401
 20
1866.4275887618
 11
639.7224031401
 21
1868.4275887618
  0
LINE
  5
29E
100
AcDbEntity
  8
0
100
AcDbLine
 62
7
  6
BYLAYER
 10
639.7231309512
 20
134.9274786233
 11
639.7231309512
 21
136.9274786233
  0
LINE
  5
29F
100
AcDbEntity
  8
0
100
AcDbLine
 62
7
  6
BYLAYER
 10
640.7224031401
 20
1874.9275887618
 11
640.7224031401
 21
1878.4275878244
  0
LINE
  5
2A0
100
AcDbEntity
  8
0
100
AcDbLine
 62
7
  6
BYLAYER
 10
642.5981831401
 20
1876.1275887618
 11
642.5981831401
 21
1874.9275887618
  0
LINE
  5
2A1
100
AcDbEntity
  8
0
100
AcDbLine
 62
7
  6
BYLAYER
 10
650.8481831401
 20
1876.1275887618
 11
650.8481831401
 21
1874.9275887618
  0
LINE
  5
2A2
100
AcDbEntity
  8
0
100
AcDbLine
 62
7
  6
BYLAYER
 10
651.2224031401
 20
1867.4275887618
 11
651.2224031401
 21
1850.9275887618
  0
LINE
  5
2A3
100
AcDbEntity
  8
3
100
AcDbLine
 62
7
  6
BYLAYER
 10
651.2226559081
 20
1850.9276015703
 11
651.2226559081
 21
1826.1106663459
  0
LINE
  5
2A4
100
AcDbEntity
  8
3
100
AcDbLine
 62
7
  6
BYLAYER
 10
651.2226559081
 20
1776.1106663459
 11
651.2226559081
 21
1027.0599047248
  0
LINE
  5
2A5
100
AcDbEntity
  8
3
100
AcDbLine
 62
7
  6
BYLAYER
 10
651.2226559081
 20
977.0599047248
 11
651.2226559081
 21
229.775763885
  0
LINE
  5
2A6
100
AcDbEntity
  8
3
100
AcDbLine
 62
7
  6
BYLAYER
 10
651.2226559081
 20
179.775763885
 11
651.2226559081
 21
152.4276015703
  0
LINE
  5
2A7
100
AcDbEntity
  8
0
100
AcDbLine
 62
7
  6
BYLAYER
 10
651.2231309512
 20
152.4274786233
 11
651.2231309512
 21
135.9274786233
  0
LINE
  5
2A8
100
AcDbEntity
  8
0
100
AcDbLine
 62
7
  6
BYLAYER
 10
651.7224031401
 20
1850.9275887618
 11
651.7224031401
 21
1867.4275887618
  0
LINE
  5
2A9
100
AcDbEntity
  8
3
100
AcDbLine
 62
7
  6
BYLAYER
 10
651.7226559081
 20
152.4276015703
 11
651.7226559081
 21
179.775763885
  0
LINE
  5
2AA
100
AcDbEntity
  8
3
100
AcDbLine
 62
7
  6
BYLAYER
 10
651.7226559081
 20
229.775763885
 11
651.7226559081
 21
977.0599047248
  0
LINE
  5
2AB
100
AcDbEntity
  8
3
100
AcDbLine
 62
7
  6
BYLAYER
 10
651.7226559081
 20
1027.0599047248
 11
651.7226559081
 21
1776.1106663459
  0
LINE
  5
2AC
100
AcDbEntity
  8
3
100
AcDbLine
 62
7
  6
BYLAYER
 10
651.7226559081
 20
1826.1106663459
 11
651.7226559081
 21
1850.9276015703
  0
LINE
  5
2AD
100
AcDbEntity
  8
0
100
AcDbLine
 62
7
  6
BYLAYER
 10
651.7231309512
 20
135.9274786234
 11
651.7231309512
 21
152.4274786233
  0
LINE
  5
2AE
100
AcDbEntity
  8
0
100
AcDbLine
 62
7
  6
BYLAYER
 10
652.7224031401
 20
1878.4275878244
 11
652.7224031401
 21
1874.9275887618
  0
LINE
  5
2AF
100
AcDbEntity
  8
0
100
AcDbLine
 62
7
  6
BYLAYER
 10
654.4724031401
 20
1868.4275887618
 11
654.4724031401
 21
1874.4275887618
  0
LINE
  5
2B0
100
AcDbEntity
  8
0
100
AcDbLine
 62
7
  6
BYLAYER
 10
656.9724031401
 20
1868.4275887618
 11
656.9724031401
 21
1874.4275887618
  0
LINE
  5
2B1
100
AcDbEntity
  8
0
100
AcDbLine
 62
7
  6
BYLAYER
 10
659.7224031401
 20
1867.4275887618
 11
659.7224031401
 21
1850.9275887618
  0
LINE
  5
2B2
100
AcDbEntity
  8
3
100
AcDbLine
 62
7
  6
BYLAYER
 10
659.7226559081
 20
1850.9276015703
 11
659.7226559081
 21
1826.1106663459
  0
LINE
  5
2B3
100
AcDbEntity
  8
3
100
AcDbLine
 62
7
  6
BYLAYER
 10
659.7226559081
 20
1776.1106663459
 11
659.7226559081
 21
1027.0599047248
  0
LINE
  5
2B4
100
AcDbEntity
  8
3
100
AcDbLine
 62
7
  6
BYLAYER
 10
659.7226559081
 20
977.0599047248
 11
659.7226559081
 21
229.775763885
  0
LINE
  5
2B5
100
AcDbEntity
  8
3
100
AcDbLine
 62
7
  6
BYLAYER
 10
659.7226559081
 20
179.775763885
 11
659.7226559081
 21
152.4276015703
  0
LINE
  5
2B6
100
AcDbEntity
  8
0
100
AcDbLine
 62
7
  6
BYLAYER
 10
659.7231309512
 20
152.4274786233
 11
659.7231309512
 21
135.9274786234
  0
LINE
  5
2B7
100
AcDbEntity
  8
0
100
AcDbLine
 62
7
  6
BYLAYER
 10
660.2224031401
 20
1850.9275887618
 11
660.2224031401
 21
1867.4275887618
  0
LINE
  5
2B8
100
AcDbEntity
  8
3
100
AcDbLine
 62
7
  6
BYLAYER
 10
660.2226559081
 20
152.4276015703
 11
660.2226559081
 21
179.775763885
  0
LINE
  5
2B9
100
AcDbEntity
  8
3
100
AcDbLine
 62
7
  6
BYLAYER
 10
660.2226559081
 20
229.775763885
 11
660.2226559081
 21
977.0599047248
  0
LINE
  5
2BA
100
AcDbEntity
  8
3
100
AcDbLine
 62
7
  6
BYLAYER
 10
660.2226559081
 20
1027.0599047248
 11
660.2226559081
 21
1776.1106663459
  0
LINE
  5
2BB
100
AcDbEntity
  8
3
100
AcDbLine
 62
7
  6
BYLAYER
 10
660.2226559081
 20
1826.1106663459
 11
660.2226559081
 21
1850.9276015703
  0
LINE
  5
2BC
100
AcDbEntity
  8
0
100
AcDbLine
 62
7
  6
BYLAYER
 10
660.2231309512
 20
135.9274786233
 11
660.2231309512
 21
152.4274786233
  0
LINE
  5
2BD
100
AcDbEntity
  8
0
100
AcDbLine
 62
7
  6
BYLAYER
 10
660.5991631401
 20
1876.1275887618
 11
660.5991631401
 21
1874.9275887618
  0
LINE
  5
2BE
100
AcDbEntity
  8
0
100
AcDbLine
 62
7
  6
BYLAYER
 10
668.8491631401
 20
1876.1275887618
 11
668.8491631401
 21
1874.9275887618
  0
LINE
  5
2BF
100
AcDbEntity
  8
4
100
AcDbLine
 62
7
  6
BYLAYER
 10
670.5339102247
 20
1821.1106663459
 11
670.5339102247
 21
1781.1106663459
  0
LINE
  5
2C0
100
AcDbEntity
  8
4
100
AcDbLine
 62
7
  6
BYLAYER
 10
670.5339102247
 20
1022.0599047248
 11
670.5339102247
 21
982.0599047248
  0
LINE
  5
2C1
100
AcDbEntity
  8
4
100
AcDbLine
 62
7
  6
BYLAYER
 10
670.5339102247
 20
224.7757638851
 11
670.5339102247
 21
184.7757638851
  0
LINE
  5
2C2
100
AcDbEntity
  8
0
100
AcDbLine
 62
7
  6
BYLAYER
 10
671.7224031401
 20
1868.4275887618
 11
671.7224031401
 21
1866.4275887618
  0
LINE
  5
2C3
100
AcDbEntity
  8
0
100
AcDbLine
 62
7
  6
BYLAYER
 10
671.7231309512
 20
136.9274786233
 11
671.7231309512
 21
134.9274786233
  0
LINE
  5
2C4
100
AcDbEntity
  8
0
100
AcDbLine
 62
7
  6
BYLAYER
 10
672.4724031401
 20
1868.4275887618
 11
672.4724031401
 21
1874.4275887618
  0
LINE
  5
2C5
100
AcDbEntity
  8
0
100
AcDbLine
 62
7
  6
BYLAYER
 10
672.7224031401
 20
1866.4275887618
 11
672.7224031401
 21
1867.4275887618
  0
LINE
  5
2C6
100
AcDbEntity
  8
0
100
AcDbLine
 62
7
  6
BYLAYER
 10
672.7231309512
 20
135.9274786233
 11
672.7231309512
 21
136.9274786233
  0
LINE
  5
2C7
100
AcDbEntity
  8
0
100
AcDbLine
 62
7
  6
BYLAYER
 10
672.9224031401
 20
1866.0316557559
 11
672.9224031401
 21
1867.5275887618
  0
LINE
  5
2C8
100
AcDbEntity
  8
0
100
AcDbLine
 62
7
  6
BYLAYER
 10
672.9231309483
 20
135.8275887618
 11
672.9231309483
 21
137.3232961866
  0
LINE
  5
2C9
100
AcDbEntity
  8
0
100
AcDbLine
 62
7
  6
BYLAYER
 10
673.2224032127
 20
1865.4275887618
 11
673.2224032127
 21
1865.9275887618
  0
LINE
  5
2CA
100
AcDbEntity
  8
0
100
AcDbLine
 62
7
  6
BYLAYER
 10
673.223131024
 20
137.4274786233
 11
673.223131024
 21
137.9274786233
  0
LINE
  5
2CB
100
AcDbEntity
  8
4
100
AcDbLine
 62
7
  6
BYLAYER
 10
653.0231309497
 20
1021.7364419053
 11
650.3231309497
 21
1017.0599047248
  0
LINE
  5
2CC
100
AcDbEntity
  8
4
100
AcDbLine
 62
7
  6
BYLAYER
 10
658.4231309497
 20
1012.3833675444
 11
661.1231309497
 21
1017.0599047248
  0
LINE
  5
2CD
100
AcDbEntity
  8
4
100
AcDbLine
 62
7
  6
BYLAYER
 10
653.0231309497
 20
991.7364419053
 11
650.3231309497
 21
987.0599047248
  0
LINE
  5
2CE
100
AcDbEntity
  8
4
100
AcDbLine
 62
7
  6
BYLAYER
 10
650.3231309497
 20
987.0599047248
 11
653.0231309497
 21
982.3833675444
  0
LINE
  5
2CF
100
AcDbEntity
  8
4
100
AcDbLine
 62
7
  6
BYLAYER
 10
661.1231309497
 20
987.0599047248
 11
658.4231309497
 21
991.7364419053
  0
LINE
  5
2D0
100
AcDbEntity
  8
4
100
AcDbLine
 62
7
  6
BYLAYER
 10
650.3231309497
 20
1017.0599047248
 11
653.0231309497
 21
1012.3833675444
  0
LINE
  5
2D1
100
AcDbEntity
  8
0
100
AcDbLine
 62
7
  6
BYLAYER
 10
676.7224031401
 20
1865.9275887618
 11
676.7224031401
 21
1850.9275887618
  0
LINE
  5
2D2
100
AcDbEntity
  8
3
100
AcDbLine
 62
7
  6
BYLAYER
 10
676.7226559081
 20
1850.9276015703
 11
676.7226559081
 21
152.4276015703
  0
LINE
  5
2D3
100
AcDbEntity
  8
0
100
AcDbLine
 62
7
  6
BYLAYER
 10
676.7231309512
 20
152.4274786233
 11
676.7231309512
 21
137.4274786233
  0
LINE
  5
2D4
100
AcDbEntity
  8
0
100
AcDbLine
 62
7
  6
BYLAYER
 10
679.5224031401
 20
1867.5275887618
 11
679.5224031401
 21
1865.9275887618
  0
LINE
  5
2D5
100
AcDbEntity
  8
0
100
AcDbLine
 62
7
  6
BYLAYER
 10
679.5231309483
 20
137.4275887618
 11
679.5231309483
 21
135.8275887618
  0
LINE
  5
2D6
100
AcDbEntity
  8
0
100
AcDbLine
 62
7
  6
BYLAYER
 10
679.7224031401
 20
1868.4275887618
 11
679.7224031418
 21
1866.4275887618
  0
LINE
  5
2D7
100
AcDbEntity
  8
0
100
AcDbLine
 62
7
  6
BYLAYER
 10
679.7231309529
 20
136.9274786233
 11
679.7231309512
 21
134.9274786233
  0
LINE
  5
2D8
100
AcDbEntity
  8
0
100
AcDbLine
 62
7
  6
BYLAYER
 10
680.7224031401
 20
1850.9275887618
 11
680.7224031401
 21
1867.4275887618
  0
LINE
  5
2D9
100
AcDbEntity
  8
3
100
AcDbLine
 62
7
  6
BYLAYER
 10
680.7226559081
 20
152.4276015703
 11
680.7226559081
 21
1850.9276015703
  0
LINE
  5
2DA
100
AcDbEntity
  8
0
100
AcDbLine
 62
7
  6
BYLAYER
 10
680.7231309512
 20
137.9274786233
 11
680.7231309512
 21
152.4274786233
  0
LINE
  5
2DB
100
AcDbEntity
  8
0
100
AcDbLine
 62
7
  6
BYLAYER
 10
680.7231309512
 20
135.9274786233
 11
680.7231309512
 21
137.9156500637
  0
LINE
  5
2DC
100
AcDbEntity
  8
0
100
AcDbLine
 62
7
  6
BYLAYER
 10
680.72312922
 20
136.9274361829
 11
680.7231309522
 21
137.7267651872
  0
LINE
  5
2DD
100
AcDbEntity
  8
4
100
AcDbLine
 62
7
  6
BYLAYER
 10
658.4231309497
 20
982.3833675444
 11
661.1231309497
 21
987.0599047248
  0
LINE
  5
2DE
100
AcDbEntity
  8
4
100
AcDbLine
 62
7
  6
BYLAYER
 10
620.5339102247
 20
977.0599047248
 11
665.5339102247
 21
977.0599047248
  0
LINE
  5
2DF
100
AcDbEntity
  8
3
100
AcDbLine
 62
7
  6
BYLAYER
 10
768.1830411132
 20
977.0599047248
 11
813.1830411132
 21
977.0599047248
  0
LINE
  5
2E0
100
AcDbEntity
  8
3
100
AcDbLine
 62
7
  6
BYLAYER
 10
771.1830411132
 20
982.0599047248
 11
768.1830411132
 21
982.0599047248
  0
LINE
  5
2E1
100
AcDbEntity
  8
4
100
AcDbLine
 62
7
  6
BYLAYER
 10
623.5339102247
 20
982.0599047248
 11
620.5339102247
 21
982.0599047248
  0
LINE
  5
2E2
100
AcDbEntity
  8
3
100
AcDbLine
 62
7
  6
BYLAYER
 10
806.0722618382
 20
982.3833675444
 11
800.6722618382
 21
982.3833675444
  0
LINE
  5
2E3
100
AcDbEntity
  8
4
100
AcDbLine
 62
7
  6
BYLAYER
 10
658.4231309497
 20
982.3833675444
 11
653.0231309497
 21
982.3833675444
  0
LINE
  5
2E4
100
AcDbEntity
  8
4
100
AcDbLine
 62
7
  6
BYLAYER
 10
648.8339102247
 20
983.8099047248
 11
650.3188214809
 21
983.8099047248
  0
LINE
  5
2E5
100
AcDbEntity
  8
4
100
AcDbLine
 62
7
  6
BYLAYER
 10
661.1271028789
 20
983.8099047248
 11
662.3339102247
 21
983.8099047248
  0
LINE
  5
2E6
100
AcDbEntity
  8
3
100
AcDbLine
 62
7
  6
BYLAYER
 10
796.4830411132
 20
983.8099047248
 11
797.9679523694
 21
983.8099047248
  0
LINE
  5
2E7
100
AcDbEntity
  8
3
100
AcDbLine
 62
7
  6
BYLAYER
 10
808.7762337674
 20
983.8099047248
 11
809.9830411132
 21
983.8099047248
  0
LINE
  5
2E8
100
AcDbEntity
  8
3
100
AcDbLine
 62
7
  6
BYLAYER
 10
809.9830411132
 20
990.3099047248
 11
808.776571307
 21
990.3099047248
  0
LINE
  5
2E9
100
AcDbEntity
  8
3
100
AcDbLine
 62
7
  6
BYLAYER
 10
797.968289909
 20
990.3099047248
 11
796.4830411132
 21
990.3099047248
  0
LINE
  5
2EA
100
AcDbEntity
  8
4
100
AcDbLine
 62
7
  6
BYLAYER
 10
662.3339102247
 20
990.3099047248
 11
661.1274404185
 21
990.3099047248
  0
LINE
  5
2EB
100
AcDbEntity
  8
4
100
AcDbLine
 62
7
  6
BYLAYER
 10
650.3191590205
 20
990.3099047248
 11
648.8339102247
 21
990.3099047248
  0
LINE
  5
2EC
100
AcDbEntity
  8
4
100
AcDbLine
 62
7
  6
BYLAYER
 10
653.0231309497
 20
991.7364419053
 11
658.4231309497
 21
991.7364419053
  0
LINE
  5
2ED
100
AcDbEntity
  8
3
100
AcDbLine
 62
7
  6
BYLAYER
 10
800.6722618382
 20
991.7364419053
 11
806.0722618382
 21
991.7364419053
  0
LINE
  5
2EE
100
AcDbEntity
  8
3
100
AcDbLine
 62
7
  6
BYLAYER
 10
806.0722618382
 20
1012.3833675444
 11
800.6722618382
 21
1012.3833675444
  0
LINE
  5
2EF
100
AcDbEntity
  8
4
100
AcDbLine
 62
7
  6
BYLAYER
 10
658.4231309497
 20
1012.3833675444
 11
653.0231309497
 21
1012.3833675444
  0
LINE
  5
2F0
100
AcDbEntity
  8
4
100
AcDbLine
 62
7
  6
BYLAYER
 10
648.8339102247
 20
1013.8099047248
 11
650.3188214809
 21
1013.8099047248
  0
LINE
  5
2F1
100
AcDbEntity
  8
4
100
AcDbLine
 62
7
  6
BYLAYER
 10
661.1271028789
 20
1013.8099047248
 11
662.3339102247
 21
1013.8099047248
  0
LINE
  5
2F2
100
AcDbEntity
  8
3
100
AcDbLine
 62
7
  6
BYLAYER
 10
796.4830411132
 20
1013.8099047248
 11
797.9679523694
 21
1013.8099047248
  0
LINE
  5
2F3
100
AcDbEntity
  8
3
100
AcDbLine
 62
7
  6
BYLAYER
 10
808.7762337674
 20
1013.8099047248
 11
809.9830411132
 21
1013.8099047248
  0
LINE
  5
2F4
100
AcDbEntity
  8
4
100
AcDbLine
 62
7
  6
BYLAYER
 10
661.1231309497
 20
1017.0599047248
 11
658.4231309497
 21
1021.7364419053
  0
LINE
  5
2F5
100
AcDbEntity
  8
3
100
AcDbLine
 62
7
  6
BYLAYER
 10
768.1830411132
 20
179.775763885
 11
768.1830411132
 21
229.775763885
  0
LINE
  5
2F6
100
AcDbEntity
  8
3
100
AcDbLine
 62
7
  6
BYLAYER
 10
768.1830411132
 20
977.0599047248
 11
768.1830411132
 21
1027.0599047248
  0
LINE
  5
2F7
100
AcDbEntity
  8
3
100
AcDbLine
 62
7
  6
BYLAYER
 10
768.1830411132
 20
1776.1106663459
 11
768.1830411132
 21
1826.1106663459
  0
LINE
  5
2F8
100
AcDbEntity
  8
3
100
AcDbLine
 62
7
  6
BYLAYER
 10
771.1830411132
 20
1826.1106663459
 11
771.1830411132
 21
1776.1106663459
  0
LINE
  5
2F9
100
AcDbEntity
  8
3
100
AcDbLine
 62
7
  6
BYLAYER
 10
771.1830411132
 20
1027.0599047248
 11
771.1830411132
 21
977.0599047248
  0
LINE
  5
2FA
100
AcDbEntity
  8
3
100
AcDbLine
 62
7
  6
BYLAYER
 10
771.1830411132
 20
229.775763885
 11
771.1830411132
 21
179.775763885
  0
LINE
  5
2FB
100
AcDbEntity
  8
3
100
AcDbLine
 62
7
  6
BYLAYER
 10
775.1830411132
 20
179.7757638851
 11
775.1830411132
 21
229.7757638851
  0
LINE
  5
2FC
100
AcDbEntity
  8
3
100
AcDbLine
 62
7
  6
BYLAYER
 10
775.1830411132
 20
977.0599047248
 11
775.1830411132
 21
1027.0599047248
  0
LINE
  5
2FD
100
AcDbEntity
  8
3
100
AcDbLine
 62
7
  6
BYLAYER
 10
775.1830411132
 20
1776.1106663459
 11
775.1830411132
 21
1826.1106663459
  0
LINE
  5
2FE
100
AcDbEntity
  8
0
100
AcDbLine
 62
7
  6
BYLAYER
 10
778.3715357584
 20
1866.4276310279
 11
778.3715340276
 21
1865.6284149545
  0
LINE
  5
2FF
100
AcDbEntity
  8
0
100
AcDbLine
 62
7
  6
BYLAYER
 10
778.3715340286
 20
1867.4275887618
 11
778.3715340286
 21
1865.4394390932
  0
LINE
  5
300
100
AcDbEntity
  8
0
100
AcDbLine
 62
7
  6
BYLAYER
 10
778.3715340286
 20
1865.4275887618
 11
778.3715340286
 21
1850.9275887618
  0
LINE
  5
301
100
AcDbEntity
  8
3
100
AcDbLine
 62
7
  6
BYLAYER
 10
778.3717867966
 20
1850.9276015703
 11
778.3717867966
 21
1826.1106663459
  0
LINE
  5
302
100
AcDbEntity
  8
3
100
AcDbLine
 62
7
  6
BYLAYER
 10
778.3717867966
 20
1776.1106663459
 11
778.3717867966
 21
1027.0599047248
  0
LINE
  5
303
100
AcDbEntity
  8
3
100
AcDbLine
 62
7
  6
BYLAYER
 10
778.3717867966
 20
977.0599047248
 11
778.3717867966
 21
229.775763885
  0
LINE
  5
304
100
AcDbEntity
  8
3
100
AcDbLine
 62
7
  6
BYLAYER
 10
778.3717867966
 20
179.775763885
 11
778.3717867966
 21
152.4276015703
  0
LINE
  5
305
100
AcDbEntity
  8
0
100
AcDbLine
 62
7
  6
BYLAYER
 10
778.3722618397
 20
135.9274786233
 11
778.3722618397
 21
152.4274786233
  0
LINE
  5
306
100
AcDbEntity
  8
0
100
AcDbLine
 62
7
  6
BYLAYER
 10
779.3715340269
 20
1866.4275887618
 11
779.3715340286
 21
1868.4275887618
  0
LINE
  5
307
100
AcDbEntity
  8
0
100
AcDbLine
 62
7
  6
BYLAYER
 10
779.3722618397
 20
134.9274786233
 11
779.372261838
 21
136.9274786233
  0
LINE
  5
308
100
AcDbEntity
  8
0
100
AcDbLine
 62
7
  6
BYLAYER
 10
779.5715340286
 20
1865.9275887618
 11
779.5715340286
 21
1867.5275887618
  0
LINE
  5
309
100
AcDbEntity
  8
0
100
AcDbLine
 62
7
  6
BYLAYER
 10
779.5722618397
 20
135.8275887618
 11
779.5722618397
 21
137.4275887618
  0
LINE
  5
30A
100
AcDbEntity
  8
0
100
AcDbLine
 62
7
  6
BYLAYER
 10
782.3715340286
 20
1850.9275887618
 11
782.3715340286
 21
1865.9275887618
  0
LINE
  5
30B
100
AcDbEntity
  8
3
100
AcDbLine
 62
7
  6
BYLAYER
 10
782.3717867966
 20
152.4276015703
 11
782.3717867966
 21
179.775763885
  0
LINE
  5
30C
100
AcDbEntity
  8
3
100
AcDbLine
 62
7
  6
BYLAYER
 10
782.3717867966
 20
229.775763885
 11
782.3717867966
 21
977.0599047248
  0
LINE
  5
30D
100
AcDbEntity
  8
3
100
AcDbLine
 62
7
  6
BYLAYER
 10
782.3717867966
 20
1027.0599047248
 11
782.3717867966
 21
1776.1106663459
  0
LINE
  5
30E
100
AcDbEntity
  8
3
100
AcDbLine
 62
7
  6
BYLAYER
 10
782.3717867966
 20
1826.1106663459
 11
782.3717867966
 21
1850.9276015703
  0
LINE
  5
30F
100
AcDbEntity
  8
0
100
AcDbLine
 62
7
  6
BYLAYER
 10
782.3722618397
 20
137.4274786233
 11
782.3722618397
 21
152.4274786233
  0
LINE
  5
310
100
AcDbEntity
  8
0
100
AcDbLine
 62
7
  6
BYLAYER
 10
785.8715339558
 20
1865.9275887618
 11
785.8715339558
 21
1865.4275887618
  0
LINE
  5
311
100
AcDbEntity
  8
0
100
AcDbLine
 62
7
  6
BYLAYER
 10
785.8722617672
 20
137.9274786233
 11
785.8722617672
 21
137.4274786233
  0
LINE
  5
312
100
AcDbEntity
  8
0
100
AcDbLine
 62
7
  6
BYLAYER
 10
786.1715340286
 20
1867.5275887618
 11
786.1715340286
 21
1866.0317711967
  0
LINE
  5
313
100
AcDbEntity
  8
0
100
AcDbLine
 62
7
  6
BYLAYER
 10
786.1722618397
 20
137.3234116291
 11
786.1722618397
 21
135.8275887618
  0
LINE
  5
314
100
AcDbEntity
  8
0
100
AcDbLine
 62
7
  6
BYLAYER
 10
786.3715340286
 20
1867.4275887618
 11
786.3715340286
 21
1866.4275887618
  0
LINE
  5
315
100
AcDbEntity
  8
0
100
AcDbLine
 62
7
  6
BYLAYER
 10
786.3722618397
 20
136.9274786233
 11
786.3722618397
 21
135.9274786233
  0
LINE
  5
316
100
AcDbEntity
  8
0
100
AcDbLine
 62
7
  6
BYLAYER
 10
786.6215340286
 20
1868.4275887618
 11
786.6215340286
 21
1874.4275887618
  0
LINE
  5
317
100
AcDbEntity
  8
0
100
AcDbLine
 62
7
  6
BYLAYER
 10
787.3715340286
 20
1866.4275887618
 11
787.3715340286
 21
1868.4275887618
  0
LINE
  5
318
100
AcDbEntity
  8
0
100
AcDbLine
 62
7
  6
BYLAYER
 10
787.3722618397
 20
134.9274786233
 11
787.3722618397
 21
136.9274786233
  0
LINE
  5
319
100
AcDbEntity
  8
0
100
AcDbLine
 62
7
  6
BYLAYER
 10
788.3715340286
 20
1874.9275887618
 11
788.3715340286
 21
1878.4275878244
  0
LINE
  5
31A
100
AcDbEntity
  8
0
100
AcDbLine
 62
7
  6
BYLAYER
 10
790.2473140286
 20
1876.1275887618
 11
790.2473140286
 21
1874.9275887618
  0
LINE
  5
31B
100
AcDbEntity
  8
3
100
AcDbLine
 62
7
  6
BYLAYER
 10
800.6722618382
 20
1021.7364419053
 11
797.9722618382
 21
1017.0599047248
  0
LINE
  5
31C
100
AcDbEntity
  8
3
100
AcDbLine
 62
7
  6
BYLAYER
 10
809.9830411132
 20
1020.3099047248
 11
808.776571307
 21
1020.3099047248
  0
LINE
  5
31D
100
AcDbEntity
  8
3
100
AcDbLine
 62
7
  6
BYLAYER
 10
797.968289909
 20
1020.3099047248
 11
796.4830411132
 21
1020.3099047248
  0
LINE
  5
31E
100
AcDbEntity
  8
4
100
AcDbLine
 62
7
  6
BYLAYER
 10
662.3339102247
 20
1020.3099047248
 11
661.1274404185
 21
1020.3099047248
  0
LINE
  5
31F
100
AcDbEntity
  8
4
100
AcDbLine
 62
7
  6
BYLAYER
 10
650.3191590205
 20
1020.3099047248
 11
648.8339102247
 21
1020.3099047248
  0
LINE
  5
320
100
AcDbEntity
  8
4
100
AcDbLine
 62
7
  6
BYLAYER
 10
653.0231309497
 20
1021.7364419053
 11
658.4231309497
 21
1021.7364419053
  0
LINE
  5
321
100
AcDbEntity
  8
3
100
AcDbLine
 62
7
  6
BYLAYER
 10
800.6722618382
 20
1021.7364419053
 11
806.0722618382
 21
1021.7364419053
  0
LINE
  5
322
100
AcDbEntity
  8
4
100
AcDbLine
 62
7
  6
BYLAYER
 10
620.5339102247
 20
1022.0599047248
 11
623.5339102247
 21
1022.0599047248
  0
LINE
  5
323
100
AcDbEntity
  8
3
100
AcDbLine
 62
7
  6
BYLAYER
 10
768.1830411132
 20
1022.0599047248
 11
771.1830411132
 21
1022.0599047248
  0
LINE
  5
324
100
AcDbEntity
  8
4
100
AcDbLine
 62
7
  6
BYLAYER
 10
620.5339102247
 20
1027.0599047248
 11
665.5339102247
 21
1027.0599047248
  0
LINE
  5
325
100
AcDbEntity
  8
3
100
AcDbLine
 62
7
  6
BYLAYER
 10
768.1830411132
 20
1027.0599047248
 11
813.1830411132
 21
1027.0599047248
  0
LINE
  5
326
100
AcDbEntity
  8
3
100
AcDbLine
 62
7
  6
BYLAYER
 10
797.9722618382
 20
987.0599047248
 11
800.6722618382
 21
982.3833675444
  0
LINE
  5
327
100
AcDbEntity
  8
3
100
AcDbLine
 62
7
  6
BYLAYER
 10
808.7722618382
 20
987.0599047248
 11
806.0722618382
 21
991.7364419053
  0
LINE
  5
328
100
AcDbEntity
  8
0
100
AcDbLine
 62
7
  6
BYLAYER
 10
798.4973140286
 20
1876.1275887618
 11
798.4973140286
 21
1874.9275887618
  0
LINE
  5
329
100
AcDbEntity
  8
0
100
AcDbLine
 62
7
  6
BYLAYER
 10
798.8715340286
 20
1867.4275887618
 11
798.8715340286
 21
1850.9275887618
  0
LINE
  5
32A
100
AcDbEntity
  8
3
100
AcDbLine
 62
7
  6
BYLAYER
 10
798.8717867966
 20
1850.9276015703
 11
798.8717867966
 21
1826.1106663459
  0
LINE
  5
32B
100
AcDbEntity
  8
3
100
AcDbLine
 62
7
  6
BYLAYER
 10
798.8717867966
 20
1776.1106663459
 11
798.8717867966
 21
1027.0599047248
  0
LINE
  5
32C
100
AcDbEntity
  8
3
100
AcDbLine
 62
7
  6
BYLAYER
 10
798.8717867966
 20
977.0599047248
 11
798.8717867966
 21
229.775763885
  0
LINE
  5
32D
100
AcDbEntity
  8
3
100
AcDbLine
 62
7
  6
BYLAYER
 10
798.8717867966
 20
179.775763885
 11
798.8717867966
 21
152.4276015703
  0
LINE
  5
32E
100
AcDbEntity
  8
0
100
AcDbLine
 62
7
  6
BYLAYER
 10
798.8722618397
 20
152.4274786233
 11
798.8722618397
 21
135.9274786233
  0
LINE
  5
32F
100
AcDbEntity
  8
0
100
AcDbLine
 62
7
  6
BYLAYER
 10
799.3715340286
 20
1850.9275887618
 11
799.3715340286
 21
1867.4275887618
  0
LINE
  5
330
100
AcDbEntity
  8
3
100
AcDbLine
 62
7
  6
BYLAYER
 10
799.3717867966
 20
152.4276015703
 11
799.3717867966
 21
179.775763885
  0
LINE
  5
331
100
AcDbEntity
  8
3
100
AcDbLine
 62
7
  6
BYLAYER
 10
799.3717867966
 20
229.775763885
 11
799.3717867966
 21
977.0599047248
  0
LINE
  5
332
100
AcDbEntity
  8
3
100
AcDbLine
 62
7
  6
BYLAYER
 10
799.3717867966
 20
1027.0599047248
 11
799.3717867966
 21
1776.1106663459
  0
LINE
  5
333
100
AcDbEntity
  8
3
100
AcDbLine
 62
7
  6
BYLAYER
 10
799.3717867966
 20
1826.1106663459
 11
799.3717867966
 21
1850.9276015703
  0
LINE
  5
334
100
AcDbEntity
  8
0
100
AcDbLine
 62
7
  6
BYLAYER
 10
799.3722618397
 20
135.9274786234
 11
799.3722618397
 21
152.4274786233
  0
LINE
  5
335
100
AcDbEntity
  8
0
100
AcDbLine
 62
7
  6
BYLAYER
 10
800.3715340286
 20
1878.4275878244
 11
800.3715340286
 21
1874.9275887618
  0
LINE
  5
336
100
AcDbEntity
  8
0
100
AcDbLine
 62
7
  6
BYLAYER
 10
802.1215340286
 20
1868.4275887618
 11
802.1215340286
 21
1874.4275887618
  0
LINE
  5
337
100
AcDbEntity
  8
0
100
AcDbLine
 62
7
  6
BYLAYER
 10
804.6215340286
 20
1868.4275887618
 11
804.6215340286
 21
1874.4275887618
  0
LINE
  5
338
100
AcDbEntity
  8
0
100
AcDbLine
 62
7
  6
BYLAYER
 10
807.3715340286
 20
1867.4275887618
 11
807.3715340286
 21
1850.9275887618
  0
LINE
  5
339
100
AcDbEntity
  8
3
100
AcDbLine
 62
7
  6
BYLAYER
 10
807.3717867966
 20
1850.9276015703
 11
807.3717867966
 21
1826.1106663459
  0
LINE
  5
33A
100
AcDbEntity
  8
3
100
AcDbLine
 62
7
  6
BYLAYER
 10
807.3717867966
 20
1776.1106663459
 11
807.3717867966
 21
1027.0599047248
  0
LINE
  5
33B
100
AcDbEntity
  8
3
100
AcDbLine
 62
7
  6
BYLAYER
 10
807.3717867966
 20
977.0599047248
 11
807.3717867966
 21
229.775763885
  0
LINE
  5
33C
100
AcDbEntity
  8
3
100
AcDbLine
 62
7
  6
BYLAYER
 10
807.3717867966
 20
179.775763885
 11
807.3717867966
 21
152.4276015703
  0
LINE
  5
33D
100
AcDbEntity
  8
0
100
AcDbLine
 62
7
  6
BYLAYER
 10
807.3722618397
 20
152.4274786233
 11
807.3722618397
 21
135.9274786234
  0
LINE
  5
33E
100
AcDbEntity
  8
0
100
AcDbLine
 62
7
  6
BYLAYER
 10
807.8715340286
 20
1850.9275887618
 11
807.8715340286
 21
1867.4275887618
  0
LINE
  5
33F
100
AcDbEntity
  8
3
100
AcDbLine
 62
7
  6
BYLAYER
 10
807.8717867966
 20
152.4276015703
 11
807.8717867966
 21
179.775763885
  0
LINE
  5
340
100
AcDbEntity
  8
3
100
AcDbLine
 62
7
  6
BYLAYER
 10
807.8717867966
 20
229.775763885
 11
807.8717867966
 21
977.0599047248
  0
LINE
  5
341
100
AcDbEntity
  8
3
100
AcDbLine
 62
7
  6
BYLAYER
 10
807.8717867966
 20
1027.0599047248
 11
807.8717867966
 21
1776.1106663459
  0
LINE
  5
342
100
AcDbEntity
  8
3
100
AcDbLine
 62
7
  6
BYLAYER
 10
807.8717867966
 20
1826.1106663459
 11
807.8717867966
 21
1850.9276015703
  0
LINE
  5
343
100
AcDbEntity
  8
0
100
AcDbLine
 62
7
  6
BYLAYER
 10
807.8722618397
 20
135.9274786233
 11
807.8722618397
 21
152.4274786233
  0
LINE
  5
344
100
AcDbEntity
  8
0
100
AcDbLine
 62
7
  6
BYLAYER
 10
808.2482940286
 20
1876.1275887618
 11
808.2482940286
 21
1874.9275887618
  0
LINE
  5
345
100
AcDbEntity
  8
0
100
AcDbLine
 62
7
  6
BYLAYER
 10
816.4982940286
 20
1876.1275887618
 11
816.4982940286
 21
1874.9275887618
  0
LINE
  5
346
100
AcDbEntity
  8
3
100
AcDbLine
 62
7
  6
BYLAYER
 10
818.1830411132
 20
1821.1106663459
 11
818.1830411132
 21
1781.1106663459
  0
LINE
  5
347
100
AcDbEntity
  8
3
100
AcDbLine
 62
7
  6
BYLAYER
 10
818.1830411132
 20
1022.0599047248
 11
818.1830411132
 21
982.0599047248
  0
LINE
  5
348
100
AcDbEntity
  8
3
100
AcDbLine
 62
7
  6
BYLAYER
 10
818.1830411132
 20
224.7757638851
 11
818.1830411132
 21
184.7757638851
  0
LINE
  5
349
100
AcDbEntity
  8
0
100
AcDbLine
 62
7
  6
BYLAYER
 10
819.3715340286
 20
1868.4275887618
 11
819.3715340286
 21
1866.4275887618
  0
LINE
  5
34A
100
AcDbEntity
  8
0
100
AcDbLine
 62
7
  6
BYLAYER
 10
819.3722618397
 20
136.9274786233
 11
819.3722618397
 21
134.9274786233
  0
LINE
  5
34B
100
AcDbEntity
  8
0
100
AcDbLine
 62
7
  6
BYLAYER
 10
820.1215340286
 20
1868.4275887618
 11
820.1215340286
 21
1874.4275887618
  0
LINE
  5
34C
100
AcDbEntity
  8
0
100
AcDbLine
 62
7
  6
BYLAYER
 10
820.3715340286
 20
1866.4275887618
 11
820.3715340286
 21
1867.4275887618
  0
LINE
  5
34D
100
AcDbEntity
  8
0
100
AcDbLine
 62
7
  6
BYLAYER
 10
820.3722618397
 20
135.9274786233
 11
820.3722618397
 21
136.9274786233
  0
LINE
  5
34E
100
AcDbEntity
  8
0
100
AcDbLine
 62
7
  6
BYLAYER
 10
820.5715340286
 20
1866.0316557559
 11
820.5715340286
 21
1867.5275887618
  0
LINE
  5
34F
100
AcDbEntity
  8
0
100
AcDbLine
 62
7
  6
BYLAYER
 10
820.5722618368
 20
135.8275887618
 11
820.5722618368
 21
137.3232961866
  0
LINE
  5
350
100
AcDbEntity
  8
0
100
AcDbLine
 62
7
  6
BYLAYER
 10
820.8715341012
 20
1865.4275887618
 11
820.8715341012
 21
1865.9275887618
  0
LINE
  5
351
100
AcDbEntity
  8
0
100
AcDbLine
 62
7
  6
BYLAYER
 10
820.8722619125
 20
137.4274786233
 11
820.8722619125
 21
137.9274786233
  0
LINE
  5
352
100
AcDbEntity
  8
0
100
AcDbLine
 62
7
  6
BYLAYER
 10
824.3715340286
 20
1865.9275887618
 11
824.3715340286
 21
1850.9275887618
  0
LINE
  5
353
100
AcDbEntity
  8
3
100
AcDbLine
 62
7
  6
BYLAYER
 10
824.3717867966
 20
1850.9276015703
 11
824.3717867966
 21
152.4276015703
  0
LINE
  5
354
100
AcDbEntity
  8
0
100
AcDbLine
 62
7
  6
BYLAYER
 10
824.3722618397
 20
152.4274786233
 11
824.3722618397
 21
137.4274786233
  0
LINE
  5
355
100
AcDbEntity
  8
0
100
AcDbLine
 62
7
  6
BYLAYER
 10
827.1715340286
 20
1867.5275887618
 11
827.1715340286
 21
1865.9275887618
  0
LINE
  5
356
100
AcDbEntity
  8
0
100
AcDbLine
 62
7
  6
BYLAYER
 10
827.1722618368
 20
137.4275887618
 11
827.1722618368
 21
135.8275887618
  0
LINE
  5
357
100
AcDbEntity
  8
0
100
AcDbLine
 62
7
  6
BYLAYER
 10
827.3715340286
 20
1868.4275887618
 11
827.3715340303
 21
1866.4275887618
  0
LINE
  5
358
100
AcDbEntity
  8
0
100
AcDbLine
 62
7
  6
BYLAYER
 10
827.3722618414
 20
136.9274786233
 11
827.3722618397
 21
134.9274786233
  0
LINE
  5
359
100
AcDbEntity
  8
0
100
AcDbLine
 62
7
  6
BYLAYER
 10
828.3715340286
 20
1850.9275887618
 11
828.3715340286
 21
1867.4275887618
  0
LINE
  5
35A
100
AcDbEntity
  8
3
100
AcDbLine
 62
7
  6
BYLAYER
 10
828.3717867966
 20
152.4276015703
 11
828.3717867966
 21
1850.9276015703
  0
LINE
  5
35B
100
AcDbEntity
  8
0
100
AcDbLine
 62
7
  6
BYLAYER
 10
828.3722618397
 20
135.9274786233
 11
828.3722618397
 21
152.4274786233
  0
LINE
  5
35C
100
AcDbEntity
  8
3
100
AcDbLine
 62
7
  6
BYLAYER
 10
806.0722618382
 20
1012.3833675444
 11
808.7722618382
 21
1017.0599047248
  0
LINE
  5
35D
100
AcDbEntity
  8
3
100
AcDbLine
 62
7
  6
BYLAYER
 10
800.6722618382
 20
991.7364419053
 11
797.9722618382
 21
987.0599047248
  0
LINE
  5
35E
100
AcDbEntity
  8
3
100
AcDbLine
 62
7
  6
BYLAYER
 10
806.0722618382
 20
982.3833675444
 11
808.7722618382
 21
987.0599047248
  0
LINE
  5
35F
100
AcDbEntity
  8
3
100
AcDbLine
 62
7
  6
BYLAYER
 10
797.9722618382
 20
1017.0599047248
 11
800.6722618382
 21
1012.3833675444
  0
LINE
  5
360
100
AcDbEntity
  8
3
100
AcDbLine
 62
7
  6
BYLAYER
 10
808.7722618382
 20
1017.0599047248
 11
806.0722618382
 21
1021.7364419053
  0
LINE
  5
361
100
AcDbEntity
  8
4
100
AcDbLine
 62
7
  6
BYLAYER
 10
653.0231309497
 20
224.4523010655
 11
650.3231309497
 21
219.7757638851
  0
LINE
  5
362
100
AcDbEntity
  8
4
100
AcDbLine
 62
7
  6
BYLAYER
 10
658.4231309497
 20
215.0992267046
 11
661.1231309497
 21
219.7757638851
  0
LINE
  5
363
100
AcDbEntity
  8
4
100
AcDbLine
 62
7
  6
BYLAYER
 10
653.0231309497
 20
194.4523010655
 11
650.3231309497
 21
189.7757638851
  0
LINE
  5
364
100
AcDbEntity
  8
4
100
AcDbLine
 62
7
  6
BYLAYER
 10
658.4231309497
 20
185.0992267046
 11
661.1231309497
 21
189.7757638851
  0
LINE
  5
365
100
AcDbEntity
  8
4
100
AcDbLine
 62
7
  6
BYLAYER
 10
650.3231309497
 20
1786.1106663459
 11
653.0231309497
 21
1781.4341291655
  0
LINE
  5
366
100
AcDbEntity
  8
4
100
AcDbLine
 62
7
  6
BYLAYER
 10
661.1231309497
 20
1786.1106663459
 11
658.4231309497
 21
1790.7872035263
  0
LINE
  5
367
100
AcDbEntity
  8
4
100
AcDbLine
 62
7
  6
BYLAYER
 10
650.3231309497
 20
1816.1106663459
 11
653.0231309497
 21
1811.4341291655
  0
LINE
  5
368
100
AcDbEntity
  8
4
100
AcDbLine
 62
7
  6
BYLAYER
 10
661.1231309497
 20
1816.1106663459
 11
658.4231309497
 21
1820.7872035263
  0
LINE
  5
369
100
AcDbEntity
  8
3
100
AcDbLine
 62
7
  6
BYLAYER
 10
800.6722618382
 20
224.4523010655
 11
797.9722618382
 21
219.7757638851
  0
LINE
  5
36A
100
AcDbEntity
  8
3
100
AcDbLine
 62
7
  6
BYLAYER
 10
806.0722618382
 20
215.0992267046
 11
808.7722618382
 21
219.7757638851
  0
LINE
  5
36B
100
AcDbEntity
  8
3
100
AcDbLine
 62
7
  6
BYLAYER
 10
800.6722618382
 20
194.4523010655
 11
797.9722618382
 21
189.7757638851
  0
LINE
  5
36C
100
AcDbEntity
  8
3
100
AcDbLine
 62
7
  6
BYLAYER
 10
797.9722618382
 20
1786.1106663459
 11
800.6722618382
 21
1781.4341291655
  0
LINE
  5
36D
100
AcDbEntity
  8
3
100
AcDbLine
 62
7
  6
BYLAYER
 10
808.7722618382
 20
1786.1106663459
 11
806.0722618382
 21
1790.7872035263
  0
LINE
  5
36E
100
AcDbEntity
  8
3
100
AcDbLine
 62
7
  6
BYLAYER
 10
797.9722618382
 20
1816.1106663459
 11
800.6722618382
 21
1811.4341291655
  0
LINE
  5
36F
100
AcDbEntity
  8
3
100
AcDbLine
 62
7
  6
BYLAYER
 10
806.0722618382
 20
185.0992267046
 11
808.7722618382
 21
189.7757638851
  0
LINE
  5
370
100
AcDbEntity
  8
3
100
AcDbLine
 62
7
  6
BYLAYER
 10
808.7722618382
 20
1816.1106663459
 11
806.0722618382
 21
1820.7872035263
  0
LINE
  5
371
100
AcDbEntity
  8
0
100
AcDbLine
 62
7
  6
BYLAYER
 10
653.9724031401
 20
1874.9275887618
 11
654.4724031401
 21
1874.4275887618
  0
LINE
  5
372
100
AcDbEntity
  8
0
100
AcDbLine
 62
7
  6
BYLAYER
 10
652.2224051188
 20
1878.9275887618
 11
652.7224031401
 21
1878.4275909203
  0
LINE
  5
373
100
AcDbEntity
  8
0
100
AcDbLine
 62
7
  6
BYLAYER
 10
671.9724031401
 20
1874.9275887618
 11
672.4724031401
 21
1874.4275887618
  0
LINE
  5
374
100
AcDbEntity
  8
0
100
AcDbLine
 62
7
  6
BYLAYER
 10
801.6215340286
 20
1874.9275887618
 11
802.1215340286
 21
1874.4275887618
  0
LINE
  5
375
100
AcDbEntity
  8
0
100
AcDbLine
 62
7
  6
BYLAYER
 10
799.8715360073
 20
1878.9275887618
 11
800.3715340286
 21
1878.4275909203
  0
LINE
  5
376
100
AcDbEntity
  8
0
100
AcDbLine
 62
7
  6
BYLAYER
 10
819.6215340286
 20
1874.9275887618
 11
820.1215340286
 21
1874.4275887618
  0
LINE
  5
377
100
AcDbEntity
  8
4
100
AcDbLine
 62
7
  6
BYLAYER
 10
620.5339102247
 20
1776.1106663459
 11
665.5339102247
 21
1776.1106663459
  0
LINE
  5
378
100
AcDbEntity
  8
3
100
AcDbLine
 62
7
  6
BYLAYER
 10
768.1830411132
 20
1776.1106663459
 11
813.1830411132
 21
1776.1106663459
  0
LINE
  5
379
100
AcDbEntity
  8
3
100
AcDbLine
 62
7
  6
BYLAYER
 10
771.1830411132
 20
1781.1106663459
 11
768.1830411132
 21
1781.1106663459
  0
LINE
  5
37A
100
AcDbEntity
  8
4
100
AcDbLine
 62
7
  6
BYLAYER
 10
623.5339102247
 20
1781.1106663459
 11
620.5339102247
 21
1781.1106663459
  0
LINE
  5
37B
100
AcDbEntity
  8
3
100
AcDbLine
 62
7
  6
BYLAYER
 10
806.0722618382
 20
1781.4341291655
 11
800.6722618382
 21
1781.4341291655
  0
LINE
  5
37C
100
AcDbEntity
  8
4
100
AcDbLine
 62
7
  6
BYLAYER
 10
658.4231309497
 20
1781.4341291655
 11
653.0231309497
 21
1781.4341291655
  0
LINE
  5
37D
100
AcDbEntity
  8
4
100
AcDbLine
 62
7
  6
BYLAYER
 10
648.8339102247
 20
1782.8606663459
 11
650.3188214809
 21
1782.8606663459
  0
LINE
  5
37E
100
AcDbEntity
  8
4
100
AcDbLine
 62
7
  6
BYLAYER
 10
661.1271028789
 20
1782.8606663459
 11
662.3339102247
 21
1782.8606663459
  0
LINE
  5
37F
100
AcDbEntity
  8
3
100
AcDbLine
 62
7
  6
BYLAYER
 10
796.4830411132
 20
1782.8606663459
 11
797.9679523694
 21
1782.8606663459
  0
LINE
  5
380
100
AcDbEntity
  8
3
100
AcDbLine
 62
7
  6
BYLAYER
 10
808.7762337674
 20
1782.8606663459
 11
809.9830411132
 21
1782.8606663459
  0
LINE
  5
381
100
AcDbEntity
  8
3
100
AcDbLine
 62
7
  6
BYLAYER
 10
809.9830411132
 20
1789.3606663459
 11
808.776571307
 21
1789.3606663459
  0
LINE
  5
382
100
AcDbEntity
  8
3
100
AcDbLine
 62
7
  6
BYLAYER
 10
797.968289909
 20
1789.3606663459
 11
796.4830411132
 21
1789.3606663459
  0
LINE
  5
383
100
AcDbEntity
  8
4
100
AcDbLine
 62
7
  6
BYLAYER
 10
662.3339102247
 20
1789.3606663459
 11
661.1274404185
 21
1789.3606663459
  0
LINE
  5
384
100
AcDbEntity
  8
4
100
AcDbLine
 62
7
  6
BYLAYER
 10
650.3191590205
 20
1789.3606663459
 11
648.8339102247
 21
1789.3606663459
  0
LINE
  5
385
100
AcDbEntity
  8
4
100
AcDbLine
 62
7
  6
BYLAYER
 10
653.0231309497
 20
1790.7872035263
 11
658.4231309497
 21
1790.7872035263
  0
LINE
  5
386
100
AcDbEntity
  8
3
100
AcDbLine
 62
7
  6
BYLAYER
 10
800.6722618382
 20
1790.7872035263
 11
806.0722618382
 21
1790.7872035263
  0
LINE
  5
387
100
AcDbEntity
  8
3
100
AcDbLine
 62
7
  6
BYLAYER
 10
806.0722618382
 20
1811.4341291655
 11
800.6722618382
 21
1811.4341291655
  0
LINE
  5
388
100
AcDbEntity
  8
4
100
AcDbLine
 62
7
  6
BYLAYER
 10
658.4231309497
 20
1811.4341291655
 11
653.0231309497
 21
1811.4341291655
  0
LINE
  5
389
100
AcDbEntity
  8
4
100
AcDbLine
 62
7
  6
BYLAYER
 10
648.8339102247
 20
1812.8606663459
 11
650.3188214809
 21
1812.8606663459
  0
LINE
  5
38A
100
AcDbEntity
  8
4
100
AcDbLine
 62
7
  6
BYLAYER
 10
661.1271028789
 20
1812.8606663459
 11
662.3339102247
 21
1812.8606663459
  0
LINE
  5
38B
100
AcDbEntity
  8
3
100
AcDbLine
 62
7
  6
BYLAYER
 10
796.4830411132
 20
1812.8606663459
 11
797.9679523694
 21
1812.8606663459
  0
LINE
  5
38C
100
AcDbEntity
  8
3
100
AcDbLine
 62
7
  6
BYLAYER
 10
808.7762337674
 20
1812.8606663459
 11
809.9830411132
 21
1812.8606663459
  0
LINE
  5
38D
100
AcDbEntity
  8
3
100
AcDbLine
 62
7
  6
BYLAYER
 10
809.9830411132
 20
1819.3606663459
 11
808.776571307
 21
1819.3606663459
  0
LINE
  5
38E
100
AcDbEntity
  8
3
100
AcDbLine
 62
7
  6
BYLAYER
 10
797.968289909
 20
1819.3606663459
 11
796.4830411132
 21
1819.3606663459
  0
LINE
  5
38F
100
AcDbEntity
  8
4
100
AcDbLine
 62
7
  6
BYLAYER
 10
662.3339102247
 20
1819.3606663459
 11
661.1274404185
 21
1819.3606663459
  0
LINE
  5
390
100
AcDbEntity
  8
4
100
AcDbLine
 62
7
  6
BYLAYER
 10
650.3191590205
 20
1819.3606663459
 11
648.8339102247
 21
1819.3606663459
  0
LINE
  5
391
100
AcDbEntity
  8
4
100
AcDbLine
 62
7
  6
BYLAYER
 10
653.0231309497
 20
1820.7872035263
 11
658.4231309497
 21
1820.7872035263
  0
LINE
  5
392
100
AcDbEntity
  8
3
100
AcDbLine
 62
7
  6
BYLAYER
 10
800.6722618382
 20
1820.7872035263
 11
806.0722618382
 21
1820.7872035263
  0
LINE
  5
393
100
AcDbEntity
  8
4
100
AcDbLine
 62
7
  6
BYLAYER
 10
620.5339102247
 20
1821.1106663459
 11
623.5339102247
 21
1821.1106663459
  0
LINE
  5
394
100
AcDbEntity
  8
3
100
AcDbLine
 62
7
  6
BYLAYER
 10
768.1830411132
 20
1821.1106663459
 11
771.1830411132
 21
1821.1106663459
  0
LINE
  5
395
100
AcDbEntity
  8
4
100
AcDbLine
 62
7
  6
BYLAYER
 10
620.5339102247
 20
1826.1106663459
 11
665.5339102247
 21
1826.1106663459
  0
LINE
  5
396
100
AcDbEntity
  8
3
100
AcDbLine
 62
7
  6
BYLAYER
 10
768.1830411132
 20
1826.1106663459
 11
813.1830411132
 21
1826.1106663459
  0
LINE
  5
397
100
AcDbEntity
  8
0
100
AcDbLine
 62
7
  6
BYLAYER
 10
630.7224031401
 20
1850.9275887618
 11
680.7224031401
 21
1850.9275887618
  0
LINE
  5
398
100
AcDbEntity
  8
3
100
AcDbLine
 62
7
  6
BYLAYER
 10
630.7226559081
 20
1850.9276015703
 11
680.7226559081
 21
1850.9276015703
  0
LINE
  5
399
100
AcDbEntity
  8
0
100
AcDbLine
 62
7
  6
BYLAYER
 10
778.3715340286
 20
1850.9275887618
 11
828.3715340286
 21
1850.9275887618
  0
LINE
  5
39A
100
AcDbEntity
  8
3
100
AcDbLine
 62
7
  6
BYLAYER
 10
778.3717867966
 20
1850.9276015703
 11
828.3717867966
 21
1850.9276015703
  0
LINE
  5
39B
100
AcDbEntity
  8
0
100
AcDbLine
 62
7
  6
BYLAYER
 10
820.3715340286
 20
1864.4275887618
 11
804.3715508426
 21
1864.4275887618
  0
LINE
  5
39C
100
AcDbEntity
  8
0
100
AcDbLine
 62
7
  6
BYLAYER
 10
802.3715340286
 20
1864.4275887618
 11
786.3715508426
 21
1864.4275887618
  0
LINE
  5
39D
100
AcDbEntity
  8
0
100
AcDbLine
 62
7
  6
BYLAYER
 10
672.7224031401
 20
1864.4275887618
 11
656.7224199541
 21
1864.4275887618
  0
LINE
  5
39E
100
AcDbEntity
  8
0
100
AcDbLine
 62
7
  6
BYLAYER
 10
654.7224031401
 20
1864.4275887618
 11
638.7224199541
 21
1864.4275887618
  0
LINE
  5
39F
100
AcDbEntity
  8
0
100
AcDbLine
 62
7
  6
BYLAYER
 10
820.2663249998
 20
1864.4387830128
 11
804.4767596503
 21
1864.4387830128
  0
LINE
  5
3A0
100
AcDbEntity
  8
0
100
AcDbLine
 62
7
  6
BYLAYER
 10
802.2663249998
 20
1864.4387830128
 11
786.4767596503
 21
1864.4387830128
  0
LINE
  5
3A1
100
AcDbEntity
  8
0
100
AcDbLine
 62
7
  6
BYLAYER
 10
672.6171941113
 20
1864.4387830128
 11
656.8276287618
 21
1864.4387830128
  0
LINE
  5
3A2
100
AcDbEntity
  8
0
100
AcDbLine
 62
7
  6
BYLAYER
 10
654.6171941113
 20
1864.4387830128
 11
638.8276287618
 21
1864.4387830128
  0
LINE
  5
3A3
100
AcDbEntity
  8
0
100
AcDbLine
 62
7
  6
BYLAYER
 10
638.6169084799
 20
1865.4163329451
 11
654.8278807647
 21
1865.4163329451
  0
LINE
  5
3A4
100
AcDbEntity
  8
0
100
AcDbLine
 62
7
  6
BYLAYER
 10
786.2660393684
 20
1865.4163329451
 11
802.4770116532
 21
1865.4163329451
  0
LINE
  5
3A5
100
AcDbEntity
  8
0
100
AcDbLine
 62
7
  6
BYLAYER
 10
820.4767430575
 20
1865.4163945108
 11
804.2663420348
 21
1865.4163945108
  0
LINE
  5
3A6
100
AcDbEntity
  8
0
100
AcDbLine
 62
7
  6
BYLAYER
 10
672.827612169
 20
1865.4163945108
 11
656.6172111463
 21
1865.4163945108
  0
LINE
  5
3A7
100
AcDbEntity
  8
0
100
AcDbLine
 62
7
  6
BYLAYER
 10
630.7224031401
 20
1865.4275887618
 11
638.2224031401
 21
1865.4275887618
  0
LINE
  5
3A8
100
AcDbEntity
  8
0
100
AcDbLine
 62
7
  6
BYLAYER
 10
673.2224031401
 20
1865.4275887618
 11
680.7224031401
 21
1865.4275887618
  0
LINE
  5
3A9
100
AcDbEntity
  8
0
100
AcDbLine
 62
7
  6
BYLAYER
 10
778.3715340286
 20
1865.4275887618
 11
785.8715340286
 21
1865.4275887618
  0
LINE
  5
3AA
100
AcDbEntity
  8
0
100
AcDbLine
 62
7
  6
BYLAYER
 10
820.8715340286
 20
1865.4275887618
 11
828.3715340286
 21
1865.4275887618
  0
LINE
  5
3AB
100
AcDbEntity
  8
0
100
AcDbLine
 62
7
  6
BYLAYER
 10
631.2224031401
 20
1865.9275887618
 11
638.2224031401
 21
1865.9275887618
  0
LINE
  5
3AC
100
AcDbEntity
  8
0
100
AcDbLine
 62
7
  6
BYLAYER
 10
673.2224031401
 20
1865.9275887618
 11
680.2224031401
 21
1865.9275887618
  0
LINE
  5
3AD
100
AcDbEntity
  8
0
100
AcDbLine
 62
7
  6
BYLAYER
 10
778.8715340286
 20
1865.9275887618
 11
785.8715340286
 21
1865.9275887618
  0
LINE
  5
3AE
100
AcDbEntity
  8
0
100
AcDbLine
 62
7
  6
BYLAYER
 10
820.8715340286
 20
1865.9275887618
 11
827.8715340286
 21
1865.9275887618
  0
LINE
  5
3AF
100
AcDbEntity
  8
0
100
AcDbLine
 62
7
  6
BYLAYER
 10
828.3715340286
 20
1866.4275888307
 11
827.1715340286
 21
1866.4275887618
  0
LINE
  5
3B0
100
AcDbEntity
  8
0
100
AcDbLine
 62
7
  6
BYLAYER
 10
820.5715340286
 20
1866.4275887618
 11
819.3715340286
 21
1866.4275888308
  0
LINE
  5
3B1
100
AcDbEntity
  8
0
100
AcDbLine
 62
7
  6
BYLAYER
 10
787.3715340286
 20
1866.4275888307
 11
786.1715340286
 21
1866.4275887618
  0
LINE
  5
3B2
100
AcDbEntity
  8
0
100
AcDbLine
 62
7
  6
BYLAYER
 10
779.5715340286
 20
1866.4275887618
 11
778.3715340286
 21
1866.4275888308
  0
LINE
  5
3B3
100
AcDbEntity
  8
0
100
AcDbLine
 62
7
  6
BYLAYER
 10
680.7224031401
 20
1866.4275888307
 11
679.5224031401
 21
1866.4275887618
  0
LINE
  5
3B4
100
AcDbEntity
  8
0
100
AcDbLine
 62
7
  6
BYLAYER
 10
672.9224031401
 20
1866.4275887618
 11
671.7224031401
 21
1866.4275888308
  0
LINE
  5
3B5
100
AcDbEntity
  8
0
100
AcDbLine
 62
7
  6
BYLAYER
 10
639.7224031401
 20
1866.4275888307
 11
638.5224031401
 21
1866.4275887618
  0
LINE
  5
3B6
100
AcDbEntity
  8
0
100
AcDbLine
 62
7
  6
BYLAYER
 10
631.9224031401
 20
1866.4275887618
 11
630.7224031401
 21
1866.4275888308
  0
LINE
  5
3B7
100
AcDbEntity
  8
0
100
AcDbLine
 62
7
  6
BYLAYER
 10
630.7224031401
 20
1867.4275887618
 11
631.9224031401
 21
1867.4275887618
  0
LINE
  5
3B8
100
AcDbEntity
  8
0
100
AcDbLine
 62
7
  6
BYLAYER
 10
638.5224031401
 20
1867.4275887618
 11
651.7224031401
 21
1867.4275887552
  0
LINE
  5
3B9
100
AcDbEntity
  8
0
100
AcDbLine
 62
7
  6
BYLAYER
 10
659.7224031401
 20
1867.4275887618
 11
672.9224031401
 21
1867.4275887618
  0
LINE
  5
3BA
100
AcDbEntity
  8
0
100
AcDbLine
 62
7
  6
BYLAYER
 10
679.5224031401
 20
1867.4275887618
 11
680.7224031401
 21
1867.4275887618
  0
LINE
  5
3BB
100
AcDbEntity
  8
0
100
AcDbLine
 62
7
  6
BYLAYER
 10
778.3715340286
 20
1867.4275887618
 11
779.5715340286
 21
1867.4275887618
  0
LINE
  5
3BC
100
AcDbEntity
  8
0
100
AcDbLine
 62
7
  6
BYLAYER
 10
786.1715340286
 20
1867.4275887618
 11
799.3715340286
 21
1867.4275887552
  0
LINE
  5
3BD
100
AcDbEntity
  8
0
100
AcDbLine
 62
7
  6
BYLAYER
 10
807.3715340286
 20
1867.4275887618
 11
820.5715340286
 21
1867.4275887618
  0
LINE
  5
3BE
100
AcDbEntity
  8
0
100
AcDbLine
 62
7
  6
BYLAYER
 10
827.1715340286
 20
1867.4275887618
 11
828.3715340286
 21
1867.4275887618
  0
LINE
  5
3BF
100
AcDbEntity
  8
0
100
AcDbLine
 62
7
  6
BYLAYER
 10
631.9224031401
 20
1867.5275887618
 11
638.5224031401
 21
1867.5275887618
  0
LINE
  5
3C0
100
AcDbEntity
  8
0
100
AcDbLine
 62
7
  6
BYLAYER
 10
672.9224031401
 20
1867.5275887618
 11
679.5224031401
 21
1867.5275887618
  0
LINE
  5
3C1
100
AcDbEntity
  8
0
100
AcDbLine
 62
7
  6
BYLAYER
 10
779.5715340286
 20
1867.5275887618
 11
786.1715340286
 21
1867.5275887618
  0
LINE
  5
3C2
100
AcDbEntity
  8
0
100
AcDbLine
 62
7
  6
BYLAYER
 10
820.5715340286
 20
1867.5275887618
 11
827.1715340286
 21
1867.5275887618
  0
LINE
  5
3C3
100
AcDbEntity
  8
0
100
AcDbLine
 62
7
  6
BYLAYER
 10
651.5809549599
 20
1867.9275887618
 11
659.8628867943
 21
1867.9275887618
  0
LINE
  5
3C4
100
AcDbEntity
  8
0
100
AcDbLine
 62
7
  6
BYLAYER
 10
799.2300858484
 20
1867.9275887618
 11
807.5120176829
 21
1867.9275887618
  0
LINE
  5
3C5
100
AcDbEntity
  8
0
100
AcDbLine
 62
7
  6
BYLAYER
 10
827.3715340286
 20
1868.4275887618
 11
826.5447392321
 21
1868.4275887618
  0
LINE
  5
3C6
100
AcDbEntity
  8
0
100
AcDbLine
 62
7
  6
BYLAYER
 10
780.1983288252
 20
1868.4275887618
 11
779.3715340286
 21
1868.4275887618
  0
LINE
  5
3C7
100
AcDbEntity
  8
0
100
AcDbLine
 62
7
  6
BYLAYER
 10
679.7224031401
 20
1868.4275887618
 11
678.8956083436
 21
1868.4275887618
  0
LINE
  5
3C8
100
AcDbEntity
  8
0
100
AcDbLine
 62
7
  6
BYLAYER
 10
632.5491979366
 20
1868.4275887618
 11
631.7224031401
 21
1868.4275887618
  0
LINE
  5
3C9
100
AcDbEntity
  8
0
100
AcDbLine
 62
7
  6
BYLAYER
 10
637.8956083436
 20
1868.4275887618
 11
673.5491979366
 21
1868.4275887618
  0
LINE
  5
3CA
100
AcDbEntity
  8
0
100
AcDbLine
 62
7
  6
BYLAYER
 10
785.5447392321
 20
1868.4275887618
 11
821.1983288252
 21
1868.4275887618
  0
LINE
  5
3CB
100
AcDbEntity
  8
0
100
AcDbLine
 62
7
  6
BYLAYER
 10
631.9224033868
 20
1868.5275887618
 11
637.5223017141
 21
1868.5275887618
  0
LINE
  5
3CC
100
AcDbEntity
  8
0
100
AcDbLine
 62
7
  6
BYLAYER
 10
673.9224033868
 20
1868.5275887618
 11
679.5223017141
 21
1868.5275887618
  0
LINE
  5
3CD
100
AcDbEntity
  8
0
100
AcDbLine
 62
7
  6
BYLAYER
 10
779.5715342753
 20
1868.5275887618
 11
785.1714326026
 21
1868.5275887618
  0
LINE
  5
3CE
100
AcDbEntity
  8
0
100
AcDbLine
 62
7
  6
BYLAYER
 10
821.5715342753
 20
1868.5275887618
 11
827.1714326026
 21
1868.5275887618
  0
LINE
  5
3CF
100
AcDbEntity
  8
0
100
AcDbLine
 62
7
  6
BYLAYER
 10
820.1215340286
 20
1869.9275887618
 11
804.6215340286
 21
1869.9275887618
  0
LINE
  5
3D0
100
AcDbEntity
  8
0
100
AcDbLine
 62
7
  6
BYLAYER
 10
802.1215340286
 20
1869.9275887618
 11
786.6215340286
 21
1869.9275887618
  0
LINE
  5
3D1
100
AcDbEntity
  8
0
100
AcDbLine
 62
7
  6
BYLAYER
 10
672.4724031401
 20
1869.9275887618
 11
656.9724031401
 21
1869.9275887618
  0
LINE
  5
3D2
100
AcDbEntity
  8
0
100
AcDbLine
 62
7
  6
BYLAYER
 10
654.4724031401
 20
1869.9275887618
 11
638.9724031401
 21
1869.9275887618
  0
LINE
  5
3D3
100
AcDbEntity
  8
0
100
AcDbLine
 62
7
  6
BYLAYER
 10
820.1215297458
 20
1872.9275887618
 11
804.6215383115
 21
1872.9275887618
  0
LINE
  5
3D4
100
AcDbEntity
  8
0
100
AcDbLine
 62
7
  6
BYLAYER
 10
802.1215297458
 20
1872.9275887618
 11
786.6215383115
 21
1872.9275887618
  0
LINE
  5
3D5
100
AcDbEntity
  8
0
100
AcDbLine
 62
7
  6
BYLAYER
 10
672.4723988573
 20
1872.9275887618
 11
656.9724074229
 21
1872.9275887618
  0
LINE
  5
3D6
100
AcDbEntity
  8
0
100
AcDbLine
 62
7
  6
BYLAYER
 10
654.4723988573
 20
1872.9275887618
 11
638.9724074229
 21
1872.9275887618
  0
LINE
  5
3D7
100
AcDbEntity
  8
0
100
AcDbLine
 62
7
  6
BYLAYER
 10
638.9724031401
 20
1874.4275887618
 11
654.4724031401
 21
1874.4275887618
  0
LINE
  5
3D8
100
AcDbEntity
  8
0
100
AcDbLine
 62
7
  6
BYLAYER
 10
656.9724031401
 20
1874.4275887618
 11
672.4724031401
 21
1874.4275887618
  0
LINE
  5
3D9
100
AcDbEntity
  8
0
100
AcDbLine
 62
7
  6
BYLAYER
 10
786.6215340286
 20
1874.4275887618
 11
802.1215340286
 21
1874.4275887618
  0
LINE
  5
3DA
100
AcDbEntity
  8
0
100
AcDbLine
 62
7
  6
BYLAYER
 10
804.6215340286
 20
1874.4275887618
 11
820.1215340286
 21
1874.4275887618
  0
LINE
  5
3DB
100
AcDbEntity
  8
0
100
AcDbLine
 62
7
  6
BYLAYER
 10
639.4724071429
 20
1874.9275887618
 11
653.9723991373
 21
1874.9275887618
  0
LINE
  5
3DC
100
AcDbEntity
  8
0
100
AcDbLine
 62
7
  6
BYLAYER
 10
657.4724071429
 20
1874.9275887618
 11
671.9723991373
 21
1874.9275887618
  0
LINE
  5
3DD
100
AcDbEntity
  8
0
100
AcDbLine
 62
7
  6
BYLAYER
 10
787.1215380314
 20
1874.9275887618
 11
801.6215300259
 21
1874.9275887618
  0
LINE
  5
3DE
100
AcDbEntity
  8
0
100
AcDbLine
 62
7
  6
BYLAYER
 10
805.1215380314
 20
1874.9275887618
 11
819.6215300259
 21
1874.9275887618
  0
LINE
  5
3DF
100
AcDbEntity
  8
0
100
AcDbLine
 62
7
  6
BYLAYER
 10
642.5981831401
 20
1876.1275887618
 11
650.8481831401
 21
1876.1275887618
  0
LINE
  5
3E0
100
AcDbEntity
  8
0
100
AcDbLine
 62
7
  6
BYLAYER
 10
660.5991631401
 20
1876.1275887618
 11
668.8491631401
 21
1876.1275887618
  0
LINE
  5
3E1
100
AcDbEntity
  8
0
100
AcDbLine
 62
7
  6
BYLAYER
 10
790.2473140286
 20
1876.1275887618
 11
798.4973140286
 21
1876.1275887618
  0
LINE
  5
3E2
100
AcDbEntity
  8
0
100
AcDbLine
 62
7
  6
BYLAYER
 10
808.2482940286
 20
1876.1275887618
 11
816.4982940286
 21
1876.1275887618
  0
LINE
  5
3E3
100
AcDbEntity
  8
0
100
AcDbLine
 62
7
  6
BYLAYER
 10
642.8982706162
 20
1876.4275887618
 11
650.5482017573
 21
1876.4275887618
  0
LINE
  5
3E4
100
AcDbEntity
  8
0
100
AcDbLine
 62
7
  6
BYLAYER
 10
660.8991027722
 20
1876.4275887618
 11
668.5491850314
 21
1876.4275887618
  0
LINE
  5
3E5
100
AcDbEntity
  8
0
100
AcDbLine
 62
7
  6
BYLAYER
 10
790.5474015047
 20
1876.4275887618
 11
798.1973326458
 21
1876.4275887618
  0
LINE
  5
3E6
100
AcDbEntity
  8
0
100
AcDbLine
 62
7
  6
BYLAYER
 10
808.5482336607
 20
1876.4275887618
 11
816.19831592
 21
1876.4275887618
  0
LINE
  5
3E7
100
AcDbEntity
  8
0
100
AcDbLine
 62
7
  6
BYLAYER
 10
640.7224031401
 20
1878.4275878244
 11
652.7224031401
 21
1878.4275878244
  0
LINE
  5
3E8
100
AcDbEntity
  8
0
100
AcDbLine
 62
7
  6
BYLAYER
 10
788.3715340286
 20
1878.4275878244
 11
800.3715340286
 21
1878.4275878244
  0
LINE
  5
3E9
100
AcDbEntity
  8
0
100
AcDbLine
 62
7
  6
BYLAYER
 10
641.2224084415
 20
1878.9275887618
 11
652.2224037044
 21
1878.9275887618
  0
LINE
  5
3EA
100
AcDbEntity
  8
0
100
AcDbLine
 62
7
  6
BYLAYER
 10
788.87153933
 20
1878.9275887618
 11
799.8715345929
 21
1878.9275887618
  0
ARC
  5
3EB
100
AcDbEntity
  8
4
100
AcDbCircle
 62
7
  6
BYLAYER
 10
648.8339102247
 20
189.7757638851
 40
3.25
100
AcDbArc
 50
90.0
 51
270.0
  0
ARC
  5
3EC
100
AcDbEntity
  8
4
100
AcDbCircle
 62
7
  6
BYLAYER
 10
648.8339102247
 20
219.7757638851
 40
3.25
100
AcDbArc
 50
90.0
 51
270.0
  0
ARC
  5
3ED
100
AcDbEntity
  8
0
100
AcDbCircle
 62
7
  6
BYLAYER
 10
631.9226559112
 20
135.8275887618
 40
1.0
100
AcDbArc
 50
234.2503109337
 51
270.0
  0
ARC
  5
3EE
100
AcDbEntity
  8
0
100
AcDbCircle
 62
7
  6
BYLAYER
 10
637.5231309512
 20
135.8275887618
 40
1.0
100
AcDbArc
 50
270.0
 51
360.0
  0
ARC
  5
3EF
100
AcDbEntity
  8
0
100
AcDbCircle
 62
7
  6
BYLAYER
 10
632.9231309512
 20
135.8275887618
 40
1.0
100
AcDbArc
 50
180.0
 51
270.0
  0
ARC
  5
3F0
100
AcDbEntity
  8
0
100
AcDbCircle
 62
7
  6
BYLAYER
 10
639.7231309512
 20
135.9274786233
 40
1.0
100
AcDbArc
 50
180.0
 51
270.0
  0
ARC
  5
3F1
100
AcDbEntity
  8
0
100
AcDbCircle
 62
7
  6
BYLAYER
 10
631.7231309512
 20
135.9274786233
 40
1.0
100
AcDbArc
 50
180.0
 51
270.0
  0
ARC
  5
3F2
100
AcDbEntity
  8
0
100
AcDbCircle
 62
7
  6
BYLAYER
 10
650.7231309512
 20
135.9274786233
 40
1.0
100
AcDbArc
 50
270.0
 51
360.0
  0
ARC
  5
3F3
100
AcDbEntity
  8
0
100
AcDbCircle
 62
7
  6
BYLAYER
 10
631.2231309512
 20
137.9274786233
 40
0.5
100
AcDbArc
 50
180.0
 51
270.0
  0
ARC
  5
3F4
100
AcDbEntity
  8
0
100
AcDbCircle
 62
7
  6
BYLAYER
 10
638.2231309512
 20
136.9274786233
 40
0.5
100
AcDbArc
 50
0.0
 51
90.0
  0
ARC
  5
3F5
100
AcDbEntity
  8
4
100
AcDbCircle
 62
7
  6
BYLAYER
 10
648.8339102247
 20
987.0599047248
 40
3.25
100
AcDbArc
 50
90.0
 51
270.0
  0
ARC
  5
3F6
100
AcDbEntity
  8
0
100
AcDbCircle
 62
7
  6
BYLAYER
 10
660.7231309512
 20
135.9274786233
 40
1.0
100
AcDbArc
 50
179.9999999984
 51
270.0
  0
CIRCLE
  5
3F7
100
AcDbEntity
  8
4
100
AcDbCircle
 62
7
  6
BYLAYER
 10
655.7231309497
 20
189.7757638851
 40
6.3525
  0
CIRCLE
  5
3F8
100
AcDbEntity
  8
4
100
AcDbCircle
 62
7
  6
BYLAYER
 10
655.7231309497
 20
219.7757638851
 40
6.3525
  0
ARC
  5
3F9
100
AcDbEntity
  8
4
100
AcDbCircle
 62
7
  6
BYLAYER
 10
665.5339102247
 20
184.7757638851
 40
5.0
100
AcDbArc
 50
270.0
 51
360.0
  0
ARC
  5
3FA
100
AcDbEntity
  8
4
100
AcDbCircle
 62
7
  6
BYLAYER
 10
665.5339102247
 20
224.7757638851
 40
5.0
100
AcDbArc
 50
0.0
 51
90.0
  0
ARC
  5
3FB
100
AcDbEntity
  8
4
100
AcDbCircle
 62
7
  6
BYLAYER
 10
662.3339102247
 20
189.7757638851
 40
3.25
100
AcDbArc
 50
270.0
 51
90.0
  0
ARC
  5
3FC
100
AcDbEntity
  8
4
100
AcDbCircle
 62
7
  6
BYLAYER
 10
662.3339102247
 20
219.7757638851
 40
3.25
100
AcDbArc
 50
270.0
 51
90.0
  0
CIRCLE
  5
3FD
100
AcDbEntity
  8
4
100
AcDbCircle
 62
7
  6
BYLAYER
 10
655.7231309497
 20
189.7757638851
 40
3.0
  0
CIRCLE
  5
3FE
100
AcDbEntity
  8
4
100
AcDbCircle
 62
7
  6
BYLAYER
 10
655.7231309497
 20
219.7757638851
 40
3.0
  0
ARC
  5
3FF
100
AcDbEntity
  8
0
100
AcDbCircle
 62
7
  6
BYLAYER
 10
679.5226559082
 20
135.8275887618
 40
1.0
100
AcDbArc
 50
270.0
 51
305.7190868301
  0
ARC
  5
400
100
AcDbEntity
  8
0
100
AcDbCircle
 62
7
  6
BYLAYER
 10
678.5231309483
 20
135.8275887618
 40
1.0
100
AcDbArc
 50
270.0
 51
360.0
  0
ARC
  5
401
100
AcDbEntity
  8
0
100
AcDbCircle
 62
7
  6
BYLAYER
 10
673.9231309483
 20
135.8275887618
 40
1.0
100
AcDbArc
 50
180.0
 51
270.0
  0
ARC
  5
402
100
AcDbEntity
  8
0
100
AcDbCircle
 62
7
  6
BYLAYER
 10
671.7231309512
 20
135.9274786233
 40
1.0
100
AcDbArc
 50
270.0
 51
360.0
  0
ARC
  5
403
100
AcDbEntity
  8
0
100
AcDbCircle
 62
7
  6
BYLAYER
 10
679.7231309512
 20
135.9274786233
 40
1.0
100
AcDbArc
 50
270.0
 51
360.0
  0
ARC
  5
404
100
AcDbEntity
  8
0
100
AcDbCircle
 62
7
  6
BYLAYER
 10
673.2231309512
 20
136.9274786233
 40
0.5
100
AcDbArc
 50
90.0
 51
180.0
  0
ARC
  5
405
100
AcDbEntity
  8
0
100
AcDbCircle
 62
7
  6
BYLAYER
 10
680.2231309512
 20
137.9274786233
 40
0.5
100
AcDbArc
 50
270.0
 51
360.0
  0
CIRCLE
  5
406
100
AcDbEntity
  8
4
100
AcDbCircle
 62
7
  6
BYLAYER
 10
655.7231309497
 20
987.0599047248
 40
6.3525
  0
ARC
  5
407
100
AcDbEntity
  8
4
100
AcDbCircle
 62
7
  6
BYLAYER
 10
665.5339102247
 20
982.0599047248
 40
5.0
100
AcDbArc
 50
270.0
 51
360.0
  0
ARC
  5
408
100
AcDbEntity
  8
4
100
AcDbCircle
 62
7
  6
BYLAYER
 10
662.3339102247
 20
987.0599047248
 40
3.25
100
AcDbArc
 50
270.0
 51
90.0
  0
CIRCLE
  5
409
100
AcDbEntity
  8
4
100
AcDbCircle
 62
7
  6
BYLAYER
 10
655.7231309497
 20
987.0599047248
 40
3.0
  0
ARC
  5
40A
100
AcDbEntity
  8
4
100
AcDbCircle
 62
7
  6
BYLAYER
 10
648.8339102247
 20
1017.0599047248
 40
3.25
100
AcDbArc
 50
90.0
 51
270.0
  0
ARC
  5
40B
100
AcDbEntity
  8
0
100
AcDbCircle
 62
7
  6
BYLAYER
 10
631.9224031401
 20
1867.5275887618
 40
1.0
100
AcDbArc
 50
90.0
 51
125.746880854
  0
ARC
  5
40C
100
AcDbEntity
  8
0
100
AcDbCircle
 62
7
  6
BYLAYER
 10
632.9224031401
 20
1867.5275887618
 40
1.0
100
AcDbArc
 50
90.0
 51
180.0
  0
ARC
  5
40D
100
AcDbEntity
  8
0
100
AcDbCircle
 62
7
  6
BYLAYER
 10
637.5224031401
 20
1867.5275887618
 40
1.0
100
AcDbArc
 50
0.0
 51
90.0
  0
ARC
  5
40E
100
AcDbEntity
  8
0
100
AcDbCircle
 62
7
  6
BYLAYER
 10
631.7224031401
 20
1867.4275887618
 40
1.0
100
AcDbArc
 50
90.0
 51
180.0
  0
ARC
  5
40F
100
AcDbEntity
  8
0
100
AcDbCircle
 62
7
  6
BYLAYER
 10
639.7224031401
 20
1867.4275887618
 40
1.0
100
AcDbArc
 50
90.0
 51
180.0
  0
ARC
  5
410
100
AcDbEntity
  8
0
100
AcDbCircle
 62
7
  6
BYLAYER
 10
638.2224031401
 20
1866.4275887618
 40
0.5
100
AcDbArc
 50
269.9999999999
 51
359.9999999999
  0
ARC
  5
411
100
AcDbEntity
  8
0
100
AcDbCircle
 62
7
  6
BYLAYER
 10
631.2224031401
 20
1865.4275887618
 40
0.5
100
AcDbArc
 50
90.0
 51
180.0
  0
ARC
  5
412
100
AcDbEntity
  8
0
100
AcDbCircle
 62
7
  6
BYLAYER
 10
638.722420802
 20
1864.9275889449
 40
0.4999999532
100
AcDbArc
 50
102.1804098123
 51
282.180210997
  0
ARC
  5
413
100
AcDbEntity
  8
0
100
AcDbCircle
 62
7
  6
BYLAYER
 10
642.8981831401
 20
1876.1275887618
 40
0.3
100
AcDbArc
 50
90.0
 51
180.0
  0
ARC
  5
414
100
AcDbEntity
  8
4
100
AcDbCircle
 62
7
  6
BYLAYER
 10
648.8339102247
 20
1786.1106663459
 40
3.25
100
AcDbArc
 50
90.0
 51
270.0
  0
ARC
  5
415
100
AcDbEntity
  8
4
100
AcDbCircle
 62
7
  6
BYLAYER
 10
648.8339102247
 20
1816.1106663459
 40
3.25
100
AcDbArc
 50
90.0
 51
270.0
  0
ARC
  5
416
100
AcDbEntity
  8
0
100
AcDbCircle
 62
7
  6
BYLAYER
 10
650.7224031401
 20
1867.4275887618
 40
1.0
100
AcDbArc
 50
0.0
 51
90.0
  0
ARC
  5
417
100
AcDbEntity
  8
0
100
AcDbCircle
 62
7
  6
BYLAYER
 10
654.7223854782
 20
1864.9275889449
 40
0.4999999532
100
AcDbArc
 50
257.819789003
 51
77.8195901877
  0
ARC
  5
418
100
AcDbEntity
  8
0
100
AcDbCircle
 62
7
  6
BYLAYER
 10
650.5481831401
 20
1876.1275887618
 40
0.3
100
AcDbArc
 50
0.0
 51
90.0
  0
CIRCLE
  5
419
100
AcDbEntity
  8
4
100
AcDbCircle
 62
7
  6
BYLAYER
 10
655.7231309497
 20
1017.0599047248
 40
6.3525
  0
ARC
  5
41A
100
AcDbEntity
  8
4
100
AcDbCircle
 62
7
  6
BYLAYER
 10
665.5339102247
 20
1022.0599047248
 40
5.0
100
AcDbArc
 50
0.0
 51
90.0
  0
ARC
  5
41B
100
AcDbEntity
  8
4
100
AcDbCircle
 62
7
  6
BYLAYER
 10
662.3339102247
 20
1017.0599047248
 40
3.25
100
AcDbArc
 50
270.0
 51
90.0
  0
CIRCLE
  5
41C
100
AcDbEntity
  8
4
100
AcDbCircle
 62
7
  6
BYLAYER
 10
655.7231309497
 20
1017.0599047248
 40
3.0
  0
CIRCLE
  5
41D
100
AcDbEntity
  8
4
100
AcDbCircle
 62
7
  6
BYLAYER
 10
655.7231309497
 20
1816.1106663459
 40
6.3525
  0
CIRCLE
  5
41E
100
AcDbEntity
  8
4
100
AcDbCircle
 62
7
  6
BYLAYER
 10
655.7231309497
 20
1786.1106663459
 40
6.3525
  0
ARC
  5
41F
100
AcDbEntity
  8
4
100
AcDbCircle
 62
7
  6
BYLAYER
 10
665.5339102247
 20
1781.1106663459
 40
5.0
100
AcDbArc
 50
270.0
 51
360.0
  0
ARC
  5
420
100
AcDbEntity
  8
4
100
AcDbCircle
 62
7
  6
BYLAYER
 10
665.5339102247
 20
1821.1106663459
 40
5.0
100
AcDbArc
 50
0.0
 51
90.0
  0
ARC
  5
421
100
AcDbEntity
  8
4
100
AcDbCircle
 62
7
  6
BYLAYER
 10
662.3339102247
 20
1786.1106663459
 40
3.25
100
AcDbArc
 50
270.0
 51
90.0
  0
ARC
  5
422
100
AcDbEntity
  8
4
100
AcDbCircle
 62
7
  6
BYLAYER
 10
662.3339102247
 20
1816.1106663459
 40
3.25
100
AcDbArc
 50
270.0
 51
90.0
  0
CIRCLE
  5
423
100
AcDbEntity
  8
4
100
AcDbCircle
 62
7
  6
BYLAYER
 10
655.7231309497
 20
1786.1106663459
 40
3.0
  0
CIRCLE
  5
424
100
AcDbEntity
  8
4
100
AcDbCircle
 62
7
  6
BYLAYER
 10
655.7231309497
 20
1816.1106663459
 40
3.0
  0
ARC
  5
425
100
AcDbEntity
  8
0
100
AcDbCircle
 62
7
  6
BYLAYER
 10
660.7224031401
 20
1867.4275887618
 40
1.0
100
AcDbArc
 50
90.0
 51
180.0000000009
  0
ARC
  5
426
100
AcDbEntity
  8
0
100
AcDbCircle
 62
7
  6
BYLAYER
 10
656.7224208026
 20
1864.9275889446
 40
0.4999999534
100
AcDbArc
 50
102.1571786862
 51
282.1569797606
  0
ARC
  5
427
100
AcDbEntity
  8
0
100
AcDbCircle
 62
7
  6
BYLAYER
 10
660.8991631401
 20
1876.1275887618
 40
0.3
100
AcDbArc
 50
90.0
 51
180.0
  0
ARC
  5
428
100
AcDbEntity
  8
0
100
AcDbCircle
 62
7
  6
BYLAYER
 10
679.5224031401
 20
1867.5275887618
 40
1.0
100
AcDbArc
 50
54.2529864704
 51
90.0
  0
ARC
  5
429
100
AcDbEntity
  8
0
100
AcDbCircle
 62
7
  6
BYLAYER
 10
673.9224031401
 20
1867.5275887618
 40
1.0
100
AcDbArc
 50
90.0
 51
180.0
  0
ARC
  5
42A
100
AcDbEntity
  8
0
100
AcDbCircle
 62
7
  6
BYLAYER
 10
678.5224031401
 20
1867.5275887618
 40
1.0
100
AcDbArc
 50
0.0
 51
90.0
  0
ARC
  5
42B
100
AcDbEntity
  8
0
100
AcDbCircle
 62
7
  6
BYLAYER
 10
671.7224031401
 20
1867.4275887618
 40
1.0
100
AcDbArc
 50
0.0
 51
90.0
  0
ARC
  5
42C
100
AcDbEntity
  8
0
100
AcDbCircle
 62
7
  6
BYLAYER
 10
679.7224031401
 20
1867.4275887618
 40
1.0
100
AcDbArc
 50
0.0
 51
90.0
  0
ARC
  5
42D
100
AcDbEntity
  8
0
100
AcDbCircle
 62
7
  6
BYLAYER
 10
680.2224031401
 20
1865.4275887618
 40
0.5
100
AcDbArc
 50
0.0
 51
90.0
  0
ARC
  5
42E
100
AcDbEntity
  8
0
100
AcDbCircle
 62
7
  6
BYLAYER
 10
673.2224031401
 20
1866.4275887618
 40
0.5
100
AcDbArc
 50
180.0000000001
 51
270.0
  0
ARC
  5
42F
100
AcDbEntity
  8
0
100
AcDbCircle
 62
7
  6
BYLAYER
 10
672.7223854777
 20
1864.9275889446
 40
0.4999999534
100
AcDbArc
 50
257.8430202394
 51
77.8428213138
  0
ARC
  5
430
100
AcDbEntity
  8
0
100
AcDbCircle
 62
7
  6
BYLAYER
 10
668.5491631401
 20
1876.1275887618
 40
0.3
100
AcDbArc
 50
0.0
 51
90.0
  0
ARC
  5
431
100
AcDbEntity
  8
0
100
AcDbCircle
 62
7
  6
BYLAYER
 10
779.5717867997
 20
135.8275887618
 40
1.0
100
AcDbArc
 50
234.2503109337
 51
270.0
  0
ARC
  5
432
100
AcDbEntity
  8
0
100
AcDbCircle
 62
7
  6
BYLAYER
 10
785.1722618397
 20
135.8275887618
 40
1.0
100
AcDbArc
 50
270.0
 51
360.0
  0
ARC
  5
433
100
AcDbEntity
  8
0
100
AcDbCircle
 62
7
  6
BYLAYER
 10
780.5722618397
 20
135.8275887618
 40
1.0
100
AcDbArc
 50
180.0
 51
270.0
  0
ARC
  5
434
100
AcDbEntity
  8
0
100
AcDbCircle
 62
7
  6
BYLAYER
 10
787.3722618397
 20
135.9274786233
 40
1.0
100
AcDbArc
 50
180.0
 51
270.0
  0
ARC
  5
435
100
AcDbEntity
  8
0
100
AcDbCircle
 62
7
  6
BYLAYER
 10
779.3722618397
 20
135.9274786233
 40
1.0
100
AcDbArc
 50
180.0
 51
270.0
  0
ARC
  5
436
100
AcDbEntity
  8
0
100
AcDbCircle
 62
7
  6
BYLAYER
 10
778.8722618397
 20
137.9274786233
 40
0.5
100
AcDbArc
 50
180.0
 51
270.0
  0
ARC
  5
437
100
AcDbEntity
  8
0
100
AcDbCircle
 62
7
  6
BYLAYER
 10
785.8722618397
 20
136.9274786233
 40
0.5
100
AcDbArc
 50
0.0
 51
90.0000000001
  0
ARC
  5
438
100
AcDbEntity
  8
0
100
AcDbCircle
 62
7
  6
BYLAYER
 10
798.3722618397
 20
135.9274786233
 40
1.0
100
AcDbArc
 50
270.0
 51
360.0
  0
ARC
  5
439
100
AcDbEntity
  8
3
100
AcDbCircle
 62
7
  6
BYLAYER
 10
796.4830411132
 20
189.7757638851
 40
3.25
100
AcDbArc
 50
90.0
 51
270.0
  0
ARC
  5
43A
100
AcDbEntity
  8
3
100
AcDbCircle
 62
7
  6
BYLAYER
 10
796.4830411132
 20
219.7757638851
 40
3.25
100
AcDbArc
 50
90.0
 51
270.0
  0
ARC
  5
43B
100
AcDbEntity
  8
3
100
AcDbCircle
 62
7
  6
BYLAYER
 10
796.4830411132
 20
987.0599047248
 40
3.25
100
AcDbArc
 50
90.0
 51
270.0
  0
ARC
  5
43C
100
AcDbEntity
  8
0
100
AcDbCircle
 62
7
  6
BYLAYER
 10
808.3722618397
 20
135.9274786233
 40
1.0
100
AcDbArc
 50
179.9999999984
 51
270.0
  0
CIRCLE
  5
43D
100
AcDbEntity
  8
3
100
AcDbCircle
 62
7
  6
BYLAYER
 10
803.3722618382
 20
189.7757638851
 40
6.3525
  0
CIRCLE
  5
43E
100
AcDbEntity
  8
3
100
AcDbCircle
 62
7
  6
BYLAYER
 10
803.3722618382
 20
219.7757638851
 40
6.3525
  0
ARC
  5
43F
100
AcDbEntity
  8
3
100
AcDbCircle
 62
7
  6
BYLAYER
 10
813.1830411132
 20
184.7757638851
 40
5.0
100
AcDbArc
 50
270.0
 51
360.0
  0
ARC
  5
440
100
AcDbEntity
  8
3
100
AcDbCircle
 62
7
  6
BYLAYER
 10
813.1830411132
 20
224.7757638851
 40
5.0
100
AcDbArc
 50
0.0
 51
90.0
  0
ARC
  5
441
100
AcDbEntity
  8
3
100
AcDbCircle
 62
7
  6
BYLAYER
 10
809.9830411132
 20
189.7757638851
 40
3.25
100
AcDbArc
 50
270.0
 51
90.0
  0
ARC
  5
442
100
AcDbEntity
  8
3
100
AcDbCircle
 62
7
  6
BYLAYER
 10
809.9830411132
 20
219.7757638851
 40
3.25
100
AcDbArc
 50
270.0
 51
90.0
  0
CIRCLE
  5
443
100
AcDbEntity
  8
3
100
AcDbCircle
 62
7
  6
BYLAYER
 10
803.3722618382
 20
189.7757638851
 40
3.0
  0
CIRCLE
  5
444
100
AcDbEntity
  8
3
100
AcDbCircle
 62
7
  6
BYLAYER
 10
803.3722618382
 20
219.7757638851
 40
3.0
  0
ARC
  5
445
100
AcDbEntity
  8
0
100
AcDbCircle
 62
7
  6
BYLAYER
 10
827.1717867967
 20
135.8275887618
 40
1.0
100
AcDbArc
 50
270.0
 51
305.7190868301
  0
ARC
  5
446
100
AcDbEntity
  8
0
100
AcDbCircle
 62
7
  6
BYLAYER
 10
826.1722618368
 20
135.8275887618
 40
1.0
100
AcDbArc
 50
270.0
 51
360.0
  0
ARC
  5
447
100
AcDbEntity
  8
0
100
AcDbCircle
 62
7
  6
BYLAYER
 10
821.5722618368
 20
135.8275887618
 40
1.0
100
AcDbArc
 50
180.0
 51
270.0
  0
ARC
  5
448
100
AcDbEntity
  8
0
100
AcDbCircle
 62
7
  6
BYLAYER
 10
819.3722618397
 20
135.9274786233
 40
1.0
100
AcDbArc
 50
270.0
 51
360.0
  0
ARC
  5
449
100
AcDbEntity
  8
0
100
AcDbCircle
 62
7
  6
BYLAYER
 10
827.3722618397
 20
135.9274786233
 40
1.0
100
AcDbArc
 50
270.0
 51
360.0
  0
ARC
  5
44A
100
AcDbEntity
  8
0
100
AcDbCircle
 62
7
  6
BYLAYER
 10
820.8722618397
 20
136.9274786233
 40
0.5
100
AcDbArc
 50
90.0000000001
 51
180.0
  0
ARC
  5
44B
100
AcDbEntity
  8
0
100
AcDbCircle
 62
7
  6
BYLAYER
 10
827.8722618397
 20
137.9274786233
 40
0.5
100
AcDbArc
 50
270.0
 51
360.0
  0
CIRCLE
  5
44C
100
AcDbEntity
  8
3
100
AcDbCircle
 62
7
  6
BYLAYER
 10
803.3722618382
 20
987.0599047248
 40
6.3525
  0
ARC
  5
44D
100
AcDbEntity
  8
3
100
AcDbCircle
 62
7
  6
BYLAYER
 10
813.1830411132
 20
982.0599047248
 40
5.0
100
AcDbArc
 50
270.0
 51
360.0
  0
ARC
  5
44E
100
AcDbEntity
  8
3
100
AcDbCircle
 62
7
  6
BYLAYER
 10
809.9830411132
 20
987.0599047248
 40
3.25
100
AcDbArc
 50
270.0
 51
90.0
  0
CIRCLE
  5
44F
100
AcDbEntity
  8
3
100
AcDbCircle
 62
7
  6
BYLAYER
 10
803.3722618382
 20
987.0599047248
 40
3.0
  0
ARC
  5
450
100
AcDbEntity
  8
3
100
AcDbCircle
 62
7
  6
BYLAYER
 10
796.4830411132
 20
1017.0599047248
 40
3.25
100
AcDbArc
 50
90.0
 51
270.0
  0
ARC
  5
451
100
AcDbEntity
  8
0
100
AcDbCircle
 62
7
  6
BYLAYER
 10
779.5715340286
 20
1867.5275887618
 40
1.0
100
AcDbArc
 50
90.0
 51
125.746880854
  0
ARC
  5
452
100
AcDbEntity
  8
0
100
AcDbCircle
 62
7
  6
BYLAYER
 10
780.5715340286
 20
1867.5275887618
 40
1.0
100
AcDbArc
 50
90.0
 51
180.0
  0
ARC
  5
453
100
AcDbEntity
  8
0
100
AcDbCircle
 62
7
  6
BYLAYER
 10
785.1715340286
 20
1867.5275887618
 40
1.0
100
AcDbArc
 50
0.0
 51
90.0
  0
ARC
  5
454
100
AcDbEntity
  8
0
100
AcDbCircle
 62
7
  6
BYLAYER
 10
779.3715340286
 20
1867.4275887618
 40
1.0
100
AcDbArc
 50
90.0
 51
180.0
  0
ARC
  5
455
100
AcDbEntity
  8
0
100
AcDbCircle
 62
7
  6
BYLAYER
 10
787.3715340286
 20
1867.4275887618
 40
1.0
100
AcDbArc
 50
90.0
 51
180.0
  0
ARC
  5
456
100
AcDbEntity
  8
0
100
AcDbCircle
 62
7
  6
BYLAYER
 10
785.8715340286
 20
1866.4275887618
 40
0.5
100
AcDbArc
 50
269.9999999999
 51
359.9999999999
  0
ARC
  5
457
100
AcDbEntity
  8
0
100
AcDbCircle
 62
7
  6
BYLAYER
 10
778.8715340286
 20
1865.4275887618
 40
0.5
100
AcDbArc
 50
90.0
 51
180.0
  0
ARC
  5
458
100
AcDbEntity
  8
0
100
AcDbCircle
 62
7
  6
BYLAYER
 10
786.3715516905
 20
1864.9275889449
 40
0.4999999532
100
AcDbArc
 50
102.1804098123
 51
282.180210997
  0
ARC
  5
459
100
AcDbEntity
  8
0
100
AcDbCircle
 62
7
  6
BYLAYER
 10
790.5473140286
 20
1876.1275887618
 40
0.3
100
AcDbArc
 50
90.0
 51
180.0
  0
ARC
  5
45A
100
AcDbEntity
  8
3
100
AcDbCircle
 62
7
  6
BYLAYER
 10
796.4830411132
 20
1786.1106663459
 40
3.25
100
AcDbArc
 50
90.0
 51
270.0
  0
ARC
  5
45B
100
AcDbEntity
  8
3
100
AcDbCircle
 62
7
  6
BYLAYER
 10
796.4830411132
 20
1816.1106663459
 40
3.25
100
AcDbArc
 50
90.0
 51
270.0
  0
ARC
  5
45C
100
AcDbEntity
  8
0
100
AcDbCircle
 62
7
  6
BYLAYER
 10
798.3715340286
 20
1867.4275887618
 40
1.0
100
AcDbArc
 50
0.0
 51
90.0
  0
ARC
  5
45D
100
AcDbEntity
  8
0
100
AcDbCircle
 62
7
  6
BYLAYER
 10
802.3715163667
 20
1864.9275889449
 40
0.4999999532
100
AcDbArc
 50
257.819789003
 51
77.8195901877
  0
ARC
  5
45E
100
AcDbEntity
  8
0
100
AcDbCircle
 62
7
  6
BYLAYER
 10
798.1973140286
 20
1876.1275887618
 40
0.3
100
AcDbArc
 50
0.0
 51
90.0
  0
CIRCLE
  5
45F
100
AcDbEntity
  8
3
100
AcDbCircle
 62
7
  6
BYLAYER
 10
803.3722618382
 20
1017.0599047248
 40
6.3525
  0
ARC
  5
460
100
AcDbEntity
  8
3
100
AcDbCircle
 62
7
  6
BYLAYER
 10
813.1830411132
 20
1022.0599047248
 40
5.0
100
AcDbArc
 50
0.0
 51
90.0
  0
ARC
  5
461
100
AcDbEntity
  8
3
100
AcDbCircle
 62
7
  6
BYLAYER
 10
809.9830411132
 20
1017.0599047248
 40
3.25
100
AcDbArc
 50
270.0
 51
90.0
  0
CIRCLE
  5
462
100
AcDbEntity
  8
3
100
AcDbCircle
 62
7
  6
BYLAYER
 10
803.3722618382
 20
1017.0599047248
 40
3.0
  0
CIRCLE
  5
463
100
AcDbEntity
  8
3
100
AcDbCircle
 62
7
  6
BYLAYER
 10
803.3722618382
 20
1816.1106663459
 40
6.3525
  0
CIRCLE
  5
464
100
AcDbEntity
  8
3
100
AcDbCircle
 62
7
  6
BYLAYER
 10
803.3722618382
 20
1786.1106663459
 40
6.3525
  0
ARC
  5
465
100
AcDbEntity
  8
3
100
AcDbCircle
 62
7
  6
BYLAYER
 10
813.1830411132
 20
1781.1106663459
 40
5.0
100
AcDbArc
 50
270.0
 51
360.0
  0
ARC
  5
466
100
AcDbEntity
  8
3
100
AcDbCircle
 62
7
  6
BYLAYER
 10
813.1830411132
 20
1821.1106663459
 40
5.0
100
AcDbArc
 50
0.0
 51
90.0
  0
ARC
  5
467
100
AcDbEntity
  8
3
100
AcDbCircle
 62
7
  6
BYLAYER
 10
809.9830411132
 20
1786.1106663459
 40
3.25
100
AcDbArc
 50
270.0
 51
90.0
  0
ARC
  5
468
100
AcDbEntity
  8
3
100
AcDbCircle
 62
7
  6
BYLAYER
 10
809.9830411132
 20
1816.1106663459
 40
3.25
100
AcDbArc
 50
270.0
 51
90.0
  0
CIRCLE
  5
469
100
AcDbEntity
  8
3
100
AcDbCircle
 62
7
  6
BYLAYER
 10
803.3722618382
 20
1786.1106663459
 40
3.0
  0
CIRCLE
  5
46A
100
AcDbEntity
  8
3
100
AcDbCircle
 62
7
  6
BYLAYER
 10
803.3722618382
 20
1816.1106663459
 40
3.0
  0
ARC
  5
46B
100
AcDbEntity
  8
0
100
AcDbCircle
 62
7
  6
BYLAYER
 10
808.3715340286
 20
1867.4275887618
 40
1.0
100
AcDbArc
 50
90.0
 51
180.0000000009
  0
ARC
  5
46C
100
AcDbEntity
  8
0
100
AcDbCircle
 62
7
  6
BYLAYER
 10
804.3715516911
 20
1864.9275889446
 40
0.4999999534
100
AcDbArc
 50
102.1571786862
 51
282.1569797606
  0
ARC
  5
46D
100
AcDbEntity
  8
0
100
AcDbCircle
 62
7
  6
BYLAYER
 10
808.5482940286
 20
1876.1275887618
 40
0.3
100
AcDbArc
 50
90.0
 51
180.0
  0
ARC
  5
46E
100
AcDbEntity
  8
0
100
AcDbCircle
 62
7
  6
BYLAYER
 10
827.1715340286
 20
1867.5275887618
 40
1.0
100
AcDbArc
 50
54.2529864704
 51
90.0
  0
ARC
  5
46F
100
AcDbEntity
  8
0
100
AcDbCircle
 62
7
  6
BYLAYER
 10
821.5715340286
 20
1867.5275887618
 40
1.0
100
AcDbArc
 50
90.0
 51
180.0
  0
ARC
  5
470
100
AcDbEntity
  8
0
100
AcDbCircle
 62
7
  6
BYLAYER
 10
826.1715340286
 20
1867.5275887618
 40
1.0
100
AcDbArc
 50
0.0
 51
90.0
  0
ARC
  5
471
100
AcDbEntity
  8
0
100
AcDbCircle
 62
7
  6
BYLAYER
 10
819.3715340286
 20
1867.4275887618
 40
1.0
100
AcDbArc
 50
0.0
 51
90.0
  0
ARC
  5
472
100
AcDbEntity
  8
0
100
AcDbCircle
 62
7
  6
BYLAYER
 10
827.3715340286
 20
1867.4275887618
 40
1.0
100
AcDbArc
 50
0.0
 51
90.0
  0
ARC
  5
473
100
AcDbEntity
  8
0
100
AcDbCircle
 62
7
  6
BYLAYER
 10
827.8715340286
 20
1865.4275887618
 40
0.5
100
AcDbArc
 50
0.0
 51
90.0
  0
ARC
  5
474
100
AcDbEntity
  8
0
100
AcDbCircle
 62
7
  6
BYLAYER
 10
820.8715340286
 20
1866.4275887618
 40
0.5
100
AcDbArc
 50
180.0000000001
 51
269.9999999999
  0
ARC
  5
475
100
AcDbEntity
  8
0
100
AcDbCircle
 62
7
  6
BYLAYER
 10
820.3715163662
 20
1864.9275889446
 40
0.4999999534
100
AcDbArc
 50
257.8430202394
 51
77.8428213138
  0
ARC
  5
476
100
AcDbEntity
  8
0
100
AcDbCircle
 62
7
  6
BYLAYER
 10
816.1982940286
 20
1876.1275887618
 40
0.3
100
AcDbArc
 50
0.0
 51
90.0
  0
SPLINE
  5
477
100
AcDbEntity
  8
0
100
AcDbSpline
 62
7
  6
BYLAYER
 70
0
 71
3
 72
11
 73
7
 74
0
 42
0.0000001
 43
0.0000001
 44
0.0000000001
 40
0.0
 40
0.0
 40
0.0
 40
0.0
 40
0.1598605771
 40
0.3733762137
 40
0.6595504004
 40
1.0
 40
1.0
 40
1.0
 40
1.0
 10
808.3715360629
 20
1868.4275887622
 30
0.0
 10
808.3073919818
 20
1868.4275756309
 30
0.0
 10
808.1586285722
 20
1868.3620065541
 30
0.0
 10
808.004149258
 20
1868.139107882
 30
0.0
 10
807.8963966488
 20
1867.8168441764
 30
0.0
 10
807.8715352144
 20
1867.5641942189
 30
0.0
 10
807.8715345695
 20
1867.4275887619
 30
0.0
  0
SPLINE
  5
478
100
AcDbEntity
  8
0
100
AcDbSpline
 62
7
  6
BYLAYER
 70
0
 71
3
 72
11
 73
7
 74
0
 42
0.0000001
 43
0.0000001
 44
0.0000000001
 40
0.0
 40
0.0
 40
0.0
 40
0.0
 40
0.2478327053
 40
0.4979558062
 40
0.7486361583
 40
1.0
 40
1.0
 40
1.0
 40
1.0
 10
787.3715340286
 20
1866.4275887618
 30
0.0
 10
787.3715335931
 20
1866.2634671463
 30
0.0
 10
787.2393741149
 20
1865.9333884324
 30
0.0
 10
786.8518570018
 20
1865.6068602554
 30
0.0
 10
786.3732910115
 20
1865.4341145354
 30
0.0
 10
786.0379940595
 20
1865.4275887205
 30
0.0
 10
785.8715340286
 20
1865.4275887618
 30
0.0
  0
SPLINE
  5
479
100
AcDbEntity
  8
0
100
AcDbSpline
 62
7
  6
BYLAYER
 70
0
 71
3
 72
15
 73
11
 74
0
 42
0.0000001
 43
0.0000001
 44
0.0000000001
 40
0.0
 40
0.0
 40
0.0
 40
0.0
 40
0.2636784781
 40
0.5741051372
 40
0.7239517191
 40
0.8562958621
 40
0.9120219732
 40
0.9572544159
 40
0.9883481867
 40
1.0
 40
1.0
 40
1.0
 40
1.0
 10
779.3715340403
 20
1866.4275887618
 30
0.0
 10
779.3715338854
 20
1866.3642947471
 30
0.0
 10
779.2772169489
 20
1866.2420001232
 30
0.0
 10
779.1502329967
 20
1866.1317984824
 30
0.0
 10
779.0388046849
 20
1866.0421313983
 30
0.0
 10
778.9737850472
 20
1865.9937573496
 30
0.0
 10
778.9280422969
 20
1865.9614927961
 30
0.0
 10
778.9007444338
 20
1865.9450831586
 30
0.0
 10
778.8839900707
 20
1865.9326127617
 30
0.0
 10
778.8732709597
 20
1865.9297810038
 30
0.0
 10
778.8715340369
 20
1865.9275887647
 30
0.0
  0
SPLINE
  5
47A
100
AcDbEntity
  8
0
100
AcDbSpline
 62
7
  6
BYLAYER
 70
0
 71
3
 72
15
 73
11
 74
0
 42
0.0000001
 43
0.0000001
 44
0.0000000001
 40
0.0
 40
0.0
 40
0.0
 40
0.0
 40
0.0116518133
 40
0.0427455841
 40
0.0879780268
 40
0.143704138
 40
0.2760482811
 40
0.4258948631
 40
0.7363215223
 40
1.0
 40
1.0
 40
1.0
 40
1.0
 10
827.8715340212
 20
1865.9275887647
 30
0.0
 10
827.8697979723
 20
1865.9297816959
 30
0.0
 10
827.859076874
 20
1865.9326118798
 30
0.0
 10
827.842324227
 20
1865.9450836358
 30
0.0
 10
827.8150255331
 20
1865.9614926154
 30
0.0
 10
827.7692831821
 20
1865.9937574852
 30
0.0
 10
827.7042633056
 20
1866.0421313447
 30
0.0
 10
827.5928351048
 20
1866.1317985167
 30
0.0
 10
827.4658510966
 20
1866.242000113
 30
0.0
 10
827.3715341736
 20
1866.3642947473
 30
0.0
 10
827.3715340187
 20
1866.4275887618
 30
0.0
  0
SPLINE
  5
47B
100
AcDbEntity
  8
0
100
AcDbSpline
 62
7
  6
BYLAYER
 70
0
 71
3
 72
11
 73
7
 74
0
 42
0.0000001
 43
0.0000001
 44
0.0000000001
 40
0.0
 40
0.0
 40
0.0
 40
0.0
 40
0.3404385698
 40
0.6266185405
 40
0.8401374976
 40
1.0
 40
1.0
 40
1.0
 40
1.0
 10
798.8715326055
 20
1867.4275887618
 30
0.0
 10
798.8715326051
 20
1867.56418978
 30
0.0
 10
798.8466710911
 20
1867.81683757
 30
0.0
 10
798.7389215209
 20
1868.139100898
 30
0.0
 10
798.5844412559
 20
1868.3620056072
 30
0.0
 10
798.435675935
 20
1868.4275742685
 30
0.0
 10
798.3715310878
 20
1868.4275887623
 30
0.0
  0
SPLINE
  5
47C
100
AcDbEntity
  8
0
100
AcDbSpline
 62
7
  6
BYLAYER
 70
0
 71
3
 72
11
 73
7
 74
0
 42
0.0000001
 43
0.0000001
 44
0.0000000001
 40
0.0
 40
0.0
 40
0.0
 40
0.0
 40
0.2478325037
 40
0.497955658
 40
0.7486362695
 40
1.0
 40
1.0
 40
1.0
 40
1.0
 10
819.3715340286
 20
1866.4275887618
 30
0.0
 10
819.3715344643
 20
1866.2634672796
 30
0.0
 10
819.5036937907
 20
1865.9333886597
 30
0.0
 10
819.8912108812
 20
1865.6068602973
 30
0.0
 10
820.3697770293
 20
1865.4341145599
 30
0.0
 10
820.7050740712
 20
1865.4275887205
 30
0.0
 10
820.8715340286
 20
1865.4275887618
 30
0.0
  0
SPLINE
  5
47D
100
AcDbEntity
  8
0
100
AcDbSpline
 62
7
  6
BYLAYER
 70
0
 71
3
 72
11
 73
7
 74
0
 42
0.0000001
 43
0.0000001
 44
0.0000000001
 40
0.0
 40
0.0
 40
0.0
 40
0.0
 40
0.1598605771
 40
0.3733762137
 40
0.6595504004
 40
1.0
 40
1.0
 40
1.0
 40
1.0
 10
660.7224051744
 20
1868.4275887622
 30
0.0
 10
660.6582610933
 20
1868.4275756309
 30
0.0
 10
660.5094976837
 20
1868.3620065541
 30
0.0
 10
660.3550183695
 20
1868.139107882
 30
0.0
 10
660.2472657602
 20
1867.8168441764
 30
0.0
 10
660.2224043259
 20
1867.5641942189
 30
0.0
 10
660.222403681
 20
1867.4275887619
 30
0.0
  0
SPLINE
  5
47E
100
AcDbEntity
  8
0
100
AcDbSpline
 62
7
  6
BYLAYER
 70
0
 71
3
 72
11
 73
7
 74
0
 42
0.0000001
 43
0.0000001
 44
0.0000000001
 40
0.0
 40
0.0
 40
0.0
 40
0.0
 40
0.2478327053
 40
0.4979558062
 40
0.7486361583
 40
1.0
 40
1.0
 40
1.0
 40
1.0
 10
639.7224031401
 20
1866.4275887618
 30
0.0
 10
639.7224027046
 20
1866.2634671463
 30
0.0
 10
639.5902432264
 20
1865.9333884324
 30
0.0
 10
639.2027261133
 20
1865.6068602554
 30
0.0
 10
638.724160123
 20
1865.4341145354
 30
0.0
 10
638.3888631709
 20
1865.4275887205
 30
0.0
 10
638.2224031401
 20
1865.4275887618
 30
0.0
  0
SPLINE
  5
47F
100
AcDbEntity
  8
0
100
AcDbSpline
 62
7
  6
BYLAYER
 70
0
 71
3
 72
15
 73
11
 74
0
 42
0.0000001
 43
0.0000001
 44
0.0000000001
 40
0.0
 40
0.0
 40
0.0
 40
0.0
 40
0.2636784781
 40
0.5741051372
 40
0.7239517191
 40
0.8562958621
 40
0.9120219732
 40
0.9572544159
 40
0.9883481867
 40
1.0
 40
1.0
 40
1.0
 40
1.0
 10
631.7224031518
 20
1866.4275887618
 30
0.0
 10
631.7224029969
 20
1866.3642947471
 30
0.0
 10
631.6280860602
 20
1866.2420001234
 30
0.0
 10
631.501102109
 20
1866.1317984817
 30
0.0
 10
631.389673795
 20
1866.0421313994
 30
0.0
 10
631.3246541622
 20
1865.9937573468
 30
0.0
 10
631.2789114037
 20
1865.9614927998
 30
0.0
 10
631.2516135577
 20
1865.9450831487
 30
0.0
 10
631.2348591593
 20
1865.9326127798
 30
0.0
 10
631.2241400892
 20
1865.9297809896
 30
0.0
 10
631.2224031484
 20
1865.9275887647
 30
0.0
  0
SPLINE
  5
480
100
AcDbEntity
  8
0
100
AcDbSpline
 62
7
  6
BYLAYER
 70
0
 71
3
 72
15
 73
11
 74
0
 42
0.0000001
 43
0.0000001
 44
0.0000000001
 40
0.0
 40
0.0
 40
0.0
 40
0.0
 40
0.0116518133
 40
0.0427455841
 40
0.0879780268
 40
0.143704138
 40
0.2760482811
 40
0.4258948631
 40
0.7363215223
 40
1.0
 40
1.0
 40
1.0
 40
1.0
 10
680.2224031327
 20
1865.9275887647
 30
0.0
 10
680.2206670838
 20
1865.9297816959
 30
0.0
 10
680.2099459854
 20
1865.9326118798
 30
0.0
 10
680.1931933384
 20
1865.9450836358
 30
0.0
 10
680.1658946446
 20
1865.9614926154
 30
0.0
 10
680.1201522936
 20
1865.9937574852
 30
0.0
 10
680.0551324171
 20
1866.0421313447
 30
0.0
 10
679.9437042163
 20
1866.1317985167
 30
0.0
 10
679.8167202081
 20
1866.242000113
 30
0.0
 10
679.7224032851
 20
1866.3642947473
 30
0.0
 10
679.7224031302
 20
1866.4275887618
 30
0.0
  0
SPLINE
  5
481
100
AcDbEntity
  8
0
100
AcDbSpline
 62
7
  6
BYLAYER
 70
0
 71
3
 72
11
 73
7
 74
0
 42
0.0000001
 43
0.0000001
 44
0.0000000001
 40
0.0
 40
0.0
 40
0.0
 40
0.0
 40
0.3404385698
 40
0.6266185405
 40
0.8401374976
 40
1.0
 40
1.0
 40
1.0
 40
1.0
 10
651.222401717
 20
1867.4275887618
 30
0.0
 10
651.2224017165
 20
1867.56418978
 30
0.0
 10
651.1975402026
 20
1867.81683757
 30
0.0
 10
651.0897906324
 20
1868.139100898
 30
0.0
 10
650.9353103674
 20
1868.3620056072
 30
0.0
 10
650.7865450465
 20
1868.4275742685
 30
0.0
 10
650.7224001993
 20
1868.4275887623
 30
0.0
  0
SPLINE
  5
482
100
AcDbEntity
  8
0
100
AcDbSpline
 62
7
  6
BYLAYER
 70
0
 71
3
 72
11
 73
7
 74
0
 42
0.0000001
 43
0.0000001
 44
0.0000000001
 40
0.0
 40
0.0
 40
0.0
 40
0.0
 40
0.2478325037
 40
0.497955658
 40
0.7486362695
 40
1.0
 40
1.0
 40
1.0
 40
1.0
 10
671.7224031401
 20
1866.4275887618
 30
0.0
 10
671.7224035758
 20
1866.2634672796
 30
0.0
 10
671.8545629022
 20
1865.9333886597
 30
0.0
 10
672.2420799927
 20
1865.6068602973
 30
0.0
 10
672.7206461408
 20
1865.4341145599
 30
0.0
 10
673.0559431827
 20
1865.4275887205
 30
0.0
 10
673.2224031401
 20
1865.4275887618
 30
0.0
  0
SPLINE
  5
483
100
AcDbEntity
  8
0
100
AcDbSpline
 62
7
  6
BYLAYER
 70
0
 71
3
 72
11
 73
7
 74
0
 42
0.0000001
 43
0.0000001
 44
0.0000000001
 40
0.0
 40
0.0
 40
0.0
 40
0.0
 40
0.3404385698
 40
0.6266185405
 40
0.8401374976
 40
1.0
 40
1.0
 40
1.0
 40
1.0
 10
807.8722632628
 20
135.9274786233
 30
0.0
 10
807.8722632633
 20
135.7908776052
 30
0.0
 10
807.8971247772
 20
135.5382298151
 30
0.0
 10
808.0048743474
 20
135.2159664872
 30
0.0
 10
808.1593546124
 20
134.993061778
 30
0.0
 10
808.3081199333
 20
134.9274931166
 30
0.0
 10
808.3722647805
 20
134.9274786229
 30
0.0
  0
SPLINE
  5
484
100
AcDbEntity
  8
0
100
AcDbSpline
 62
7
  6
BYLAYER
 70
0
 71
3
 72
11
 73
7
 74
0
 42
0.0000001
 43
0.0000001
 44
0.0000000001
 40
0.0
 40
0.0
 40
0.0
 40
0.0
 40
0.1598605678
 40
0.3733761936
 40
0.6595503807
 40
1.0
 40
1.0
 40
1.0
 40
1.0
 10
798.3722598978
 20
134.927478623
 30
0.0
 10
798.4364039762
 20
134.9274917472
 30
0.0
 10
798.5851673872
 20
134.9930608097
 30
0.0
 10
798.7396467081
 20
135.215959474
 30
0.0
 10
798.8473993253
 20
135.5382231865
 30
0.0
 10
798.8722607627
 20
135.7908731562
 30
0.0
 10
798.8722614077
 20
135.9274786233
 30
0.0
  0
SPLINE
  5
485
100
AcDbEntity
  8
0
100
AcDbSpline
 62
7
  6
BYLAYER
 70
0
 71
3
 72
15
 73
11
 74
0
 42
0.0000001
 43
0.0000001
 44
0.0000000001
 40
0.0
 40
0.0
 40
0.0
 40
0.0
 40
0.0116518133
 40
0.0427455841
 40
0.0879780268
 40
0.143704138
 40
0.2760482811
 40
0.4258948631
 40
0.7363215223
 40
1.0
 40
1.0
 40
1.0
 40
1.0
 10
778.8722618471
 20
137.4274786205
 30
0.0
 10
778.8739978955
 20
137.4252856889
 30
0.0
 10
778.884718995
 20
137.4224555059
 30
0.0
 10
778.901471641
 20
137.4099837491
 30
0.0
 10
778.9287703353
 20
137.3935747698
 30
0.0
 10
778.9745126861
 20
137.3613098999
 30
0.0
 10
779.0395325627
 20
137.3129360405
 30
0.0
 10
779.1509607635
 20
137.2232688684
 30
0.0
 10
779.2779447717
 20
137.1130672721
 30
0.0
 10
779.3722616947
 20
136.9907726379
 30
0.0
 10
779.3722618496
 20
136.9274786233
 30
0.0
  0
SPLINE
  5
486
100
AcDbEntity
  8
0
100
AcDbSpline
 62
7
  6
BYLAYER
 70
0
 71
3
 72
11
 73
7
 74
0
 42
0.0000001
 43
0.0000001
 44
0.0000000001
 40
0.0
 40
0.0
 40
0.0
 40
0.0
 40
0.2478325037
 40
0.497955658
 40
0.7486362695
 40
1.0
 40
1.0
 40
1.0
 40
1.0
 10
787.3722618397
 20
136.9274786233
 30
0.0
 10
787.372261404
 20
137.0916001056
 30
0.0
 10
787.2401020776
 20
137.4216787255
 30
0.0
 10
786.8525849871
 20
137.7482070879
 30
0.0
 10
786.374018839
 20
137.9209528252
 30
0.0
 10
786.0387217971
 20
137.9274786647
 30
0.0
 10
785.8722618397
 20
137.9274786233
 30
0.0
  0
SPLINE
  5
487
100
AcDbEntity
  8
0
100
AcDbSpline
 62
7
  6
BYLAYER
 70
0
 71
3
 72
11
 73
7
 74
0
 42
0.0000001
 43
0.0000001
 44
0.0000000001
 40
0.0
 40
0.0
 40
0.0
 40
0.0
 40
0.2478327053
 40
0.4979558062
 40
0.7486361583
 40
1.0
 40
1.0
 40
1.0
 40
1.0
 10
819.3722618397
 20
136.9274786233
 30
0.0
 10
819.3722622752
 20
137.0916002388
 30
0.0
 10
819.5044217534
 20
137.4216789528
 30
0.0
 10
819.8919388665
 20
137.7482071297
 30
0.0
 10
820.3705048568
 20
137.9209528498
 30
0.0
 10
820.7058018089
 20
137.9274786647
 30
0.0
 10
820.8722618397
 20
137.9274786233
 30
0.0
  0
SPLINE
  5
488
100
AcDbEntity
  8
0
100
AcDbSpline
 62
7
  6
BYLAYER
 70
0
 71
3
 72
15
 73
11
 74
0
 42
0.0000001
 43
0.0000001
 44
0.0000000001
 40
0.0
 40
0.0
 40
0.0
 40
0.0
 40
0.2636784781
 40
0.5741051372
 40
0.7239517191
 40
0.8562958621
 40
0.9120219732
 40
0.9572544159
 40
0.9883481867
 40
1.0
 40
1.0
 40
1.0
 40
1.0
 10
827.372261828
 20
136.9274786233
 30
0.0
 10
827.3722619829
 20
136.9907726381
 30
0.0
 10
827.4665789202
 20
137.1130672613
 30
0.0
 10
827.5935628689
 20
137.223268905
 30
0.0
 10
827.7049911878
 20
137.3129359834
 30
0.0
 10
827.77001081
 20
137.3613100444
 30
0.0
 10
827.8157535863
 20
137.3935745773
 30
0.0
 10
827.8430513953
 20
137.4099842577
 30
0.0
 10
827.8598058702
 20
137.422454566
 30
0.0
 10
827.8705248517
 20
137.4252864265
 30
0.0
 10
827.8722618314
 20
137.4274786205
 30
0.0
  0
SPLINE
  5
489
100
AcDbEntity
  8
0
100
AcDbSpline
 62
7
  6
BYLAYER
 70
0
 71
3
 72
11
 73
7
 74
0
 42
0.0000001
 43
0.0000001
 44
0.0000000001
 40
0.0
 40
0.0
 40
0.0
 40
0.0
 40
0.3404385698
 40
0.6266185405
 40
0.8401374976
 40
1.0
 40
1.0
 40
1.0
 40
1.0
 10
660.2231323743
 20
135.9274786233
 30
0.0
 10
660.2231323747
 20
135.7908776052
 30
0.0
 10
660.2479938887
 20
135.5382298151
 30
0.0
 10
660.3557434589
 20
135.2159664872
 30
0.0
 10
660.5102237239
 20
134.993061778
 30
0.0
 10
660.6589890448
 20
134.9274931166
 30
0.0
 10
660.723133892
 20
134.9274786229
 30
0.0
  0
SPLINE
  5
48A
100
AcDbEntity
  8
0
100
AcDbSpline
 62
7
  6
BYLAYER
 70
0
 71
3
 72
11
 73
7
 74
0
 42
0.0000001
 43
0.0000001
 44
0.0000000001
 40
0.0
 40
0.0
 40
0.0
 40
0.0
 40
0.1598605678
 40
0.3733761936
 40
0.6595503807
 40
1.0
 40
1.0
 40
1.0
 40
1.0
 10
650.7231290093
 20
134.927478623
 30
0.0
 10
650.7872730877
 20
134.9274917472
 30
0.0
 10
650.9360364987
 20
134.9930608097
 30
0.0
 10
651.0905158196
 20
135.215959474
 30
0.0
 10
651.1982684367
 20
135.5382231865
 30
0.0
 10
651.2231298742
 20
135.7908731562
 30
0.0
 10
651.2231305192
 20
135.9274786233
 30
0.0
  0
SPLINE
  5
48B
100
AcDbEntity
  8
0
100
AcDbSpline
 62
7
  6
BYLAYER
 70
0
 71
3
 72
15
 73
11
 74
0
 42
0.0000001
 43
0.0000001
 44
0.0000000001
 40
0.0
 40
0.0
 40
0.0
 40
0.0
 40
0.0116518133
 40
0.0427455841
 40
0.0879780268
 40
0.143704138
 40
0.2760482811
 40
0.4258948631
 40
0.7363215223
 40
1.0
 40
1.0
 40
1.0
 40
1.0
 10
631.2231309586
 20
137.4274786205
 30
0.0
 10
631.2248670255
 20
137.4252857035
 30
0.0
 10
631.2355880829
 20
137.4224554872
 30
0.0
 10
631.2523407652
 20
137.4099837592
 30
0.0
 10
631.279639442
 20
137.393574766
 30
0.0
 10
631.3253818012
 20
137.3613099028
 30
0.0
 10
631.3904016728
 20
137.3129360393
 30
0.0
 10
631.5018298759
 20
137.2232688691
 30
0.0
 10
631.6288138829
 20
137.1130672719
 30
0.0
 10
631.7231308062
 20
136.9907726379
 30
0.0
 10
631.7231309611
 20
136.9274786233
 30
0.0
  0
SPLINE
  5
48C
100
AcDbEntity
  8
0
100
AcDbSpline
 62
7
  6
BYLAYER
 70
0
 71
3
 72
11
 73
7
 74
0
 42
0.0000001
 43
0.0000001
 44
0.0000000001
 40
0.0
 40
0.0
 40
0.0
 40
0.0
 40
0.2478325037
 40
0.497955658
 40
0.7486362695
 40
1.0
 40
1.0
 40
1.0
 40
1.0
 10
639.7231309512
 20
136.9274786233
 30
0.0
 10
639.7231305155
 20
137.0916001056
 30
0.0
 10
639.5909711891
 20
137.4216787255
 30
0.0
 10
639.2034540986
 20
137.7482070879
 30
0.0
 10
638.7248879505
 20
137.9209528252
 30
0.0
 10
638.3895909086
 20
137.9274786647
 30
0.0
 10
638.2231309512
 20
137.9274786233
 30
0.0
  0
SPLINE
  5
48D
100
AcDbEntity
  8
0
100
AcDbSpline
 62
7
  6
BYLAYER
 70
0
 71
3
 72
11
 73
7
 74
0
 42
0.0000001
 43
0.0000001
 44
0.0000000001
 40
0.0
 40
0.0
 40
0.0
 40
0.0
 40
0.2478327053
 40
0.4979558062
 40
0.7486361583
 40
1.0
 40
1.0
 40
1.0
 40
1.0
 10
671.7231309512
 20
136.9274786233
 30
0.0
 10
671.7231313867
 20
137.0916002388
 30
0.0
 10
671.8552908649
 20
137.4216789528
 30
0.0
 10
672.242807978
 20
137.7482071297
 30
0.0
 10
672.7213739683
 20
137.9209528498
 30
0.0
 10
673.0566709203
 20
137.9274786647
 30
0.0
 10
673.2231309512
 20
137.9274786233
 30
0.0
  0
SPLINE
  5
48E
100
AcDbEntity
  8
0
100
AcDbSpline
 62
7
  6
BYLAYER
 70
0
 71
3
 72
15
 73
11
 74
0
 42
0.0000001
 43
0.0000001
 44
0.0000000001
 40
0.0
 40
0.0
 40
0.0
 40
0.0
 40
0.2636784781
 40
0.5741051372
 40
0.7239517191
 40
0.8562958621
 40
0.9120219732
 40
0.9572544159
 40
0.9883481867
 40
1.0
 40
1.0
 40
1.0
 40
1.0
 10
679.7231309395
 20
136.9274786233
 30
0.0
 10
679.7231310944
 20
136.9907726381
 30
0.0
 10
679.8174480323
 20
137.1130672608
 30
0.0
 10
679.9444319786
 20
137.2232689064
 30
0.0
 10
680.0558603021
 20
137.3129359812
 30
0.0
 10
680.1208799145
 20
137.36131005
 30
0.0
 10
680.1666227071
 20
137.3935745698
 30
0.0
 10
680.193920482
 20
137.4099842773
 30
0.0
 10
680.2106750275
 20
137.4224545297
 30
0.0
 10
680.2213939272
 20
137.4252864549
 30
0.0
 10
680.2231309429
 20
137.4274786205
 30
0.0
  0
ENDSEC
  0
SECTION
  2
OBJECTS
  0
DICTIONARY
  5
C
100
AcDbDictionary
280
0
281
1
  3
ACAD_GROUP
350
D
  3
ACAD_MLINESTYLE
350
17
  3
ACAD_LAYOUT
350
1A
  3
ACAD_PLOTSETTINGS
350
19
  3
ACAD_PLOTSTYLENAME
350
E
  0
DICTIONARY
  5
D
102
{ACAD_REACTORS
330
C
102
}
100
AcDbDictionary
280
0
281
1
  0
ACDBDICTIONARYWDFLT
  5
E
102
{ACAD_REACTORS
330
C
102
}
100
AcDbDictionary
281
1
  3
Normal
350
F
100
AcDbDictionaryWithDefault
340
F
  0
DICTIONARY
  5
17
102
{ACAD_REACTORS
330
C
102
}
100
AcDbDictionary
280
0
281
1
  3
Standard
350
18
  0
DICTIONARY
  5
19
102
{ACAD_REACTORS
330
C
102
}
100
AcDbDictionary
281
1
  0
DICTIONARY
  5
1A
102
{ACAD_REACTORS
330
C
102
}
100
AcDbDictionary
281
1
  3
Model
350
48F
  3
Layout1
350
490
  0
ACDBPLACEHOLDER
  5
F
102
{ACAD_REACTORS
330
E
102
}
  0
MLINESTYLE
  5
18
102
{ACAD_REACTORS
330
17
102
}
100
AcDbMlineStyle
  2
STANDARD
 70
0
  3

 62
256
 51
90.0
 52
90.0
 71
2
 49
0.5
 62
256
  6
BYLAYER
 49
-0.5
 62
256
  6
BYLAYER
  0
LAYOUT
  5
48F
102
{ACAD_REACTORS
330
1A
102
}
100
AcDbPlotSettings
  1

  2
none_device
  4

  6

 40
0.0
 41
0.0
 42
0.0
 43
0.0
 44
210.0
 45
297.0
 46
0.0
 47
0.0
 48
0.0
 49
0.0
140
0.0
141
0.0
142
1.0
143
1.0
 70
1024
 72
1
 73
0
 74
0
  7

 75
0
147
1.0
148
0.0
149
0.0
100
AcDbLayout
  1
Model
 70
0
 71
0
 10
0.0
 20
0.0
 11
210.0
 21
297.0
 12
0.0
 22
0.0
 32
0.0
 14
0.0
 24
0.0
 34
0.0
 15
0.0
 25
0.0
 35
0.0
146
0.0
 13
0.0
 23
0.0
 33
0.0
 16
1.0
 26
0.0
 36
0.0
 17
0.0
 27
1.0
 37
0.0
 76
0
330
212
345
0
346
0
  0
LAYOUT
  5
490
102
{ACAD_REACTORS
330
1A
102
}
100
AcDbPlotSettings
  1

  2
none_device
  4

  6

 40
0.0
 41
0.0
 42
0.0
 43
0.0
 44
210.0
 45
297.0
 46
0.0
 47
0.0
 48
0.0
 49
0.0
140
0.0
141
0.0
142
1.0
143
1.0
 70
0
 72
1
 73
0
 74
0
  7

 75
0
147
1.0
148
0.0
149
0.0
100
AcDbLayout
  1
Layout1
 70
0
 71
1
 10
0.0
 20
0.0
 11
210.0
 21
297.0
 12
0.0
 22
0.0
 32
0.0
 14
0.0
 24
0.0
 34
0.0
 15
0.0
 25
0.0
 35
0.0
146
0.0
 13
0.0
 23
0.0
 33
0.0
 16
1.0
 26
0.0
 36
0.0
 17
0.0
 27
1.0
 37
0.0
 76
0
330
213
345
0
346
0
  0
ENDSEC
  0
EOF
