999
DXF file: C:\Users\sesa63760\Dev\_Creo\CAD\MCADID0002083_3D-CAD\drw0001_6.dxf
999
Pro/ENGINEER 2019471 by Parametric Technology Corporation
  0
SECTION
  2
HEADER
  9
$ACADVER
  1
AC1024
  9
$DWGCODEPAGE
  3
ANSI_1252
  9
$EXTMAX
 10
384.5765320914
 20
543.9010953864
 30
0.0
  9
$EXTMIN
 10
0.0
 20
0.0
 30
0.0
  9
$LIMMIN
 10
0.0
 20
0.0
  9
$LIMMAX
 10
384.5765320914
 20
543.9010953864
  9
$VIEWCTR
 10
192.2882660457
 20
271.9505476932
  9
$VIEWSIZE
 40
543.9010953864
  9
$CLAYER
  8
0
  9
$LTSCALE
 40
35.4542936252
  9
$CELTYPE
  6
BYLAYER
  9
$DIMSCALE
 40
1.0
  9
$DIMASZ
 40
4.5782920487
  9
$DIMEXO
 40
1.0
  9
$DIMDLI
 40
24.4956937774
  9
$DIMEXE
 40
1.0
  9
$DIMCEN
 40
5.8016116841
  9
$DIMLFAC
 40
1.0
  9
$DIMBLK
  1
_FILLED
  9
$DIMALT
 70
0
  9
$DIMALTF
 40
0.0393700787
  9
$DIMTXT
 40
6.4096088682
  9
$DIMTOL
 70
1
  9
$DIMLIM
 70
0
  9
$DIMTFAC
 40
1.0
  9
$DIMTP
 40
0.01
  9
$DIMTM
 40
0.01
  9
$DIMGAP
 40
0.625
  9
$DIMDSEP
 70
46
  9
$AUNITS
 70
0
  9
$PDMODE
 70
3
  9
$PDSIZE
 40
0.3125
  9
$HANDSEED
  5
407
  9
$TILEMODE
 70
1
  9
$MEASUREMENT
 70
1
  9
$INSUNITS
 70
4
  0
ENDSEC
  0
SECTION
  2
CLASSES
  0
CLASS
  1
ACDBDICTIONARYWDFLT
  2
AcDbDictionaryWithDefault
  3
AutoCAD 2000
 90
0
 91
1
280
0
281
0
  0
CLASS
  1
ACDBPLACEHOLDER
  2
AcDbPlaceHolder
  3
AutoCAD 2000
 90
0
 91
1
280
0
281
0
  0
CLASS
  1
LAYOUT
  2
AcDbLayout
  3
AutoCAD 2000
 90
0
 91
0
280
0
281
0
  0
ENDSEC
  0
SECTION
  2
TABLES
  0
TABLE
  2
VPORT
  5
8
100
AcDbSymbolTable
 70
2
  0
VPORT
  5
1F4
100
AcDbSymbolTableRecord
100
AcDbViewportTableRecord
  2
*ACTIVE
 70
0
 10
0.0
 20
0.0
 11
1.0
 21
1.0
 12
192.2882660457
 22
271.9505476932
 13
0.0
 23
0.0
 14
1.0
 24
1.0
 15
0.0
 25
0.0
 16
0.0
 26
0.0
 36
1.0
 17
0.0
 27
0.0
 37
0.0
 40
543.9010953864
 41
0.7070707071
 42
50.0
 43
0.0
 44
0.0
 50
0.0
 51
0.0
 71
0
 72
100
 73
1
 74
1
 75
0
 76
0
 77
0
 78
0
  0
ENDTAB
  0
TABLE
  2
LTYPE
  5
5
100
AcDbSymbolTable
 70
6
  0
LTYPE
  5
14
100
AcDbSymbolTableRecord
100
AcDbLinetypeTableRecord
  2
BYBLOCK
 70
0
  3

 72
65
 73
0
 40
0.0
  0
LTYPE
  5
15
100
AcDbSymbolTableRecord
100
AcDbLinetypeTableRecord
  2
BYLAYER
 70
0
  3

 72
65
 73
0
 40
0.0
  0
LTYPE
  5
16
100
AcDbSymbolTableRecord
100
AcDbLinetypeTableRecord
  2
CONTINUOUS
 70
64
  3
Solid line
 72
65
 73
0
 40
0.0
  0
LTYPE
  5
1F5
100
AcDbSymbolTableRecord
100
AcDbLinetypeTableRecord
  2
CENTER
 70
64
  3
____ _ ____ _ ____ _ ____ _ ____ _ ____ _ ____
 72
65
 73
4
 40
0.6
 49
0.375
 74
0
 49
-0.075
 74
0
 49
0.075
 74
0
 49
-0.075
 74
0
  0
LTYPE
  5
1F6
100
AcDbSymbolTableRecord
100
AcDbLinetypeTableRecord
  2
HIDDEN
 70
64
  3
- - - - - - - - - - - - - - - - - - - -
 72
65
 73
2
 40
0.2
 49
0.1
 74
0
 49
-0.1
 74
0
  0
LTYPE
  5
1F7
100
AcDbSymbolTableRecord
100
AcDbLinetypeTableRecord
  2
PHANTOM
 70
64
  3
_____ _ _ _____ _ _ _____ _ _ _____
 72
65
 73
6
 40
0.8
 49
0.45
 74
0
 49
-0.05
 74
0
 49
0.1
 74
0
 49
-0.05
 74
0
 49
0.1
 74
0
 49
-0.05
 74
0
  0
LTYPE
  5
1F8
100
AcDbSymbolTableRecord
100
AcDbLinetypeTableRecord
  2
DOT
 70
64
  3
. . . . . . . . . . . . . . . . . . . .
 72
65
 73
2
 40
0.2
 49
0.1
 74
0
 49
-0.1
 74
0
  0
LTYPE
  5
1F9
100
AcDbSymbolTableRecord
100
AcDbLinetypeTableRecord
  2
DASHED
 70
64
  3
- - - - - - - - - - - - - - - - - - - -
 72
65
 73
2
 40
0.2
 49
0.1
 74
0
 49
-0.1
 74
0
  0
ENDTAB
  0
TABLE
  2
LAYER
  5
2
100
AcDbSymbolTable
 70
36
  0
LAYER
  5
10
100
AcDbSymbolTableRecord
100
AcDbLayerTableRecord
  2
0
 70
0
 62
7
  6
CONTINUOUS
370
-3
390
F
  0
LAYER
  5
1FA
100
AcDbSymbolTableRecord
100
AcDbLayerTableRecord
  2
DEFAULT_1
 70
0
 62
7
  6
CENTER
370
-3
390
F
  0
LAYER
  5
1FB
100
AcDbSymbolTableRecord
100
AcDbLayerTableRecord
  2
DEFAULT_2
 70
0
 62
8
  6
HIDDEN
370
-3
390
F
  0
LAYER
  5
1FC
100
AcDbSymbolTableRecord
100
AcDbLayerTableRecord
  2
DEFAULT_3
 70
0
 62
7
  6
PHANTOM
370
-3
390
F
  0
LAYER
  5
1FD
100
AcDbSymbolTableRecord
100
AcDbLayerTableRecord
  2
00_COMPONENTS
 70
0
 62
7
  6
CONTINUOUS
370
-3
390
F
  0
LAYER
  5
1FE
100
AcDbSymbolTableRecord
100
AcDbLayerTableRecord
  2
01_1_DEFAULT_DATUMS
 70
0
 62
7
  6
CONTINUOUS
370
-3
390
F
  0
LAYER
  5
1FF
100
AcDbSymbolTableRecord
100
AcDbLayerTableRecord
  2
01_PLANES
 70
0
 62
7
  6
CONTINUOUS
370
-3
390
F
  0
LAYER
  5
200
100
AcDbSymbolTableRecord
100
AcDbLayerTableRecord
  2
02_COORD_SYS
 70
0
 62
7
  6
CONTINUOUS
370
-3
390
F
  0
LAYER
  5
201
100
AcDbSymbolTableRecord
100
AcDbLayerTableRecord
  2
03_AXES
 70
0
 62
7
  6
CONTINUOUS
370
-3
390
F
  0
LAYER
  5
202
100
AcDbSymbolTableRecord
100
AcDbLayerTableRecord
  2
04_POINTS
 70
0
 62
7
  6
CONTINUOUS
370
-3
390
F
  0
LAYER
  5
203
100
AcDbSymbolTableRecord
100
AcDbLayerTableRecord
  2
05_CURVES
 70
0
 62
7
  6
CONTINUOUS
370
-3
390
F
  0
LAYER
  5
204
100
AcDbSymbolTableRecord
100
AcDbLayerTableRecord
  2
06_SURFS
 70
0
 62
7
  6
CONTINUOUS
370
-3
390
F
  0
LAYER
  5
205
100
AcDbSymbolTableRecord
100
AcDbLayerTableRecord
  2
07_COSMETICS
 70
0
 62
7
  6
CONTINUOUS
370
-3
390
F
  0
LAYER
  5
206
100
AcDbSymbolTableRecord
100
AcDbLayerTableRecord
  2
10_NOTES
 70
0
 62
7
  6
CONTINUOUS
370
-3
390
F
  0
LAYER
  5
207
100
AcDbSymbolTableRecord
100
AcDbLayerTableRecord
  2
11_NOTES_PUB
 70
0
 62
7
  6
CONTINUOUS
370
-3
390
F
  0
LAYER
  5
208
100
AcDbSymbolTableRecord
100
AcDbLayerTableRecord
  2
13_REF_GTOL
 70
0
 62
7
  6
CONTINUOUS
370
-3
390
F
  0
LAYER
  5
209
100
AcDbSymbolTableRecord
100
AcDbLayerTableRecord
  2
16_MISC
 70
0
 62
7
  6
CONTINUOUS
370
-3
390
F
  0
LAYER
  5
20A
100
AcDbSymbolTableRecord
100
AcDbLayerTableRecord
  2
17_NO_PRINT
 70
0
 62
7
  6
CONTINUOUS
370
-3
390
F
  0
LAYER
  5
20B
100
AcDbSymbolTableRecord
100
AcDbLayerTableRecord
  2
18_DATUM_CAMS_JOINTS
 70
0
 62
7
  6
CONTINUOUS
370
-3
390
F
  0
LAYER
  5
20C
100
AcDbSymbolTableRecord
100
AcDbLayerTableRecord
  2
19_DATUM_FUNCTIONAL
 70
0
 62
7
  6
CONTINUOUS
370
-3
390
F
  0
LAYER
  5
20D
100
AcDbSymbolTableRecord
100
AcDbLayerTableRecord
  2
20_DATUM_KINEMATIC_SCHEME
 70
0
 62
7
  6
CONTINUOUS
370
-3
390
F
  0
ENDTAB
  0
TABLE
  2
STYLE
  5
3
100
AcDbSymbolTable
 70
1
  0
STYLE
  5
11
100
AcDbSymbolTableRecord
100
AcDbTextStyleTableRecord
  2
STANDARD
 70
0
 40
0.0
 41
0.8
 50
0.0
 71
0
 42
0.2
  3
txt
  4

  0
STYLE
  5
20E
100
AcDbSymbolTableRecord
100
AcDbTextStyleTableRecord
  2
TEXTSTYLE_1
 70
0
 40
0.0
 41
0.8
 50
0.0
 71
0
 42
0.2
  3
gdt
  4

  0
ENDTAB
  0
TABLE
  2
VIEW
  5
6
100
AcDbSymbolTable
 70
0
  0
ENDTAB
  0
TABLE
  2
UCS
  5
7
100
AcDbSymbolTable
 70
0
  0
ENDTAB
  0
TABLE
  2
APPID
  5
9
100
AcDbSymbolTable
 70
1
  0
APPID
  5
20F
100
AcDbSymbolTableRecord
100
AcDbRegAppTableRecord
  2
ACAD
 70
0
  0
ENDTAB
  0
TABLE
  2
BLOCK_RECORD
  5
1
100
AcDbSymbolTable
 70
0
  0
BLOCK_RECORD
  5
210
100
AcDbSymbolTableRecord
100
AcDbBlockTableRecord
  2
*Model_Space
  0
BLOCK_RECORD
  5
211
100
AcDbSymbolTableRecord
100
AcDbBlockTableRecord
  2
*Paper_Space
  0
BLOCK_RECORD
  5
212
100
AcDbSymbolTableRecord
100
AcDbBlockTableRecord
  2
_FILLED
  0
ENDTAB
  0
TABLE
  2
DIMSTYLE
  5
A
100
AcDbSymbolTable
 70
1
100
AcDbDimStyleTable
 71
0
  0
DIMSTYLE
105
213
100
AcDbSymbolTableRecord
100
AcDbDimStyleTableRecord
  2
STANDARD
 70
0
  3

  4

 40
1.0
 41
4.5782920487
 42
1.0
 43
0.38
 44
1.0
 45
0.0
 46
0.0
 47
0.01
 48
0.01
140
6.4096088682
141
0.09
142
0.0
143
25.4
144
1.0
145
0.0
146
1.0
147
0.625
 71
1
 72
0
 73
0
 74
0
 75
0
 76
0
 77
1
 78
8
 79
2
170
0
171
1
172
0
173
0
174
0
175
0
176
0
177
0
178
0
270
2
179
2
271
2
272
2
273
2
274
2
275
0
280
0
281
0
282
0
283
1
284
8
285
0
286
0
287
3
288
0
340
11
278
46
341
212
342
212
343
212
344
212
  0
ENDTAB
  0
ENDSEC
  0
SECTION
  2
BLOCKS
  0
BLOCK
  5
20
100
AcDbEntity
  8
0
100
AcDbBlockBegin
  2
*Model_Space
 70
0
 10
0.0
 20
0.0
 30
0.0
  3
*Model_Space
  1

  0
ENDBLK
  5
21
100
AcDbEntity
  8
0
100
AcDbBlockEnd
  0
BLOCK
  5
1C
100
AcDbEntity
  8
0
100
AcDbBlockBegin
  2
*Paper_Space
 70
0
 10
0.0
 20
0.0
 30
0.0
  3
*Paper_Space
  1

  0
ENDBLK
  5
1D
100
AcDbEntity
  8
0
100
AcDbBlockEnd
  0
BLOCK
  5
214
100
AcDbEntity
  8
0
100
AcDbBlockBegin
  2
_FILLED
 70
64
 10
0.0
 20
0.0
  3
_FILLED
  1

  0
SOLID
  5
215
100
AcDbEntity
  8
0
  6
BYBLOCK
 62
0
100
AcDbTrace
 10
0.0
 20
0.0
 11
-1.0
 21
0.25
 12
-1.0
 22
-0.25
 13
-1.0
 23
-0.25
  0
ENDBLK
  5
216
100
AcDbEntity
  8
0
  6
BYBLOCK
 62
0
100
AcDbBlockEnd
  0
ENDSEC
  0
SECTION
  2
ENTITIES
  0
LINE
  5
217
100
AcDbEntity
  8
0
100
AcDbLine
 62
7
  6
CONTINUOUS
 10
44.4301529264
 20
235.8882766105
 11
43.4977070977
 21
260.725547471
  0
LINE
  5
218
100
AcDbEntity
  8
0
100
AcDbLine
 62
7
  6
CONTINUOUS
 10
48.4993149294
 20
260.7255476931
 11
49.2104537607
 21
239.4378892674
  0
LINE
  5
219
100
AcDbEntity
  8
0
100
AcDbLine
 62
7
  6
CONTINUOUS
 10
48.8672648798
 20
249.7412456014
 11
49.2104537607
 21
239.4378892674
  0
LINE
  5
21A
100
AcDbEntity
  8
0
100
AcDbLine
 62
7
  6
CONTINUOUS
 10
49.2105220883
 20
239.4378892675
 11
49.4266565702
 21
231.0756068624
  0
LINE
  5
21B
100
AcDbEntity
  8
0
100
AcDbLine
 62
7
  6
CONTINUOUS
 10
43.4977070894
 20
260.7255473773
 11
43.4977070894
 21
263.3855476931
  0
LINE
  5
21C
100
AcDbEntity
  8
0
100
AcDbLine
 62
7
  6
CONTINUOUS
 10
48.4992435564
 20
260.7257427467
 11
48.4977074051
 21
269.7368606634
  0
LINE
  5
21D
100
AcDbEntity
  8
0
100
AcDbLine
 62
7
  6
CONTINUOUS
 10
45.1336377163
 20
269.7340717978
 11
43.4977070894
 21
263.3855476931
  0
LINE
  5
21E
100
AcDbEntity
  8
0
100
AcDbLine
 62
7
  6
CONTINUOUS
 10
118.4270478211
 20
248.9974420583
 11
118.4381304722
 21
245.791847425
  0
LINE
  5
21F
100
AcDbEntity
  8
0
100
AcDbLine
 62
7
  6
CONTINUOUS
 10
118.3477122537
 20
263.3855693789
 11
118.3477070894
 21
262.1255476931
  0
LINE
  5
220
100
AcDbEntity
  8
0
100
AcDbLine
 62
7
  6
CONTINUOUS
 10
118.4381304722
 20
245.791847425
 11
118.4381304722
 21
239.4378892674
  0
LINE
  5
221
100
AcDbEntity
  8
0
100
AcDbLine
 62
7
  6
CONTINUOUS
 10
118.4377071418
 20
262.1255476931
 11
118.4368835011
 21
255.7737583296
  0
LINE
  5
222
100
AcDbEntity
  8
0
100
AcDbLine
 62
7
  6
CONTINUOUS
 10
68.0023492362
 20
231.1142656056
 11
68.1377809716
 21
231.0755476931
  0
LINE
  5
223
100
AcDbEntity
  8
0
100
AcDbLine
 62
7
  6
CONTINUOUS
 10
67.800066742
 20
231.1529412617
 11
67.9970729335
 21
231.0958141526
  0
LINE
  5
224
100
AcDbEntity
  8
0
100
AcDbLine
 62
7
  6
CONTINUOUS
 10
67.839849487
 20
231.141405212
 11
67.9973164999
 21
231.0957624669
  0
LINE
  5
225
100
AcDbEntity
  8
0
100
AcDbLine
 62
7
  6
CONTINUOUS
 10
68.1087198098
 20
231.0841529919
 11
68.1377809716
 21
231.0755476931
  0
LINE
  5
226
100
AcDbEntity
  8
0
100
AcDbLine
 62
7
  6
CONTINUOUS
 10
66.4115571017
 20
231.4874643477
 11
67.800066742
 21
231.1529412617
  0
LINE
  5
227
100
AcDbEntity
  8
0
100
AcDbLine
 62
7
  6
CONTINUOUS
 10
141.4973758852
 20
228.4460523273
 11
139.1591562549
 21
232.4959675263
  0
LINE
  5
228
100
AcDbEntity
  8
0
100
AcDbLine
 62
7
  6
CONTINUOUS
 10
137.8268283562
 20
262.1255476931
 11
137.8268283562
 21
263.3855476931
  0
LINE
  5
229
100
AcDbEntity
  8
0
100
AcDbLine
 62
7
  6
CONTINUOUS
 10
138.2185205129
 20
262.1256849015
 11
138.2184410538
 21
234.5911983173
  0
LINE
  5
22A
100
AcDbEntity
  8
0
100
AcDbLine
 62
7
  6
CONTINUOUS
 10
139.899284344
 20
283.6470013282
 11
139.7090130779
 21
283.3119461477
  0
LINE
  5
22B
100
AcDbEntity
  8
0
100
AcDbLine
 62
7
  6
CONTINUOUS
 10
138.735865316
 20
281.9933650941
 11
137.9244806883
 21
280.7046912811
  0
LWPOLYLINE
  5
22C
100
AcDbEntity
  8
0
100
AcDbPolyline
 62
7
  6
CONTINUOUS
 90
5
 70
0
 10
137.9245247116
 20
280.7046801217
 10
137.7776819203
 20
280.4897148558
 10
136.9799624743
 20
279.7132474012
 10
135.8944144657
 20
279.0286946012
 10
134.5266621698
 20
278.4120453953
  0
LINE
  5
22D
100
AcDbEntity
  8
0
100
AcDbLine
 62
7
  6
CONTINUOUS
 10
139.7426631939
 20
283.4366044789
 11
138.7277539191
 21
281.9817245347
  0
LINE
  5
22E
100
AcDbEntity
  8
0
100
AcDbLine
 62
7
  6
CONTINUOUS
 10
139.898430276
 20
283.6458490215
 11
139.725194853
 21
283.4131389626
  0
LINE
  5
22F
100
AcDbEntity
  8
0
100
AcDbLine
 62
7
  6
CONTINUOUS
 10
64.1574201106
 20
231.7590675057
 11
66.4203409364
 21
231.4857254684
  0
LINE
  5
230
100
AcDbEntity
  8
0
100
AcDbLine
 62
7
  6
CONTINUOUS
 10
68.137781076
 20
231.0758818156
 11
67.9973166578
 21
231.0957624357
  0
LWPOLYLINE
  5
231
100
AcDbEntity
  8
0
100
AcDbPolyline
 62
7
  6
CONTINUOUS
 90
4
 70
0
 10
132.4186609652
 20
228.2526500805
 10
133.3761247765
 20
228.1090243
 10
134.777486343
 20
228.1080948798
 10
135.7959484423
 20
228.2635381577
  0
LINE
  5
232
100
AcDbEntity
  8
0
100
AcDbLine
 62
7
  6
CONTINUOUS
 10
118.4524143983
 20
231.0755476942
 11
120.6558926374
 21
230.7396881321
  0
LWPOLYLINE
  5
233
100
AcDbEntity
  8
0
100
AcDbPolyline
 62
7
  6
CONTINUOUS
 90
3
 70
0
 10
120.6456489269
 20
230.7412943588
 10
120.9767941693
 20
230.6836303584
 10
121.1020514761
 20
230.6580520056
  0
LINE
  5
234
100
AcDbEntity
  8
0
100
AcDbLine
 62
7
  6
CONTINUOUS
 10
121.1021238555
 20
230.6579980196
 11
132.4186495024
 21
228.2525962381
  0
LINE
  5
235
100
AcDbEntity
  8
0
100
AcDbLine
 62
7
  6
CONTINUOUS
 10
114.4115592756
 20
231.4874639206
 11
115.8000665644
 21
231.1529413123
  0
LINE
  5
236
100
AcDbEntity
  8
0
100
AcDbLine
 62
7
  6
CONTINUOUS
 10
116.0023492362
 20
231.1142656056
 11
116.1377809716
 21
231.0755476931
  0
LINE
  5
237
100
AcDbEntity
  8
0
100
AcDbLine
 62
7
  6
CONTINUOUS
 10
115.8000665644
 20
231.1529413123
 11
115.9970729335
 21
231.0958141526
  0
LINE
  5
238
100
AcDbEntity
  8
0
100
AcDbLine
 62
7
  6
CONTINUOUS
 10
115.8398253877
 20
231.1414121995
 11
115.9973164999
 21
231.0957624669
  0
LINE
  5
239
100
AcDbEntity
  8
0
100
AcDbLine
 62
7
  6
CONTINUOUS
 10
116.1087198098
 20
231.0841529919
 11
116.1377809716
 21
231.0755476931
  0
LINE
  5
23A
100
AcDbEntity
  8
0
100
AcDbLine
 62
7
  6
CONTINUOUS
 10
164.5761081792
 20
227.5546341171
 11
165.7724506333
 21
226.2098387518
  0
LINE
  5
23B
100
AcDbEntity
  8
0
100
AcDbLine
 62
7
  6
CONTINUOUS
 10
139.9007634096
 20
283.6489769569
 11
139.899284344
 21
283.6470013282
  0
LINE
  5
23C
100
AcDbEntity
  8
0
100
AcDbLine
 62
7
  6
CONTINUOUS
 10
140.2389357127
 20
284.0563993887
 11
139.8973974656
 21
283.644465983
  0
LWPOLYLINE
  5
23D
100
AcDbEntity
  8
0
100
AcDbPolyline
 62
7
  6
CONTINUOUS
 90
4
 70
0
 10
137.7917216518
 20
280.5086872612
 10
137.0033918323
 20
279.7312221035
 10
135.9280396525
 20
279.0465867746
 10
134.5729256109
 20
278.4299522568
  0
LINE
  5
23E
100
AcDbEntity
  8
0
100
AcDbLine
 62
7
  6
CONTINUOUS
 10
140.5402308079
 20
284.3499714499
 11
140.2788095893
 21
284.0993893674
  0
LWPOLYLINE
  5
23F
100
AcDbEntity
  8
0
100
AcDbPolyline
 62
7
  6
CONTINUOUS
 90
7
 70
0
 10
140.788452544
 20
284.5417526427
 10
140.7177534718
 20
284.49263426
 10
140.5129043391
 20
284.328011038
 10
140.3295612862
 20
284.1541072568
 10
140.1670468894
 20
283.9788925284
 10
140.0247635321
 20
283.808964027
 10
139.9005825995
 20
283.6487362891
  0
LWPOLYLINE
  5
240
100
AcDbEntity
  8
0
100
AcDbPolyline
 62
7
  6
CONTINUOUS
 90
3
 70
0
 10
162.4957440329
 20
225.2328977161
 10
164.4235743232
 20
225.4119325078
 10
165.7723859439
 20
226.2098881836
  0
LINE
  5
241
100
AcDbEntity
  8
0
100
AcDbLine
 62
7
  6
CONTINUOUS
 10
135.7959738433
 20
228.2634221811
 11
141.4973758852
 21
228.4460523273
  0
LINE
  5
242
100
AcDbEntity
  8
0
100
AcDbLine
 62
7
  6
CONTINUOUS
 10
192.3893045337
 20
225.2729078185
 11
191.4708756881
 21
225.2521786187
  0
LINE
  5
243
100
AcDbEntity
  8
0
100
AcDbLine
 62
7
  6
CONTINUOUS
 10
192.4695215602
 20
225.1255476931
 11
204.9377070894
 21
225.1255476931
  0
LINE
  5
244
100
AcDbEntity
  8
0
100
AcDbLine
 62
7
  6
CONTINUOUS
 10
230.9377070894
 20
225.1255476931
 11
255.0446013199
 21
225.1255476931
  0
LINE
  5
245
100
AcDbEntity
  8
0
100
AcDbLine
 62
7
  6
CONTINUOUS
 10
204.9377070894
 20
225.5255476931
 11
208.621082299
 21
225.5255476931
  0
LINE
  5
246
100
AcDbEntity
  8
0
100
AcDbLine
 62
7
  6
CONTINUOUS
 10
215.2543318797
 20
225.5255476931
 11
230.9377070894
 21
225.5255476931
  0
LINE
  5
247
100
AcDbEntity
  8
0
100
AcDbLine
 62
7
  6
CONTINUOUS
 10
205.9377070894
 20
227.7944460363
 11
229.9377070894
 21
227.7944460363
  0
LINE
  5
248
100
AcDbEntity
  8
0
100
AcDbLine
 62
7
  6
CONTINUOUS
 10
112.1574227807
 20
231.7590673902
 11
114.4203401687
 21
231.4857256196
  0
LINE
  5
249
100
AcDbEntity
  8
0
100
AcDbLine
 62
7
  6
CONTINUOUS
 10
116.137781076
 20
231.0758818156
 11
115.9973166578
 21
231.0957624357
  0
LINE
  5
24A
100
AcDbEntity
  8
0
100
AcDbLine
 62
7
  6
CONTINUOUS
 10
141.4973758852
 20
228.4460523273
 11
162.4956203975
 21
225.2328693921
  0
LWPOLYLINE
  5
24B
100
AcDbEntity
  8
0
100
AcDbPolyline
 62
7
  6
CONTINUOUS
 90
3
 70
0
 10
191.4712409518
 20
225.2520845934
 10
191.9827615529
 20
225.1552578382
 10
192.4693809358
 20
225.1255476931
  0
LINE
  5
24C
100
AcDbEntity
  8
0
100
AcDbLine
 62
7
  6
CONTINUOUS
 10
177.0569880891
 20
228.9664466577
 11
191.4712409419
 21
225.2520844977
  0
LINE
  5
24D
100
AcDbEntity
  8
0
100
AcDbLine
 62
7
  6
CONTINUOUS
 10
156.767707009
 20
260.7255605688
 11
156.7677116178
 21
262.1255476931
  0
LINE
  5
24E
100
AcDbEntity
  8
0
100
AcDbLine
 62
7
  6
CONTINUOUS
 10
157.3060181411
 20
262.1255476931
 11
157.3060192383
 21
263.3855165333
  0
LINE
  5
24F
100
AcDbEntity
  8
0
100
AcDbLine
 62
7
  6
CONTINUOUS
 10
156.7677074929
 20
240.8064500125
 11
156.7669622418
 21
260.7255591313
  0
LINE
  5
250
100
AcDbEntity
  8
0
100
AcDbLine
 62
7
  6
CONTINUOUS
 10
143.6058298396
 20
285.9150980826
 11
142.7306510079
 21
285.5511937083
  0
LINE
  5
251
100
AcDbEntity
  8
0
100
AcDbLine
 62
7
  6
CONTINUOUS
 10
312.4214102027
 20
251.6369009956
 11
301.8984355905
 21
250.3270792611
  0
LINE
  5
252
100
AcDbEntity
  8
0
100
AcDbLine
 62
7
  6
CONTINUOUS
 10
49.4266320899
 20
231.0755476931
 11
58.9376332072
 21
231.0755476931
  0
LINE
  5
253
100
AcDbEntity
  8
0
100
AcDbLine
 62
7
  6
CONTINUOUS
 10
68.1377809716
 20
231.0755476931
 11
106.9376332072
 21
231.0755476931
  0
LINE
  5
254
100
AcDbEntity
  8
0
100
AcDbLine
 62
7
  6
CONTINUOUS
 10
116.1377809716
 20
231.0755476931
 11
118.4509658694
 21
231.0755476931
  0
LINE
  5
255
100
AcDbEntity
  8
0
100
AcDbLine
 62
7
  6
CONTINUOUS
 10
118.4381181376
 20
239.4378892675
 11
49.2105220883
 21
239.4378892675
  0
LINE
  5
256
100
AcDbEntity
  8
0
100
AcDbLine
 62
7
  6
CONTINUOUS
 10
162.2620312374
 20
240.8000641753
 11
156.8126244489
 21
240.8000695441
  0
LINE
  5
257
100
AcDbEntity
  8
0
100
AcDbLine
 62
7
  6
CONTINUOUS
 10
258.7677070894
 20
240.8002258183
 11
169.262996271
 21
240.8002362612
  0
LINE
  5
258
100
AcDbEntity
  8
0
100
AcDbLine
 62
7
  6
CONTINUOUS
 10
62.9064499679
 20
231.7585623979
 11
64.1689675048
 21
231.7585622462
  0
LINE
  5
259
100
AcDbEntity
  8
0
100
AcDbLine
 62
7
  6
CONTINUOUS
 10
110.9064525922
 20
231.758562513
 11
112.1689667056
 21
231.7585622813
  0
LINE
  5
25A
100
AcDbEntity
  8
0
100
AcDbLine
 62
7
  6
CONTINUOUS
 10
140.9590178544
 20
284.2791207681
 11
140.7884519852
 21
284.5417522747
  0
LINE
  5
25B
100
AcDbEntity
  8
0
100
AcDbLine
 62
7
  6
CONTINUOUS
 10
177.0569880891
 20
228.9664466577
 11
172.8516828541
 21
236.2502489861
  0
LINE
  5
25C
100
AcDbEntity
  8
0
100
AcDbLine
 62
7
  6
CONTINUOUS
 10
136.1932250762
 20
228.8803216062
 11
135.7959468467
 21
228.2634162606
  0
LWPOLYLINE
  5
25D
100
AcDbEntity
  8
0
100
AcDbPolyline
 62
7
  6
CONTINUOUS
 90
6
 70
0
 10
134.5729256109
 20
278.4299522568
 10
133.7171859461
 20
278.1244167105
 10
131.7749754209
 20
277.5868080415
 10
128.8637048723
 20
277.0128079286
 10
124.4482493019
 20
276.3698623831
 10
122.4167554983
 20
276.1691146983
  0
LINE
  5
25E
100
AcDbEntity
  8
0
100
AcDbLine
 62
7
  6
CONTINUOUS
 10
106.9376331028
 20
231.0758819946
 11
107.0780963058
 21
231.0957621947
  0
LINE
  5
25F
100
AcDbEntity
  8
0
100
AcDbLine
 62
7
  6
CONTINUOUS
 10
58.9376331028
 20
231.0758819946
 11
59.0780963058
 21
231.0957621947
  0
LINE
  5
260
100
AcDbEntity
  8
0
100
AcDbLine
 62
7
  6
CONTINUOUS
 10
108.6550775367
 20
231.4857263179
 11
110.9179968558
 21
231.7590676184
  0
LINE
  5
261
100
AcDbEntity
  8
0
100
AcDbLine
 62
7
  6
CONTINUOUS
 10
60.6550755126
 20
231.4857259192
 11
62.9179975334
 21
231.7590676477
  0
LINE
  5
262
100
AcDbEntity
  8
0
100
AcDbLine
 62
7
  6
CONTINUOUS
 10
301.8984355905
 20
250.3270792611
 11
301.8737317139
 21
250.3255476931
  0
LINE
  5
263
100
AcDbEntity
  8
0
100
AcDbLine
 62
7
  6
CONTINUOUS
 10
258.7677070894
 20
243.6255476931
 11
267.6397884511
 21
243.6255476931
  0
LINE
  5
264
100
AcDbEntity
  8
0
100
AcDbLine
 62
7
  6
CONTINUOUS
 10
279.7861311286
 20
247.1255476931
 11
282.8861311286
 21
247.1255476931
  0
LINE
  5
265
100
AcDbEntity
  8
0
100
AcDbLine
 62
7
  6
CONTINUOUS
 10
283.2861311286
 20
250.3255476931
 11
301.8737317139
 21
250.3255476931
  0
LINE
  5
266
100
AcDbEntity
  8
0
100
AcDbLine
 62
7
  6
CONTINUOUS
 10
107.2753486274
 20
231.1529416479
 11
108.6638592598
 21
231.4874647652
  0
LINE
  5
267
100
AcDbEntity
  8
0
100
AcDbLine
 62
7
  6
CONTINUOUS
 10
313.9361311286
 20
253.4755476931
 11
319.047936827
 21
253.4755476931
  0
LINE
  5
268
100
AcDbEntity
  8
0
100
AcDbLine
 62
7
  6
CONTINUOUS
 10
156.7662176801
 20
253.9623752058
 11
269.4909016129
 21
253.9623230933
  0
LINE
  5
269
100
AcDbEntity
  8
0
100
AcDbLine
 62
7
  6
CONTINUOUS
 10
322.4361311286
 20
254.4755476931
 11
327.547936827
 21
254.4755476931
  0
LINE
  5
26A
100
AcDbEntity
  8
0
100
AcDbLine
 62
7
  6
CONTINUOUS
 10
330.9361311286
 20
255.4755476931
 11
336.047936827
 21
255.4755476931
  0
LINE
  5
26B
100
AcDbEntity
  8
0
100
AcDbLine
 62
7
  6
CONTINUOUS
 10
339.4361311286
 20
256.4755476931
 11
344.547936827
 21
256.4755476931
  0
LINE
  5
26C
100
AcDbEntity
  8
0
100
AcDbLine
 62
7
  6
CONTINUOUS
 10
118.4372551767
 20
260.7255927605
 11
48.4992435564
 21
260.7257427467
  0
LINE
  5
26D
100
AcDbEntity
  8
0
100
AcDbLine
 62
7
  6
CONTINUOUS
 10
278.822354682
 20
260.7255476931
 11
156.767707009
 21
260.7255605688
  0
LINE
  5
26E
100
AcDbEntity
  8
0
100
AcDbLine
 62
7
  6
CONTINUOUS
 10
278.9238390185
 20
262.1255476931
 11
278.8002364041
 21
262.1255476931
  0
LINE
  5
26F
100
AcDbEntity
  8
0
100
AcDbLine
 62
7
  6
CONTINUOUS
 10
279.5861346636
 20
262.1255476931
 11
279.2924961383
 21
262.1255476931
  0
LINE
  5
270
100
AcDbEntity
  8
0
100
AcDbLine
 62
7
  6
CONTINUOUS
 10
263.8193197758
 20
262.1255476931
 11
262.516094403
 21
262.1255476931
  0
LINE
  5
271
100
AcDbEntity
  8
0
100
AcDbLine
 62
7
  6
CONTINUOUS
 10
118.3477070894
 20
262.1255476931
 11
135.3762439258
 21
262.1255476931
  0
LINE
  5
272
100
AcDbEntity
  8
0
100
AcDbLine
 62
7
  6
CONTINUOUS
 10
157.3060181411
 20
262.1255476931
 11
135.3817760468
 21
262.1255476931
  0
LINE
  5
273
100
AcDbEntity
  8
0
100
AcDbLine
 62
7
  6
CONTINUOUS
 10
118.4374811367
 20
261.0441897773
 11
156.7677104022
 21
260.7255605411
  0
LINE
  5
274
100
AcDbEntity
  8
0
100
AcDbLine
 62
7
  6
CONTINUOUS
 10
58.9376332045
 20
231.0755476931
 11
58.9656821869
 21
231.0841091112
  0
LINE
  5
275
100
AcDbEntity
  8
0
100
AcDbLine
 62
7
  6
CONTINUOUS
 10
59.0780965707
 20
231.0957622719
 11
59.2772537628
 21
231.1534889711
  0
LINE
  5
276
100
AcDbEntity
  8
0
100
AcDbLine
 62
7
  6
CONTINUOUS
 10
59.2753481917
 20
231.1529415239
 11
60.6638596598
 21
231.4874648438
  0
LINE
  5
277
100
AcDbEntity
  8
0
100
AcDbLine
 62
7
  6
CONTINUOUS
 10
279.192759175
 20
263.3855476931
 11
279.5861311286
 21
263.3855476931
  0
LINE
  5
278
100
AcDbEntity
  8
0
100
AcDbLine
 62
7
  6
CONTINUOUS
 10
43.4977070894
 20
263.3855476931
 11
278.8804639204
 21
263.3855476931
  0
LINE
  5
279
100
AcDbEntity
  8
0
100
AcDbLine
 62
7
  6
CONTINUOUS
 10
339.4361311286
 20
267.7755476931
 11
344.547936827
 21
267.7755476931
  0
LINE
  5
27A
100
AcDbEntity
  8
0
100
AcDbLine
 62
7
  6
CONTINUOUS
 10
330.9361311286
 20
268.7755476931
 11
336.047936827
 21
268.7755476931
  0
LINE
  5
27B
100
AcDbEntity
  8
0
100
AcDbLine
 62
7
  6
CONTINUOUS
 10
48.5261451117
 20
269.7456220531
 11
117.5310496404
 21
269.7465955384
  0
LINE
  5
27C
100
AcDbEntity
  8
0
100
AcDbLine
 62
7
  6
CONTINUOUS
 10
322.4361311286
 20
269.7755476931
 11
327.547936827
 21
269.7755476931
  0
LINE
  5
27D
100
AcDbEntity
  8
0
100
AcDbLine
 62
7
  6
CONTINUOUS
 10
313.9361311286
 20
270.7755476931
 11
319.047936827
 21
270.7755476931
  0
LINE
  5
27E
100
AcDbEntity
  8
0
100
AcDbLine
 62
7
  6
CONTINUOUS
 10
279.2432944391
 20
272.6255476931
 11
279.3861311286
 21
272.6255476931
  0
LINE
  5
27F
100
AcDbEntity
  8
0
100
AcDbLine
 62
7
  6
CONTINUOUS
 10
198.5377070894
 20
301.7415730969
 11
198.5377070894
 21
315.521334077
  0
LINE
  5
280
100
AcDbEntity
  8
0
100
AcDbLine
 62
7
  6
CONTINUOUS
 10
200.0377070894
 20
294.2988926958
 11
200.0377070894
 21
297.1755476931
  0
LINE
  5
281
100
AcDbEntity
  8
0
100
AcDbLine
 62
7
  6
CONTINUOUS
 10
200.0889385584
 20
297.1755476931
 11
200.0889385584
 21
300.8755476931
  0
LINE
  5
282
100
AcDbEntity
  8
0
100
AcDbLine
 62
7
  6
CONTINUOUS
 10
201.3032318919
 20
294.4846408247
 11
201.3032318919
 21
297.1755476931
  0
LINE
  5
283
100
AcDbEntity
  8
0
100
AcDbLine
 62
7
  6
CONTINUOUS
 10
201.3477693067
 20
297.1755476931
 11
201.3477693067
 21
300.8755476931
  0
LINE
  5
284
100
AcDbEntity
  8
0
100
AcDbLine
 62
7
  6
CONTINUOUS
 10
202.4338136368
 20
300.8755476931
 11
202.4338136368
 21
294.6505826089
  0
LINE
  5
285
100
AcDbEntity
  8
0
100
AcDbLine
 62
7
  6
CONTINUOUS
 10
202.4782318919
 20
297.1755476931
 11
202.4782318919
 21
294.6571021238
  0
LINE
  5
286
100
AcDbEntity
  8
0
100
AcDbLine
 62
7
  6
CONTINUOUS
 10
202.5227693067
 20
300.8755476931
 11
202.5227693067
 21
297.1755476931
  0
LINE
  5
287
100
AcDbEntity
  8
0
100
AcDbLine
 62
7
  6
CONTINUOUS
 10
203.1570742579
 20
314.3755476931
 11
203.1570742579
 21
315.521334077
  0
LINE
  5
288
100
AcDbEntity
  8
0
100
AcDbLine
 62
7
  6
CONTINUOUS
 10
204.0556413555
 20
314.3755476931
 11
204.0556413555
 21
315.521334077
  0
LINE
  5
289
100
AcDbEntity
  8
0
100
AcDbLine
 62
7
  6
CONTINUOUS
 10
204.9377070894
 20
227.2331251906
 11
204.9377070894
 21
225.1255476931
  0
LINE
  5
28A
100
AcDbEntity
  8
0
100
AcDbLine
 62
7
  6
CONTINUOUS
 10
205.5241957806
 20
314.3755476931
 11
205.5241957806
 21
315.521334077
  0
LINE
  5
28B
100
AcDbEntity
  8
0
100
AcDbLine
 62
7
  6
CONTINUOUS
 10
206.5377070894
 20
318.4246682906
 11
206.5377070894
 21
318.1945652603
  0
LINE
  5
28C
100
AcDbEntity
  8
0
100
AcDbLine
 62
7
  6
CONTINUOUS
 10
206.5632183982
 20
314.3755476931
 11
206.5632183982
 21
315.521334077
  0
LINE
  5
28D
100
AcDbEntity
  8
0
100
AcDbLine
 62
7
  6
CONTINUOUS
 10
58.9376332045
 20
231.0755476931
 11
59.0728277848
 21
231.1141931991
  0
LWPOLYLINE
  5
28E
100
AcDbEntity
  8
0
100
AcDbPolyline
 62
7
  6
CONTINUOUS
 90
4
 70
0
 10
122.4149056681
 20
276.168989283
 10
122.0575962175
 20
276.147342536
 10
121.4424190755
 20
276.1270655246
 10
121.2337018354
 20
276.1255477413
  0
LINE
  5
28F
100
AcDbEntity
  8
0
100
AcDbLine
 62
7
  6
CONTINUOUS
 10
283.2861311286
 20
273.9255476931
 11
301.8737317139
 21
273.9255476931
  0
LINE
  5
290
100
AcDbEntity
  8
0
100
AcDbLine
 62
7
  6
CONTINUOUS
 10
53.3679739591
 20
276.1255476931
 11
122.4149056681
 21
276.1255476931
  0
LINE
  5
291
100
AcDbEntity
  8
0
100
AcDbLine
 62
7
  6
CONTINUOUS
 10
279.7861311286
 20
277.1255476931
 11
282.8861311286
 21
277.1255476931
  0
LINE
  5
292
100
AcDbEntity
  8
0
100
AcDbLine
 62
7
  6
CONTINUOUS
 10
301.8984355905
 20
273.9240161251
 11
301.8737317139
 21
273.9255476931
  0
LINE
  5
293
100
AcDbEntity
  8
0
100
AcDbLine
 62
7
  6
CONTINUOUS
 10
208.2130645163
 20
314.3755476931
 11
208.2130645163
 21
315.521334077
  0
LINE
  5
294
100
AcDbEntity
  8
0
100
AcDbLine
 62
7
  6
CONTINUOUS
 10
209.0399091907
 20
318.293502332
 11
209.0399091907
 21
318.4246682906
  0
LINE
  5
295
100
AcDbEntity
  8
0
100
AcDbLine
 62
7
  6
CONTINUOUS
 10
209.3508252821
 20
314.3755476931
 11
209.3508252821
 21
315.521334077
  0
LINE
  5
296
100
AcDbEntity
  8
0
100
AcDbLine
 62
7
  6
CONTINUOUS
 10
228.0377070894
 20
300.8755476931
 11
228.5377070894
 21
301.7415730969
  0
LINE
  5
297
100
AcDbEntity
  8
0
100
AcDbLine
 62
7
  6
CONTINUOUS
 10
165.7724796481
 20
226.2097837666
 11
167.8377070894
 21
227.7076601597
  0
LINE
  5
298
100
AcDbEntity
  8
0
100
AcDbLine
 62
7
  6
CONTINUOUS
 10
106.9376332045
 20
231.0755476931
 11
106.9656821869
 21
231.0841091112
  0
LINE
  5
299
100
AcDbEntity
  8
0
100
AcDbLine
 62
7
  6
CONTINUOUS
 10
107.0780965707
 20
231.0957622719
 11
107.2772536865
 21
231.1534889495
  0
LINE
  5
29A
100
AcDbEntity
  8
0
100
AcDbLine
 62
7
  6
CONTINUOUS
 10
106.9376332045
 20
231.0755476931
 11
107.0728277848
 21
231.1141931991
  0
LWPOLYLINE
  5
29B
100
AcDbEntity
  8
0
100
AcDbPolyline
 62
7
  6
CONTINUOUS
 90
5
 70
0
 10
133.7716695213
 20
278.142373906
 10
131.8523144066
 20
277.6050427819
 10
128.9944374213
 20
277.0352177805
 10
124.6711789184
 20
276.3969422653
 10
124.550400504
 20
276.3847368755
  0
LINE
  5
29C
100
AcDbEntity
  8
0
100
AcDbLine
 62
7
  6
CONTINUOUS
 10
230.1051386716
 20
297.9447723846
 11
157.3063200174
 21
287.2061767055
  0
LINE
  5
29D
100
AcDbEntity
  8
0
100
AcDbLine
 62
7
  6
CONTINUOUS
 10
144.633899951
 20
286.1669671188
 11
229.9599247081
 21
298.6907433526
  0
LINE
  5
29E
100
AcDbEntity
  8
0
100
AcDbLine
 62
7
  6
CONTINUOUS
 10
312.4214102027
 20
272.6141943906
 11
301.8984355905
 21
273.9240161251
  0
LINE
  5
29F
100
AcDbEntity
  8
0
100
AcDbLine
 62
7
  6
CONTINUOUS
 10
199.0377070894
 20
300.8755476931
 11
198.5377070894
 21
301.7415730969
  0
LINE
  5
2A0
100
AcDbEntity
  8
0
100
AcDbLine
 62
7
  6
CONTINUOUS
 10
219.6046122434
 20
318.1663279761
 11
219.6046122434
 21
318.4801431057
  0
LINE
  5
2A1
100
AcDbEntity
  8
0
100
AcDbLine
 62
7
  6
CONTINUOUS
 10
219.6093502767
 20
318.4714126909
 11
219.6093502767
 21
318.1660499725
  0
LINE
  5
2A2
100
AcDbEntity
  8
0
100
AcDbLine
 62
7
  6
CONTINUOUS
 10
220.0934417141
 20
318.1376459514
 11
220.0934417141
 21
318.4246682906
  0
LINE
  5
2A3
100
AcDbEntity
  8
0
100
AcDbLine
 62
7
  6
CONTINUOUS
 10
220.5377070894
 20
318.4246682906
 11
220.5377070894
 21
318.1055451434
  0
LINE
  5
2A4
100
AcDbEntity
  8
0
100
AcDbLine
 62
7
  6
CONTINUOUS
 10
221.6779660559
 20
318.1914689899
 11
221.6779660559
 21
318.0125086181
  0
LINE
  5
2A5
100
AcDbEntity
  8
0
100
AcDbLine
 62
7
  6
CONTINUOUS
 10
221.9970831495
 20
317.9809313129
 11
221.9970831495
 21
318.1393991841
  0
LINE
  5
2A6
100
AcDbEntity
  8
0
100
AcDbLine
 62
7
  6
CONTINUOUS
 10
222.2456712365
 20
318.1128576385
 11
222.2456712365
 21
317.9563330007
  0
LINE
  5
2A7
100
AcDbEntity
  8
0
100
AcDbLine
 62
7
  6
CONTINUOUS
 10
224.552644872
 20
297.8970867526
 11
224.552644872
 21
300.8755476931
  0
LINE
  5
2A8
100
AcDbEntity
  8
0
100
AcDbLine
 62
7
  6
CONTINUOUS
 10
224.641600542
 20
297.9101432721
 11
224.641600542
 21
300.8755476931
  0
LINE
  5
2A9
100
AcDbEntity
  8
0
100
AcDbLine
 62
7
  6
CONTINUOUS
 10
225.727644872
 20
300.8755476931
 11
225.727644872
 21
298.0695480517
  0
LINE
  5
2AA
100
AcDbEntity
  8
0
100
AcDbLine
 62
7
  6
CONTINUOUS
 10
226.9864756204
 20
298.2543136569
 11
226.9864756204
 21
300.8755476931
  0
LINE
  5
2AB
100
AcDbEntity
  8
0
100
AcDbLine
 62
7
  6
CONTINUOUS
 10
228.1052217281
 20
314.3755476931
 11
228.1052217281
 21
315.521334077
  0
LINE
  5
2AC
100
AcDbEntity
  8
0
100
AcDbLine
 62
7
  6
CONTINUOUS
 10
228.3444153963
 20
314.3755476931
 11
228.3444153963
 21
315.521334077
  0
LINE
  5
2AD
100
AcDbEntity
  8
0
100
AcDbLine
 62
7
  6
CONTINUOUS
 10
228.5257070894
 20
314.3755476931
 11
228.5257070894
 21
315.521334077
  0
LINE
  5
2AE
100
AcDbEntity
  8
0
100
AcDbLine
 62
7
  6
CONTINUOUS
 10
228.5377070894
 20
301.7415730969
 11
228.5377070894
 21
314.3755476931
  0
LWPOLYLINE
  5
2AF
100
AcDbEntity
  8
0
100
AcDbPolyline
 62
7
  6
CONTINUOUS
 90
4
 70
0
 10
144.6338998968
 20
286.16696711
 10
143.5852597692
 20
285.9100585782
 10
142.0156000401
 20
285.2509315484
 10
140.7884484489
 20
284.5417499179
  0
LINE
  5
2B0
100
AcDbEntity
  8
0
100
AcDbLine
 62
7
  6
CONTINUOUS
 10
200.0378494953
 20
297.1755476931
 11
201.3477693067
 21
297.1755476931
  0
LINE
  5
2B1
100
AcDbEntity
  8
0
100
AcDbLine
 62
7
  6
CONTINUOUS
 10
202.4782318919
 20
297.1755476931
 11
219.6367106916
 21
297.1755476931
  0
LINE
  5
2B2
100
AcDbEntity
  8
0
100
AcDbLine
 62
7
  6
CONTINUOUS
 10
231.1216809956
 20
298.0193365731
 11
232.403085558
 21
298.0193365731
  0
LINE
  5
2B3
100
AcDbEntity
  8
0
100
AcDbLine
 62
7
  6
CONTINUOUS
 10
232.403085558
 20
298.7755476931
 11
231.1216809956
 21
298.7755476931
  0
LINE
  5
2B4
100
AcDbEntity
  8
0
100
AcDbLine
 62
7
  6
CONTINUOUS
 10
228.037691245
 20
300.8755476931
 11
199.0377229338
 21
300.8755476931
  0
LINE
  5
2B5
100
AcDbEntity
  8
0
100
AcDbLine
 62
7
  6
CONTINUOUS
 10
228.5377070894
 20
301.7415730969
 11
198.5377070894
 21
301.7415730969
  0
LINE
  5
2B6
100
AcDbEntity
  8
0
100
AcDbLine
 62
7
  6
CONTINUOUS
 10
277.1867604342
 20
287.0917236479
 11
275.8190282828
 21
287.3956138039
  0
LINE
  5
2B7
100
AcDbEntity
  8
0
100
AcDbLine
 62
7
  6
CONTINUOUS
 10
230.9377070894
 20
225.1255476931
 11
230.9377070894
 21
227.2331251906
  0
LINE
  5
2B8
100
AcDbEntity
  8
0
100
AcDbLine
 62
7
  6
CONTINUOUS
 10
231.1216809956
 20
298.0193365731
 11
231.1216809956
 21
298.7755476931
  0
LINE
  5
2B9
100
AcDbEntity
  8
0
100
AcDbLine
 62
7
  6
CONTINUOUS
 10
232.403085558
 20
298.7755476931
 11
232.403085558
 21
298.0193365731
  0
LINE
  5
2BA
100
AcDbEntity
  8
0
100
AcDbLine
 62
7
  6
CONTINUOUS
 10
221.6779660559
 20
318.191475361
 11
221.7012023001
 21
318.1945652603
  0
LINE
  5
2BB
100
AcDbEntity
  8
0
100
AcDbLine
 62
7
  6
CONTINUOUS
 10
203.1570742579
 20
314.3755476931
 11
204.0556413555
 21
314.3755476931
  0
LINE
  5
2BC
100
AcDbEntity
  8
0
100
AcDbLine
 62
7
  6
CONTINUOUS
 10
205.5241957806
 20
314.3755476931
 11
206.5632183982
 21
314.3755476931
  0
LINE
  5
2BD
100
AcDbEntity
  8
0
100
AcDbLine
 62
7
  6
CONTINUOUS
 10
208.2130645163
 20
314.3755476931
 11
209.3508252821
 21
314.3755476931
  0
LINE
  5
2BE
100
AcDbEntity
  8
0
100
AcDbLine
 62
7
  6
CONTINUOUS
 10
228.1052217281
 20
314.3755476931
 11
228.3444153963
 21
314.3755476931
  0
LINE
  5
2BF
100
AcDbEntity
  8
0
100
AcDbLine
 62
7
  6
CONTINUOUS
 10
228.5257070894
 20
314.3755476931
 11
228.5377069021
 21
314.3755476931
  0
LINE
  5
2C0
100
AcDbEntity
  8
0
100
AcDbLine
 62
7
  6
CONTINUOUS
 10
198.5377070894
 20
315.521334077
 11
203.1570742579
 21
315.521334077
  0
LINE
  5
2C1
100
AcDbEntity
  8
0
100
AcDbLine
 62
7
  6
CONTINUOUS
 10
204.0556413555
 20
315.521334077
 11
205.5241957806
 21
315.521334077
  0
LINE
  5
2C2
100
AcDbEntity
  8
0
100
AcDbLine
 62
7
  6
CONTINUOUS
 10
206.5632183982
 20
315.521334077
 11
208.2130645163
 21
315.521334077
  0
LINE
  5
2C3
100
AcDbEntity
  8
0
100
AcDbLine
 62
7
  6
CONTINUOUS
 10
209.3508252821
 20
315.521334077
 11
228.1052217281
 21
315.521334077
  0
LINE
  5
2C4
100
AcDbEntity
  8
0
100
AcDbLine
 62
7
  6
CONTINUOUS
 10
228.3444153963
 20
315.521334077
 11
228.5257070894
 21
315.521334077
  0
LINE
  5
2C5
100
AcDbEntity
  8
0
100
AcDbLine
 62
7
  6
CONTINUOUS
 10
234.1509569458
 20
298.5822720774
 11
274.8944812905
 21
289.460081443
  0
LINE
  5
2C6
100
AcDbEntity
  8
0
100
AcDbLine
 62
7
  6
CONTINUOUS
 10
269.4302212313
 20
289.8597924104
 11
233.9324586077
 21
297.8493174019
  0
LINE
  5
2C7
100
AcDbEntity
  8
0
100
AcDbLine
 62
7
  6
CONTINUOUS
 10
217.6047800116
 20
318.6248191553
 11
217.6049477798
 21
318.6242370432
  0
LINE
  5
2C8
100
AcDbEntity
  8
0
100
AcDbLine
 62
7
  6
CONTINUOUS
 10
200.1553800493
 20
317.4844504859
 11
226.9200778491
 21
317.4844419704
  0
LINE
  5
2C9
100
AcDbEntity
  8
0
100
AcDbLine
 62
7
  6
CONTINUOUS
 10
222.5377070894
 20
318.1945652603
 11
221.7012023001
 21
318.1945652603
  0
LINE
  5
2CA
100
AcDbEntity
  8
0
100
AcDbLine
 62
7
  6
CONTINUOUS
 10
207.7548240768
 20
318.1945652603
 11
204.5377070894
 21
318.1945652603
  0
LINE
  5
2CB
100
AcDbEntity
  8
0
100
AcDbLine
 62
7
  6
CONTINUOUS
 10
220.5377070894
 20
318.1945652603
 11
221.6779660559
 21
318.1945652603
  0
LINE
  5
2CC
100
AcDbEntity
  8
0
100
AcDbLine
 62
7
  6
CONTINUOUS
 10
206.537707125
 20
318.4246682906
 11
209.0399091907
 21
318.4246682906
  0
LINE
  5
2CD
100
AcDbEntity
  8
0
100
AcDbLine
 62
7
  6
CONTINUOUS
 10
220.0934417141
 20
318.4246682906
 11
220.5377070683
 21
318.4246682906
  0
LINE
  5
2CE
100
AcDbEntity
  8
0
100
AcDbLine
 62
7
  6
CONTINUOUS
 10
258.7677070894
 20
243.6255476931
 11
258.7677070894
 21
235.6164342416
  0
LINE
  5
2CF
100
AcDbEntity
  8
0
100
AcDbLine
 62
7
  6
CONTINUOUS
 10
259.1677070894
 20
243.6255476931
 11
259.1677070894
 21
231.1403344513
  0
LINE
  5
2D0
100
AcDbEntity
  8
0
100
AcDbLine
 62
7
  6
CONTINUOUS
 10
263.6506700025
 20
262.7549572159
 11
263.8193197758
 21
262.1255476931
  0
LINE
  5
2D1
100
AcDbEntity
  8
0
100
AcDbLine
 62
7
  6
CONTINUOUS
 10
269.5868129377
 20
249.7804660191
 11
269.4909016129
 21
253.9623230933
  0
LINE
  5
2D2
100
AcDbEntity
  8
0
100
AcDbLine
 62
7
  6
CONTINUOUS
 10
267.1677070894
 20
235.9860756495
 11
267.1677070894
 21
243.6255264956
  0
LINE
  5
2D3
100
AcDbEntity
  8
0
100
AcDbLine
 62
7
  6
CONTINUOUS
 10
269.4302212313
 20
289.8597924104
 11
269.4288445102
 21
260.7255576938
  0
LINE
  5
2D4
100
AcDbEntity
  8
0
100
AcDbLine
 62
7
  6
CONTINUOUS
 10
262.516094403
 20
262.1255476931
 11
262.6847441763
 21
262.7549572158
  0
LINE
  5
2D5
100
AcDbEntity
  8
0
100
AcDbLine
 62
7
  6
CONTINUOUS
 10
255.0446014145
 20
225.1255476931
 11
258.7677070894
 21
235.6164342416
  0
LINE
  5
2D6
100
AcDbEntity
  8
0
100
AcDbLine
 62
7
  6
CONTINUOUS
 10
263.432006335
 20
243.6255476931
 11
269.5868129377
 21
249.7804660191
  0
LINE
  5
2D7
100
AcDbEntity
  8
0
100
AcDbLine
 62
7
  6
CONTINUOUS
 10
280.1677070894
 20
249.2128105438
 11
279.3698421956
 21
248.4783300623
  0
LINE
  5
2D8
100
AcDbEntity
  8
0
100
AcDbLine
 62
7
  6
CONTINUOUS
 10
278.8239451598
 20
263.3855686374
 11
278.8014270882
 21
263.6572323925
  0
LINE
  5
2D9
100
AcDbEntity
  8
0
100
AcDbLine
 62
7
  6
CONTINUOUS
 10
278.8239451598
 20
263.3855686374
 11
278.8069190819
 21
263.6575879464
  0
LINE
  5
2DA
100
AcDbEntity
  8
0
100
AcDbLine
 62
7
  6
CONTINUOUS
 10
279.2433664735
 20
272.62234083
 11
279.2143197178
 21
273.925476323
  0
LINE
  5
2DB
100
AcDbEntity
  8
0
100
AcDbLine
 62
7
  6
CONTINUOUS
 10
278.822354682
 20
260.7255476931
 11
278.822354682
 21
261.1511265228
  0
LINE
  5
2DC
100
AcDbEntity
  8
0
100
AcDbLine
 62
7
  6
CONTINUOUS
 10
278.8226087663
 20
263.1035928644
 11
278.8226087663
 21
263.3855476931
  0
LINE
  5
2DD
100
AcDbEntity
  8
0
100
AcDbLine
 62
7
  6
CONTINUOUS
 10
279.3861311286
 20
272.6255476931
 11
279.3861311286
 21
268.028560365
  0
LINE
  5
2DE
100
AcDbEntity
  8
0
100
AcDbLine
 62
7
  6
CONTINUOUS
 10
279.5861311286
 20
261.9925853905
 11
279.5861311286
 21
276.9252983113
  0
LINE
  5
2DF
100
AcDbEntity
  8
0
100
AcDbLine
 62
7
  6
CONTINUOUS
 10
279.7861311286
 20
247.1255476931
 11
279.7861311286
 21
277.1255476931
  0
LINE
  5
2E0
100
AcDbEntity
  8
0
100
AcDbLine
 62
7
  6
CONTINUOUS
 10
278.8804639204
 20
263.3855476931
 11
279.0223875402
 21
263.6755476929
  0
LINE
  5
2E1
100
AcDbEntity
  8
0
100
AcDbLine
 62
7
  6
CONTINUOUS
 10
277.3849235098
 20
242.4953073773
 11
263.5298824517
 21
228.6402663192
  0
LINE
  5
2E2
100
AcDbEntity
  8
0
100
AcDbLine
 62
7
  6
CONTINUOUS
 10
279.2143142119
 20
273.9255476931
 11
277.1867604342
 21
287.0917236479
  0
LINE
  5
2E3
100
AcDbEntity
  8
0
100
AcDbLine
 62
7
  6
CONTINUOUS
 10
282.8861311286
 20
277.1255476931
 11
282.8861311286
 21
247.1255476931
  0
LINE
  5
2E4
100
AcDbEntity
  8
0
100
AcDbLine
 62
7
  6
CONTINUOUS
 10
283.0861311286
 20
276.9253084559
 11
283.0861311286
 21
247.3257869303
  0
LINE
  5
2E5
100
AcDbEntity
  8
0
100
AcDbLine
 62
7
  6
CONTINUOUS
 10
283.2861311286
 20
250.3255476931
 11
283.2861311286
 21
273.9255476931
  0
LINE
  5
2E6
100
AcDbEntity
  8
0
100
AcDbLine
 62
7
  6
CONTINUOUS
 10
301.8737317139
 20
273.9255476931
 11
301.8737317139
 21
250.3270792611
  0
LINE
  5
2E7
100
AcDbEntity
  8
0
100
AcDbLine
 62
7
  6
CONTINUOUS
 10
301.8984355905
 20
250.3270792611
 11
301.8984355905
 21
273.9240161251
  0
LINE
  5
2E8
100
AcDbEntity
  8
0
100
AcDbLine
 62
7
  6
CONTINUOUS
 10
312.4214102027
 20
272.6141943906
 11
312.4214102027
 21
251.6369009956
  0
LINE
  5
2E9
100
AcDbEntity
  8
0
100
AcDbLine
 62
7
  6
CONTINUOUS
 10
313.7361311286
 20
271.1254560194
 11
313.7361311286
 21
253.1256393668
  0
LINE
  5
2EA
100
AcDbEntity
  8
0
100
AcDbLine
 62
7
  6
CONTINUOUS
 10
313.9361311286
 20
253.4755476931
 11
313.9361311286
 21
270.7755476931
  0
LINE
  5
2EB
100
AcDbEntity
  8
0
100
AcDbLine
 62
7
  6
CONTINUOUS
 10
319.047936827
 20
270.7755476931
 11
319.047936827
 21
253.4755476931
  0
LINE
  5
2EC
100
AcDbEntity
  8
0
100
AcDbLine
 62
7
  6
CONTINUOUS
 10
319.2465479213
 20
253.2990771049
 11
319.2465479213
 21
270.9520182813
  0
LINE
  5
2ED
100
AcDbEntity
  8
0
100
AcDbLine
 62
7
  6
CONTINUOUS
 10
322.2361311286
 20
270.7753228296
 11
322.2361311286
 21
253.4757725566
  0
LINE
  5
2EE
100
AcDbEntity
  8
0
100
AcDbLine
 62
7
  6
CONTINUOUS
 10
322.4361311286
 20
254.4755476931
 11
322.4361311286
 21
269.7755476931
  0
LINE
  5
2EF
100
AcDbEntity
  8
0
100
AcDbLine
 62
7
  6
CONTINUOUS
 10
327.547936827
 20
269.7755476931
 11
327.547936827
 21
254.4755476931
  0
LINE
  5
2F0
100
AcDbEntity
  8
0
100
AcDbLine
 62
7
  6
CONTINUOUS
 10
327.7465479213
 20
254.2990771049
 11
327.7465479213
 21
269.9520182813
  0
LINE
  5
2F1
100
AcDbEntity
  8
0
100
AcDbLine
 62
7
  6
CONTINUOUS
 10
330.7361311286
 20
269.7753445617
 11
330.7361311286
 21
254.4757508245
  0
LINE
  5
2F2
100
AcDbEntity
  8
0
100
AcDbLine
 62
7
  6
CONTINUOUS
 10
330.9361311286
 20
255.4755476931
 11
330.9361311286
 21
268.7755476931
  0
LINE
  5
2F3
100
AcDbEntity
  8
0
100
AcDbLine
 62
7
  6
CONTINUOUS
 10
336.047936827
 20
268.7755476931
 11
336.047936827
 21
255.4755476931
  0
LINE
  5
2F4
100
AcDbEntity
  8
0
100
AcDbLine
 62
7
  6
CONTINUOUS
 10
336.2465479213
 20
255.2990771049
 11
336.2465479213
 21
268.9520182813
  0
LINE
  5
2F5
100
AcDbEntity
  8
0
100
AcDbLine
 62
7
  6
CONTINUOUS
 10
339.2361311286
 20
268.7755350722
 11
339.2361311286
 21
255.475560314
  0
LINE
  5
2F6
100
AcDbEntity
  8
0
100
AcDbLine
 62
7
  6
CONTINUOUS
 10
339.4361311286
 20
256.4755476931
 11
339.4361311286
 21
267.7755476931
  0
LINE
  5
2F7
100
AcDbEntity
  8
0
100
AcDbLine
 62
7
  6
CONTINUOUS
 10
344.547936827
 20
267.7755476931
 11
344.547936827
 21
256.4755476931
  0
LINE
  5
2F8
100
AcDbEntity
  8
0
100
AcDbLine
 62
7
  6
CONTINUOUS
 10
344.7465479213
 20
256.2990771049
 11
344.7465479213
 21
267.9520182813
  0
LINE
  5
2F9
100
AcDbEntity
  8
0
100
AcDbLine
 62
7
  6
CONTINUOUS
 10
347.7361311286
 20
267.7753290904
 11
347.7361311286
 21
256.4757662958
  0
ARC
  5
2FA
100
AcDbEntity
  8
0
100
AcDbCircle
 62
7
  6
CONTINUOUS
 10
64.3645160729
 20
213.3066698345
 40
18.5791483811
100
AcDbArc
 50
104.9186989354
 51
106.893021208
  0
ARC
  5
2FB
100
AcDbEntity
  8
0
100
AcDbCircle
 62
7
  6
CONTINUOUS
 10
112.3645160701
 20
213.3066698445
 40
18.5791483706
100
AcDbArc
 50
104.918698935
 51
106.8930212087
  0
ARC
  5
2FC
100
AcDbEntity
  8
0
100
AcDbCircle
 62
7
  6
CONTINUOUS
 10
111.1168522561
 20
214.7560677413
 40
17.0741064078
100
AcDbArc
 50
73.0004142185
 51
75.1420026813
  0
ARC
  5
2FD
100
AcDbEntity
  8
0
100
AcDbCircle
 62
7
  6
CONTINUOUS
 10
63.116852256
 20
214.7560677408
 40
17.0741064083
100
AcDbArc
 50
73.0004142186
 51
75.1420026812
  0
ARC
  5
2FE
100
AcDbEntity
  8
0
100
AcDbCircle
 62
7
  6
CONTINUOUS
 10
111.9524808297
 20
214.8466420187
 40
16.9850077756
100
AcDbArc
 50
101.7543648072
 51
104.9130203198
  0
ARC
  5
2FF
100
AcDbEntity
  8
0
100
AcDbCircle
 62
7
  6
CONTINUOUS
 10
63.9524807338
 20
214.8466423959
 40
16.9850073864
100
AcDbArc
 50
101.7543627997
 51
104.9130203345
  0
ARC
  5
300
100
AcDbEntity
  8
0
100
AcDbCircle
 62
7
  6
CONTINUOUS
 10
111.7948882653
 20
215.5555456552
 40
16.2588686973
100
AcDbArc
 50
101.4039459576
 51
101.7195740816
  0
ARC
  5
301
100
AcDbEntity
  8
0
100
AcDbCircle
 62
7
  6
CONTINUOUS
 10
63.7948881735
 20
215.555546104
 40
16.2588682392
100
AcDbArc
 50
101.4039446303
 51
101.7195720494
  0
ARC
  5
302
100
AcDbEntity
  8
0
100
AcDbCircle
 62
7
  6
CONTINUOUS
 10
63.5258888413
 20
217.1611019009
 40
14.6339310662
100
AcDbArc
 50
86.5534368633
 51
87.8546490279
  0
ARC
  5
303
100
AcDbEntity
  8
0
100
AcDbCircle
 62
7
  6
CONTINUOUS
 10
111.5258888448
 20
217.1611019778
 40
14.6339309892
100
AcDbArc
 50
86.5534419394
 51
87.8546505281
  0
ARC
  5
304
100
AcDbEntity
  8
0
100
AcDbCircle
 62
7
  6
CONTINUOUS
 10
63.5429254919
 20
217.2543083981
 40
14.5405705835
100
AcDbArc
 50
91.6982141315
 51
93.8545700703
  0
ARC
  5
305
100
AcDbEntity
  8
0
100
AcDbCircle
 62
7
  6
CONTINUOUS
 10
111.5429254775
 20
217.2543087119
 40
14.5405702694
100
AcDbArc
 50
91.698215178
 51
93.8545736342
  0
ARC
  5
306
100
AcDbEntity
  8
0
100
AcDbCircle
 62
7
  6
CONTINUOUS
 10
63.5374877665
 20
217.4596799946
 40
14.3351280568
100
AcDbArc
 50
87.8563022053
 51
91.7008155741
  0
ARC
  5
307
100
AcDbEntity
  8
0
100
AcDbCircle
 62
7
  6
CONTINUOUS
 10
111.5374877667
 20
217.4596800264
 40
14.3351280249
100
AcDbArc
 50
87.8563037307
 51
91.7008166607
  0
ARC
  5
308
100
AcDbEntity
  8
0
100
AcDbCircle
 62
7
  6
CONTINUOUS
 10
173.9877070894
 20
217.0555476931
 40
12.3
100
AcDbArc
 50
75.55
 51
120.0
  0
ARC
  5
309
100
AcDbEntity
  8
0
100
AcDbCircle
 62
7
  6
CONTINUOUS
 10
156.721677309
 20
243.2469995623
 40
11.9016574271
100
AcDbArc
 50
267.7175230443
 51
272.6826424491
  0
ARC
  5
30A
100
AcDbEntity
  8
0
100
AcDbCircle
 62
7
  6
CONTINUOUS
 10
135.570168491
 20
238.0399430589
 40
8.4858323976
100
AcDbArc
 50
258.462001942
 51
275.3557736753
  0
ARC
  5
30B
100
AcDbEntity
  8
0
100
AcDbCircle
 62
7
  6
CONTINUOUS
 10
138.0943674823
 20
228.95477286
 40
5.637790896
100
AcDbArc
 50
86.6439491164
 51
88.7389624603
  0
ARC
  5
30C
100
AcDbEntity
  8
0
100
AcDbCircle
 62
7
  6
CONTINUOUS
 10
49.4266320899
 20
236.0757779819
 40
4.9999959785
100
AcDbArc
 50
182.15
 51
270.0
  0
ARC
  5
30D
100
AcDbEntity
  8
0
100
AcDbCircle
 62
7
  6
CONTINUOUS
 10
121.5883786552
 20
226.6633972493
 40
4.3968191429
100
AcDbArc
 50
63.1570344976
 51
68.5930980146
  0
ARC
  5
30E
100
AcDbEntity
  8
0
100
AcDbCircle
 62
7
  6
CONTINUOUS
 10
193.4034570033
 20
228.6885196862
 40
3.5629742147
100
AcDbArc
 50
253.4629908162
 51
269.9360111216
  0
ARC
  5
30F
100
AcDbEntity
  8
0
100
AcDbCircle
 62
7
  6
CONTINUOUS
 10
138.9591001976
 20
229.2704399257
 40
3.2317294468
100
AcDbArc
 50
86.4509502628
 51
88.663524442
  0
ARC
  5
310
100
AcDbEntity
  8
0
100
AcDbCircle
 62
7
  6
CONTINUOUS
 10
68.137683266
 20
231.5759534019
 40
0.5002862803
100
AcDbArc
 50
224.5801292531
 51
253.6772207196
  0
ARC
  5
311
100
AcDbEntity
  8
0
100
AcDbCircle
 62
7
  6
CONTINUOUS
 10
116.137683266
 20
231.5759534019
 40
0.5002862803
100
AcDbArc
 50
224.580129253
 51
253.6772207208
  0
ARC
  5
312
100
AcDbEntity
  8
0
100
AcDbCircle
 62
7
  6
CONTINUOUS
 10
58.9377311483
 20
231.5759535579
 40
0.5002862555
100
AcDbArc
 50
286.3227685467
 51
315.4198572399
  0
ARC
  5
313
100
AcDbEntity
  8
0
100
AcDbCircle
 62
7
  6
CONTINUOUS
 10
106.9377311483
 20
231.5759535579
 40
0.5002862555
100
AcDbArc
 50
286.3227685436
 51
315.4198572403
  0
ARC
  5
314
100
AcDbEntity
  8
0
100
AcDbCircle
 62
7
  6
CONTINUOUS
 10
86.1208738179
 20
251.4613681769
 40
193.0716442571
100
AcDbArc
 50
3.621751387
 51
10.726362691
  0
ARC
  5
315
100
AcDbEntity
  8
0
100
AcDbCircle
 62
7
  6
CONTINUOUS
 10
156.6141509247
 20
245.974871533
 40
13.3283128712
100
AcDbArc
 50
268.6113735236
 51
272.6041258584
  0
ARC
  5
316
100
AcDbEntity
  8
0
100
AcDbCircle
 62
7
  6
CONTINUOUS
 10
53.3679739591
 20
267.6255476931
 40
8.5
100
AcDbArc
 50
90.0
 51
165.5500000001
  0
ARC
  5
317
100
AcDbEntity
  8
0
100
AcDbCircle
 62
7
  6
CONTINUOUS
 10
255.0446010771
 20
237.1255476931
 40
12.0
100
AcDbArc
 50
270.0
 51
315.0000000026
  0
ARC
  5
318
100
AcDbEntity
  8
0
100
AcDbCircle
 62
7
  6
CONTINUOUS
 10
213.5377070894
 20
248.7755476931
 40
70.0
100
AcDbArc
 50
97.3870484358
 51
101.0214612585
  0
ARC
  5
319
100
AcDbEntity
  8
0
100
AcDbCircle
 62
7
  6
CONTINUOUS
 10
213.5377070894
 20
248.7755476931
 40
70.0
100
AcDbArc
 50
78.9785387315
 51
82.6129516063
  0
ARC
  5
31A
100
AcDbEntity
  8
0
100
AcDbCircle
 62
7
  6
CONTINUOUS
 10
213.5377070894
 20
248.7755476931
 40
70.0
100
AcDbArc
 50
84.2608295399
 51
95.7391704482
  0
ARC
  5
31B
100
AcDbEntity
  8
0
100
AcDbCircle
 62
7
  6
CONTINUOUS
 10
215.2769312826
 20
254.0210555319
 40
64.4695465613
100
AcDbArc
 50
83.7945732514
 51
84.0167558297
  0
ARC
  5
31C
100
AcDbEntity
  8
0
100
AcDbCircle
 62
7
  6
CONTINUOUS
 10
215.8322566276
 20
254.0261490293
 40
64.2542269687
100
AcDbArc
 50
83.7758389626
 51
87.2147707058
  0
ARC
  5
31D
100
AcDbEntity
  8
0
100
AcDbCircle
 62
7
  6
CONTINUOUS
 10
270.6672657767
 20
249.2125773608
 40
9.4999597216
100
AcDbArc
 50
315.0032785251
 51
347.1247562809
  0
ARC
  5
31E
100
AcDbEntity
  8
0
100
AcDbCircle
 62
7
  6
CONTINUOUS
 10
270.0848124943
 20
248.3220718704
 40
9.2821609294
100
AcDbArc
 50
319.6951740355
 51
321.2862264863
  0
ARC
  5
31F
100
AcDbEntity
  8
0
100
AcDbCircle
 62
7
  6
CONTINUOUS
 10
270.1116629861
 20
248.2987649377
 40
9.2466081985
100
AcDbArc
 50
315.0079784652
 51
319.6976887937
  0
ARC
  5
320
100
AcDbEntity
  8
0
100
AcDbCircle
 62
7
  6
CONTINUOUS
 10
265.9146815368
 20
271.0720906988
 40
127.5494701466
100
AcDbArc
 50
175.6475901094
 51
175.889508643
  0
ARC
  5
321
100
AcDbEntity
  8
0
100
AcDbCircle
 62
7
  6
CONTINUOUS
 10
264.5626444401
 20
268.8309342585
 40
21.5848690632
100
AcDbArc
 50
76.175676222
 51
76.9672038494
  0
ARC
  5
322
100
AcDbEntity
  8
0
100
AcDbCircle
 62
7
  6
CONTINUOUS
 10
265.6315315163
 20
273.1581449851
 40
17.1275994359
100
AcDbArc
 50
74.8367670739
 51
76.1889102917
  0
ARC
  5
323
100
AcDbEntity
  8
0
100
AcDbCircle
 62
7
  6
CONTINUOUS
 10
269.448087228
 20
262.1353078039
 40
9.352154269
100
AcDbArc
 50
359.9402048722
 51
3.0010001644
  0
ARC
  5
324
100
AcDbEntity
  8
0
100
AcDbCircle
 62
7
  6
CONTINUOUS
 10
263.1677070894
 20
262.6255476931
 40
0.5
100
AcDbArc
 50
15.0000000262
 51
164.9999999773
  0
ARC
  5
325
100
AcDbEntity
  8
0
100
AcDbCircle
 62
7
  6
CONTINUOUS
 10
279.3861311286
 20
272.8255476931
 40
0.2
100
AcDbArc
 50
270.0
 51
360.0
  0
ARC
  5
326
100
AcDbEntity
  8
0
100
AcDbCircle
 62
7
  6
CONTINUOUS
 10
279.7861311286
 20
276.9255476931
 40
0.2
100
AcDbArc
 50
90.0
 51
180.0
  0
ARC
  5
327
100
AcDbEntity
  8
0
100
AcDbCircle
 62
7
  6
CONTINUOUS
 10
312.2361311286
 20
253.1254142352
 40
1.5
100
AcDbArc
 50
277.0952600393
 51
360.0
  0
ARC
  5
328
100
AcDbEntity
  8
0
100
AcDbCircle
 62
7
  6
CONTINUOUS
 10
346.2361311286
 20
256.4755476931
 40
1.5
100
AcDbArc
 50
186.7563270306
 51
360.0
  0
ARC
  5
329
100
AcDbEntity
  8
0
100
AcDbCircle
 62
7
  6
CONTINUOUS
 10
337.7361311286
 20
255.4755476931
 40
1.5
100
AcDbArc
 50
186.7563270306
 51
360.0
  0
ARC
  5
32A
100
AcDbEntity
  8
0
100
AcDbCircle
 62
7
  6
CONTINUOUS
 10
320.7361311286
 20
253.4755476931
 40
1.5
100
AcDbArc
 50
186.7563270306
 51
360.0
  0
ARC
  5
32B
100
AcDbEntity
  8
0
100
AcDbCircle
 62
7
  6
CONTINUOUS
 10
329.2361311286
 20
254.4755476931
 40
1.5
100
AcDbArc
 50
186.7563270306
 51
360.0
  0
ARC
  5
32C
100
AcDbEntity
  8
0
100
AcDbCircle
 62
7
  6
CONTINUOUS
 10
344.547936827
 20
256.2755476931
 40
0.2
100
AcDbArc
 50
6.7563270309
 51
90.0
  0
ARC
  5
32D
100
AcDbEntity
  8
0
100
AcDbCircle
 62
7
  6
CONTINUOUS
 10
327.547936827
 20
254.2755476931
 40
0.2
100
AcDbArc
 50
6.7563270309
 51
90.0
  0
ARC
  5
32E
100
AcDbEntity
  8
0
100
AcDbCircle
 62
7
  6
CONTINUOUS
 10
319.047936827
 20
253.2755476931
 40
0.2
100
AcDbArc
 50
6.7563270309
 51
90.0
  0
ARC
  5
32F
100
AcDbEntity
  8
0
100
AcDbCircle
 62
7
  6
CONTINUOUS
 10
283.2861311286
 20
250.1255476931
 40
0.2
100
AcDbArc
 50
90.0
 51
180.0
  0
ARC
  5
330
100
AcDbEntity
  8
0
100
AcDbCircle
 62
7
  6
CONTINUOUS
 10
282.8861311286
 20
247.3255476931
 40
0.2
100
AcDbArc
 50
270.0
 51
360.0
  0
ARC
  5
331
100
AcDbEntity
  8
0
100
AcDbCircle
 62
7
  6
CONTINUOUS
 10
339.4361311286
 20
256.2755476931
 40
0.2
100
AcDbArc
 50
90.0
 51
180.0
  0
ARC
  5
332
100
AcDbEntity
  8
0
100
AcDbCircle
 62
7
  6
CONTINUOUS
 10
313.9361311286
 20
253.2755476931
 40
0.2
100
AcDbArc
 50
90.0
 51
180.0
  0
ARC
  5
333
100
AcDbEntity
  8
0
100
AcDbCircle
 62
7
  6
CONTINUOUS
 10
336.047936827
 20
255.2755476931
 40
0.2
100
AcDbArc
 50
6.7563270309
 51
90.0
  0
ARC
  5
334
100
AcDbEntity
  8
0
100
AcDbCircle
 62
7
  6
CONTINUOUS
 10
330.9361311286
 20
255.2755476931
 40
0.2
100
AcDbArc
 50
90.0
 51
180.0
  0
ARC
  5
335
100
AcDbEntity
  8
0
100
AcDbCircle
 62
7
  6
CONTINUOUS
 10
322.4361311286
 20
254.2755476931
 40
0.2
100
AcDbArc
 50
90.0
 51
180.0
  0
ARC
  5
336
100
AcDbEntity
  8
0
100
AcDbCircle
 62
7
  6
CONTINUOUS
 10
346.2361311286
 20
267.7755476931
 40
1.5
100
AcDbArc
 50
0.0
 51
173.2436729694
  0
ARC
  5
337
100
AcDbEntity
  8
0
100
AcDbCircle
 62
7
  6
CONTINUOUS
 10
312.2361311286
 20
271.1256811509
 40
1.5
100
AcDbArc
 50
0.0
 51
82.9047399607
  0
ARC
  5
338
100
AcDbEntity
  8
0
100
AcDbCircle
 62
7
  6
CONTINUOUS
 10
337.7361311286
 20
268.7755476931
 40
1.5
100
AcDbArc
 50
0.0
 51
173.2436729694
  0
ARC
  5
339
100
AcDbEntity
  8
0
100
AcDbCircle
 62
7
  6
CONTINUOUS
 10
320.7361311286
 20
270.7755476931
 40
1.5
100
AcDbArc
 50
0.0
 51
173.2436729694
  0
ARC
  5
33A
100
AcDbEntity
  8
0
100
AcDbCircle
 62
7
  6
CONTINUOUS
 10
329.2361311286
 20
269.7755476931
 40
1.5
100
AcDbArc
 50
0.0
 51
173.2436729694
  0
ARC
  5
33B
100
AcDbEntity
  8
0
100
AcDbCircle
 62
7
  6
CONTINUOUS
 10
339.4361311286
 20
267.9755476931
 40
0.2
100
AcDbArc
 50
180.0
 51
270.0
  0
ARC
  5
33C
100
AcDbEntity
  8
0
100
AcDbCircle
 62
7
  6
CONTINUOUS
 10
330.9361311286
 20
268.9755476931
 40
0.2
100
AcDbArc
 50
180.0
 51
270.0
  0
ARC
  5
33D
100
AcDbEntity
  8
0
100
AcDbCircle
 62
7
  6
CONTINUOUS
 10
322.4361311286
 20
269.9755476931
 40
0.2
100
AcDbArc
 50
180.0
 51
270.0
  0
ARC
  5
33E
100
AcDbEntity
  8
0
100
AcDbCircle
 62
7
  6
CONTINUOUS
 10
313.9361311286
 20
270.9755476931
 40
0.2
100
AcDbArc
 50
180.0
 51
270.0
  0
ARC
  5
33F
100
AcDbEntity
  8
0
100
AcDbCircle
 62
7
  6
CONTINUOUS
 10
282.8861311286
 20
276.9255476931
 40
0.2
100
AcDbArc
 50
0.0
 51
90.0
  0
ARC
  5
340
100
AcDbEntity
  8
0
100
AcDbCircle
 62
7
  6
CONTINUOUS
 10
283.2861311286
 20
274.1255476931
 40
0.2
100
AcDbArc
 50
180.0
 51
270.0
  0
ARC
  5
341
100
AcDbEntity
  8
0
100
AcDbCircle
 62
7
  6
CONTINUOUS
 10
344.547936827
 20
267.9755476931
 40
0.2
100
AcDbArc
 50
270.0
 51
353.2436729691
  0
ARC
  5
342
100
AcDbEntity
  8
0
100
AcDbCircle
 62
7
  6
CONTINUOUS
 10
336.047936827
 20
268.9755476931
 40
0.2
100
AcDbArc
 50
270.0
 51
353.2436729691
  0
ARC
  5
343
100
AcDbEntity
  8
0
100
AcDbCircle
 62
7
  6
CONTINUOUS
 10
319.047936827
 20
270.9755476931
 40
0.2
100
AcDbArc
 50
270.0
 51
353.2436729691
  0
ARC
  5
344
100
AcDbEntity
  8
0
100
AcDbCircle
 62
7
  6
CONTINUOUS
 10
327.547936827
 20
269.9755476931
 40
0.2
100
AcDbArc
 50
270.0
 51
353.2436729691
  0
ARC
  5
345
100
AcDbEntity
  8
0
100
AcDbCircle
 62
7
  6
CONTINUOUS
 10
115.4369503218
 20
349.6690139746
 40
79.9498481589
100
AcDbArc
 50
271.5009006147
 51
272.7701411655
  0
ARC
  5
346
100
AcDbEntity
  8
0
100
AcDbCircle
 62
7
  6
CONTINUOUS
 10
104.0550681262
 20
345.8376951113
 40
77.1526028004
100
AcDbArc
 50
280.0271051946
 51
281.3733005458
  0
ARC
  5
347
100
AcDbEntity
  8
0
100
AcDbCircle
 62
7
  6
CONTINUOUS
 10
268.1178079696
 20
313.9575865449
 40
60.0109539824
100
AcDbArc
 50
271.3110581411
 51
272.5590053758
  0
ARC
  5
348
100
AcDbEntity
  8
0
100
AcDbCircle
 62
7
  6
CONTINUOUS
 10
93.1766700439
 20
306.7503825194
 40
52.4528983381
100
AcDbArc
 50
329.7744729101
 51
330.2871587671
  0
ARC
  5
349
100
AcDbEntity
  8
0
100
AcDbCircle
 62
7
  6
CONTINUOUS
 10
121.5798476054
 20
319.1388309848
 40
43.3245284884
100
AcDbArc
 50
270.6329738017
 51
271.1035635993
  0
ARC
  5
34A
100
AcDbEntity
  8
0
100
AcDbCircle
 62
7
  6
CONTINUOUS
 10
220.7584521547
 20
304.4815364547
 40
13.7122112664
100
AcDbArc
 50
82.6100490786
 51
83.7734819782
  0
ARC
  5
34B
100
AcDbEntity
  8
0
100
AcDbCircle
 62
7
  6
CONTINUOUS
 10
220.8058151626
 20
304.8047362221
 40
13.3856052609
100
AcDbArc
 50
81.2958393775
 51
82.6331594254
  0
ARC
  5
34C
100
AcDbEntity
  8
0
100
AcDbCircle
 62
7
  6
CONTINUOUS
 10
219.5035373871
 20
329.3744106897
 40
11.1834229009
100
AcDbArc
 50
265.7669365231
 51
267.1860795751
  0
ARC
  5
34D
100
AcDbEntity
  8
0
100
AcDbCircle
 62
7
  6
CONTINUOUS
 10
232.403085558
 20
290.7755476931
 40
8.0
100
AcDbArc
 50
77.38
 51
90.0
  0
ARC
  5
34E
100
AcDbEntity
  8
0
100
AcDbCircle
 62
7
  6
CONTINUOUS
 10
231.1216809956
 20
290.7755476931
 40
8.0
100
AcDbArc
 50
90.0
 51
98.3499966386
  0
ARC
  5
34F
100
AcDbEntity
  8
0
100
AcDbCircle
 62
7
  6
CONTINUOUS
 10
232.4006262317
 20
291.0329784429
 40
6.9862960843
100
AcDbArc
 50
77.3343748923
 51
89.9799864699
  0
ARC
  5
350
100
AcDbEntity
  8
0
100
AcDbCircle
 62
7
  6
CONTINUOUS
 10
231.1223936336
 20
291.0458853594
 40
6.9734557891
100
AcDbArc
 50
90.0060920894
 51
98.3879356023
  0
ARC
  5
351
100
AcDbEntity
  8
0
100
AcDbCircle
 62
7
  6
CONTINUOUS
 10
222.4536240141
 20
322.4876482115
 40
4.3721504052
100
AcDbArc
 50
263.0946983313
 51
264.006236569
  0
ARC
  5
352
100
AcDbEntity
  8
0
100
AcDbCircle
 62
7
  6
CONTINUOUS
 10
274.2392905543
 20
286.5325029326
 40
2.9999989829
100
AcDbArc
 50
10.7389677849
 51
77.3784914225
  0
ARC
  5
353
100
AcDbEntity
  8
0
100
AcDbCircle
 62
7
  6
CONTINUOUS
 10
272.8959405351
 20
286.8657206969
 40
2.9714491152
100
AcDbArc
 50
51.2960115399
 51
57.8090441556
  0
ARC
  5
354
100
AcDbEntity
  8
0
100
AcDbCircle
 62
7
  6
CONTINUOUS
 10
272.9199698706
 20
286.8999366253
 40
2.9296922575
100
AcDbArc
 50
57.8502544075
 51
77.3596619933
  0
ARC
  5
355
100
AcDbEntity
  8
0
100
AcDbCircle
 62
7
  6
CONTINUOUS
 10
226.4553074595
 20
315.4980553371
 40
2.0747312844
100
AcDbArc
 50
39.9675741532
 51
41.0871982137
  0
ARC
  5
356
100
AcDbEntity
  8
0
100
AcDbCircle
 62
7
  6
CONTINUOUS
 10
226.4583677996
 20
315.5006987048
 40
2.0706874354
100
AcDbArc
 50
41.087722371
 51
43.3713056084
  0
ARC
  5
357
100
AcDbEntity
  8
0
100
AcDbCircle
 62
7
  6
CONTINUOUS
 10
226.4721401147
 20
315.5135339537
 40
2.0518618185
100
AcDbArc
 50
43.3748684297
 51
43.5999932453
  0
ARC
  5
358
100
AcDbEntity
  8
0
100
AcDbCircle
 62
7
  6
CONTINUOUS
 10
226.5377238433
 20
315.5213478717
 40
1.999979881
100
AcDbArc
 50
45.5731031344
 51
78.9785387303
  0
ARC
  5
359
100
AcDbEntity
  8
0
100
AcDbCircle
 62
7
  6
CONTINUOUS
 10
200.5376903354
 20
315.5213478717
 40
1.999979881
100
AcDbArc
 50
101.0214612697
 51
180.0
  0
ARC
  5
35A
100
AcDbEntity
  8
0
100
AcDbCircle
 62
7
  6
CONTINUOUS
 10
674.7435096272
 20
251.578125734
 40
556.322447511
100
AcDbArc
 50
179.5678867174
 51
180.265786171
  0
ARC
  5
35B
100
AcDbEntity
  8
0
100
AcDbCircle
 62
7
  6
CONTINUOUS
 10
640.0510986067
 20
260.7450893167
 40
370.6222549028
100
AcDbArc
 50
180.0030192391
 51
181.0486258622
  0
ARC
  5
35C
100
AcDbEntity
  8
0
100
AcDbCircle
 62
7
  6
CONTINUOUS
 10
601.1363241257
 20
280.2293997639
 40
321.9838374756
100
AcDbArc
 50
181.3138899824
 51
182.9690396989
  0
ARC
  5
35D
100
AcDbEntity
  8
0
100
AcDbCircle
 62
7
  6
CONTINUOUS
 10
485.8102942105
 20
260.7425834308
 40
206.9879404854
100
AcDbArc
 50
180.0464456824
 51
181.4633712
  0
ARC
  5
35E
100
AcDbEntity
  8
0
100
AcDbCircle
 62
7
  6
CONTINUOUS
 10
677.9447679676
 20
683.2487304178
 40
686.4438928553
100
AcDbArc
 50
221.383876657
 51
221.6112066443
  0
ARC
  5
35F
100
AcDbEntity
  8
0
100
AcDbCircle
 62
7
  6
CONTINUOUS
 10
2390.2364172176
 20
255.1747716918
 40
2131.5583819604
100
AcDbArc
 50
180.5257322296
 51
180.6537364741
  0
SPLINE
  5
360
100
AcDbEntity
  8
0
100
AcDbSpline
 62
7
  6
CONTINUOUS
 70
0
 71
3
 72
10
 73
6
 74
0
 42
0.0000001
 43
0.0000001
 44
0.0000000001
 40
0.0
 40
0.0
 40
0.0
 40
0.0
 40
0.2300880298
 40
0.4788589398
 40
1.0
 40
1.0
 40
1.0
 40
1.0
 10
206.6377096744
 20
316.5599299541
 30
0.0
 10
206.6377043526
 20
316.4800524308
 30
0.0
 10
206.6235684934
 20
316.3140384788
 30
0.0
 10
206.5828877694
 20
315.9695293934
 30
0.0
 10
206.5632183982
 20
315.7022537767
 30
0.0
 10
206.5632183982
 20
315.521334077
 30
0.0
  0
SPLINE
  5
361
100
AcDbEntity
  8
0
100
AcDbSpline
 62
7
  6
CONTINUOUS
 70
0
 71
3
 72
15
 73
11
 74
0
 42
0.0000001
 43
0.0000001
 44
0.0000000001
 40
0.0
 40
0.0
 40
0.0
 40
0.0
 40
0.0099995862
 40
0.026965116
 40
0.0862837069
 40
0.1792549921
 40
0.302867721
 40
0.452664265
 40
0.6230949586
 40
1.0
 40
1.0
 40
1.0
 40
1.0
 10
209.3973630772
 20
318.3836010687
 30
0.0
 10
209.3973591171
 20
318.380197692
 30
0.0
 10
209.3911833889
 20
318.3719403875
 30
0.0
 10
209.3657982945
 20
318.3578499148
 30
0.0
 10
209.3102307114
 20
318.3400142976
 30
0.0
 10
209.2189352204
 20
318.3192748534
 30
0.0
 10
209.0959771002
 20
318.2975238956
 30
0.0
 10
208.9464895802
 20
318.2759882095
 30
0.0
 10
208.7108801898
 20
318.2476709949
 30
0.0
 10
208.5252970442
 20
318.2309655905
 30
0.0
 10
208.3973666337
 20
318.2214964065
 30
0.0
  0
SPLINE
  5
362
100
AcDbEntity
  8
0
100
AcDbSpline
 62
7
  6
CONTINUOUS
 70
0
 71
3
 72
9
 73
5
 74
0
 42
0.0000001
 43
0.0000001
 44
0.0000000001
 40
0.0
 40
0.0
 40
0.0
 40
0.0
 40
0.0640875939
 40
1.0
 40
1.0
 40
1.0
 40
1.0
 10
227.9377070894
 20
316.9496164064
 30
0.0
 10
227.9381881032
 20
316.9492163106
 30
0.0
 10
227.9446253793
 20
316.9418184142
 30
0.0
 10
227.9517399102
 20
316.9351545245
 30
0.0
 10
227.9580408741
 20
316.9285377897
 30
0.0
  0
SPLINE
  5
363
100
AcDbEntity
  8
0
100
AcDbSpline
 62
7
  6
CONTINUOUS
 70
0
 71
3
 72
9
 73
5
 74
0
 42
0.0000001
 43
0.0000001
 44
0.0000000001
 40
0.0
 40
0.0
 40
0.0
 40
0.0
 40
0.4817320434
 40
1.0
 40
1.0
 40
1.0
 40
1.0
 10
228.0453983175
 20
316.8307672211
 30
0.0
 10
228.1914750262
 20
316.6564864533
 30
0.0
 10
228.4369216214
 20
316.2421265433
 30
0.0
 10
228.5257087768
 20
315.7659841173
 30
0.0
 10
228.5257070894
 20
315.521334077
 30
0.0
  0
SPLINE
  5
364
100
AcDbEntity
  8
0
100
AcDbSpline
 62
7
  6
CONTINUOUS
 70
0
 71
3
 72
11
 73
7
 74
0
 42
0.0000001
 43
0.0000001
 44
0.0000000001
 40
0.0
 40
0.0
 40
0.0
 40
0.0
 40
0.2183438977
 40
0.4682106084
 40
0.7316623651
 40
1.0
 40
1.0
 40
1.0
 40
1.0
 10
204.1984065987
 20
316.70877188
 30
0.0
 10
204.1984134673
 20
316.6216281608
 30
0.0
 10
204.1677822529
 20
316.4359639081
 30
0.0
 10
204.1121960308
 20
316.1498688934
 30
0.0
 10
204.0669428535
 20
315.840783642
 30
0.0
 10
204.0556413555
 20
315.6284309082
 30
0.0
 10
204.0556413555
 20
315.521334077
 30
0.0
  0
SPLINE
  5
365
100
AcDbEntity
  8
0
100
AcDbSpline
 62
7
  6
CONTINUOUS
 70
0
 71
3
 72
9
 73
5
 74
0
 42
0.0000001
 43
0.0000001
 44
0.0000000001
 40
0.0
 40
0.0
 40
0.0
 40
0.0
 40
0.5120302131
 40
1.0
 40
1.0
 40
1.0
 40
1.0
 10
209.3508252821
 20
315.521334077
 30
0.0
 10
209.3508252821
 20
315.6627371663
 30
0.0
 10
209.3603372752
 20
315.9388056344
 30
0.0
 10
209.3781366336
 20
316.2145997076
 30
0.0
 10
209.3781372423
 20
316.3493582308
 30
0.0
  0
SPLINE
  5
366
100
AcDbEntity
  8
0
100
AcDbSpline
 62
7
  6
CONTINUOUS
 70
0
 71
3
 72
16
 73
12
 74
0
 42
0.0000001
 43
0.0000001
 44
0.0000000001
 40
0.0
 40
0.0
 40
0.0
 40
0.0
 40
0.0216189708
 40
0.0574210617
 40
0.104783651
 40
0.1606320016
 40
0.287965107
 40
0.4259033675
 40
0.5680847817
 40
0.7118109379
 40
1.0
 40
1.0
 40
1.0
 40
1.0
 10
227.6365776587
 20
316.9371930032
 30
0.0
 10
227.6365776587
 20
316.9263072461
 30
0.0
 10
227.6483159298
 20
316.8986468846
 30
0.0
 10
227.6726362728
 20
316.8525456604
 30
0.0
 10
227.7085221694
 20
316.7921181406
 30
0.0
 10
227.7675628391
 20
316.6923167306
 30
0.0
 10
227.8462485617
 20
316.5508879943
 30
0.0
 10
227.9333559265
 20
316.3649319236
 30
0.0
 10
228.0073696318
 20
316.1644095364
 30
0.0
 10
228.0816679113
 20
315.8847533768
 30
0.0
 10
228.1052217281
 20
315.6664453387
 30
0.0
 10
228.1052217281
 20
315.521334077
 30
0.0
  0
SPLINE
  5
367
100
AcDbEntity
  8
0
100
AcDbSpline
 62
7
  6
CONTINUOUS
 70
0
 71
3
 72
14
 73
10
 74
0
 42
0.0000001
 43
0.0000001
 44
0.0000000001
 40
0.0
 40
0.0
 40
0.0
 40
0.0
 40
0.3993661289
 40
0.5712540533
 40
0.7183405455
 40
0.8368895065
 40
0.923844822
 40
0.9775735448
 40
1.0
 40
1.0
 40
1.0
 40
1.0
 10
222.7986079849
 20
317.9016187505
 30
0.0
 10
222.8951155854
 20
317.8910933582
 30
0.0
 10
223.0334139606
 20
317.8775755304
 30
0.0
 10
223.2074202205
 20
317.8649278079
 30
0.0
 10
223.3140284852
 20
317.8597295492
 30
0.0
 10
223.3987177171
 20
317.8575429573
 30
0.0
 10
223.4641489736
 20
317.8603819206
 30
0.0
 10
223.4991481325
 20
317.8631820138
 30
0.0
 10
223.5221173828
 20
317.8719699477
 30
0.0
 10
223.5221216887
 20
317.8774214783
 30
0.0
  0
SPLINE
  5
368
100
AcDbEntity
  8
0
100
AcDbSpline
 62
7
  6
CONTINUOUS
 70
0
 71
3
 72
15
 73
11
 74
0
 42
0.0000001
 43
0.0000001
 44
0.0000000001
 40
0.0
 40
0.0
 40
0.0
 40
0.0
 40
0.0108897187
 40
0.0290634922
 40
0.0903845079
 40
0.1844633866
 40
0.3083114764
 40
0.4575645791
 40
0.626755037
 40
1.0
 40
1.0
 40
1.0
 40
1.0
 10
217.6782153132
 20
318.3819726203
 30
0.0
 10
217.6789580834
 20
318.3783471681
 30
0.0
 10
217.6864233737
 20
318.3705748895
 30
0.0
 10
217.7132023441
 20
318.356321191
 30
0.0
 10
217.7703166091
 20
318.3387779148
 30
0.0
 10
217.8626178952
 20
318.3180509263
 30
0.0
 10
217.9857105258
 20
318.2965595594
 30
0.0
 10
218.1344666585
 20
318.2752512827
 30
0.0
 10
218.3679072319
 20
318.247382504
 30
0.0
 10
218.5515501625
 20
318.2308588773
 30
0.0
 10
218.678047545
 20
318.2214956298
 30
0.0
  0
SPLINE
  5
369
100
AcDbEntity
  8
0
100
AcDbSpline
 62
7
  6
CONTINUOUS
 70
0
 71
3
 72
9
 73
5
 74
0
 42
0.0000001
 43
0.0000001
 44
0.0000000001
 40
0.0
 40
0.0
 40
0.0
 40
0.0
 40
0.3920750777
 40
1.0
 40
1.0
 40
1.0
 40
1.0
 10
217.6049477798
 20
318.6242370432
 30
0.0
 10
217.6214845689
 20
318.5955024177
 30
0.0
 10
217.6487425596
 20
318.5144514348
 30
0.0
 10
217.6678978774
 20
318.4323318991
 30
0.0
 10
217.6782153132
 20
318.3819726203
 30
0.0
  0
SPLINE
  5
36A
100
AcDbEntity
  8
0
100
AcDbSpline
 62
7
  6
CONTINUOUS
 70
0
 71
3
 72
9
 73
5
 74
0
 42
0.0000001
 43
0.0000001
 44
0.0000000001
 40
0.0
 40
0.0
 40
0.0
 40
0.0
 40
0.2221325596
 40
1.0
 40
1.0
 40
1.0
 40
1.0
 10
207.7548240768
 20
318.1945644915
 30
0.0
 10
207.8024483519
 20
318.1945651106
 30
0.0
 10
208.0168399138
 20
318.1975599291
 30
0.0
 10
208.2310501427
 20
318.2091877788
 30
0.0
 10
208.3973666337
 20
318.2214982329
 30
0.0
  0
SPLINE
  5
36B
100
AcDbEntity
  8
0
100
AcDbSpline
 62
7
  6
CONTINUOUS
 70
0
 71
3
 72
14
 73
10
 74
0
 42
0.0000001
 43
0.0000001
 44
0.0000000001
 40
0.0
 40
0.0
 40
0.0
 40
0.0
 40
0.0252300948
 40
0.0815721958
 40
0.1699563555
 40
0.2886203159
 40
0.4347590978
 40
0.6048338045
 40
1.0
 40
1.0
 40
1.0
 40
1.0
 10
223.5221216887
 20
317.8774214783
 30
0.0
 10
223.5221264254
 20
317.8834183433
 30
0.0
 10
223.5014086383
 20
317.8956872932
 30
0.0
 10
223.4670842783
 20
317.9091245576
 30
0.0
 10
223.4052112442
 20
317.9273839797
 30
0.0
 10
223.3243588817
 20
317.9469651588
 30
0.0
 10
223.2229711217
 20
317.968536451
 30
0.0
 10
223.0569797
 20
318.0001237791
 30
0.0
 10
222.9243345845
 20
318.0219433817
 30
0.0
 10
222.831493621
 20
318.0361781308
 30
0.0
  0
SPLINE
  5
36C
100
AcDbEntity
  8
0
100
AcDbSpline
 62
7
  6
CONTINUOUS
 70
0
 71
3
 72
18
 73
14
 74
0
 42
0.0000001
 43
0.0000001
 44
0.0000000001
 40
0.0
 40
0.0
 40
0.0
 40
0.0
 40
0.1920092531
 40
0.3770054869
 40
0.5478868434
 40
0.6984092065
 40
0.822937778
 40
0.8739405113
 40
0.9167654118
 40
0.9510340425
 40
0.9763986841
 40
0.9926874992
 40
1.0
 40
1.0
 40
1.0
 40
1.0
 10
218.6047800116
 20
318.582760495
 30
0.0
 10
218.6690042199
 20
318.5780986737
 30
0.0
 10
218.7950807416
 20
318.568577181
 30
0.0
 10
218.978214071
 20
318.5536309008
 30
0.0
 10
219.1473891894
 20
318.5386914987
 30
0.0
 10
219.2962395911
 20
318.5243205834
 30
0.0
 10
219.4049886513
 20
318.5126484327
 30
0.0
 10
219.4776475169
 20
318.5038086336
 30
0.0
 10
219.5203134351
 20
318.4981578567
 30
0.0
 10
219.5540637625
 20
318.4929070271
 30
0.0
 10
219.5796659216
 20
318.4886480121
 30
0.0
 10
219.5946183093
 20
318.4843874138
 30
0.0
 10
219.6033909122
 20
318.4822697
 30
0.0
 10
219.6046122434
 20
318.4801431057
 30
0.0
  0
SPLINE
  5
36D
100
AcDbEntity
  8
0
100
AcDbSpline
 62
7
  6
CONTINUOUS
 70
0
 71
3
 72
12
 73
8
 74
0
 42
0.0000001
 43
0.0000001
 44
0.0000000001
 40
0.0
 40
0.0
 40
0.0
 40
0.0
 40
0.412489374
 40
0.7225549502
 40
0.9168920313
 40
0.9702400051
 40
1.0
 40
1.0
 40
1.0
 40
1.0
 10
209.0399091907
 20
318.4246682906
 30
0.0
 10
209.0901924952
 20
318.4246682906
 30
0.0
 10
209.1784084989
 20
318.4233504765
 30
0.0
 10
209.2896542293
 20
318.4169048818
 30
0.0
 10
209.3577484391
 20
318.406485373
 30
0.0
 10
209.3893491922
 20
318.3958953453
 30
0.0
 10
209.3973672985
 20
318.3872288709
 30
0.0
 10
209.3973630772
 20
318.3836010687
 30
0.0
  0
SPLINE
  5
36E
100
AcDbEntity
  8
0
100
AcDbSpline
 62
7
  6
CONTINUOUS
 70
0
 71
3
 72
13
 73
9
 74
0
 42
0.0000001
 43
0.0000001
 44
0.0000000001
 40
0.0
 40
0.0
 40
0.0
 40
0.0
 40
0.2467857855
 40
0.3707825502
 40
0.491975971
 40
0.6147060931
 40
0.7406384864
 40
1.0
 40
1.0
 40
1.0
 40
1.0
 10
209.0781372433
 20
316.9372074995
 30
0.0
 10
208.9262367904
 20
316.9735159924
 30
0.0
 10
208.6650409636
 20
316.9048441508
 30
0.0
 10
208.4430222375
 20
316.6829509551
 30
0.0
 10
208.3327270264
 20
316.4743586299
 30
0.0
 10
208.2685848035
 20
316.2483455528
 30
0.0
 10
208.221281012
 20
315.9298209577
 30
0.0
 10
208.2130645163
 20
315.685472244
 30
0.0
 10
208.2130645163
 20
315.521334077
 30
0.0
  0
SPLINE
  5
36F
100
AcDbEntity
  8
0
100
AcDbSpline
 62
7
  6
CONTINUOUS
 70
0
 71
3
 72
9
 73
5
 74
0
 42
0.0000001
 43
0.0000001
 44
0.0000000001
 40
0.0
 40
0.0
 40
0.0
 40
0.0
 40
0.2764549969
 40
1.0
 40
1.0
 40
1.0
 40
1.0
 10
221.9279660559
 20
318.147195366
 30
0.0
 10
221.9112431986
 20
318.1492175127
 30
0.0
 10
221.8508036912
 20
318.1569182245
 30
0.0
 10
221.7904677943
 20
318.165630889
 30
0.0
 10
221.7470767808
 20
318.173429755
 30
0.0
  0
SPLINE
  5
370
100
AcDbEntity
  8
0
100
AcDbSpline
 62
7
  6
CONTINUOUS
 70
0
 71
3
 72
11
 73
7
 74
0
 42
0.0000001
 43
0.0000001
 44
0.0000000001
 40
0.0
 40
0.0
 40
0.0
 40
0.0
 40
0.4153231489
 40
0.7267967641
 40
0.9225279558
 40
1.0
 40
1.0
 40
1.0
 40
1.0
 10
221.7470767808
 20
318.173429755
 30
0.0
 10
221.7372833132
 20
318.1751899799
 30
0.0
 10
221.7205379373
 20
318.1784582427
 30
0.0
 10
221.6977959283
 20
318.1831575692
 30
0.0
 10
221.686440004
 20
318.1871366932
 30
0.0
 10
221.6779542632
 20
318.1896125398
 30
0.0
 10
221.6779617516
 20
318.1914686158
 30
0.0
  0
SPLINE
  5
371
100
AcDbEntity
  8
0
100
AcDbSpline
 62
7
  6
CONTINUOUS
 70
0
 71
3
 72
11
 73
7
 74
0
 42
0.0000001
 43
0.0000001
 44
0.0000000001
 40
0.0
 40
0.0
 40
0.0
 40
0.0
 40
0.2992793741
 40
0.5312611721
 40
0.7469950807
 40
1.0
 40
1.0
 40
1.0
 40
1.0
 10
203.8984063661
 20
316.9371930036
 30
0.0
 10
203.9426152384
 20
316.9477603463
 30
0.0
 10
204.0241808698
 20
316.9582763907
 30
0.0
 10
204.1383880747
 20
316.9178925852
 30
0.0
 10
204.1938126488
 20
316.8191366952
 30
0.0
 10
204.1984035701
 20
316.747198052
 30
0.0
 10
204.1984065987
 20
316.70877188
 30
0.0
  0
SPLINE
  5
372
100
AcDbEntity
  8
0
100
AcDbSpline
 62
7
  6
CONTINUOUS
 70
0
 71
3
 72
12
 73
8
 74
0
 42
0.0000001
 43
0.0000001
 44
0.0000000001
 40
0.0
 40
0.0
 40
0.0
 40
0.0
 40
0.266560482
 40
0.3833842781
 40
0.4964183034
 40
0.732901956
 40
1.0
 40
1.0
 40
1.0
 40
1.0
 10
206.3377070894
 20
316.9496164064
 30
0.0
 10
206.3875512639
 20
316.9496164064
 30
0.0
 10
206.4617574951
 20
316.9371428989
 30
0.0
 10
206.5398558937
 20
316.8848467712
 30
0.0
 10
206.5963512526
 20
316.8169189115
 30
0.0
 10
206.6329033685
 20
316.7041548738
 30
0.0
 10
206.637713002
 20
316.6098746473
 30
0.0
 10
206.6377096744
 20
316.5599299541
 30
0.0
  0
SPLINE
  5
373
100
AcDbEntity
  8
0
100
AcDbSpline
 62
7
  6
CONTINUOUS
 70
0
 71
3
 72
18
 73
14
 74
0
 42
0.0000001
 43
0.0000001
 44
0.0000000001
 40
0.0
 40
0.0
 40
0.0
 40
0.0
 40
0.1947733528
 40
0.3822624928
 40
0.5549617821
 40
0.7064382061
 40
0.8307513935
 40
0.8811839724
 40
0.9231025897
 40
0.9561481355
 40
0.9800013415
 40
0.9945045075
 40
1.0
 40
1.0
 40
1.0
 40
1.0
 10
218.6047800116
 20
318.5827604948
 30
0.0
 10
218.5398827226
 20
318.5874711728
 30
0.0
 10
218.4124863978
 20
318.5963333535
 30
0.0
 10
218.227464547
 20
318.6080849244
 30
0.0
 10
218.0567957837
 20
318.6177624614
 30
0.0
 10
217.9071687981
 20
318.6249847237
 30
0.0
 10
217.7981913403
 20
318.6290359865
 30
0.0
 10
217.7259335469
 20
318.630670951
 30
0.0
 10
217.6838124119
 20
318.631086841
 30
0.0
 10
217.6514039484
 20
318.6307464517
 30
0.0
 10
217.6261743751
 20
318.6298463351
 30
0.0
 10
217.6140921947
 20
318.6282151978
 30
0.0
 10
217.6047918329
 20
318.6266436604
 30
0.0
 10
217.6047816745
 20
318.6248078066
 30
0.0
  0
SPLINE
  5
374
100
AcDbEntity
  8
0
100
AcDbSpline
 62
7
  6
CONTINUOUS
 70
0
 71
3
 72
14
 73
10
 74
0
 42
0.0000001
 43
0.0000001
 44
0.0000000001
 40
0.0
 40
0.0
 40
0.0
 40
0.0
 40
0.3765885818
 40
0.547442937
 40
0.6978627798
 40
0.8223547421
 40
0.9163934476
 40
0.9761757194
 40
1.0
 40
1.0
 40
1.0
 40
1.0
 10
219.8593083346
 20
318.4404010068
 30
0.0
 10
219.8277875161
 20
318.4432620599
 30
0.0
 10
219.7819696424
 20
318.4476784228
 30
0.0
 10
219.7237061772
 20
318.4540246439
 30
0.0
 10
219.6863798487
 20
318.4583006316
 30
0.0
 10
219.6559549345
 20
318.4625367112
 30
0.0
 10
219.632014376
 20
318.4653470989
 30
0.0
 10
219.6188448619
 20
318.469191313
 30
0.0
 10
219.6102661768
 20
318.4696321344
 30
0.0
 10
219.6093502767
 20
318.4714126909
 30
0.0
  0
SPLINE
  5
375
100
AcDbEntity
  8
0
100
AcDbSpline
 62
7
  6
CONTINUOUS
 70
0
 71
3
 72
9
 73
5
 74
0
 42
0.0000001
 43
0.0000001
 44
0.0000000001
 40
0.0
 40
0.0
 40
0.0
 40
0.0
 40
0.391537431
 40
1.0
 40
1.0
 40
1.0
 40
1.0
 10
220.0934417141
 20
318.4246682906
 30
0.0
 10
220.0628118822
 20
318.4246682906
 30
0.0
 10
219.9846804984
 20
318.4300898559
 30
0.0
 10
219.9067132656
 20
318.4360668793
 30
0.0
 10
219.8593083346
 20
318.4403696871
 30
0.0
  0
SPLINE
  5
376
100
AcDbEntity
  8
0
100
AcDbSpline
 62
7
  6
CONTINUOUS
 70
0
 71
3
 72
12
 73
8
 74
0
 42
0.0000001
 43
0.0000001
 44
0.0000000001
 40
0.0
 40
0.0
 40
0.0
 40
0.0
 40
0.1197405345
 40
0.2466738866
 40
0.4964216855
 40
0.7461533036
 40
1.0
 40
1.0
 40
1.0
 40
1.0
 10
203.8984063661
 20
316.9371930032
 30
0.0
 10
203.8320045159
 20
316.9213208247
 30
0.0
 10
203.7010754306
 20
316.8631807922
 30
0.0
 10
203.4781171385
 20
316.6850002655
 30
0.0
 10
203.2843582836
 20
316.3730537373
 30
0.0
 10
203.177379569
 20
315.9537924205
 30
0.0
 10
203.1570742579
 20
315.6660698928
 30
0.0
 10
203.1570742579
 20
315.521334077
 30
0.0
  0
SPLINE
  5
377
100
AcDbEntity
  8
0
100
AcDbSpline
 62
7
  6
CONTINUOUS
 70
0
 71
3
 72
14
 73
10
 74
0
 42
0.0000001
 43
0.0000001
 44
0.0000000001
 40
0.0
 40
0.0
 40
0.0
 40
0.0
 40
0.1203816724
 40
0.2480440543
 40
0.373110155
 40
0.4960756584
 40
0.6194776772
 40
0.7446881892
 40
1.0
 40
1.0
 40
1.0
 40
1.0
 10
206.3377070894
 20
316.9496164064
 30
0.0
 10
206.2648726512
 20
316.9496164064
 30
0.0
 10
206.1145561787
 20
316.9140713385
 30
0.0
 10
205.9197735861
 20
316.7939964907
 30
0.0
 10
205.7668169476
 20
316.6219664466
 30
0.0
 10
205.6610621325
 20
316.4219034263
 30
0.0
 10
205.5924287484
 20
316.2069437033
 30
0.0
 10
205.5367207457
 20
315.9067086651
 30
0.0
 10
205.5241952294
 20
315.6758052015
 30
0.0
 10
205.5241957806
 20
315.521334077
 30
0.0
  0
SPLINE
  5
378
100
AcDbEntity
  8
0
100
AcDbSpline
 62
7
  6
CONTINUOUS
 70
0
 71
3
 72
22
 73
18
 74
0
 42
0.0000001
 43
0.0000001
 44
0.0000000001
 40
0.0
 40
0.0
 40
0.0
 40
0.0
 40
0.0059220012
 40
0.0118617189
 40
0.021508769
 40
0.0357051178
 40
0.0543146284
 40
0.0768840875
 40
0.131556936
 40
0.1951620512
 40
0.2640351228
 40
0.3357400647
 40
0.4088368745
 40
0.5563757766
 40
0.7042464338
 40
0.8521041408
 40
1.0
 40
1.0
 40
1.0
 40
1.0
 10
227.6365776587
 20
316.9371930036
 30
0.0
 10
227.6365776587
 20
316.9405072819
 30
0.0
 10
227.6382931237
 20
316.9482292962
 30
0.0
 10
227.6517974481
 20
316.9506550816
 30
0.0
 10
227.6675078413
 20
316.9454465347
 30
0.0
 10
227.6890930115
 20
316.9351980997
 30
0.0
 10
227.7153793132
 20
316.9187530629
 30
0.0
 10
227.7589676348
 20
316.8874247097
 30
0.0
 10
227.8189128999
 20
316.836027183
 30
0.0
 10
227.8926225317
 20
316.7614744147
 30
0.0
 10
227.966420521
 20
316.6740756388
 30
0.0
 10
228.036592661
 20
316.5771074348
 30
0.0
 10
228.1226838576
 20
316.4378373011
 30
0.0
 10
228.2121221516
 20
316.2512025614
 30
0.0
 10
228.2886422055
 20
316.0144874039
 30
0.0
 10
228.3342423152
 20
315.7697987228
 30
0.0
 10
228.3444153963
 20
315.6041047531
 30
0.0
 10
228.3444153963
 20
315.521334077
 30
0.0
  0
SPLINE
  5
379
100
AcDbEntity
  8
0
100
AcDbSpline
 62
7
  6
CONTINUOUS
 70
0
 71
3
 72
11
 73
7
 74
0
 42
0.0000001
 43
0.0000001
 44
0.0000000001
 40
0.0
 40
0.0
 40
0.0
 40
0.0
 40
0.2711502449
 40
0.5198984764
 40
0.7521319273
 40
1.0
 40
1.0
 40
1.0
 40
1.0
 10
209.3781372423
 20
316.3493582308
 30
0.0
 10
209.3781375347
 20
316.4140840829
 30
0.0
 10
209.3738418512
 20
316.5383097833
 30
0.0
 10
209.338796895
 20
316.7160081004
 30
0.0
 10
209.2446139147
 20
316.8698712209
 30
0.0
 10
209.1356843171
 20
316.9234523185
 30
0.0
 10
209.0781372433
 20
316.9372076924
 30
0.0
  0
SPLINE
  5
37A
100
AcDbEntity
  8
0
100
AcDbSpline
 62
7
  6
CONTINUOUS
 70
0
 71
3
 72
10
 73
6
 74
0
 42
0.0000001
 43
0.0000001
 44
0.0000000001
 40
0.0
 40
0.0
 40
0.0
 40
0.0
 40
0.3345774116
 40
0.6210043165
 40
1.0
 40
1.0
 40
1.0
 40
1.0
 10
229.9377070894
 20
227.7944460363
 30
0.0
 10
230.0739926926
 20
227.7944460363
 30
0.0
 10
230.3306964288
 20
227.7608100584
 30
0.0
 10
230.7036105716
 20
227.6220381604
 30
0.0
 10
230.9377070894
 20
227.3875039788
 30
0.0
 10
230.9377070894
 20
227.2331251906
 30
0.0
  0
SPLINE
  5
37B
100
AcDbEntity
  8
0
100
AcDbSpline
 62
7
  6
CONTINUOUS
 70
0
 71
3
 72
10
 73
6
 74
0
 42
0.0000001
 43
0.0000001
 44
0.0000000001
 40
0.0
 40
0.0
 40
0.0
 40
0.0
 40
0.3790038148
 40
0.6654345547
 40
1.0
 40
1.0
 40
1.0
 40
1.0
 10
204.9377070894
 20
227.2331251906
 30
0.0
 10
204.9377070894
 20
227.3875110065
 30
0.0
 10
205.1717699678
 20
227.622089205
 30
0.0
 10
205.5447182053
 20
227.7608366336
 30
0.0
 10
205.8014230806
 20
227.7944460363
 30
0.0
 10
205.9377070894
 20
227.7944460363
 30
0.0
  0
SPLINE
  5
37C
100
AcDbEntity
  8
0
100
AcDbSpline
 62
7
  6
CONTINUOUS
 70
0
 71
3
 72
11
 73
7
 74
0
 42
0.0000001
 43
0.0000001
 44
0.0000000001
 40
0.0
 40
0.0
 40
0.0
 40
0.0
 40
0.2388929112
 40
0.4999984589
 40
0.7611045126
 40
1.0
 40
1.0
 40
1.0
 40
1.0
 10
208.621082299
 20
225.5255476931
 30
0.0
 10
209.1493128927
 20
225.5255476931
 30
0.0
 10
210.2547937008
 20
225.543454215
 30
0.0
 10
211.9376979857
 20
225.557959839
 30
0.0
 10
213.620607961
 20
225.5434537465
 30
0.0
 10
214.7260955896
 20
225.5255476931
 30
0.0
 10
215.2543318797
 20
225.5255476931
 30
0.0
  0
SPLINE
  5
37D
100
AcDbEntity
  8
0
100
AcDbSpline
 62
7
  6
CONTINUOUS
 70
0
 71
3
 72
9
 73
5
 74
0
 42
0.0000001
 43
0.0000001
 44
0.0000000001
 40
0.0
 40
0.0
 40
0.0
 40
0.0
 40
0.340180527
 40
1.0
 40
1.0
 40
1.0
 40
1.0
 10
279.0417576791
 20
260.575543795
 30
0.0
 10
279.0137192387
 20
260.5755451573
 30
0.0
 10
278.9475685396
 20
260.647538683
 30
0.0
 10
278.9233346228
 20
260.7217866114
 30
0.0
 10
278.9063454216
 20
260.7734486331
 30
0.0
  0
SPLINE
  5
37E
100
AcDbEntity
  8
0
100
AcDbSpline
 62
7
  6
CONTINUOUS
 70
0
 71
3
 72
9
 73
5
 74
0
 42
0.0000001
 43
0.0000001
 44
0.0000000001
 40
0.0
 40
0.0
 40
0.0
 40
0.0
 40
0.2034785992
 40
1.0
 40
1.0
 40
1.0
 40
1.0
 10
278.9063454216
 20
260.7734486331
 30
0.0
 10
278.8981423326
 20
260.7983931939
 30
0.0
 10
278.8618334964
 20
260.9222969358
 30
0.0
 10
278.8380423105
 20
261.0495390514
 30
0.0
 10
278.822354682
 20
261.1511253294
 30
0.0
  0
SPLINE
  5
37F
100
AcDbEntity
  8
0
100
AcDbSpline
 62
7
  6
CONTINUOUS
 70
0
 71
3
 72
9
 73
5
 74
0
 42
0.0000001
 43
0.0000001
 44
0.0000000001
 40
0.0
 40
0.0
 40
0.0
 40
0.0
 40
0.2564005053
 40
1.0
 40
1.0
 40
1.0
 40
1.0
 10
278.9229927287
 20
262.1255476931
 30
0.0
 10
278.9229927287
 20
262.0828869925
 30
0.0
 10
278.9228422729
 20
261.9165064218
 30
0.0
 10
278.9179421377
 20
261.7501154472
 30
0.0
 10
278.9113108314
 20
261.6265709292
 30
0.0
  0
SPLINE
  5
380
100
AcDbEntity
  8
0
100
AcDbSpline
 62
7
  6
CONTINUOUS
 70
0
 71
3
 72
9
 73
5
 74
0
 42
0.0000001
 43
0.0000001
 44
0.0000000001
 40
0.0
 40
0.0
 40
0.0
 40
0.0
 40
0.273446782
 40
1.0
 40
1.0
 40
1.0
 40
1.0
 10
278.9113108314
 20
261.6265709292
 30
0.0
 10
278.909013037
 20
261.5837618821
 30
0.0
 10
278.8995488314
 20
261.4272746903
 30
0.0
 10
278.8854353116
 20
261.2710137351
 30
0.0
 10
278.8711104297
 20
261.1580098867
 30
0.0
  0
SPLINE
  5
381
100
AcDbEntity
  8
0
100
AcDbSpline
 62
7
  6
CONTINUOUS
 70
0
 71
3
 72
9
 73
5
 74
0
 42
0.0000001
 43
0.0000001
 44
0.0000000001
 40
0.0
 40
0.0
 40
0.0
 40
0.0
 40
0.2628477353
 40
1.0
 40
1.0
 40
1.0
 40
1.0
 10
278.8711104297
 20
261.1580098867
 30
0.0
 10
278.8695136513
 20
261.1454134754
 30
0.0
 10
278.8632398633
 20
261.0975163401
 30
0.0
 10
278.8561560507
 20
261.0497230973
 30
0.0
 10
278.8503648321
 20
261.0145880372
 30
0.0
  0
SPLINE
  5
382
100
AcDbEntity
  8
0
100
AcDbSpline
 62
7
  6
CONTINUOUS
 70
0
 71
3
 72
9
 73
5
 74
0
 42
0.0000001
 43
0.0000001
 44
0.0000000001
 40
0.0
 40
0.0
 40
0.0
 40
0.0
 40
0.2797833805
 40
1.0
 40
1.0
 40
1.0
 40
1.0
 10
278.7445078827
 20
262.1255476931
 30
0.0
 10
278.7445078827
 20
262.2171096827
 30
0.0
 10
278.7517247311
 20
262.5443807569
 30
0.0
 10
278.786461347
 20
262.8706828993
 30
0.0
 10
278.8226087663
 20
263.1035928644
 30
0.0
  0
SPLINE
  5
383
100
AcDbEntity
  8
0
100
AcDbSpline
 62
7
  6
CONTINUOUS
 70
0
 71
3
 72
9
 73
5
 74
0
 42
0.0000001
 43
0.0000001
 44
0.0000000001
 40
0.0
 40
0.0
 40
0.0
 40
0.0
 40
0.2133411108
 40
1.0
 40
1.0
 40
1.0
 40
1.0
 10
278.822354682
 20
261.1511265228
 30
0.0
 10
278.8117403361
 20
261.2198602871
 30
0.0
 10
278.7664093119
 20
261.5426701529
 30
0.0
 10
278.7445078827
 20
261.869099462
 30
0.0
 10
278.7445078827
 20
262.1255476931
 30
0.0
  0
SPLINE
  5
384
100
AcDbEntity
  8
0
100
AcDbSpline
 62
7
  6
CONTINUOUS
 70
0
 71
3
 72
9
 73
5
 74
0
 42
0.0000001
 43
0.0000001
 44
0.0000000001
 40
0.0
 40
0.0
 40
0.0
 40
0.0
 40
0.2804475963
 40
1.0
 40
1.0
 40
1.0
 40
1.0
 10
278.8239376364
 20
263.1035899932
 30
0.0
 10
278.8280617974
 20
263.1301602678
 30
0.0
 10
278.8437309498
 20
263.2247404592
 30
0.0
 10
278.8631024823
 20
263.3187795496
 30
0.0
 10
278.8804639204
 20
263.3855476931
 30
0.0
  0
SPLINE
  5
385
100
AcDbEntity
  8
0
100
AcDbSpline
 62
7
  6
CONTINUOUS
 70
0
 71
3
 72
9
 73
5
 74
0
 42
0.0000001
 43
0.0000001
 44
0.0000000001
 40
0.0
 40
0.0
 40
0.0
 40
0.0
 40
0.5224909127
 40
1.0
 40
1.0
 40
1.0
 40
1.0
 10
133.263274165
 20
229.5120751956
 30
0.0
 10
131.5895106647
 20
229.8020784791
 30
0.0
 10
128.3680515698
 20
230.2630022109
 30
0.0
 10
125.1238174224
 20
230.4994934053
 30
0.0
 10
123.5737946737
 20
230.5864187706
 30
0.0
  0
SPLINE
  5
386
100
AcDbEntity
  8
0
100
AcDbSpline
 62
7
  6
CONTINUOUS
 70
0
 71
3
 72
14
 73
10
 74
0
 42
0.0000001
 43
0.0000001
 44
0.0000000001
 40
0.0
 40
0.0
 40
0.0
 40
0.0
 40
0.3645434566
 40
0.5309506909
 40
0.682144165
 40
0.8128576152
 40
0.9155316681
 40
0.9808952972
 40
1.0
 40
1.0
 40
1.0
 40
1.0
 10
123.5737573262
 20
230.5864697179
 30
0.0
 10
123.2737062561
 20
230.6032656845
 30
0.0
 10
122.8354947761
 20
230.6236273181
 30
0.0
 10
122.2757801061
 20
230.6420821899
 30
0.0
 10
121.9004797564
 20
230.6515596995
 30
0.0
 10
121.6008648046
 20
230.6564211571
 30
0.0
 10
121.3101865064
 20
230.6614059713
 30
0.0
 10
121.2385588844
 20
230.657896907
 30
0.0
 10
121.0866692417
 20
230.6613720238
 30
0.0
 10
121.1020565538
 20
230.6580140582
 30
0.0
  0
SPLINE
  5
387
100
AcDbEntity
  8
0
100
AcDbSpline
 62
7
  6
CONTINUOUS
 70
0
 71
3
 72
10
 73
6
 74
0
 42
0.0000001
 43
0.0000001
 44
0.0000000001
 40
0.0
 40
0.0
 40
0.0
 40
0.0
 40
0.5162377826
 40
0.7650920308
 40
1.0
 40
1.0
 40
1.0
 40
1.0
 10
133.8728571719
 20
229.7256091213
 30
0.0
 10
132.0502104608
 20
230.0279590755
 30
0.0
 10
129.333034545
 20
230.3905714094
 30
0.0
 10
125.7635605153
 20
230.6586656347
 30
0.0
 10
124.0334516701
 20
230.7301504179
 30
0.0
 10
123.1931690086
 20
230.7568879965
 30
0.0
  0
SPLINE
  5
388
100
AcDbEntity
  8
0
100
AcDbSpline
 62
7
  6
CONTINUOUS
 70
0
 71
3
 72
10
 73
6
 74
0
 42
0.0000001
 43
0.0000001
 44
0.0000000001
 40
0.0
 40
0.0
 40
0.0
 40
0.0
 40
0.596022414
 40
0.8336880054
 40
1.0
 40
1.0
 40
1.0
 40
1.0
 10
133.2632635871
 20
229.5121830568
 30
0.0
 10
133.3924330175
 20
229.532605054
 30
0.0
 10
133.5737338747
 20
229.5670265622
 30
0.0
 10
133.7802546207
 20
229.6364388056
 30
0.0
 10
133.8565132529
 20
229.6929832784
 30
0.0
 10
133.8728571719
 20
229.7256091213
 30
0.0
  0
SPLINE
  5
389
100
AcDbEntity
  8
0
100
AcDbSpline
 62
7
  6
CONTINUOUS
 70
0
 71
3
 72
15
 73
11
 74
0
 42
0.0000001
 43
0.0000001
 44
0.0000000001
 40
0.0
 40
0.0
 40
0.0
 40
0.0
 40
0.0753434082
 40
0.1648737139
 40
0.2685542967
 40
0.3865253605
 40
0.5183696471
 40
0.6643587601
 40
0.8248442066
 40
1.0
 40
1.0
 40
1.0
 40
1.0
 10
133.872866158
 20
229.7256501632
 30
0.0
 10
133.8554723661
 20
229.9073762584
 30
0.0
 10
133.8372319722
 20
230.3075487422
 30
0.0
 10
133.9104470432
 20
230.9578650813
 30
0.0
 10
134.1378609618
 20
231.6809650518
 30
0.0
 10
134.5226242185
 20
232.450382329
 30
0.0
 10
135.1012463026
 20
233.2223754394
 30
0.0
 10
135.9170224307
 20
233.9220944803
 30
0.0
 10
136.981612721
 20
234.4188054622
 30
0.0
 10
137.7941247695
 20
234.5996947994
 30
0.0
 10
138.2184410538
 20
234.5911948756
 30
0.0
  0
SPLINE
  5
38A
100
AcDbEntity
  8
0
100
AcDbSpline
 62
7
  6
CONTINUOUS
 70
0
 71
3
 72
9
 73
5
 74
0
 42
0.0000001
 43
0.0000001
 44
0.0000000001
 40
0.0
 40
0.0
 40
0.0
 40
0.0
 40
0.6366236939
 40
1.0
 40
1.0
 40
1.0
 40
1.0
 10
118.4381181376
 20
239.4378892675
 30
0.0
 10
118.4381776201
 20
237.7620555231
 30
0.0
 10
118.4454584272
 20
235.1296771742
 30
0.0
 10
118.4375871337
 20
232.4973046871
 30
0.0
 10
118.4373429161
 20
231.5407611873
 30
0.0
  0
SPLINE
  5
38B
100
AcDbEntity
  8
0
100
AcDbSpline
 62
7
  6
CONTINUOUS
 70
0
 71
3
 72
9
 73
5
 74
0
 42
0.0000001
 43
0.0000001
 44
0.0000000001
 40
0.0
 40
0.0
 40
0.0
 40
0.0
 40
0.2439708066
 40
1.0
 40
1.0
 40
1.0
 40
1.0
 10
138.2184410538
 20
235.8918798934
 30
0.0
 10
136.6118373127
 20
236.1912341412
 30
0.0
 10
130.0232997579
 20
237.4005214181
 30
0.0
 10
123.4258452428
 20
238.5603821009
 30
0.0
 10
118.4381165657
 20
239.4377753929
 30
0.0
  0
SPLINE
  5
38C
100
AcDbEntity
  8
0
100
AcDbSpline
 62
7
  6
CONTINUOUS
 70
0
 71
3
 72
9
 73
5
 74
0
 42
0.0000001
 43
0.0000001
 44
0.0000000001
 40
0.0
 40
0.0
 40
0.0
 40
0.0
 40
0.5006360154
 40
1.0
 40
1.0
 40
1.0
 40
1.0
 10
136.1932250762
 20
228.8803216062
 30
0.0
 10
136.2724361776
 20
228.9781315933
 30
0.0
 10
136.4029195151
 20
229.2041159785
 30
0.0
 10
136.3971569663
 20
229.4705078708
 30
0.0
 10
136.3622439119
 20
229.5910975616
 30
0.0
  0
SPLINE
  5
38D
100
AcDbEntity
  8
0
100
AcDbSpline
 62
7
  6
CONTINUOUS
 70
0
 71
3
 72
9
 73
5
 74
0
 42
0.0000001
 43
0.0000001
 44
0.0000000001
 40
0.0
 40
0.0
 40
0.0
 40
0.0
 40
0.2580161007
 40
1.0
 40
1.0
 40
1.0
 40
1.0
 10
133.2632060249
 20
229.5121535594
 30
0.0
 10
133.4986802415
 20
229.4043154494
 30
0.0
 10
134.4323420905
 20
229.0355070931
 30
0.0
 10
135.4487097856
 20
228.8627512489
 30
0.0
 10
136.1932946496
 20
228.8803169097
 30
0.0
  0
SPLINE
  5
38E
100
AcDbEntity
  8
0
100
AcDbSpline
 62
7
  6
CONTINUOUS
 70
0
 71
3
 72
13
 73
9
 74
0
 42
0.0000001
 43
0.0000001
 44
0.0000000001
 40
0.0
 40
0.0
 40
0.0
 40
0.0
 40
0.1978712586
 40
0.3697510231
 40
0.5135674962
 40
0.6358963367
 40
0.8377884577
 40
1.0
 40
1.0
 40
1.0
 40
1.0
 10
139.0344738667
 20
232.5012957508
 30
0.0
 10
138.7271982218
 20
232.5083549861
 30
0.0
 10
138.1484230599
 20
232.4670177595
 30
0.0
 10
137.3843768229
 20
232.1978806033
 30
0.0
 10
136.8390750189
 20
231.7707779163
 30
0.0
 10
136.4242740071
 20
231.1625500698
 30
0.0
 10
136.2399016712
 20
230.4068251659
 30
0.0
 10
136.2950696975
 20
229.8339440875
 30
0.0
 10
136.3622439119
 20
229.5910975616
 30
0.0
  0
SPLINE
  5
38F
100
AcDbEntity
  8
0
100
AcDbSpline
 62
7
  6
CONTINUOUS
 70
0
 71
3
 72
10
 73
6
 74
0
 42
0.0000001
 43
0.0000001
 44
0.0000000001
 40
0.0
 40
0.0
 40
0.0
 40
0.0
 40
0.5736980855
 40
0.8114303593
 40
1.0
 40
1.0
 40
1.0
 40
1.0
 10
174.2467640787
 20
238.261018137
 30
0.0
 10
174.0080123239
 20
237.8577985068
 30
0.0
 10
173.6557399758
 20
237.2953591216
 30
0.0
 10
173.1763642746
 20
236.6338071017
 30
0.0
 10
172.9557660157
 20
236.3637805722
 30
0.0
 10
172.851679963
 20
236.2502464175
 30
0.0
  0
SPLINE
  5
390
100
AcDbEntity
  8
0
100
AcDbSpline
 62
7
  6
CONTINUOUS
 70
0
 71
3
 72
9
 73
5
 74
0
 42
0.0000001
 43
0.0000001
 44
0.0000000001
 40
0.0
 40
0.0
 40
0.0
 40
0.0
 40
0.5389061977
 40
1.0
 40
1.0
 40
1.0
 40
1.0
 10
138.2184607995
 20
234.591198176
 30
0.0
 10
138.3181384256
 20
234.1996633332
 30
0.0
 10
138.5403969904
 20
233.482072406
 30
0.0
 10
138.8564201651
 20
232.797599625
 30
0.0
 10
139.0344730444
 20
232.5012946668
 30
0.0
  0
SPLINE
  5
391
100
AcDbEntity
  8
0
100
AcDbSpline
 62
7
  6
CONTINUOUS
 70
0
 71
3
 72
8
 73
4
 74
0
 42
0.0000001
 43
0.0000001
 44
0.0000000001
 40
0.0
 40
0.0
 40
0.0
 40
0.0
 40
1.0
 40
1.0
 40
1.0
 40
1.0
 10
123.1932959005
 20
230.7578678644
 30
0.0
 10
121.6079843106
 20
231.0190228303
 30
0.0
 10
120.0225407649
 20
231.2793763638
 30
0.0
 10
118.4370955687
 20
231.5397189895
 30
0.0
  0
SPLINE
  5
392
100
AcDbEntity
  8
0
100
AcDbSpline
 62
7
  6
CONTINUOUS
 70
0
 71
3
 72
15
 73
11
 74
0
 42
0.0000001
 43
0.0000001
 44
0.0000000001
 40
0.0
 40
0.0
 40
0.0
 40
0.0
 40
0.0157956808
 40
0.0355298617
 40
0.0631524809
 40
0.1420000163
 40
0.2521755066
 40
0.3935378716
 40
0.5658032993
 40
1.0
 40
1.0
 40
1.0
 40
1.0
 10
132.4189171943
 20
228.2526517767
 30
0.0
 10
132.4203035621
 20
228.2605195602
 30
0.0
 10
132.4336231403
 20
228.274456264
 30
0.0
 10
132.4476720339
 20
228.3027716826
 30
0.0
 10
132.4813193371
 20
228.3573061666
 30
0.0
 10
132.5365603592
 20
228.4517337735
 30
0.0
 10
132.6247183949
 20
228.5938048094
 30
0.0
 10
132.7400411238
 20
228.7744532247
 30
0.0
 10
132.9498129329
 20
229.0892221316
 30
0.0
 10
133.1298068904
 20
229.3378317577
 30
0.0
 10
133.2632732206
 20
229.5122240346
 30
0.0
  0
SPLINE
  5
393
100
AcDbEntity
  8
0
100
AcDbSpline
 62
7
  6
CONTINUOUS
 70
0
 71
3
 72
14
 73
10
 74
0
 42
0.0000001
 43
0.0000001
 44
0.0000000001
 40
0.0
 40
0.0
 40
0.0
 40
0.0
 40
0.435765582
 40
0.6076998937
 40
0.7487357865
 40
0.8586435923
 40
0.9371925974
 40
0.9843063136
 40
1.0
 40
1.0
 40
1.0
 40
1.0
 10
118.4373429161
 20
231.5407611873
 30
0.0
 10
118.4373209271
 20
231.4731425985
 30
0.0
 10
118.4387028124
 20
231.378712041
 30
0.0
 10
118.4425027653
 20
231.2628689796
 30
0.0
 10
118.4460661259
 20
231.1967596207
 30
0.0
 10
118.4474000033
 20
231.1471493578
 30
0.0
 10
118.4525141467
 20
231.1073764536
 30
0.0
 10
118.4478591377
 20
231.0911940956
 30
0.0
 10
118.4539962032
 20
231.0755237524
 30
0.0
 10
118.4515609853
 20
231.0755207047
 30
0.0
  0
SPLINE
  5
394
100
AcDbEntity
  8
0
100
AcDbSpline
 62
7
  6
CONTINUOUS
 70
0
 71
3
 72
10
 73
6
 74
0
 42
0.0000001
 43
0.0000001
 44
0.0000000001
 40
0.0
 40
0.0
 40
0.0
 40
0.0
 40
0.5045666004
 40
0.7548144534
 40
1.0
 40
1.0
 40
1.0
 40
1.0
 10
140.9590178542
 20
284.2791207683
 30
0.0
 10
141.5001366195
 20
284.7244749881
 30
0.0
 10
142.3788732465
 20
285.3131992509
 30
0.0
 10
143.6330817329
 20
285.9104581334
 30
0.0
 10
144.2969580241
 20
286.1175122742
 30
0.0
 10
144.633899951
 20
286.1669671188
 30
0.0
  0
SPLINE
  5
395
100
AcDbEntity
  8
0
100
AcDbSpline
 62
7
  6
CONTINUOUS
 70
0
 71
3
 72
9
 73
5
 74
0
 42
0.0000001
 43
0.0000001
 44
0.0000000001
 40
0.0
 40
0.0
 40
0.0
 40
0.0
 40
0.2883486202
 40
1.0
 40
1.0
 40
1.0
 40
1.0
 10
123.1931673692
 20
230.7568946479
 30
0.0
 10
122.9914927265
 20
230.7616973245
 30
0.0
 10
122.2919668111
 20
230.7727143736
 30
0.0
 10
121.592180341
 20
230.7711755073
 30
0.0
 10
121.0944381975
 20
230.7595017888
 30
0.0
  0
SPLINE
  5
396
100
AcDbEntity
  8
0
100
AcDbSpline
 62
7
  6
CONTINUOUS
 70
0
 71
3
 72
11
 73
7
 74
0
 42
0.0000001
 43
0.0000001
 44
0.0000000001
 40
0.0
 40
0.0
 40
0.0
 40
0.0
 40
0.4398764335
 40
0.7626149417
 40
0.9532029169
 40
1.0
 40
1.0
 40
1.0
 40
1.0
 10
121.0944381975
 20
230.7595017888
 30
0.0
 10
121.0288099823
 20
230.7579625875
 30
0.0
 10
120.9239364035
 20
230.75522421
 30
0.0
 10
120.7543500557
 20
230.7484120407
 30
0.0
 10
120.7164035821
 20
230.7467331115
 30
0.0
 10
120.6403013301
 20
230.7424212263
 30
0.0
 10
120.6471944653
 20
230.7412989235
 30
0.0
  0
SPLINE
  5
397
100
AcDbEntity
  8
0
100
AcDbSpline
 62
7
  6
CONTINUOUS
 70
0
 71
3
 72
16
 73
12
 74
0
 42
0.0000001
 43
0.0000001
 44
0.0000000001
 40
0.0
 40
0.0
 40
0.0
 40
0.0
 40
0.0046072944
 40
0.0183455492
 40
0.0410841184
 40
0.072690815
 40
0.1616366025
 40
0.2823052497
 40
0.4312266742
 40
0.604077086
 40
1.0
 40
1.0
 40
1.0
 40
1.0
 10
157.1865850912
 20
288.0094014503
 30
0.0
 10
157.1878108775
 20
288.0096316303
 30
0.0
 10
157.1863345128
 20
288.0012221964
 30
0.0
 10
157.190291158
 20
287.9936103831
 30
0.0
 10
157.1918723745
 20
287.9735033459
 30
0.0
 10
157.1984802122
 20
287.9362946253
 30
0.0
 10
157.2076758331
 20
287.870898607
 30
0.0
 10
157.2221626213
 20
287.7752751849
 30
0.0
 10
157.2393461706
 20
287.6566147892
 30
0.0
 10
157.2685207073
 20
287.464601683
 30
0.0
 10
157.2936713103
 20
287.3126005717
 30
0.0
 10
157.3063217296
 20
287.20617204
 30
0.0
  0
SPLINE
  5
398
100
AcDbEntity
  8
0
100
AcDbSpline
 62
7
  6
CONTINUOUS
 70
0
 71
3
 72
9
 73
5
 74
0
 42
0.0000001
 43
0.0000001
 44
0.0000000001
 40
0.0
 40
0.0
 40
0.0
 40
0.0
 40
0.243584454
 40
1.0
 40
1.0
 40
1.0
 40
1.0
 10
138.2183448569
 20
243.219137686
 30
0.0
 10
136.6134209511
 20
243.4363724341
 30
0.0
 10
130.0227698219
 20
244.3143978386
 30
0.0
 10
123.4268806171
 20
245.152318265
 30
0.0
 10
118.4381482603
 20
245.7898321241
 30
0.0
  0
SPLINE
  5
399
100
AcDbEntity
  8
0
100
AcDbSpline
 62
7
  6
CONTINUOUS
 70
0
 71
3
 72
11
 73
7
 74
0
 42
0.0000001
 43
0.0000001
 44
0.0000000001
 40
0.0
 40
0.0
 40
0.0
 40
0.0
 40
0.0991154436
 40
0.3075761757
 40
0.6179297352
 40
1.0
 40
1.0
 40
1.0
 40
1.0
 10
149.3438938444
 20
286.8582886381
 30
0.0
 10
149.3177814537
 20
286.8544838536
 30
0.0
 10
149.2775355926
 20
286.7603678766
 30
0.0
 10
149.2640080132
 20
286.60898766
 30
0.0
 10
149.2611420128
 20
286.3626514773
 30
0.0
 10
149.2759485937
 20
286.1804859363
 30
0.0
 10
149.2864604808
 20
286.0793095733
 30
0.0
  0
SPLINE
  5
39A
100
AcDbEntity
  8
0
100
AcDbSpline
 62
7
  6
CONTINUOUS
 70
0
 71
3
 72
9
 73
5
 74
0
 42
0.0000001
 43
0.0000001
 44
0.0000000001
 40
0.0
 40
0.0
 40
0.0
 40
0.0
 40
0.2483965486
 40
1.0
 40
1.0
 40
1.0
 40
1.0
 10
149.2864604808
 20
286.0793095733
 30
0.0
 10
149.9504225593
 20
286.1731322984
 30
0.0
 10
152.623487242
 20
286.5503338111
 30
0.0
 10
155.2968463065
 20
286.9254494245
 30
0.0
 10
157.3063217296
 20
287.20617204
 30
0.0
  0
SPLINE
  5
39B
100
AcDbEntity
  8
0
100
AcDbSpline
 62
7
  6
CONTINUOUS
 70
0
 71
3
 72
13
 73
9
 74
0
 42
0.0000001
 43
0.0000001
 44
0.0000000001
 40
0.0
 40
0.0
 40
0.0
 40
0.0
 40
0.1190932691
 40
0.2423452354
 40
0.367629095
 40
0.4937776303
 40
0.7469924114
 40
1.0
 40
1.0
 40
1.0
 40
1.0
 10
140.1125095114
 20
283.0433010345
 30
0.0
 10
140.498081148
 20
283.045327247
 30
0.0
 10
141.2834340483
 20
283.1431790926
 30
0.0
 10
142.4239010973
 20
283.4944601912
 30
0.0
 10
143.5432049932
 20
283.9643315165
 30
0.0
 10
145.0233320925
 20
284.6561367545
 30
0.0
 10
146.8840479608
 20
285.5103340024
 30
0.0
 10
148.4752477455
 20
285.9656931922
 30
0.0
 10
149.2864559616
 20
286.0794003675
 30
0.0
  0
SPLINE
  5
39C
100
AcDbEntity
  8
0
100
AcDbSpline
 62
7
  6
CONTINUOUS
 70
0
 71
3
 72
10
 73
6
 74
0
 42
0.0000001
 43
0.0000001
 44
0.0000000001
 40
0.0
 40
0.0
 40
0.0
 40
0.0
 40
0.1971652901
 40
0.4326516923
 40
1.0
 40
1.0
 40
1.0
 40
1.0
 10
140.9590186361
 20
284.2791200955
 30
0.0
 10
140.8831106991
 20
284.2157134767
 30
0.0
 10
140.7350796128
 20
284.0551097791
 30
0.0
 10
140.4379328508
 20
283.6503950016
 30
0.0
 10
140.2486639335
 20
283.2932213751
 30
0.0
 10
140.1124651949
 20
283.0433217252
 30
0.0
  0
SPLINE
  5
39D
100
AcDbEntity
  8
0
100
AcDbSpline
 62
7
  6
CONTINUOUS
 70
0
 71
3
 72
9
 73
5
 74
0
 42
0.0000001
 43
0.0000001
 44
0.0000000001
 40
0.0
 40
0.0
 40
0.0
 40
0.0
 40
0.2493101035
 40
1.0
 40
1.0
 40
1.0
 40
1.0
 10
140.1126831044
 20
283.0431998578
 30
0.0
 10
139.9899757907
 20
282.8578342698
 30
0.0
 10
139.5085821111
 20
282.1071385114
 30
0.0
 10
139.0626610035
 20
281.3344395975
 30
0.0
 10
138.734019772
 20
280.751309809
 30
0.0
  0
SPLINE
  5
39E
100
AcDbEntity
  8
0
100
AcDbSpline
 62
7
  6
CONTINUOUS
 70
0
 71
3
 72
9
 73
5
 74
0
 42
0.0000001
 43
0.0000001
 44
0.0000000001
 40
0.0
 40
0.0
 40
0.0
 40
0.0
 40
0.2478205379
 40
1.0
 40
1.0
 40
1.0
 40
1.0
 10
138.6933205174
 20
280.2149679619
 30
0.0
 10
139.5704360836
 20
280.695742755
 30
0.0
 10
143.1090208655
 20
282.637071266
 30
0.0
 10
146.640806156
 20
284.5909523054
 30
0.0
 10
149.2867501598
 20
286.0794657896
 30
0.0
  0
SPLINE
  5
39F
100
AcDbEntity
  8
0
100
AcDbSpline
 62
7
  6
CONTINUOUS
 70
0
 71
3
 72
10
 73
6
 74
0
 42
0.0000001
 43
0.0000001
 44
0.0000000001
 40
0.0
 40
0.0
 40
0.0
 40
0.0
 40
0.2440542604
 40
0.6180806364
 40
1.0
 40
1.0
 40
1.0
 40
1.0
 10
139.7090130589
 20
283.3119461614
 30
0.0
 10
139.5977112653
 20
283.1181708622
 30
0.0
 10
139.3421079258
 20
282.6122330986
 30
0.0
 10
139.0112763457
 20
281.7565061569
 30
0.0
 10
138.8230703632
 20
281.0898531603
 30
0.0
 10
138.7330849876
 20
280.7519284535
 30
0.0
  0
SPLINE
  5
3A0
100
AcDbEntity
  8
0
100
AcDbSpline
 62
7
  6
CONTINUOUS
 70
0
 71
3
 72
14
 73
10
 74
0
 42
0.0000001
 43
0.0000001
 44
0.0000000001
 40
0.0
 40
0.0
 40
0.0
 40
0.0
 40
0.2392927776
 40
0.3632007924
 40
0.4888331986
 40
0.6156800994
 40
0.7434505251
 40
0.8716970152
 40
1.0
 40
1.0
 40
1.0
 40
1.0
 10
122.4142618831
 20
275.8223384957
 30
0.0
 10
123.2198940783
 20
275.8377829201
 30
0.0
 10
124.4421619817
 20
275.8900403332
 30
0.0
 10
126.0849574966
 20
275.9936257538
 30
0.0
 10
127.348997912
 20
276.0864243192
 30
0.0
 10
128.6241318933
 20
276.2054254208
 30
0.0
 10
129.9019174373
 20
276.3794400253
 30
0.0
 10
131.1784689791
 20
276.5925874284
 30
0.0
 10
132.0251037024
 20
276.7670643919
 30
0.0
 10
132.4448062357
 20
276.8695738329
 30
0.0
  0
SPLINE
  5
3A1
100
AcDbEntity
  8
0
100
AcDbSpline
 62
7
  6
CONTINUOUS
 70
0
 71
3
 72
8
 73
4
 74
0
 42
0.0000001
 43
0.0000001
 44
0.0000000001
 40
0.0
 40
0.0
 40
0.0
 40
0.0
 40
1.0
 40
1.0
 40
1.0
 40
1.0
 10
138.2483510103
 20
279.9715908317
 30
0.0
 10
138.3391150811
 20
280.0909311378
 30
0.0
 10
138.4234450139
 20
280.2156119888
 30
0.0
 10
138.498622978
 20
280.3453366932
 30
0.0
  0
SPLINE
  5
3A2
100
AcDbEntity
  8
0
100
AcDbSpline
 62
7
  6
CONTINUOUS
 70
0
 71
3
 72
17
 73
13
 74
0
 42
0.0000001
 43
0.0000001
 44
0.0000000001
 40
0.0
 40
0.0
 40
0.0
 40
0.0
 40
0.1089668546
 40
0.2251507702
 40
0.4736313022
 40
0.6025489492
 40
0.6678938776
 40
0.7336975439
 40
0.7998063713
 40
0.8661732166
 40
0.9331059029
 40
1.0
 40
1.0
 40
1.0
 40
1.0
 10
122.0583312939
 20
275.817197916
 30
0.0
 10
121.9683263407
 20
275.6077762446
 30
0.0
 10
121.7894581826
 20
275.172073113
 30
0.0
 10
121.3900744415
 20
274.2650599915
 30
0.0
 10
120.917037756
 20
273.34679744
 30
0.0
 10
120.5005534113
 20
272.51953396
 30
0.0
 10
120.2424406352
 20
272.0406538186
 30
0.0
 10
120.0418849762
 20
271.6798399836
 30
0.0
 10
119.8614465062
 20
271.3065261139
 30
0.0
 10
119.674031877
 20
270.9328173317
 30
0.0
 10
119.4425130192
 20
270.584893167
 30
0.0
 10
119.3084060743
 20
270.3346752499
 30
0.0
 10
119.2696382212
 20
270.2002194133
 30
0.0
  0
SPLINE
  5
3A3
100
AcDbEntity
  8
0
100
AcDbSpline
 62
7
  6
CONTINUOUS
 70
0
 71
3
 72
9
 73
5
 74
0
 42
0.0000001
 43
0.0000001
 44
0.0000000001
 40
0.0
 40
0.0
 40
0.0
 40
0.0
 40
0.2501582677
 40
1.0
 40
1.0
 40
1.0
 40
1.0
 10
119.2696382212
 20
270.2002194133
 30
0.0
 10
120.3742737759
 20
270.7443449286
 30
0.0
 10
124.7855689553
 20
272.928427653
 30
0.0
 10
129.1750068713
 20
275.1571960665
 30
0.0
 10
132.4446015986
 20
276.8699035973
 30
0.0
  0
SPLINE
  5
3A4
100
AcDbEntity
  8
0
100
AcDbSpline
 62
7
  6
CONTINUOUS
 70
0
 71
3
 72
9
 73
5
 74
0
 42
0.0000001
 43
0.0000001
 44
0.0000000001
 40
0.0
 40
0.0
 40
0.0
 40
0.0
 40
0.296765895
 40
1.0
 40
1.0
 40
1.0
 40
1.0
 10
120.8507571488
 20
275.8573633208
 30
0.0
 10
120.8756300079
 20
275.8973607439
 30
0.0
 10
120.9676091375
 20
276.0240948865
 30
0.0
 10
121.1206910782
 20
276.1255477109
 30
0.0
 10
121.2323031189
 20
276.1255476931
 30
0.0
  0
SPLINE
  5
3A5
100
AcDbEntity
  8
0
100
AcDbSpline
 62
7
  6
CONTINUOUS
 70
0
 71
3
 72
9
 73
5
 74
0
 42
0.0000001
 43
0.0000001
 44
0.0000000001
 40
0.0
 40
0.0
 40
0.0
 40
0.0
 40
0.2462817297
 40
1.0
 40
1.0
 40
1.0
 40
1.0
 10
114.1179150222
 20
276.1255476931
 30
0.0
 10
114.6711569951
 20
276.1255465138
 30
0.0
 10
116.9175431284
 20
276.1022416504
 30
0.0
 10
119.1623954074
 20
275.9844294343
 30
0.0
 10
120.8507571488
 20
275.8573633208
 30
0.0
  0
SPLINE
  5
3A6
100
AcDbEntity
  8
0
100
AcDbSpline
 62
7
  6
CONTINUOUS
 70
0
 71
3
 72
9
 73
5
 74
0
 42
0.0000001
 43
0.0000001
 44
0.0000000001
 40
0.0
 40
0.0
 40
0.0
 40
0.0
 40
0.5713666835
 40
1.0
 40
1.0
 40
1.0
 40
1.0
 10
122.058464846
 20
275.8169494849
 30
0.0
 10
122.0957846327
 20
275.9086564122
 30
0.0
 10
122.1771224893
 20
276.0663813152
 30
0.0
 10
122.3408590446
 20
276.1631397562
 30
0.0
 10
122.4149301829
 20
276.1686534222
 30
0.0
  0
SPLINE
  5
3A7
100
AcDbEntity
  8
0
100
AcDbSpline
 62
7
  6
CONTINUOUS
 70
0
 71
3
 72
9
 73
5
 74
0
 42
0.0000001
 43
0.0000001
 44
0.0000000001
 40
0.0
 40
0.0
 40
0.0
 40
0.0
 40
0.2460484948
 40
1.0
 40
1.0
 40
1.0
 40
1.0
 10
120.850757148
 20
275.8573633208
 30
0.0
 10
120.9496116005
 20
275.8501013586
 30
0.0
 10
121.3516837582
 20
275.8247866752
 30
0.0
 10
121.7547331389
 20
275.8158340764
 30
0.0
 10
122.0584610489
 20
275.8169492179
 30
0.0
  0
SPLINE
  5
3A8
100
AcDbEntity
  8
0
100
AcDbSpline
 62
7
  6
CONTINUOUS
 70
0
 71
3
 72
9
 73
5
 74
0
 42
0.0000001
 43
0.0000001
 44
0.0000000001
 40
0.0
 40
0.0
 40
0.0
 40
0.0
 40
0.2513112
 40
1.0
 40
1.0
 40
1.0
 40
1.0
 10
169.2630096156
 20
240.8002310398
 30
0.0
 10
169.7086836228
 20
240.6525905222
 30
0.0
 10
171.4561458836
 20
239.9871676259
 30
0.0
 10
173.0951227138
 20
239.0547605916
 30
0.0
 10
174.2467647926
 20
238.2610207842
 30
0.0
  0
SPLINE
  5
3A9
100
AcDbEntity
  8
0
100
AcDbSpline
 62
7
  6
CONTINUOUS
 70
0
 71
3
 72
17
 73
13
 74
0
 42
0.0000001
 43
0.0000001
 44
0.0000000001
 40
0.0
 40
0.0
 40
0.0
 40
0.0
 40
0.0907558454
 40
0.1462954696
 40
0.1705350931
 40
0.1997029838
 40
0.2372881472
 40
0.2847864534
 40
0.4104527016
 40
0.5743711185
 40
0.7726616118
 40
1.0
 40
1.0
 40
1.0
 40
1.0
 10
193.3994783109
 20
225.1255476931
 30
0.0
 10
193.473509069
 20
225.1255662362
 30
0.0
 10
193.5906262491
 20
225.1278369439
 30
0.0
 10
193.7313364776
 20
225.1964794165
 30
0.0
 10
193.7533193295
 20
225.2877363655
 30
0.0
 10
193.7362332783
 20
225.3613812765
 30
0.0
 10
193.6935437585
 20
225.4447650918
 30
0.0
 10
193.5916934347
 20
225.5838449177
 30
0.0
 10
193.3970208653
 20
225.7794153885
 30
0.0
 10
193.0954950721
 20
226.0391684109
 30
0.0
 10
192.713926191
 20
226.3322615409
 30
0.0
 10
192.4323868457
 20
226.5354364357
 30
0.0
 10
192.2809193037
 20
226.6424255933
 30
0.0
  0
SPLINE
  5
3AA
100
AcDbEntity
  8
0
100
AcDbSpline
 62
7
  6
CONTINUOUS
 70
0
 71
3
 72
13
 73
9
 74
0
 42
0.0000001
 43
0.0000001
 44
0.0000000001
 40
0.0
 40
0.0
 40
0.0
 40
0.0
 40
0.0960479005
 40
0.2079144007
 40
0.3293322276
 40
0.4569356463
 40
0.723744285
 40
1.0
 40
1.0
 40
1.0
 40
1.0
 10
192.2809193037
 20
226.6424255933
 30
0.0
 10
191.7198733752
 20
227.0387206044
 30
0.0
 10
190.4770381644
 20
227.8559652878
 30
0.0
 10
188.4850903467
 20
229.1124355614
 30
0.0
 10
186.2925217003
 20
230.474064324
 30
0.0
 10
183.1598621533
 20
232.4221262082
 30
0.0
 10
179.1069875726
 20
234.9874172903
 30
0.0
 10
175.8734791767
 20
237.1398428144
 30
0.0
 10
174.2467647926
 20
238.2610207842
 30
0.0
  0
SPLINE
  5
3AB
100
AcDbEntity
  8
0
100
AcDbSpline
 62
7
  6
CONTINUOUS
 70
0
 71
3
 72
14
 73
10
 74
0
 42
0.0000001
 43
0.0000001
 44
0.0000000001
 40
0.0
 40
0.0
 40
0.0
 40
0.0
 40
0.0542653032
 40
0.1181667931
 40
0.2016844105
 40
0.3093100825
 40
0.4427322057
 40
0.6024329186
 40
1.0
 40
1.0
 40
1.0
 40
1.0
 10
276.6505060331
 20
241.7608899006
 30
0.0
 10
276.6281803012
 20
241.7385641399
 30
0.0
 10
276.563903724
 20
241.7041170958
 30
0.0
 10
276.4434334024
 20
241.708184307
 30
0.0
 10
276.301681284
 20
241.7548733938
 30
0.0
 10
276.134238443
 20
241.8435113527
 30
0.0
 10
275.9406650929
 20
241.973949396
 30
0.0
 10
275.6243929887
 20
242.2222707154
 30
0.0
 10
275.386183284
 20
242.443005672
 30
0.0
 10
275.2204368615
 20
242.6043626559
 30
0.0
  0
SPLINE
  5
3AC
100
AcDbEntity
  8
0
100
AcDbSpline
 62
7
  6
CONTINUOUS
 70
0
 71
3
 72
9
 73
5
 74
0
 42
0.0000001
 43
0.0000001
 44
0.0000000001
 40
0.0
 40
0.0
 40
0.0
 40
0.0
 40
0.2355119174
 40
1.0
 40
1.0
 40
1.0
 40
1.0
 10
275.2204368615
 20
242.6043626559
 30
0.0
 10
275.1836838768
 20
242.6401423166
 30
0.0
 10
275.0285772958
 20
242.7930397589
 30
0.0
 10
274.8770053687
 20
242.9495009574
 30
0.0
 10
274.7626584304
 20
243.0705265016
 30
0.0
  0
SPLINE
  5
3AD
100
AcDbEntity
  8
0
100
AcDbSpline
 62
7
  6
CONTINUOUS
 70
0
 71
3
 72
11
 73
7
 74
0
 42
0.0000001
 43
0.0000001
 44
0.0000000001
 40
0.0
 40
0.0
 40
0.0
 40
0.0
 40
0.1980090653
 40
0.4378090891
 40
0.7089644342
 40
1.0
 40
1.0
 40
1.0
 40
1.0
 10
274.7626584304
 20
243.0705265016
 30
0.0
 10
274.3782187605
 20
243.4774199521
 30
0.0
 10
273.5639047532
 20
244.4106827549
 30
0.0
 10
272.314503223
 20
245.9783296022
 30
0.0
 10
270.961752882
 20
247.7982567173
 30
0.0
 10
270.0482082615
 20
249.0991457434
 30
0.0
 10
269.5868694991
 20
249.7804108571
 30
0.0
  0
SPLINE
  5
3AE
100
AcDbEntity
  8
0
100
AcDbSpline
 62
7
  6
CONTINUOUS
 70
0
 71
3
 72
9
 73
5
 74
0
 42
0.0000001
 43
0.0000001
 44
0.0000000001
 40
0.0
 40
0.0
 40
0.0
 40
0.0
 40
0.181093955
 40
1.0
 40
1.0
 40
1.0
 40
1.0
 10
279.0224333598
 20
263.6755476579
 30
0.0
 10
279.0299442331
 20
263.6755478947
 30
0.0
 10
279.0714081635
 20
263.6641842354
 30
0.0
 10
279.0954202393
 20
263.6239090972
 30
0.0
 10
279.1120365606
 20
263.5942871397
 30
0.0
  0
SPLINE
  5
3AF
100
AcDbEntity
  8
0
100
AcDbSpline
 62
7
  6
CONTINUOUS
 70
0
 71
3
 72
9
 73
5
 74
0
 42
0.0000001
 43
0.0000001
 44
0.0000000001
 40
0.0
 40
0.0
 40
0.0
 40
0.0
 40
0.2005737316
 40
1.0
 40
1.0
 40
1.0
 40
1.0
 10
279.1120365606
 20
263.5942871397
 30
0.0
 10
279.1193659552
 20
263.5812210096
 30
0.0
 10
279.1526115266
 20
263.5142358941
 30
0.0
 10
279.1760616097
 20
263.4428770687
 30
0.0
 10
279.192759175
 20
263.3855476931
 30
0.0
  0
SPLINE
  5
3B0
100
AcDbEntity
  8
0
100
AcDbSpline
 62
7
  6
CONTINUOUS
 70
0
 71
3
 72
9
 73
5
 74
0
 42
0.0000001
 43
0.0000001
 44
0.0000000001
 40
0.0
 40
0.0
 40
0.0
 40
0.0
 40
0.2457852513
 40
1.0
 40
1.0
 40
1.0
 40
1.0
 10
267.785693701
 20
235.7330090488
 30
0.0
 10
267.7874062314
 20
235.6510813075
 30
0.0
 10
267.7818751462
 20
235.3175187119
 30
0.0
 10
267.7272752769
 20
234.9854861318
 30
0.0
 10
267.6644592191
 20
234.7420007159
 30
0.0
  0
SPLINE
  5
3B1
100
AcDbEntity
  8
0
100
AcDbSpline
 62
7
  6
CONTINUOUS
 70
0
 71
3
 72
11
 73
7
 74
0
 42
0.0000001
 43
0.0000001
 44
0.0000000001
 40
0.0
 40
0.0
 40
0.0
 40
0.0
 40
0.2789703404
 40
0.5428135838
 40
0.7856514269
 40
1.0
 40
1.0
 40
1.0
 40
1.0
 10
267.6397984336
 20
243.6255532437
 30
0.0
 10
267.6492947858
 20
242.8915604762
 30
0.0
 10
267.676971161
 20
241.4635101648
 30
0.0
 10
267.7166608285
 20
239.3966115841
 30
0.0
 10
267.7503652545
 20
237.4996695095
 30
0.0
 10
267.7779518763
 20
236.2969709599
 30
0.0
 10
267.785693701
 20
235.7330090488
 30
0.0
  0
SPLINE
  5
3B2
100
AcDbEntity
  8
0
100
AcDbSpline
 62
7
  6
CONTINUOUS
 70
0
 71
3
 72
11
 73
7
 74
0
 42
0.0000001
 43
0.0000001
 44
0.0000000001
 40
0.0
 40
0.0
 40
0.0
 40
0.0
 40
0.249624934
 40
0.4996937082
 40
0.7498719961
 40
1.0
 40
1.0
 40
1.0
 40
1.0
 10
162.2620312374
 20
240.8000641753
 30
0.0
 10
162.8105259388
 20
241.0217876527
 30
0.0
 10
163.9717164596
 20
241.3171834853
 30
0.0
 10
165.7555092578
 20
241.38893844
 30
0.0
 10
167.5284465908
 20
241.2004318674
 30
0.0
 10
168.6892391471
 20
240.9493089465
 30
0.0
 10
169.262996271
 20
240.8002362612
 30
0.0
  0
SPLINE
  5
3B3
100
AcDbEntity
  8
0
100
AcDbSpline
 62
7
  6
CONTINUOUS
 70
0
 71
3
 72
11
 73
7
 74
0
 42
0.0000001
 43
0.0000001
 44
0.0000000001
 40
0.0
 40
0.0
 40
0.0
 40
0.0
 40
0.2654790616
 40
0.5148566342
 40
0.7234827411
 40
1.0
 40
1.0
 40
1.0
 40
1.0
 10
156.7677074929
 20
240.8064500125
 30
0.0
 10
156.7714590976
 20
240.8035120658
 30
0.0
 10
156.780971432
 20
240.7965259063
 30
0.0
 10
156.7907116008
 20
240.8074848357
 30
0.0
 10
156.8045309632
 20
240.8144241839
 30
0.0
 10
156.8100257043
 20
240.8042980205
 30
0.0
 10
156.8126244489
 20
240.8000695441
 30
0.0
  0
SPLINE
  5
3B4
100
AcDbEntity
  8
0
100
AcDbSpline
 62
7
  6
CONTINUOUS
 70
0
 71
3
 72
19
 73
15
 74
0
 42
0.0000001
 43
0.0000001
 44
0.0000000001
 40
0.0
 40
0.0
 40
0.0
 40
0.0
 40
0.1876812536
 40
0.3681812571
 40
0.5372760521
 40
0.689558455
 40
0.7574341336
 40
0.8184363062
 40
0.8715186707
 40
0.915667068
 40
0.9499520151
 40
0.973775539
 40
0.9881750058
 40
1.0
 40
1.0
 40
1.0
 40
1.0
 10
278.9940099024
 20
251.2746654868
 30
0.0
 10
278.998413155
 20
251.0940921127
 30
0.0
 10
279.0102838477
 20
250.7399237567
 30
0.0
 10
279.0376087956
 20
250.2235295688
 30
0.0
 10
279.0735930177
 20
249.7418156375
 30
0.0
 10
279.1117735613
 20
249.3690702824
 30
0.0
 10
279.1477081305
 20
249.1008344104
 30
0.0
 10
279.1753702992
 20
248.9279321232
 30
0.0
 10
279.2046873997
 20
248.778312655
 30
0.0
 10
279.2347823645
 20
248.6557069614
 30
0.0
 10
279.2662174303
 20
248.5611876789
 30
0.0
 10
279.2955660427
 20
248.500109188
 30
0.0
 10
279.3327530921
 20
248.4601554969
 30
0.0
 10
279.3614287973
 20
248.4706664209
 30
0.0
 10
279.3698421956
 20
248.4783300623
 30
0.0
  0
SPLINE
  5
3B5
100
AcDbEntity
  8
0
100
AcDbSpline
 62
7
  6
CONTINUOUS
 70
0
 71
3
 72
19
 73
15
 74
0
 42
0.0000001
 43
0.0000001
 44
0.0000000001
 40
0.0
 40
0.0
 40
0.0
 40
0.0
 40
0.0040984745
 40
0.0092094038
 40
0.0163506685
 40
0.0366918287
 40
0.0650572091
 40
0.10138207
 40
0.1456016786
 40
0.257466238
 40
0.4000116269
 40
0.5721128399
 40
0.7725240073
 40
1.0
 40
1.0
 40
1.0
 40
1.0
 10
162.4954508888
 20
225.2329425837
 30
0.0
 10
162.4940898102
 20
225.23815891
 30
0.0
 10
162.481100462
 20
225.2439281042
 30
0.0
 10
162.4674270481
 20
225.2598006318
 30
0.0
 10
162.4347634891
 20
225.2882031414
 30
0.0
 10
162.3817645187
 20
225.3386599421
 30
0.0
 10
162.2993258889
 20
225.4144557475
 30
0.0
 10
162.1944993892
 20
225.5120176335
 30
0.0
 10
162.0090260945
 20
225.6842548816
 30
0.0
 10
161.7215577059
 20
225.9519214575
 30
0.0
 10
161.3113154402
 20
226.3346073664
 30
0.0
 10
160.8167453671
 20
226.797625891
 30
0.0
 10
160.2417419022
 20
227.338192275
 30
0.0
 10
159.832590338
 20
227.7246747852
 30
0.0
 10
159.6153264912
 20
227.930404868
 30
0.0
  0
LINE
  5
3B6
100
AcDbEntity
  8
0
100
AcDbLine
 62
7
  6
CONTINUOUS
 10
278.8223649737
 20
260.7255476921
 11
278.8224217332
 21
260.5747927982
  0
SPLINE
  5
3B7
100
AcDbEntity
  8
0
100
AcDbSpline
 62
7
  6
CONTINUOUS
 70
0
 71
3
 72
12
 73
8
 74
0
 42
0.0000001
 43
0.0000001
 44
0.0000000001
 40
0.0
 40
0.0
 40
0.0
 40
0.0
 40
0.4106864726
 40
0.7252993757
 40
0.836282885
 40
0.9170648015
 40
1.0
 40
1.0
 40
1.0
 40
1.0
 10
279.2924961383
 20
262.1255476931
 30
0.0
 10
279.2924961383
 20
261.9063888109
 30
0.0
 10
279.2800969532
 20
261.5179664917
 30
0.0
 10
279.2370374708
 20
261.0770304628
 30
0.0
 10
279.1803216912
 20
260.8066699621
 30
0.0
 10
279.1397361961
 20
260.6769939816
 30
0.0
 10
279.0860152492
 20
260.5755416447
 30
0.0
 10
279.0417576791
 20
260.575543795
 30
0.0
  0
SPLINE
  5
3B8
100
AcDbEntity
  8
0
100
AcDbSpline
 62
7
  6
CONTINUOUS
 70
0
 71
3
 72
9
 73
5
 74
0
 42
0.0000001
 43
0.0000001
 44
0.0000000001
 40
0.0
 40
0.0
 40
0.0
 40
0.0
 40
0.2801501033
 40
1.0
 40
1.0
 40
1.0
 40
1.0
 10
169.262996271
 20
240.8002361138
 30
0.0
 10
169.2070753342
 20
240.5897171762
 30
0.0
 10
169.0045788783
 20
239.839056893
 30
0.0
 10
168.7932351822
 20
239.0906356399
 30
0.0
 10
168.6287870113
 20
238.5556492014
 30
0.0
  0
SPLINE
  5
3B9
100
AcDbEntity
  8
0
100
AcDbSpline
 62
7
  6
CONTINUOUS
 70
0
 71
3
 72
9
 73
5
 74
0
 42
0.0000001
 43
0.0000001
 44
0.0000000001
 40
0.0
 40
0.0
 40
0.0
 40
0.0
 40
0.4991355034
 40
1.0
 40
1.0
 40
1.0
 40
1.0
 10
277.3274977736
 20
242.5167276546
 30
0.0
 10
277.9930740119
 20
243.3470917975
 30
0.0
 10
279.0449952847
 20
245.2571277728
 30
0.0
 10
279.3836981654
 20
247.4103617623
 30
0.0
 10
279.3695049557
 20
248.4781418708
 30
0.0
  0
SPLINE
  5
3BA
100
AcDbEntity
  8
0
100
AcDbSpline
 62
7
  6
CONTINUOUS
 70
0
 71
3
 72
14
 73
10
 74
0
 42
0.0000001
 43
0.0000001
 44
0.0000000001
 40
0.0
 40
0.0
 40
0.0
 40
0.0
 40
0.3356402126
 40
0.5001765012
 40
0.6510280581
 40
0.7799927291
 40
0.8821153967
 40
0.9546306289
 40
1.0
 40
1.0
 40
1.0
 40
1.0
 10
269.586838459
 20
249.7804614456
 30
0.0
 10
270.662408099
 20
249.8039990997
 30
0.0
 10
272.2650285681
 20
249.8799369525
 30
0.0
 10
274.342683499
 20
250.0764358457
 30
0.0
 10
275.7555427339
 20
250.2621347149
 30
0.0
 10
276.95965683
 20
250.4821250599
 30
0.0
 10
277.9065506511
 20
250.7198250239
 30
0.0
 10
278.5653098133
 20
250.9644209094
 30
0.0
 10
278.8987190781
 20
251.1648154741
 30
0.0
 10
278.9940101197
 20
251.274666685
 30
0.0
  0
SPLINE
  5
3BB
100
AcDbEntity
  8
0
100
AcDbSpline
 62
7
  6
CONTINUOUS
 70
0
 71
3
 72
12
 73
8
 74
0
 42
0.0000001
 43
0.0000001
 44
0.0000000001
 40
0.0
 40
0.0
 40
0.0
 40
0.0
 40
0.050644184
 40
0.1215902132
 40
0.3322376947
 40
0.631601627
 40
1.0
 40
1.0
 40
1.0
 40
1.0
 10
278.8898524319
 20
255.4565414595
 30
0.0
 10
278.8304161991
 20
255.3908033194
 30
0.0
 10
278.6561042087
 20
255.2631974243
 30
0.0
 10
278.1326681775
 20
255.0087337573
 30
0.0
 10
277.1493031641
 20
254.7279752327
 30
0.0
 10
275.640188061
 20
254.4388543268
 30
0.0
 10
274.4793520435
 20
254.2943768873
 30
0.0
 10
273.8381407839
 20
254.2276758831
 30
0.0
  0
LINE
  5
3BC
100
AcDbEntity
  8
0
100
AcDbLine
 62
7
  6
CONTINUOUS
 10
273.8381407839
 20
254.2276758831
 11
273.7801103158
 21
254.2216782653
  0
SPLINE
  5
3BD
100
AcDbEntity
  8
0
100
AcDbSpline
 62
7
  6
CONTINUOUS
 70
0
 71
3
 72
9
 73
5
 74
0
 42
0.0000001
 43
0.0000001
 44
0.0000000001
 40
0.0
 40
0.0
 40
0.0
 40
0.0
 40
0.2458526752
 40
1.0
 40
1.0
 40
1.0
 40
1.0
 10
273.7801103158
 20
254.2216782653
 30
0.0
 10
273.5362843219
 20
254.1966411202
 30
0.0
 10
272.543690113
 20
254.1030055493
 30
0.0
 10
271.5483033886
 20
254.040058002
 30
0.0
 10
270.7971903629
 20
254.0064772318
 30
0.0
  0
LINE
  5
3BE
100
AcDbEntity
  8
0
100
AcDbLine
 62
7
  6
CONTINUOUS
 10
278.9939696252
 20
251.2746654735
 11
278.8897620246
 21
255.4565414199
  0
SPLINE
  5
3BF
100
AcDbEntity
  8
0
100
AcDbSpline
 62
7
  6
CONTINUOUS
 70
0
 71
3
 72
29
 73
25
 74
0
 42
0.0000001
 43
0.0000001
 44
0.0000000001
 40
0.0
 40
0.0
 40
0.0
 40
0.0
 40
0.005660577
 40
0.0100934704
 40
0.0133902802
 40
0.0158961641
 40
0.0216705855
 40
0.0262073185
 40
0.0319888111
 40
0.0471978502
 40
0.0667231118
 40
0.0897849316
 40
0.115692396
 40
0.1438333634
 40
0.1738406156
 40
0.2382222867
 40
0.306637651
 40
0.3779862519
 40
0.4515137391
 40
0.5267482822
 40
0.6033238569
 40
0.6810125487
 40
0.8390708197
 40
1.0
 40
1.0
 40
1.0
 40
1.0
 10
192.3892064939
 20
225.2729494344
 30
0.0
 10
192.4327522795
 20
225.273936277
 30
0.0
 10
192.5104948847
 20
225.2783269984
 30
0.0
 10
192.6119684479
 20
225.2978008031
 30
0.0
 10
192.6859669297
 20
225.3276999698
 30
0.0
 10
192.7475327636
 20
225.4017724711
 30
0.0
 10
192.6997063293
 20
225.5104819151
 30
0.0
 10
192.62271348
 20
225.6019778769
 30
0.0
 10
192.4794998712
 20
225.7396762522
 30
0.0
 10
192.2299722556
 20
225.925726998
 30
0.0
 10
191.8577270172
 20
226.1700129724
 30
0.0
 10
191.4057209974
 20
226.4410108822
 30
0.0
 10
190.8897020565
 20
226.7340405774
 30
0.0
 10
190.3223310536
 20
227.0445869408
 30
0.0
 10
189.4901956608
 20
227.4879109804
 30
0.0
 10
188.3775385039
 20
228.0636151064
 30
0.0
 10
186.977921151
 20
228.776822652
 30
0.0
 10
185.5135933935
 20
229.5180352682
 30
0.0
 10
184.0029023432
 20
230.28383664
 30
0.0
 10
182.4582701077
 20
231.0716324411
 30
0.0
 10
180.8885659591
 20
231.8807193344
 30
0.0
 10
178.758555198
 20
232.9937121466
 30
0.0
 10
176.0679773347
 20
234.43534922
 30
0.0
 10
173.9256729454
 20
235.633808327
 30
0.0
 10
172.8517054206
 20
236.2502675184
 30
0.0
  0
SPLINE
  5
3C0
100
AcDbEntity
  8
0
100
AcDbSpline
 62
7
  6
CONTINUOUS
 70
0
 71
3
 72
9
 73
5
 74
0
 42
0.0000001
 43
0.0000001
 44
0.0000000001
 40
0.0
 40
0.0
 40
0.0
 40
0.0
 40
0.2534619091
 40
1.0
 40
1.0
 40
1.0
 40
1.0
 10
157.2787206358
 20
231.3583838814
 30
0.0
 10
157.4709920691
 20
231.2438694255
 30
0.0
 10
158.2301447114
 20
230.7930259844
 30
0.0
 10
158.991718233
 20
230.346276247
 30
0.0
 10
159.5604414835
 20
230.0130749556
 30
0.0
  0
SPLINE
  5
3C1
100
AcDbEntity
  8
0
100
AcDbSpline
 62
7
  6
CONTINUOUS
 70
0
 71
3
 72
9
 73
5
 74
0
 42
0.0000001
 43
0.0000001
 44
0.0000000001
 40
0.0
 40
0.0
 40
0.0
 40
0.0
 40
0.2560736338
 40
1.0
 40
1.0
 40
1.0
 40
1.0
 10
157.2196778512
 20
232.6603138713
 30
0.0
 10
157.2241234741
 20
232.5491584168
 30
0.0
 10
157.2423690883
 20
232.115117243
 30
0.0
 10
157.263282102
 20
231.6811951065
 30
0.0
 10
157.2786751997
 20
231.3583830538
 30
0.0
  0
SPLINE
  5
3C2
100
AcDbEntity
  8
0
100
AcDbSpline
 62
7
  6
CONTINUOUS
 70
0
 71
3
 72
10
 73
6
 74
0
 42
0.0000001
 43
0.0000001
 44
0.0000000001
 40
0.0
 40
0.0
 40
0.0
 40
0.0
 40
0.2670843951
 40
0.6498064161
 40
1.0
 40
1.0
 40
1.0
 40
1.0
 10
156.8126246296
 20
240.8000668597
 30
0.0
 10
156.8708117267
 20
240.0767577901
 30
0.0
 10
156.9992800831
 20
238.3157995431
 30
0.0
 10
157.1201775374
 20
235.6013270835
 30
0.0
 10
157.1923910763
 20
233.6113685697
 30
0.0
 10
157.2197223493
 20
232.660314817
 30
0.0
  0
SPLINE
  5
3C3
100
AcDbEntity
  8
0
100
AcDbSpline
 62
7
  6
CONTINUOUS
 70
0
 71
3
 72
9
 73
5
 74
0
 42
0.0000001
 43
0.0000001
 44
0.0000000001
 40
0.0
 40
0.0
 40
0.0
 40
0.0
 40
0.4144686393
 40
1.0
 40
1.0
 40
1.0
 40
1.0
 10
159.6155092928
 20
227.9303540724
 30
0.0
 10
159.5407878459
 20
228.2094916264
 30
0.0
 10
159.4696261164
 20
228.9102584348
 30
0.0
 10
159.5147222633
 20
229.6073780918
 30
0.0
 10
159.5604414838
 20
230.013039487
 30
0.0
  0
SPLINE
  5
3C4
100
AcDbEntity
  8
0
100
AcDbSpline
 62
7
  6
CONTINUOUS
 70
0
 71
3
 72
9
 73
5
 74
0
 42
0.0000001
 43
0.0000001
 44
0.0000000001
 40
0.0
 40
0.0
 40
0.0
 40
0.0
 40
0.4323637974
 40
1.0
 40
1.0
 40
1.0
 40
1.0
 10
155.7004809386
 20
229.4075304174
 30
0.0
 10
155.9878139162
 20
229.6292933193
 30
0.0
 10
156.5617670864
 20
230.254505805
 30
0.0
 10
157.0310921487
 20
230.9512421438
 30
0.0
 10
157.2787107918
 20
231.3583699202
 30
0.0
  0
SPLINE
  5
3C5
100
AcDbEntity
  8
0
100
AcDbSpline
 62
7
  6
CONTINUOUS
 70
0
 71
3
 72
11
 73
7
 74
0
 42
0.0000001
 43
0.0000001
 44
0.0000000001
 40
0.0
 40
0.0
 40
0.0
 40
0.0
 40
0.2543194267
 40
0.5077903848
 40
0.7576903584
 40
1.0
 40
1.0
 40
1.0
 40
1.0
 10
156.2474794575
 20
231.3548363888
 30
0.0
 10
154.7549111756
 20
231.7239059416
 30
0.0
 10
151.770724832
 20
232.4449578327
 30
0.0
 10
147.2941357855
 20
233.4189387302
 30
0.0
 10
142.8507612391
 20
234.193983351
 30
0.0
 10
139.8865563042
 20
234.4929638282
 30
0.0
 10
138.4244047503
 20
234.5828979748
 30
0.0
  0
SPLINE
  5
3C6
100
AcDbEntity
  8
0
100
AcDbSpline
 62
7
  6
CONTINUOUS
 70
0
 71
3
 72
9
 73
5
 74
0
 42
0.0000001
 43
0.0000001
 44
0.0000000001
 40
0.0
 40
0.0
 40
0.0
 40
0.0
 40
0.4190736881
 40
1.0
 40
1.0
 40
1.0
 40
1.0
 10
155.7002461263
 20
229.4076088952
 30
0.0
 10
155.7860789808
 20
229.6768230666
 30
0.0
 10
155.9727914311
 20
230.3248965833
 30
0.0
 10
156.1480774193
 20
230.9759576676
 30
0.0
 10
156.2474784593
 20
231.3548325841
 30
0.0
  0
SPLINE
  5
3C7
100
AcDbEntity
  8
0
100
AcDbSpline
 62
7
  6
CONTINUOUS
 70
0
 71
3
 72
9
 73
5
 74
0
 42
0.0000001
 43
0.0000001
 44
0.0000000001
 40
0.0
 40
0.0
 40
0.0
 40
0.0
 40
0.5412929992
 40
1.0
 40
1.0
 40
1.0
 40
1.0
 10
138.4244047503
 20
234.5828979748
 30
0.0
 10
138.5111664126
 20
234.1922569903
 30
0.0
 10
138.7073019977
 20
233.4780461039
 30
0.0
 10
138.9949352271
 20
232.792642183
 30
0.0
 10
139.1591629823
 20
232.495955996
 30
0.0
  0
SPLINE
  5
3C8
100
AcDbEntity
  8
0
100
AcDbSpline
 62
7
  6
CONTINUOUS
 70
0
 71
3
 72
19
 73
15
 74
0
 42
0.0000001
 43
0.0000001
 44
0.0000000001
 40
0.0
 40
0.0
 40
0.0
 40
0.0
 40
0.053365939
 40
0.1027639082
 40
0.1495725242
 40
0.1976976491
 40
0.2527172208
 40
0.3170379967
 40
0.3882945565
 40
0.4628762631
 40
0.6126079394
 40
0.7551087214
 40
0.8845515224
 40
1.0
 40
1.0
 40
1.0
 40
1.0
 10
259.1675496514
 20
231.1401256402
 30
0.0
 10
259.1675709026
 20
230.9278129514
 30
0.0
 10
259.1957841089
 20
230.5176635409
 30
0.0
 10
259.3603571906
 20
229.9396050677
 30
0.0
 10
259.6875686418
 20
229.4507681652
 30
0.0
 10
260.2161557791
 20
229.1320455369
 30
0.0
 10
260.8954304282
 20
229.0610528088
 30
0.0
 10
261.6447757301
 20
229.2205541205
 30
0.0
 10
262.4126222244
 20
229.5616296942
 30
0.0
 10
263.4101838428
 20
230.1891859476
 30
0.0
 10
264.5218121208
 20
231.1450884197
 30
0.0
 10
265.6547496217
 20
232.3866452574
 30
0.0
 10
266.5423192803
 20
233.6533956471
 30
0.0
 10
266.9297765382
 20
234.5613279284
 30
0.0
 10
267.041863422
 20
235.0067451272
 30
0.0
  0
SPLINE
  5
3C9
100
AcDbEntity
  8
0
100
AcDbSpline
 62
7
  6
CONTINUOUS
 70
0
 71
3
 72
9
 73
5
 74
0
 42
0.0000001
 43
0.0000001
 44
0.0000000001
 40
0.0
 40
0.0
 40
0.0
 40
0.0
 40
0.2556433168
 40
1.0
 40
1.0
 40
1.0
 40
1.0
 10
267.0418048381
 20
235.0068522063
 30
0.0
 10
267.0623434386
 20
235.0885627061
 30
0.0
 10
267.1339694794
 20
235.4102655706
 30
0.0
 10
267.1677216067
 20
235.7408021738
 30
0.0
 10
267.167715445
 20
235.9861194324
 30
0.0
  0
SPLINE
  5
3CA
100
AcDbEntity
  8
0
100
AcDbSpline
 62
7
  6
CONTINUOUS
 70
0
 71
3
 72
8
 73
4
 74
0
 42
0.0000001
 43
0.0000001
 44
0.0000000001
 40
0.0
 40
0.0
 40
0.0
 40
0.0
 40
1.0
 40
1.0
 40
1.0
 40
1.0
 10
119.2695412375
 20
270.2002188848
 30
0.0
 10
119.2950628683
 20
270.0731264727
 30
0.0
 10
119.3060521495
 20
269.9421155248
 30
0.0
 10
119.3008328271
 20
269.8125910347
 30
0.0
  0
SPLINE
  5
3CB
100
AcDbEntity
  8
0
100
AcDbSpline
 62
7
  6
CONTINUOUS
 70
0
 71
3
 72
13
 73
9
 74
0
 42
0.0000001
 43
0.0000001
 44
0.0000000001
 40
0.0
 40
0.0
 40
0.0
 40
0.0
 40
0.1269191702
 40
0.2529038091
 40
0.3782116785
 40
0.5030520528
 40
0.7516369571
 40
1.0
 40
1.0
 40
1.0
 40
1.0
 10
138.2482206999
 20
279.9714291558
 30
0.0
 10
138.0865385938
 20
279.7394088003
 30
0.0
 10
137.6811699877
 20
279.3392740779
 30
0.0
 10
137.0279906049
 20
278.8071749268
 30
0.0
 10
136.3157151275
 20
278.3613215717
 30
0.0
 10
135.3296769586
 20
277.8479823516
 30
0.0
 10
134.0424229161
 20
277.3251312693
 30
0.0
 10
132.9771754702
 20
277.0201097581
 30
0.0
 10
132.4445389235
 20
276.8699600912
 30
0.0
  0
SPLINE
  5
3CC
100
AcDbEntity
  8
0
100
AcDbSpline
 62
7
  6
CONTINUOUS
 70
0
 71
3
 72
9
 73
5
 74
0
 42
0.0000001
 43
0.0000001
 44
0.0000000001
 40
0.0
 40
0.0
 40
0.0
 40
0.0
 40
0.5421819741
 40
1.0
 40
1.0
 40
1.0
 40
1.0
 10
137.8267430251
 20
263.3858364346
 30
0.0
 10
137.924798036
 20
266.4299166156
 30
0.0
 10
138.1555032385
 20
272.0430743931
 30
0.0
 10
138.5078357727
 20
277.6498340102
 30
0.0
 10
138.693213902
 20
280.2148961096
 30
0.0
  0
SPLINE
  5
3CD
100
AcDbEntity
  8
0
100
AcDbSpline
 62
7
  6
CONTINUOUS
 70
0
 71
3
 72
11
 73
7
 74
0
 42
0.0000001
 43
0.0000001
 44
0.0000000001
 40
0.0
 40
0.0
 40
0.0
 40
0.0
 40
0.094415651
 40
0.3106576461
 40
0.6283144819
 40
1.0
 40
1.0
 40
1.0
 40
1.0
 10
259.1677070894
 20
240.8629830337
 30
0.0
 10
259.1677070656
 20
240.8500322805
 30
0.0
 10
259.1150998875
 20
240.8297840495
 30
0.0
 10
259.040644068
 20
240.815411278
 30
0.0
 10
258.9118692398
 20
240.8025500291
 30
0.0
 10
258.8186902406
 20
240.8000695433
 30
0.0
 10
258.7677070894
 20
240.8000695433
 30
0.0
  0
SPLINE
  5
3CE
100
AcDbEntity
  8
0
100
AcDbSpline
 62
7
  6
CONTINUOUS
 70
0
 71
3
 72
8
 73
4
 74
0
 42
0.0000001
 43
0.0000001
 44
0.0000000001
 40
0.0
 40
0.0
 40
0.0
 40
0.0
 40
1.0
 40
1.0
 40
1.0
 40
1.0
 10
117.4884405705
 20
269.8635278436
 30
0.0
 10
117.5111196413
 20
269.8285972136
 30
0.0
 10
117.5273553305
 20
269.7875837467
 30
0.0
 10
117.5311391517
 20
269.746108792
 30
0.0
  0
SPLINE
  5
3CF
100
AcDbEntity
  8
0
100
AcDbSpline
 62
7
  6
CONTINUOUS
 70
0
 71
3
 72
10
 73
6
 74
0
 42
0.0000001
 43
0.0000001
 44
0.0000000001
 40
0.0
 40
0.0
 40
0.0
 40
0.0
 40
0.2499991227
 40
0.5002832199
 40
1.0
 40
1.0
 40
1.0
 40
1.0
 10
118.3477122537
 20
263.3855692313
 30
0.0
 10
118.5024304682
 20
263.9054959044
 30
0.0
 10
118.7529393589
 20
264.9636996763
 30
0.0
 10
119.1026840491
 20
267.1057547591
 30
0.0
 10
119.2500811409
 20
268.729473733
 30
0.0
 10
119.3008665511
 20
269.8125904884
 30
0.0
  0
SPLINE
  5
3D0
100
AcDbEntity
  8
0
100
AcDbSpline
 62
7
  6
CONTINUOUS
 70
0
 71
3
 72
10
 73
6
 74
0
 42
0.0000001
 43
0.0000001
 44
0.0000000001
 40
0.0
 40
0.0
 40
0.0
 40
0.0
 40
0.3706339906
 40
0.665622925
 40
1.0
 40
1.0
 40
1.0
 40
1.0
 10
259.1676909581
 20
235.7907444463
 30
0.0
 10
259.1676719364
 20
235.7340604397
 30
0.0
 10
259.0581885098
 20
235.6599954681
 30
0.0
 10
258.9171214043
 20
235.6256126111
 30
0.0
 10
258.8189063691
 20
235.6163840043
 30
0.0
 10
258.7677674185
 20
235.6163814385
 30
0.0
  0
SPLINE
  5
3D1
100
AcDbEntity
  8
0
100
AcDbSpline
 62
7
  6
CONTINUOUS
 70
0
 71
3
 72
9
 73
5
 74
0
 42
0.0000001
 43
0.0000001
 44
0.0000000001
 40
0.0
 40
0.0
 40
0.0
 40
0.0
 40
0.4933380459
 40
1.0
 40
1.0
 40
1.0
 40
1.0
 10
118.3483484752
 20
263.3857123747
 30
0.0
 10
118.1019204784
 20
264.4128163773
 30
0.0
 10
117.6966641216
 20
266.5207969786
 30
0.0
 10
117.5620306787
 20
268.6622572448
 30
0.0
 10
117.5317126286
 20
269.7466129237
 30
0.0
  0
SPLINE
  5
3D2
100
AcDbEntity
  8
0
100
AcDbSpline
 62
7
  6
CONTINUOUS
 70
0
 71
3
 72
9
 73
5
 74
0
 42
0.0000001
 43
0.0000001
 44
0.0000000001
 40
0.0
 40
0.0
 40
0.0
 40
0.0
 40
0.5260900435
 40
1.0
 40
1.0
 40
1.0
 40
1.0
 10
259.0559245439
 20
230.9407274444
 30
0.0
 10
259.0889489813
 20
230.965427167
 30
0.0
 10
259.1449979259
 20
231.0238742308
 30
0.0
 10
259.1676723766
 20
231.1031489763
 30
0.0
 10
259.1676799511
 20
231.1402980757
 30
0.0
  0
SPLINE
  5
3D3
100
AcDbEntity
  8
0
100
AcDbSpline
 62
7
  6
CONTINUOUS
 70
0
 71
3
 72
23
 73
19
 74
0
 42
0.0000001
 43
0.0000001
 44
0.0000000001
 40
0.0
 40
0.0
 40
0.0
 40
0.0
 40
0.0516524837
 40
0.1023514819
 40
0.1523273968
 40
0.2022737134
 40
0.3938599724
 40
0.5688712043
 40
0.7203700166
 40
0.7852451985
 40
0.841833336
 40
0.88951015
 40
0.9281606817
 40
0.9578335586
 40
0.9788165904
 40
0.986182794
 40
0.9916757059
 40
1.0
 40
1.0
 40
1.0
 40
1.0
 10
117.488340818
 20
269.8634686998
 30
0.0
 10
117.4214947768
 20
269.9683963111
 30
0.0
 10
117.2775143602
 20
270.1687518976
 30
0.0
 10
117.0832090211
 20
270.4800794503
 30
0.0
 10
116.8825346606
 20
270.7823294827
 30
0.0
 10
116.491095701
 20
271.3652204198
 30
0.0
 10
115.9395341211
 20
272.2033648583
 30
0.0
 10
115.2739494815
 20
273.2590964084
 30
0.0
 10
114.8063302347
 20
274.078339332
 30
0.0
 10
114.510659634
 20
274.6657049995
 30
0.0
 10
114.3425164579
 20
275.0369980284
 30
0.0
 10
114.2181043893
 20
275.3580705153
 30
0.0
 10
114.1322209154
 20
275.6243670711
 30
0.0
 10
114.0814737735
 20
275.8331007836
 30
0.0
 10
114.0545895842
 20
275.9711819836
 30
0.0
 10
114.0531388462
 20
276.052469324
 30
0.0
 10
114.0623217618
 20
276.1043004044
 30
0.0
 10
114.0977363582
 20
276.1255395415
 30
0.0
 10
114.1177864495
 20
276.1255476938
 30
0.0
  0
SPLINE
  5
3D4
100
AcDbEntity
  8
0
100
AcDbSpline
 62
7
  6
CONTINUOUS
 70
0
 71
3
 72
12
 73
8
 74
0
 42
0.0000001
 43
0.0000001
 44
0.0000000001
 40
0.0
 40
0.0
 40
0.0
 40
0.0
 40
0.1119226985
 40
0.1952351321
 40
0.3025142192
 40
0.5965769396
 40
1.0
 40
1.0
 40
1.0
 40
1.0
 10
269.0918096382
 20
234.2021935059
 30
0.0
 10
269.050155954
 20
234.1605401232
 30
0.0
 10
268.9349333933
 20
234.140026496
 30
0.0
 10
268.78037426
 20
234.1669847495
 30
0.0
 10
268.5353806044
 20
234.2444034119
 30
0.0
 10
268.1558559047
 20
234.4345181335
 30
0.0
 10
267.8424399018
 20
234.62621385
 30
0.0
 10
267.66445938
 20
234.7420005264
 30
0.0
  0
SPLINE
  5
3D5
100
AcDbEntity
  8
0
100
AcDbSpline
 62
7
  6
CONTINUOUS
 70
0
 71
3
 72
13
 73
9
 74
0
 42
0.0000001
 43
0.0000001
 44
0.0000000001
 40
0.0
 40
0.0
 40
0.0
 40
0.0
 40
0.0892580277
 40
0.1830272396
 40
0.2852978213
 40
0.3993048008
 40
0.6700242123
 40
1.0
 40
1.0
 40
1.0
 40
1.0
 10
53.3679920206
 20
276.125547693
 30
0.0
 10
53.1111884727
 20
276.1255469682
 30
0.0
 10
52.5822454832
 20
276.055042467
 30
0.0
 10
51.8153350436
 20
275.7419109006
 30
0.0
 10
51.0802953565
 20
275.2247485552
 30
0.0
 10
50.1088370487
 20
274.2048168005
 30
0.0
 10
49.1032114439
 20
272.3742786636
 30
0.0
 10
48.668556392
 20
270.6847515372
 30
0.0
 10
48.5260972515
 20
269.7461301808
 30
0.0
  0
SPLINE
  5
3D6
100
AcDbEntity
  8
0
100
AcDbSpline
 62
7
  6
CONTINUOUS
 70
0
 71
3
 72
20
 73
16
 74
0
 42
0.0000001
 43
0.0000001
 44
0.0000000001
 40
0.0
 40
0.0
 40
0.0
 40
0.0
 40
0.054351494
 40
0.1113623002
 40
0.1730174251
 40
0.23893989
 40
0.3813260569
 40
0.5330498798
 40
0.6818545641
 40
0.7482781808
 40
0.805436894
 40
0.8547624718
 40
0.9011010471
 40
0.9488200627
 40
1.0
 40
1.0
 40
1.0
 40
1.0
 10
267.6644627785
 20
234.7419983155
 30
0.0
 10
267.5989089563
 20
234.5201108926
 30
0.0
 10
267.440351426
 20
234.0719780117
 30
0.0
 10
267.1045088005
 20
233.4139833263
 30
0.0
 10
266.6592027219
 20
232.7646300855
 30
0.0
 10
265.931174486
 20
231.8745020559
 30
0.0
 10
264.8386997892
 20
230.7918413714
 30
0.0
 10
263.3386621723
 20
229.644893312
 30
0.0
 10
261.9212326952
 20
228.9305829322
 30
0.0
 10
260.7693581125
 20
228.726930542
 30
0.0
 10
260.0236137404
 20
228.8063044753
 30
0.0
 10
259.4329070946
 20
229.1216311736
 30
0.0
 10
259.0517214732
 20
229.6186898993
 30
0.0
 10
258.8612057935
 20
230.2154619928
 30
0.0
 10
258.8253052844
 20
230.6367765739
 30
0.0
 10
258.8167994087
 20
230.8544778884
 30
0.0
  0
SPLINE
  5
3D7
100
AcDbEntity
  8
0
100
AcDbSpline
 62
7
  6
CONTINUOUS
 70
0
 71
3
 72
8
 73
4
 74
0
 42
0.0000001
 43
0.0000001
 44
0.0000000001
 40
0.0
 40
0.0
 40
0.0
 40
0.0
 40
1.0
 40
1.0
 40
1.0
 40
1.0
 10
259.0559245439
 20
230.9407274444
 30
0.0
 10
259.0336272293
 20
230.9240304237
 30
0.0
 10
259.009295665
 20
230.909853934
 30
0.0
 10
258.9840227518
 20
230.8981389608
 30
0.0
  0
SPLINE
  5
3D8
100
AcDbEntity
  8
0
100
AcDbSpline
 62
7
  6
CONTINUOUS
 70
0
 71
3
 72
8
 73
4
 74
0
 42
0.0000001
 43
0.0000001
 44
0.0000000001
 40
0.0
 40
0.0
 40
0.0
 40
0.0
 40
1.0
 40
1.0
 40
1.0
 40
1.0
 10
258.9840227518
 20
230.8981389608
 30
0.0
 10
258.9317541484
 20
230.8739104406
 30
0.0
 10
258.8741656531
 20
230.8596424339
 30
0.0
 10
258.8167819669
 20
230.8545296418
 30
0.0
  0
SPLINE
  5
3D9
100
AcDbEntity
  8
0
100
AcDbSpline
 62
7
  6
CONTINUOUS
 70
0
 71
3
 72
9
 73
5
 74
0
 42
0.0000001
 43
0.0000001
 44
0.0000000001
 40
0.0
 40
0.0
 40
0.0
 40
0.0
 40
0.2440147598
 40
1.0
 40
1.0
 40
1.0
 40
1.0
 10
138.218344856
 20
235.8918768734
 30
0.0
 10
139.6865472487
 20
235.6183102059
 30
0.0
 10
145.7063523924
 20
234.5129859583
 30
0.0
 10
151.7341883089
 20
233.4521339065
 30
0.0
 10
156.2911555424
 20
232.6504788255
 30
0.0
  0
SPLINE
  5
3DA
100
AcDbEntity
  8
0
100
AcDbSpline
 62
7
  6
CONTINUOUS
 70
0
 71
3
 72
9
 73
5
 74
0
 42
0.0000001
 43
0.0000001
 44
0.0000000001
 40
0.0
 40
0.0
 40
0.0
 40
0.0
 40
0.5210159568
 40
1.0
 40
1.0
 40
1.0
 40
1.0
 10
267.6643706466
 20
234.7420722594
 30
0.0
 10
267.54786179
 20
234.6915640509
 30
0.0
 10
267.2799984727
 20
234.7059828476
 30
0.0
 10
267.0668078819
 20
234.8927568319
 30
0.0
 10
267.0418501701
 20
235.0067992992
 30
0.0
  0
SPLINE
  5
3DB
100
AcDbEntity
  8
0
100
AcDbSpline
 62
7
  6
CONTINUOUS
 70
0
 71
3
 72
11
 73
7
 74
0
 42
0.0000001
 43
0.0000001
 44
0.0000000001
 40
0.0
 40
0.0
 40
0.0
 40
0.0
 40
0.2863380924
 40
0.5418998216
 40
0.7734826461
 40
1.0
 40
1.0
 40
1.0
 40
1.0
 10
267.7856816584
 20
235.7330219172
 30
0.0
 10
267.7196476013
 20
235.7006164469
 30
0.0
 10
267.577961692
 20
235.6704500828
 30
0.0
 10
267.3785442251
 20
235.7067465843
 30
0.0
 10
267.2188702651
 20
235.808989677
 30
0.0
 10
267.1677107682
 20
235.9278892345
 30
0.0
 10
267.1677154318
 20
235.9860788536
 30
0.0
  0
SPLINE
  5
3DC
100
AcDbEntity
  8
0
100
AcDbSpline
 62
7
  6
CONTINUOUS
 70
0
 71
3
 72
8
 73
4
 74
0
 42
0.0000001
 43
0.0000001
 44
0.0000000001
 40
0.0
 40
0.0
 40
0.0
 40
0.0
 40
1.0
 40
1.0
 40
1.0
 40
1.0
 10
156.718815082
 20
240.8063264023
 30
0.0
 10
156.7340048415
 20
240.8041770204
 30
0.0
 10
156.7514410551
 20
240.8103987034
 30
0.0
 10
156.7646928016
 20
240.8026695473
 30
0.0
  0
SPLINE
  5
3DD
100
AcDbEntity
  8
0
100
AcDbSpline
 62
7
  6
CONTINUOUS
 70
0
 71
3
 72
9
 73
5
 74
0
 42
0.0000001
 43
0.0000001
 44
0.0000000001
 40
0.0
 40
0.0
 40
0.0
 40
0.0
 40
0.2438846235
 40
1.0
 40
1.0
 40
1.0
 40
1.0
 10
138.2184285933
 20
243.2191298167
 30
0.0
 10
139.7214095029
 20
243.0153989564
 30
0.0
 10
145.8857421543
 20
242.1922708492
 30
0.0
 10
152.0545491066
 20
241.4032309127
 30
0.0
 10
156.7188155843
 20
240.8063302851
 30
0.0
  0
SPLINE
  5
3DE
100
AcDbEntity
  8
0
100
AcDbSpline
 62
7
  6
CONTINUOUS
 70
0
 71
3
 72
9
 73
5
 74
0
 42
0.0000001
 43
0.0000001
 44
0.0000000001
 40
0.0
 40
0.0
 40
0.0
 40
0.0
 40
0.4165610512
 40
1.0
 40
1.0
 40
1.0
 40
1.0
 10
279.192759175
 20
263.3855476931
 30
0.0
 10
279.231024643
 20
263.2140449871
 30
0.0
 10
279.2783474563
 20
262.793263396
 30
0.0
 10
279.2933641095
 20
262.3716622432
 30
0.0
 10
279.2933641095
 20
262.1255476931
 30
0.0
  0
SPLINE
  5
3DF
100
AcDbEntity
  8
0
100
AcDbSpline
 62
7
  6
CONTINUOUS
 70
0
 71
3
 72
12
 73
8
 74
0
 42
0.0000001
 43
0.0000001
 44
0.0000000001
 40
0.0
 40
0.0
 40
0.0
 40
0.0
 40
0.2677326055
 40
0.3983887545
 40
0.5261612843
 40
0.7714643639
 40
1.0
 40
1.0
 40
1.0
 40
1.0
 10
156.7188149175
 20
240.8063241349
 30
0.0
 10
156.6601217748
 20
240.0798050923
 30
0.0
 10
156.6338907416
 20
238.9947219903
 30
0.0
 10
156.5821319731
 20
237.5633094686
 30
0.0
 10
156.5018189838
 20
236.1941755663
 30
0.0
 10
156.3899939775
 20
234.5601790605
 30
0.0
 10
156.319390145
 20
233.2720330038
 30
0.0
 10
156.2911592277
 20
232.6504992193
 30
0.0
  0
SPLINE
  5
3E0
100
AcDbEntity
  8
0
100
AcDbSpline
 62
7
  6
CONTINUOUS
 70
0
 71
3
 72
9
 73
5
 74
0
 42
0.0000001
 43
0.0000001
 44
0.0000000001
 40
0.0
 40
0.0
 40
0.0
 40
0.0
 40
0.2570083581
 40
1.0
 40
1.0
 40
1.0
 40
1.0
 10
156.2911556226
 20
232.650480707
 30
0.0
 10
156.2865813287
 20
232.5395104129
 30
0.0
 10
156.2700118008
 20
232.1076823422
 30
0.0
 10
156.2569609839
 20
231.6757296278
 30
0.0
 10
156.2476765938
 20
231.3547847636
 30
0.0
  0
SPLINE
  5
3E1
100
AcDbEntity
  8
0
100
AcDbSpline
 62
7
  6
CONTINUOUS
 70
0
 71
3
 72
9
 73
5
 74
0
 42
0.0000001
 43
0.0000001
 44
0.0000000001
 40
0.0
 40
0.0
 40
0.0
 40
0.0
 40
0.2431698351
 40
1.0
 40
1.0
 40
1.0
 40
1.0
 10
138.2184284423
 20
254.8557783409
 30
0.0
 10
136.6151422121
 20
254.9347450526
 30
0.0
 10
130.0216652217
 20
255.2554288433
 30
0.0
 10
123.4277465092
 20
255.5669768355
 30
0.0
 10
118.4371030584
 20
255.7991317992
 30
0.0
  0
SPLINE
  5
3E2
100
AcDbEntity
  8
0
100
AcDbSpline
 62
7
  6
CONTINUOUS
 70
0
 71
3
 72
13
 73
9
 74
0
 42
0.0000001
 43
0.0000001
 44
0.0000000001
 40
0.0
 40
0.0
 40
0.0
 40
0.0
 40
0.0456683283
 40
0.1184103639
 40
0.2165424984
 40
0.3379478773
 40
0.6402398246
 40
1.0
 40
1.0
 40
1.0
 40
1.0
 10
275.8190282827
 20
287.3956138039
 30
0.0
 10
275.7654871629
 20
287.4021477499
 30
0.0
 10
275.6300307611
 20
287.4401595549
 30
0.0
 10
275.3877803118
 20
287.5209315868
 30
0.0
 10
275.0641531262
 20
287.6417827266
 30
0.0
 10
274.4930203335
 20
287.8734158953
 30
0.0
 10
273.6499515928
 20
288.2554710411
 30
0.0
 10
272.9394502612
 20
288.5818094405
 30
0.0
 10
272.5526298958
 20
288.7576426327
 30
0.0
  0
LINE
  5
3E3
100
AcDbEntity
  8
0
100
AcDbLine
 62
7
  6
CONTINUOUS
 10
272.5526298958
 20
288.7576426327
 11
272.3248543514
 21
288.8609339106
  0
SPLINE
  5
3E4
100
AcDbEntity
  8
0
100
AcDbSpline
 62
7
  6
CONTINUOUS
 70
0
 71
3
 72
9
 73
5
 74
0
 42
0.0000001
 43
0.0000001
 44
0.0000000001
 40
0.0
 40
0.0
 40
0.0
 40
0.0
 40
0.2443395883
 40
1.0
 40
1.0
 40
1.0
 40
1.0
 10
272.3248543514
 20
288.8609339106
 30
0.0
 10
272.2107782104
 20
288.9125307226
 30
0.0
 10
271.7436643259
 20
289.1229451776
 30
0.0
 10
271.2699695367
 20
289.3205822018
 30
0.0
 10
270.9040308113
 20
289.4471494488
 30
0.0
  0
SPLINE
  5
3E5
100
AcDbEntity
  8
0
100
AcDbSpline
 62
7
  6
CONTINUOUS
 70
0
 71
3
 72
8
 73
4
 74
0
 42
0.0000001
 43
0.0000001
 44
0.0000000001
 40
0.0
 40
0.0
 40
0.0
 40
0.0
 40
1.0
 40
1.0
 40
1.0
 40
1.0
 10
270.9040308113
 20
289.4471494488
 30
0.0
 10
270.642987519
 20
289.5374365065
 30
0.0
 10
270.3781602603
 20
289.6170614559
 30
0.0
 10
270.1115954287
 20
289.6894392411
 30
0.0
  0
SPLINE
  5
3E6
100
AcDbEntity
  8
0
100
AcDbSpline
 62
7
  6
CONTINUOUS
 70
0
 71
3
 72
14
 73
10
 74
0
 42
0.0000001
 43
0.0000001
 44
0.0000000001
 40
0.0
 40
0.0
 40
0.0
 40
0.0
 40
0.248386534
 40
0.3730612582
 40
0.4980165809
 40
0.6232173163
 40
0.7486375698
 40
0.8742434116
 40
1.0
 40
1.0
 40
1.0
 40
1.0
 10
157.3063200174
 20
287.2061767055
 30
0.0
 10
157.283433513
 20
285.2338428424
 30
0.0
 10
157.294318153
 20
282.2711048848
 30
0.0
 10
157.3266320138
 20
278.3164727284
 30
0.0
 10
157.3404987307
 20
275.3399159391
 30
0.0
 10
157.3210135738
 20
272.3573155519
 30
0.0
 10
157.2459049757
 20
269.3705965304
 30
0.0
 10
157.1834252165
 20
266.3789344129
 30
0.0
 10
157.2423067098
 20
264.3821455711
 30
0.0
 10
157.3060186988
 20
263.3855321598
 30
0.0
  0
SPLINE
  5
3E7
100
AcDbEntity
  8
0
100
AcDbSpline
 62
7
  6
CONTINUOUS
 70
0
 71
3
 72
14
 73
10
 74
0
 42
0.0000001
 43
0.0000001
 44
0.0000000001
 40
0.0
 40
0.0
 40
0.0
 40
0.0
 40
0.0192752347
 40
0.0726221768
 40
0.1601978041
 40
0.2815271554
 40
0.4346079076
 40
0.6115934176
 40
1.0
 40
1.0
 40
1.0
 40
1.0
 10
229.9599256886
 20
298.6907434948
 30
0.0
 10
229.9647664405
 20
298.6914459249
 30
0.0
 10
229.9700062535
 20
298.6648313309
 30
0.0
 10
229.9822603557
 20
298.6342919777
 30
0.0
 10
229.9963141659
 20
298.5645804024
 30
0.0
 10
230.0148792237
 20
298.4766369025
 30
0.0
 10
230.0355908621
 20
298.3632076585
 30
0.0
 10
230.0669680382
 20
298.183928917
 30
0.0
 10
230.0899442534
 20
298.0421596062
 30
0.0
 10
230.1051385928
 20
297.9447723729
 30
0.0
  0
SPLINE
  5
3E8
100
AcDbEntity
  8
0
100
AcDbSpline
 62
7
  6
CONTINUOUS
 70
0
 71
3
 72
9
 73
5
 74
0
 42
0.0000001
 43
0.0000001
 44
0.0000000001
 40
0.0
 40
0.0
 40
0.0
 40
0.0
 40
0.2649569648
 40
1.0
 40
1.0
 40
1.0
 40
1.0
 10
162.2620343073
 20
240.8000706446
 30
0.0
 10
162.3146694305
 20
240.6727340544
 30
0.0
 10
162.5149463307
 20
240.1928157987
 30
0.0
 10
162.7209735357
 20
239.715271897
 30
0.0
 10
162.877152824
 20
239.3663874277
 30
0.0
  0
SPLINE
  5
3E9
100
AcDbEntity
  8
0
100
AcDbSpline
 62
7
  6
CONTINUOUS
 70
0
 71
3
 72
9
 73
5
 74
0
 42
0.0000001
 43
0.0000001
 44
0.0000000001
 40
0.0
 40
0.0
 40
0.0
 40
0.0
 40
0.2518494919
 40
1.0
 40
1.0
 40
1.0
 40
1.0
 10
159.5604564235
 20
230.0130132531
 30
0.0
 10
159.7801204218
 20
230.0398434624
 30
0.0
 10
160.6444208068
 20
230.2004510667
 30
0.0
 10
161.4737460715
 20
230.5683286572
 30
0.0
 10
162.0080068269
 20
230.951376544
 30
0.0
  0
SPLINE
  5
3EA
100
AcDbEntity
  8
0
100
AcDbSpline
 62
7
  6
CONTINUOUS
 70
0
 71
3
 72
9
 73
5
 74
0
 42
0.0000001
 43
0.0000001
 44
0.0000000001
 40
0.0
 40
0.0
 40
0.0
 40
0.0
 40
0.7218636566
 40
1.0
 40
1.0
 40
1.0
 40
1.0
 10
48.4977074051
 20
269.7368606634
 30
0.0
 10
48.5032059599
 20
269.7401529136
 30
0.0
 10
48.5149435363
 20
269.7355243641
 30
0.0
 10
48.5198132896
 20
269.7445160019
 30
0.0
 10
48.5203894769
 20
269.7469171782
 30
0.0
  0
SPLINE
  5
3EB
100
AcDbEntity
  8
0
100
AcDbSpline
 62
7
  6
CONTINUOUS
 70
0
 71
3
 72
13
 73
9
 74
0
 42
0.0000001
 43
0.0000001
 44
0.0000000001
 40
0.0
 40
0.0
 40
0.0
 40
0.0
 40
0.1411755528
 40
0.2803056542
 40
0.4157996598
 40
0.5462773299
 40
0.7881410687
 40
1.0
 40
1.0
 40
1.0
 40
1.0
 10
162.2620357653
 20
240.8000668597
 30
0.0
 10
161.7642105134
 20
240.54403427
 30
0.0
 10
160.8503777835
 20
239.8664074163
 30
0.0
 10
159.919038836
 20
238.4750335112
 30
0.0
 10
159.3944428468
 20
236.9439056243
 30
0.0
 10
159.0822820543
 20
234.948093957
 30
0.0
 10
159.1206904637
 20
232.6180061985
 30
0.0
 10
159.3879266472
 20
230.8352588974
 30
0.0
 10
159.5604414835
 20
230.0130749556
 30
0.0
  0
SPLINE
  5
3EC
100
AcDbEntity
  8
0
100
AcDbSpline
 62
7
  6
CONTINUOUS
 70
0
 71
3
 72
10
 73
6
 74
0
 42
0.0000001
 43
0.0000001
 44
0.0000000001
 40
0.0
 40
0.0
 40
0.0
 40
0.0
 40
0.2601580889
 40
0.5181520292
 40
1.0
 40
1.0
 40
1.0
 40
1.0
 10
48.4977072462
 20
269.736860571
 30
0.0
 10
48.3813177933
 20
269.6508611592
 30
0.0
 10
48.0985433332
 20
269.5480487663
 30
0.0
 10
47.5383299554
 20
269.5477333039
 30
0.0
 10
47.1355968382
 20
269.6443093744
 30
0.0
 10
46.8690959654
 20
269.6729137713
 30
0.0
  0
SPLINE
  5
3ED
100
AcDbEntity
  8
0
100
AcDbSpline
 62
7
  6
CONTINUOUS
 70
0
 71
3
 72
21
 73
17
 74
0
 42
0.0000001
 43
0.0000001
 44
0.0000000001
 40
0.0
 40
0.0
 40
0.0
 40
0.0
 40
0.1962472929
 40
0.374867732
 40
0.5313536769
 40
0.6649006496
 40
0.724325615
 40
0.7787470133
 40
0.8270668083
 40
0.8665991289
 40
0.8943705468
 40
0.9042497382
 40
0.9137893674
 40
0.926372264
 40
0.9443906787
 40
1.0
 40
1.0
 40
1.0
 40
1.0
 10
46.8690959654
 20
269.6729137713
 30
0.0
 10
46.7423965398
 20
269.6865128286
 30
0.0
 10
46.4988608558
 20
269.697643524
 30
0.0
 10
46.1537834262
 20
269.6952111737
 30
0.0
 10
45.8498340896
 20
269.6989450061
 30
0.0
 10
45.6219765847
 20
269.6907510367
 30
0.0
 10
45.4647312379
 20
269.6559285443
 30
0.0
 10
45.364472406
 20
269.6235462948
 30
0.0
 10
45.2787657916
 20
269.5884831554
 30
0.0
 10
45.209556391
 20
269.5607878566
 30
0.0
 10
45.1601916393
 20
269.5464237266
 30
0.0
 10
45.1289340411
 20
269.5532291789
 30
0.0
 10
45.1146378123
 20
269.570088416
 30
0.0
 10
45.1100070514
 20
269.5963817018
 30
0.0
 10
45.113024177
 20
269.6523423277
 30
0.0
 10
45.1246274837
 20
269.6991059634
 30
0.0
 10
45.1336377459
 20
269.7340719126
 30
0.0
  0
SPLINE
  5
3EE
100
AcDbEntity
  8
0
100
AcDbSpline
 62
7
  6
CONTINUOUS
 70
0
 71
3
 72
22
 73
18
 74
0
 42
0.0000001
 43
0.0000001
 44
0.0000000001
 40
0.0
 40
0.0
 40
0.0
 40
0.0
 40
0.1949704354
 40
0.382550832
 40
0.5554414536
 40
0.7069681278
 40
0.7728706779
 40
0.8313523257
 40
0.8818250707
 40
0.9237972146
 40
0.9568895827
 40
0.9699898731
 40
0.980745635
 40
0.9891400844
 40
0.9951572557
 40
0.9987814985
 40
1.0
 40
1.0
 40
1.0
 40
1.0
 10
48.4992435594
 20
260.7257427467
 30
0.0
 10
48.1760088663
 20
260.7625966061
 30
0.0
 10
47.5392127891
 20
260.8175213153
 30
0.0
 10
46.6116287554
 20
260.8141101889
 30
0.0
 10
45.7581354634
 20
260.7773618297
 30
0.0
 10
45.1069361829
 20
260.7641078777
 30
0.0
 10
44.6466523186
 20
260.7544787253
 30
0.0
 10
44.3549525401
 20
260.7484863307
 30
0.0
 10
44.1031549353
 20
260.7429957601
 30
0.0
 10
43.8938027969
 20
260.7378843034
 30
0.0
 10
43.7466036868
 20
260.7341248828
 30
0.0
 10
43.6518285542
 20
260.7312925171
 30
0.0
 10
43.5975904459
 20
260.7300683867
 30
0.0
 10
43.556778836
 20
260.7278086208
 30
0.0
 10
43.5240634461
 20
260.7288204141
 30
0.0
 10
43.5106140453
 20
260.7242904079
 30
0.0
 10
43.4977070894
 20
260.7275805764
 30
0.0
 10
43.4977070894
 20
260.7255473773
 30
0.0
  0
SPLINE
  5
3EF
100
AcDbEntity
  8
0
100
AcDbSpline
 62
7
  6
CONTINUOUS
 70
0
 71
3
 72
13
 73
9
 74
0
 42
0.0000001
 43
0.0000001
 44
0.0000000001
 40
0.0
 40
0.0
 40
0.0
 40
0.0
 40
0.322286686
 40
0.606976811
 40
0.7272542554
 40
0.8309563897
 40
0.9200268921
 40
1.0
 40
1.0
 40
1.0
 40
1.0
 10
49.2105229276
 20
239.4379481385
 30
0.0
 10
48.5788654801
 20
239.4196652454
 30
0.0
 10
47.3842334991
 20
239.4908508854
 30
0.0
 10
45.9891286776
 20
239.8563692373
 30
0.0
 10
45.1024778408
 20
240.323010997
 30
0.0
 10
44.6214002143
 20
240.7127085692
 30
0.0
 10
44.30498232
 20
241.154430361
 30
0.0
 10
44.2200192554
 20
241.4854675804
 30
0.0
 10
44.214139745
 20
241.6421641806
 30
0.0
  0
SPLINE
  5
3F0
100
AcDbEntity
  8
0
100
AcDbSpline
 62
7
  6
CONTINUOUS
 70
0
 71
3
 72
9
 73
5
 74
0
 42
0.0000001
 43
0.0000001
 44
0.0000000001
 40
0.0
 40
0.0
 40
0.0
 40
0.0
 40
0.2255882849
 40
1.0
 40
1.0
 40
1.0
 40
1.0
 10
108.5801058724
 20
231.4934246069
 30
0.0
 10
108.7278361562
 20
231.5232224769
 30
0.0
 10
109.3844763076
 20
231.6461947798
 30
0.0
 10
110.0492682013
 20
231.7271839751
 30
0.0
 10
110.565446318
 20
231.7619866189
 30
0.0
  0
SPLINE
  5
3F1
100
AcDbEntity
  8
0
100
AcDbSpline
 62
7
  6
CONTINUOUS
 70
0
 71
3
 72
9
 73
5
 74
0
 42
0.0000001
 43
0.0000001
 44
0.0000000001
 40
0.0
 40
0.0
 40
0.0
 40
0.0
 40
0.3014005153
 40
1.0
 40
1.0
 40
1.0
 40
1.0
 10
112.4056444114
 20
231.7685646712
 30
0.0
 10
112.7199897686
 20
231.7496350741
 30
0.0
 10
113.760916347
 20
231.6527640289
 30
0.0
 10
114.7896391163
 20
231.4467961459
 30
0.0
 10
115.495067839
 20
231.2592897884
 30
0.0
  0
SPLINE
  5
3F2
100
AcDbEntity
  8
0
100
AcDbSpline
 62
7
  6
CONTINUOUS
 70
0
 71
3
 72
9
 73
5
 74
0
 42
0.0000001
 43
0.0000001
 44
0.0000000001
 40
0.0
 40
0.0
 40
0.0
 40
0.0
 40
0.225588288
 40
1.0
 40
1.0
 40
1.0
 40
1.0
 10
60.5801062405
 20
231.4934246812
 30
0.0
 10
60.7278365654
 20
231.5232225559
 30
0.0
 10
61.3844768912
 20
231.6461948728
 30
0.0
 10
62.0492689625
 20
231.7271840588
 30
0.0
 10
62.5654472137
 20
231.7619866793
 30
0.0
  0
SPLINE
  5
3F3
100
AcDbEntity
  8
0
100
AcDbSpline
 62
7
  6
CONTINUOUS
 70
0
 71
3
 72
9
 73
5
 74
0
 42
0.0000001
 43
0.0000001
 44
0.0000000001
 40
0.0
 40
0.0
 40
0.0
 40
0.0
 40
0.3014005158
 40
1.0
 40
1.0
 40
1.0
 40
1.0
 10
64.4056457067
 20
231.7685645932
 30
0.0
 10
64.7199909329
 20
231.749634976
 30
0.0
 10
65.7609170734
 20
231.6527638922
 30
0.0
 10
66.7896394084
 20
231.4467960682
 30
0.0
 10
67.495067839
 20
231.2592897884
 30
0.0
  0
SPLINE
  5
3F4
100
AcDbEntity
  8
0
100
AcDbSpline
 62
7
  6
CONTINUOUS
 70
0
 71
3
 72
14
 73
10
 74
0
 42
0.0000001
 43
0.0000001
 44
0.0000000001
 40
0.0
 40
0.0
 40
0.0
 40
0.0
 40
0.2572373184
 40
0.3871656959
 40
0.5173937401
 40
0.6440180654
 40
0.7649801013
 40
0.8835106088
 40
1.0
 40
1.0
 40
1.0
 40
1.0
 10
162.9078299887
 20
229.4401994704
 30
0.0
 10
162.7247196677
 20
229.1767959574
 30
0.0
 10
162.376281664
 20
228.8254611144
 30
0.0
 10
161.8214565032
 20
228.4917452854
 30
0.0
 10
161.3723566466
 20
228.3124352972
 30
0.0
 10
160.9282524771
 20
228.1561427457
 30
0.0
 10
160.4935742951
 20
228.0140281862
 30
0.0
 10
160.0544885677
 20
227.938066248
 30
0.0
 10
159.7607571992
 20
227.9273188412
 30
0.0
 10
159.6155174695
 20
227.9303959515
 30
0.0
  0
SPLINE
  5
3F5
100
AcDbEntity
  8
0
100
AcDbSpline
 62
7
  6
CONTINUOUS
 70
0
 71
3
 72
9
 73
5
 74
0
 42
0.0000001
 43
0.0000001
 44
0.0000000001
 40
0.0
 40
0.0
 40
0.0
 40
0.0
 40
0.2437759882
 40
1.0
 40
1.0
 40
1.0
 40
1.0
 10
138.2184558344
 20
260.5127003928
 30
0.0
 10
136.6110326624
 20
260.5306807589
 30
0.0
 10
130.0171667267
 20
260.6033358337
 30
0.0
 10
123.4232676031
 20
260.6729265517
 30
0.0
 10
118.436803294
 20
260.7255859394
 30
0.0
  0
SPLINE
  5
3F6
100
AcDbEntity
  8
0
100
AcDbSpline
 62
7
  6
CONTINUOUS
 70
0
 71
3
 72
9
 73
5
 74
0
 42
0.0000001
 43
0.0000001
 44
0.0000000001
 40
0.0
 40
0.0
 40
0.0
 40
0.0
 40
0.2437901276
 40
1.0
 40
1.0
 40
1.0
 40
1.0
 10
138.2184558502
 20
254.8557354642
 30
0.0
 10
139.7254488167
 20
254.7802909423
 30
0.0
 10
145.9071978594
 20
254.4754402842
 30
0.0
 10
152.0895686978
 20
254.1834175344
 30
0.0
 10
156.7647285608
 20
253.9624503662
 30
0.0
  0
SPLINE
  5
3F7
100
AcDbEntity
  8
0
100
AcDbSpline
 62
7
  6
CONTINUOUS
 70
0
 71
3
 72
9
 73
5
 74
0
 42
0.0000001
 43
0.0000001
 44
0.0000000001
 40
0.0
 40
0.0
 40
0.0
 40
0.0
 40
0.2437761937
 40
1.0
 40
1.0
 40
1.0
 40
1.0
 10
138.2184599665
 20
260.5126729403
 30
0.0
 10
139.7256202179
 20
260.4958138115
 30
0.0
 10
145.9081889623
 20
260.4276893628
 30
0.0
 10
152.0907888234
 20
260.3624379692
 30
0.0
 10
156.7662175201
 20
260.313062421
 30
0.0
  0
SPLINE
  5
3F8
100
AcDbEntity
  8
0
100
AcDbSpline
 62
7
  6
CONTINUOUS
 70
0
 71
3
 72
9
 73
5
 74
0
 42
0.0000001
 43
0.0000001
 44
0.0000000001
 40
0.0
 40
0.0
 40
0.0
 40
0.0
 40
0.2732117479
 40
1.0
 40
1.0
 40
1.0
 40
1.0
 10
162.0080217947
 20
230.9513599512
 30
0.0
 10
162.0628230418
 20
230.80025344
 30
0.0
 10
162.2928358493
 20
230.2580407187
 30
0.0
 10
162.6256330454
 20
229.7613510179
 30
0.0
 10
162.9078806723
 20
229.440155396
 30
0.0
  0
SPLINE
  5
3F9
100
AcDbEntity
  8
0
100
AcDbSpline
 62
7
  6
CONTINUOUS
 70
0
 71
3
 72
13
 73
9
 74
0
 42
0.0000001
 43
0.0000001
 44
0.0000000001
 40
0.0
 40
0.0
 40
0.0
 40
0.0
 40
0.1277124005
 40
0.2586446117
 40
0.3903462766
 40
0.5209727655
 40
0.7709491124
 40
1.0
 40
1.0
 40
1.0
 40
1.0
 10
161.6313315993
 20
238.4572753112
 30
0.0
 10
161.4357652193
 20
238.1912527479
 30
0.0
 10
161.1448728396
 20
237.5729821704
 30
0.0
 10
160.9707829931
 20
236.5729612599
 30
0.0
 10
160.9587167897
 20
235.5532028042
 30
0.0
 10
161.096535066
 20
234.2341452617
 30
0.0
 10
161.4308579762
 20
232.689732947
 30
0.0
 10
161.8062961532
 20
231.5081362822
 30
0.0
 10
162.0080499534
 20
230.9514037259
 30
0.0
  0
SPLINE
  5
3FA
100
AcDbEntity
  8
0
100
AcDbSpline
 62
7
  6
CONTINUOUS
 70
0
 71
3
 72
9
 73
5
 74
0
 42
0.0000001
 43
0.0000001
 44
0.0000000001
 40
0.0
 40
0.0
 40
0.0
 40
0.0
 40
0.1538695673
 40
1.0
 40
1.0
 40
1.0
 40
1.0
 10
139.7090130779
 20
283.3119461477
 30
0.0
 10
139.7304923166
 20
283.2994191684
 30
0.0
 10
139.8672575062
 20
283.2132489127
 30
0.0
 10
140.0002841068
 20
283.1214144209
 30
0.0
 10
140.1125097682
 20
283.0433008327
 30
0.0
  0
LINE
  5
3FB
100
AcDbEntity
  8
0
100
AcDbLine
 62
7
  6
CONTINUOUS
 10
138.2483895878
 20
279.9715196389
 11
138.6932445056
 21
280.2149118112
  0
SPLINE
  5
3FC
100
AcDbEntity
  8
0
100
AcDbSpline
 62
7
  6
CONTINUOUS
 70
0
 71
3
 72
9
 73
5
 74
0
 42
0.0000001
 43
0.0000001
 44
0.0000000001
 40
0.0
 40
0.0
 40
0.0
 40
0.0
 40
0.5100234867
 40
1.0
 40
1.0
 40
1.0
 40
1.0
 10
155.7003524926
 20
229.4075372304
 30
0.0
 10
152.9278586336
 20
230.1255834093
 30
0.0
 10
147.4779076034
 20
231.4746345437
 30
0.0
 10
141.9060938561
 20
232.3400654757
 30
0.0
 10
139.1591202782
 20
232.4960175242
 30
0.0
  0
SPLINE
  5
3FD
100
AcDbEntity
  8
0
100
AcDbSpline
 62
7
  6
CONTINUOUS
 70
0
 71
3
 72
9
 73
5
 74
0
 42
0.0000001
 43
0.0000001
 44
0.0000000001
 40
0.0
 40
0.0
 40
0.0
 40
0.0
 40
0.5042760223
 40
1.0
 40
1.0
 40
1.0
 40
1.0
 10
274.7539786989
 20
289.1846006045
 30
0.0
 10
275.0312032217
 20
288.9624902745
 30
0.0
 10
275.5040600109
 20
288.4167711412
 30
0.0
 10
275.755148195
 20
287.7412196164
 30
0.0
 10
275.8186191536
 20
287.3978333043
 30
0.0
  0
SPLINE
  5
3FE
100
AcDbEntity
  8
0
100
AcDbSpline
 62
7
  6
CONTINUOUS
 70
0
 71
3
 72
14
 73
10
 74
0
 42
0.0000001
 43
0.0000001
 44
0.0000000001
 40
0.0
 40
0.0
 40
0.0
 40
0.0
 40
0.0187593984
 40
0.0711354915
 40
0.1604499621
 40
0.2846139433
 40
0.4393158097
 40
0.6162849426
 40
1.0
 40
1.0
 40
1.0
 40
1.0
 10
269.6487037866
 20
290.6345744004
 30
0.0
 10
269.6437779935
 20
290.6356741088
 30
0.0
 10
269.6337207222
 20
290.6106180235
 30
0.0
 10
269.6188168083
 20
290.5780397444
 30
0.0
 10
269.5964838501
 20
290.5055105013
 30
0.0
 10
269.5689442584
 20
290.412343296
 30
0.0
 10
269.5368506588
 20
290.2932363402
 30
0.0
 10
269.4889724932
 20
290.1071248082
 30
0.0
 10
269.4536760719
 20
289.9603279396
 30
0.0
 10
269.4302186888
 20
289.8597929743
 30
0.0
  0
SPLINE
  5
3FF
100
AcDbEntity
  8
0
100
AcDbSpline
 62
7
  6
CONTINUOUS
 70
0
 71
3
 72
14
 73
10
 74
0
 42
0.0000001
 43
0.0000001
 44
0.0000000001
 40
0.0
 40
0.0
 40
0.0
 40
0.0
 40
0.0209650004
 40
0.0748473577
 40
0.1625776229
 40
0.2838124863
 40
0.4365966989
 40
0.6131033993
 40
1.0
 40
1.0
 40
1.0
 40
1.0
 10
234.1509551563
 20
298.5822724776
 30
0.0
 10
234.1457190869
 20
298.5834415864
 30
0.0
 10
234.1340672532
 20
298.5598153131
 30
0.0
 10
234.1188767705
 20
298.5279521386
 30
0.0
 10
234.0958738342
 20
298.4609598677
 30
0.0
 10
234.0687304912
 20
298.3740547883
 30
0.0
 10
234.0372259106
 20
298.2625424115
 30
0.0
 10
233.9900880138
 20
298.0856871263
 30
0.0
 10
233.9553849187
 20
297.9456289332
 30
0.0
 10
233.9324677624
 20
297.8493098335
 30
0.0
  0
SPLINE
  5
400
100
AcDbEntity
  8
0
100
AcDbSpline
 62
7
  6
CONTINUOUS
 70
0
 71
3
 72
9
 73
5
 74
0
 42
0.0000001
 43
0.0000001
 44
0.0000000001
 40
0.0
 40
0.0
 40
0.0
 40
0.0
 40
0.2442975035
 40
1.0
 40
1.0
 40
1.0
 40
1.0
 10
159.6157252646
 20
227.9304261402
 30
0.0
 10
159.2963851253
 20
228.049347118
 30
0.0
 10
157.9893354624
 20
228.5364661517
 30
0.0
 10
156.6840066987
 20
229.0282920608
 30
0.0
 10
155.7004819363
 20
229.4075373668
 30
0.0
  0
SPLINE
  5
401
100
AcDbEntity
  8
0
100
AcDbSpline
 62
7
  6
CONTINUOUS
 70
0
 71
3
 72
9
 73
5
 74
0
 42
0.0000001
 43
0.0000001
 44
0.0000000001
 40
0.0
 40
0.0
 40
0.0
 40
0.0
 40
0.5041076677
 40
1.0
 40
1.0
 40
1.0
 40
1.0
 10
162.877151161
 20
239.3664034196
 30
0.0
 10
162.630243902
 20
239.2782484488
 30
0.0
 10
162.1586362015
 20
239.0402305635
 30
0.0
 10
161.7838911105
 20
238.6652465893
 30
0.0
 10
161.6314405722
 20
238.4572290927
 30
0.0
  0
SPLINE
  5
402
100
AcDbEntity
  8
0
100
AcDbSpline
 62
7
  6
CONTINUOUS
 70
0
 71
3
 72
10
 73
6
 74
0
 42
0.0000001
 43
0.0000001
 44
0.0000000001
 40
0.0
 40
0.0
 40
0.0
 40
0.0
 40
0.260667675
 40
0.5169361944
 40
1.0
 40
1.0
 40
1.0
 40
1.0
 10
168.6289468936
 20
238.5558954721
 30
0.0
 10
168.1556801433
 20
238.7523099708
 30
0.0
 10
167.2013281684
 20
239.1127684197
 30
0.0
 10
165.3134914906
 20
239.6182516713
 30
0.0
 10
163.7712374669
 20
239.6862475998
 30
0.0
 10
162.877064528
 20
239.3666269514
 30
0.0
  0
SPLINE
  5
403
100
AcDbEntity
  8
0
100
AcDbSpline
 62
7
  6
CONTINUOUS
 70
0
 71
3
 72
9
 73
5
 74
0
 42
0.0000001
 43
0.0000001
 44
0.0000000001
 40
0.0
 40
0.0
 40
0.0
 40
0.0
 40
0.2479624276
 40
1.0
 40
1.0
 40
1.0
 40
1.0
 10
172.8520089112
 20
236.2504326288
 30
0.0
 10
172.5220982035
 20
236.4731067384
 30
0.0
 10
171.1734752064
 20
237.3433484659
 30
0.0
 10
169.7439266287
 20
238.093141462
 30
0.0
 10
168.6290387889
 20
238.5560274243
 30
0.0
  0
SPLINE
  5
404
100
AcDbEntity
  8
0
100
AcDbSpline
 62
7
  6
CONTINUOUS
 70
0
 71
3
 72
16
 73
12
 74
0
 42
0.0000001
 43
0.0000001
 44
0.0000000001
 40
0.0
 40
0.0
 40
0.0
 40
0.0
 40
0.0040433997
 40
0.0161700685
 40
0.03679121
 40
0.0660926848
 40
0.1509477928
 40
0.2698748953
 40
0.4198464576
 40
0.5958950337
 40
1.0
 40
1.0
 40
1.0
 40
1.0
 10
137.9244806892
 20
280.7046912825
 30
0.0
 10
137.9240032076
 20
280.7039129322
 30
0.0
 10
137.9293230321
 20
280.7016449721
 30
0.0
 10
137.9337559895
 20
280.6968966426
 30
0.0
 10
137.946791311
 20
280.6891192518
 30
0.0
 10
137.9714498958
 20
280.6725274556
 30
0.0
 10
138.0165164207
 20
280.6442830028
 30
0.0
 10
138.0838542084
 20
280.6017862463
 30
0.0
 10
138.1692539722
 20
280.5486445942
 30
0.0
 10
138.3093536468
 20
280.461781657
 30
0.0
 10
138.4209329505
 20
280.393073084
 30
0.0
 10
138.4986890554
 20
280.3452978097
 30
0.0
  0
ENDSEC
  0
SECTION
  2
OBJECTS
  0
DICTIONARY
  5
C
100
AcDbDictionary
280
0
281
1
  3
ACAD_GROUP
350
D
  3
ACAD_MLINESTYLE
350
17
  3
ACAD_LAYOUT
350
1A
  3
ACAD_PLOTSETTINGS
350
19
  3
ACAD_PLOTSTYLENAME
350
E
  0
DICTIONARY
  5
D
102
{ACAD_REACTORS
330
C
102
}
100
AcDbDictionary
280
0
281
1
  0
ACDBDICTIONARYWDFLT
  5
E
102
{ACAD_REACTORS
330
C
102
}
100
AcDbDictionary
281
1
  3
Normal
350
F
100
AcDbDictionaryWithDefault
340
F
  0
DICTIONARY
  5
17
102
{ACAD_REACTORS
330
C
102
}
100
AcDbDictionary
280
0
281
1
  3
Standard
350
18
  0
DICTIONARY
  5
19
102
{ACAD_REACTORS
330
C
102
}
100
AcDbDictionary
281
1
  0
DICTIONARY
  5
1A
102
{ACAD_REACTORS
330
C
102
}
100
AcDbDictionary
281
1
  3
Model
350
405
  3
Layout1
350
406
  0
ACDBPLACEHOLDER
  5
F
102
{ACAD_REACTORS
330
E
102
}
  0
MLINESTYLE
  5
18
102
{ACAD_REACTORS
330
17
102
}
100
AcDbMlineStyle
  2
STANDARD
 70
0
  3

 62
256
 51
90.0
 52
90.0
 71
2
 49
0.5
 62
256
  6
BYLAYER
 49
-0.5
 62
256
  6
BYLAYER
  0
LAYOUT
  5
405
102
{ACAD_REACTORS
330
1A
102
}
100
AcDbPlotSettings
  1

  2
none_device
  4

  6

 40
0.0
 41
0.0
 42
0.0
 43
0.0
 44
210.0
 45
297.0
 46
0.0
 47
0.0
 48
0.0
 49
0.0
140
0.0
141
0.0
142
1.0
143
1.0
 70
1024
 72
1
 73
0
 74
0
  7

 75
0
147
1.0
148
0.0
149
0.0
100
AcDbLayout
  1
Model
 70
0
 71
0
 10
0.0
 20
0.0
 11
210.0
 21
297.0
 12
0.0
 22
0.0
 32
0.0
 14
0.0
 24
0.0
 34
0.0
 15
0.0
 25
0.0
 35
0.0
146
0.0
 13
0.0
 23
0.0
 33
0.0
 16
1.0
 26
0.0
 36
0.0
 17
0.0
 27
1.0
 37
0.0
 76
0
330
210
345
0
346
0
  0
LAYOUT
  5
406
102
{ACAD_REACTORS
330
1A
102
}
100
AcDbPlotSettings
  1

  2
none_device
  4

  6

 40
0.0
 41
0.0
 42
0.0
 43
0.0
 44
210.0
 45
297.0
 46
0.0
 47
0.0
 48
0.0
 49
0.0
140
0.0
141
0.0
142
1.0
143
1.0
 70
0
 72
1
 73
0
 74
0
  7

 75
0
147
1.0
148
0.0
149
0.0
100
AcDbLayout
  1
Layout1
 70
0
 71
1
 10
0.0
 20
0.0
 11
210.0
 21
297.0
 12
0.0
 22
0.0
 32
0.0
 14
0.0
 24
0.0
 34
0.0
 15
0.0
 25
0.0
 35
0.0
146
0.0
 13
0.0
 23
0.0
 33
0.0
 16
1.0
 26
0.0
 36
0.0
 17
0.0
 27
1.0
 37
0.0
 76
0
330
211
345
0
346
0
  0
ENDSEC
  0
EOF
