999
DXF file: C:\Users\sesa63760\Dev\_Creo\CAD\MCADID0002492_3D-CAD\drw0001_1.dxf
999
Pro/ENGINEER 2019471 by Parametric Technology Corporation
  0
SECTION
  2
HEADER
  9
$ACADVER
  1
AC1024
  9
$DWGCODEPAGE
  3
ANSI_1252
  9
$EXTMAX
 10
56.4934399612
 20
79.897865088
 30
0.0
  9
$EXTMIN
 10
0.0
 20
0.0
 30
0.0
  9
$LIMMIN
 10
0.0
 20
0.0
  9
$LIMMAX
 10
56.4934399612
 20
79.897865088
  9
$VIEWCTR
 10
28.2467199806
 20
39.948932544
  9
$VIEWSIZE
 40
79.897865088
  9
$CLAYER
  8
0
  9
$LTSCALE
 40
5.2081571317
  9
$CELTYPE
  6
BYLAYER
  9
$DIMSCALE
 40
1.0
  9
$DIMASZ
 40
0.6725409519
  9
$DIMEXO
 40
1.0
  9
$DIMDLI
 40
3.5983631091
  9
$DIMEXE
 40
1.0
  9
$DIMCEN
 40
0.8522438943
  9
$DIMLFAC
 40
1.0
  9
$DIMBLK
  1
_FILLED
  9
$DIMALT
 70
0
  9
$DIMALTF
 40
0.0393700787
  9
$DIMTXT
 40
0.9415573327
  9
$DIMTOL
 70
1
  9
$DIMLIM
 70
0
  9
$DIMTFAC
 40
1.0
  9
$DIMTP
 40
0.01
  9
$DIMTM
 40
0.01
  9
$DIMGAP
 40
0.625
  9
$DIMDSEP
 70
46
  9
$AUNITS
 70
0
  9
$PDMODE
 70
3
  9
$PDSIZE
 40
0.3125
  9
$HANDSEED
  5
254
  9
$TILEMODE
 70
1
  9
$MEASUREMENT
 70
1
  9
$INSUNITS
 70
4
  0
ENDSEC
  0
SECTION
  2
CLASSES
  0
CLASS
  1
ACDBDICTIONARYWDFLT
  2
AcDbDictionaryWithDefault
  3
AutoCAD 2000
 90
0
 91
1
280
0
281
0
  0
CLASS
  1
ACDBPLACEHOLDER
  2
AcDbPlaceHolder
  3
AutoCAD 2000
 90
0
 91
1
280
0
281
0
  0
CLASS
  1
LAYOUT
  2
AcDbLayout
  3
AutoCAD 2000
 90
0
 91
0
280
0
281
0
  0
ENDSEC
  0
SECTION
  2
TABLES
  0
TABLE
  2
VPORT
  5
8
100
AcDbSymbolTable
 70
2
  0
VPORT
  5
1F4
100
AcDbSymbolTableRecord
100
AcDbViewportTableRecord
  2
*ACTIVE
 70
0
 10
0.0
 20
0.0
 11
1.0
 21
1.0
 12
28.2467199806
 22
39.948932544
 13
0.0
 23
0.0
 14
1.0
 24
1.0
 15
0.0
 25
0.0
 16
0.0
 26
0.0
 36
1.0
 17
0.0
 27
0.0
 37
0.0
 40
79.897865088
 41
0.7070707071
 42
50.0
 43
0.0
 44
0.0
 50
0.0
 51
0.0
 71
0
 72
100
 73
1
 74
1
 75
0
 76
0
 77
0
 78
0
  0
ENDTAB
  0
TABLE
  2
LTYPE
  5
5
100
AcDbSymbolTable
 70
6
  0
LTYPE
  5
14
100
AcDbSymbolTableRecord
100
AcDbLinetypeTableRecord
  2
BYBLOCK
 70
0
  3

 72
65
 73
0
 40
0.0
  0
LTYPE
  5
15
100
AcDbSymbolTableRecord
100
AcDbLinetypeTableRecord
  2
BYLAYER
 70
0
  3

 72
65
 73
0
 40
0.0
  0
LTYPE
  5
16
100
AcDbSymbolTableRecord
100
AcDbLinetypeTableRecord
  2
CONTINUOUS
 70
64
  3
Solid line
 72
65
 73
0
 40
0.0
  0
LTYPE
  5
1F5
100
AcDbSymbolTableRecord
100
AcDbLinetypeTableRecord
  2
CENTER
 70
64
  3
____ _ ____ _ ____ _ ____ _ ____ _ ____ _ ____
 72
65
 73
4
 40
0.6
 49
0.375
 74
0
 49
-0.075
 74
0
 49
0.075
 74
0
 49
-0.075
 74
0
  0
LTYPE
  5
1F6
100
AcDbSymbolTableRecord
100
AcDbLinetypeTableRecord
  2
HIDDEN
 70
64
  3
- - - - - - - - - - - - - - - - - - - -
 72
65
 73
2
 40
0.2
 49
0.1
 74
0
 49
-0.1
 74
0
  0
LTYPE
  5
1F7
100
AcDbSymbolTableRecord
100
AcDbLinetypeTableRecord
  2
PHANTOM
 70
64
  3
_____ _ _ _____ _ _ _____ _ _ _____
 72
65
 73
6
 40
0.8
 49
0.45
 74
0
 49
-0.05
 74
0
 49
0.1
 74
0
 49
-0.05
 74
0
 49
0.1
 74
0
 49
-0.05
 74
0
  0
LTYPE
  5
1F8
100
AcDbSymbolTableRecord
100
AcDbLinetypeTableRecord
  2
DOT
 70
64
  3
. . . . . . . . . . . . . . . . . . . .
 72
65
 73
2
 40
0.2
 49
0.1
 74
0
 49
-0.1
 74
0
  0
LTYPE
  5
1F9
100
AcDbSymbolTableRecord
100
AcDbLinetypeTableRecord
  2
DASHED
 70
64
  3
- - - - - - - - - - - - - - - - - - - -
 72
65
 73
2
 40
0.2
 49
0.1
 74
0
 49
-0.1
 74
0
  0
ENDTAB
  0
TABLE
  2
LAYER
  5
2
100
AcDbSymbolTable
 70
36
  0
LAYER
  5
10
100
AcDbSymbolTableRecord
100
AcDbLayerTableRecord
  2
0
 70
0
 62
7
  6
CONTINUOUS
370
-3
390
F
  0
LAYER
  5
1FA
100
AcDbSymbolTableRecord
100
AcDbLayerTableRecord
  2
DEFAULT_1
 70
0
 62
7
  6
CENTER
370
-3
390
F
  0
LAYER
  5
1FB
100
AcDbSymbolTableRecord
100
AcDbLayerTableRecord
  2
DEFAULT_2
 70
0
 62
7
  6
HIDDEN
370
-3
390
F
  0
LAYER
  5
1FC
100
AcDbSymbolTableRecord
100
AcDbLayerTableRecord
  2
DEFAULT_3
 70
0
 62
7
  6
PHANTOM
370
-3
390
F
  0
LAYER
  5
1FD
100
AcDbSymbolTableRecord
100
AcDbLayerTableRecord
  2
00_COMPONENTS
 70
0
 62
7
  6
CONTINUOUS
370
-3
390
F
  0
LAYER
  5
1FE
100
AcDbSymbolTableRecord
100
AcDbLayerTableRecord
  2
01_1_DEFAULT_DATUMS
 70
0
 62
7
  6
CONTINUOUS
370
-3
390
F
  0
LAYER
  5
1FF
100
AcDbSymbolTableRecord
100
AcDbLayerTableRecord
  2
01_PLANES
 70
0
 62
7
  6
CONTINUOUS
370
-3
390
F
  0
LAYER
  5
200
100
AcDbSymbolTableRecord
100
AcDbLayerTableRecord
  2
02_COORD_SYS
 70
0
 62
7
  6
CONTINUOUS
370
-3
390
F
  0
LAYER
  5
201
100
AcDbSymbolTableRecord
100
AcDbLayerTableRecord
  2
03_AXES
 70
0
 62
7
  6
CONTINUOUS
370
-3
390
F
  0
LAYER
  5
202
100
AcDbSymbolTableRecord
100
AcDbLayerTableRecord
  2
04_POINTS
 70
0
 62
7
  6
CONTINUOUS
370
-3
390
F
  0
LAYER
  5
203
100
AcDbSymbolTableRecord
100
AcDbLayerTableRecord
  2
05_CURVES
 70
0
 62
7
  6
CONTINUOUS
370
-3
390
F
  0
LAYER
  5
204
100
AcDbSymbolTableRecord
100
AcDbLayerTableRecord
  2
06_SURFS
 70
0
 62
7
  6
CONTINUOUS
370
-3
390
F
  0
LAYER
  5
205
100
AcDbSymbolTableRecord
100
AcDbLayerTableRecord
  2
07_COSMETICS
 70
0
 62
7
  6
CONTINUOUS
370
-3
390
F
  0
LAYER
  5
206
100
AcDbSymbolTableRecord
100
AcDbLayerTableRecord
  2
10_NOTES
 70
0
 62
7
  6
CONTINUOUS
370
-3
390
F
  0
LAYER
  5
207
100
AcDbSymbolTableRecord
100
AcDbLayerTableRecord
  2
11_NOTES_PUB
 70
0
 62
7
  6
CONTINUOUS
370
-3
390
F
  0
LAYER
  5
208
100
AcDbSymbolTableRecord
100
AcDbLayerTableRecord
  2
13_REF_GTOL
 70
0
 62
7
  6
CONTINUOUS
370
-3
390
F
  0
LAYER
  5
209
100
AcDbSymbolTableRecord
100
AcDbLayerTableRecord
  2
16_MISC
 70
0
 62
7
  6
CONTINUOUS
370
-3
390
F
  0
LAYER
  5
20A
100
AcDbSymbolTableRecord
100
AcDbLayerTableRecord
  2
17_NO_PRINT
 70
0
 62
7
  6
CONTINUOUS
370
-3
390
F
  0
LAYER
  5
20B
100
AcDbSymbolTableRecord
100
AcDbLayerTableRecord
  2
18_DATUM_CAMS_JOINTS
 70
0
 62
7
  6
CONTINUOUS
370
-3
390
F
  0
LAYER
  5
20C
100
AcDbSymbolTableRecord
100
AcDbLayerTableRecord
  2
19_DATUM_FUNCTIONAL
 70
0
 62
7
  6
CONTINUOUS
370
-3
390
F
  0
LAYER
  5
20D
100
AcDbSymbolTableRecord
100
AcDbLayerTableRecord
  2
20_DATUM_KINEMATIC_SCHEME
 70
0
 62
7
  6
CONTINUOUS
370
-3
390
F
  0
ENDTAB
  0
TABLE
  2
STYLE
  5
3
100
AcDbSymbolTable
 70
1
  0
STYLE
  5
11
100
AcDbSymbolTableRecord
100
AcDbTextStyleTableRecord
  2
STANDARD
 70
0
 40
0.0
 41
1.0
 50
0.0
 71
0
 42
0.2
  3
ARIAL.TTF
  4

  0
STYLE
  5
20E
100
AcDbSymbolTableRecord
100
AcDbTextStyleTableRecord
  2
TEXTSTYLE_1
 70
0
 40
0.0
 41
0.8
 50
0.0
 71
0
 42
0.2
  3
gdt
  4

  0
ENDTAB
  0
TABLE
  2
VIEW
  5
6
100
AcDbSymbolTable
 70
0
  0
ENDTAB
  0
TABLE
  2
UCS
  5
7
100
AcDbSymbolTable
 70
0
  0
ENDTAB
  0
TABLE
  2
APPID
  5
9
100
AcDbSymbolTable
 70
1
  0
APPID
  5
20F
100
AcDbSymbolTableRecord
100
AcDbRegAppTableRecord
  2
ACAD
 70
0
  0
ENDTAB
  0
TABLE
  2
BLOCK_RECORD
  5
1
100
AcDbSymbolTable
 70
0
  0
BLOCK_RECORD
  5
210
100
AcDbSymbolTableRecord
100
AcDbBlockTableRecord
  2
*Model_Space
  0
BLOCK_RECORD
  5
211
100
AcDbSymbolTableRecord
100
AcDbBlockTableRecord
  2
*Paper_Space
  0
BLOCK_RECORD
  5
212
100
AcDbSymbolTableRecord
100
AcDbBlockTableRecord
  2
_FILLED
  0
ENDTAB
  0
TABLE
  2
DIMSTYLE
  5
A
100
AcDbSymbolTable
 70
1
100
AcDbDimStyleTable
 71
0
  0
DIMSTYLE
105
213
100
AcDbSymbolTableRecord
100
AcDbDimStyleTableRecord
  2
STANDARD
 70
0
  3

  4

 40
1.0
 41
0.6725409519
 42
1.0
 43
0.38
 44
1.0
 45
0.0
 46
0.0
 47
0.01
 48
0.01
140
0.9415573327
141
0.09
142
0.0
143
25.4
144
1.0
145
0.0
146
1.0
147
0.625
 71
1
 72
0
 73
0
 74
0
 75
0
 76
0
 77
1
 78
8
 79
2
170
0
171
1
172
0
173
0
174
0
175
0
176
0
177
0
178
0
270
2
179
2
271
2
272
2
273
2
274
2
275
0
280
0
281
0
282
0
283
1
284
8
285
0
286
0
287
3
288
0
340
11
278
46
341
212
342
212
343
212
344
212
  0
ENDTAB
  0
ENDSEC
  0
SECTION
  2
BLOCKS
  0
BLOCK
  5
20
100
AcDbEntity
  8
0
100
AcDbBlockBegin
  2
*Model_Space
 70
0
 10
0.0
 20
0.0
 30
0.0
  3
*Model_Space
  1

  0
ENDBLK
  5
21
100
AcDbEntity
  8
0
100
AcDbBlockEnd
  0
BLOCK
  5
1C
100
AcDbEntity
  8
0
100
AcDbBlockBegin
  2
*Paper_Space
 70
0
 10
0.0
 20
0.0
 30
0.0
  3
*Paper_Space
  1

  0
ENDBLK
  5
1D
100
AcDbEntity
  8
0
100
AcDbBlockEnd
  0
BLOCK
  5
214
100
AcDbEntity
  8
0
100
AcDbBlockBegin
  2
_FILLED
 70
64
 10
0.0
 20
0.0
  3
_FILLED
  1

  0
SOLID
  5
215
100
AcDbEntity
  8
0
  6
BYBLOCK
 62
0
100
AcDbTrace
 10
0.0
 20
0.0
 11
-1.0
 21
0.25
 12
-1.0
 22
-0.25
 13
-1.0
 23
-0.25
  0
ENDBLK
  5
216
100
AcDbEntity
  8
0
  6
BYBLOCK
 62
0
100
AcDbBlockEnd
  0
ENDSEC
  0
SECTION
  2
ENTITIES
  0
LINE
  5
217
100
AcDbEntity
  8
0
100
AcDbLine
 62
7
  6
BYLAYER
 10
6.5538890079
 20
45.3433369704
 11
6.5538890079
 21
58.2016170354
  0
LINE
  5
218
100
AcDbEntity
  8
0
100
AcDbLine
 62
7
  6
BYLAYER
 10
9.9016921449
 20
40.6771062917
 11
9.9016921449
 21
53.5353863566
  0
LINE
  5
219
100
AcDbEntity
  8
0
100
AcDbLine
 62
7
  6
BYLAYER
 10
34.2026083832
 20
56.1591014806
 11
28.3112228012
 21
52.7577287324
  0
LINE
  5
21A
100
AcDbEntity
  8
0
100
AcDbLine
 62
7
  6
BYLAYER
 10
15.1809579139
 20
43.1472744695
 11
17.8750235337
 21
44.7026846958
  0
LINE
  5
21B
100
AcDbEntity
  8
0
100
AcDbLine
 62
7
  6
BYLAYER
 10
29.4060823287
 20
51.0886940731
 11
21.772896406
 21
46.681698432
  0
LINE
  5
21C
100
AcDbEntity
  8
0
100
AcDbLine
 62
7
  6
BYLAYER
 10
21.772896406
 20
33.8234183671
 11
9.9016921677
 21
40.6771062785
  0
LINE
  5
21D
100
AcDbEntity
  8
0
100
AcDbLine
 62
7
  6
BYLAYER
 10
30.1160141421
 20
30.6657589782
 11
23.2097433675
 21
34.6530060655
  0
LINE
  5
21E
100
AcDbEntity
  8
0
100
AcDbLine
 62
7
  6
BYLAYER
 10
23.2097433675
 20
44.1930203072
 11
30.8429292902
 21
48.6000159483
  0
LINE
  5
21F
100
AcDbEntity
  8
0
100
AcDbLine
 62
7
  6
BYLAYER
 10
24.7030486523
 20
53.8039304053
 11
24.7030486523
 21
54.8408619218
  0
LINE
  5
220
100
AcDbEntity
  8
0
100
AcDbLine
 62
7
  6
BYLAYER
 10
25.4170141421
 20
27.8092542779
 11
25.4170141421
 21
22.6244639291
  0
LINE
  5
221
100
AcDbEntity
  8
0
100
AcDbLine
 62
7
  6
BYLAYER
 10
23.2097433675
 20
44.1930203072
 11
21.772896406
 21
46.681698432
  0
LINE
  5
222
100
AcDbEntity
  8
0
100
AcDbLine
 62
7
  6
BYLAYER
 10
18.990940857
 20
36.5481510449
 11
21.6850064768
 21
38.1035612712
  0
LINE
  5
223
100
AcDbEntity
  8
0
100
AcDbLine
 62
7
  6
BYLAYER
 10
30.1160141421
 20
37.8677475545
 11
30.1160141421
 21
28.3277333127
  0
LINE
  5
224
100
AcDbEntity
  8
0
100
AcDbLine
 62
7
  6
BYLAYER
 10
21.772896406
 20
33.8234183671
 11
23.2097433675
 21
34.6530060655
  0
LINE
  5
225
100
AcDbEntity
  8
0
100
AcDbLine
 62
7
  6
BYLAYER
 10
23.2097433675
 20
44.1930203072
 11
30.8399495572
 21
39.7878183686
  0
LINE
  5
226
100
AcDbEntity
  8
0
100
AcDbLine
 62
7
  6
BYLAYER
 10
9.9016921677
 20
53.5353863435
 11
21.772896406
 21
46.681698432
  0
LINE
  5
227
100
AcDbEntity
  8
0
100
AcDbLine
 62
7
  6
BYLAYER
 10
34.9420141421
 20
37.8677475545
 11
34.9420141421
 21
38.4899223963
  0
LWPOLYLINE
  5
228
100
AcDbEntity
  8
0
100
AcDbPolyline
 62
7
  6
BYLAYER
 90
4
 70
0
 10
27.8516456039
 20
31.9730631881
 10
26.8030186299
 20
31.1400461036
 10
25.5754171388
 20
28.9636854844
 10
25.4170202072
 20
27.8092542783
  0
LINE
  5
229
100
AcDbEntity
  8
0
100
AcDbLine
 62
7
  6
BYLAYER
 10
29.4060823287
 20
51.0886940731
 11
30.8429292902
 21
48.6000159483
  0
LWPOLYLINE
  5
22A
100
AcDbEntity
  8
0
100
AcDbPolyline
 62
7
  6
BYLAYER
 90
4
 70
0
 10
32.7282236976
 20
47.5115653387
 10
32.0647044307
 20
48.9101248514
 10
30.3314685127
 20
51.1532125798
 10
28.3112228012
 20
52.7577287324
  0
LINE
  5
22B
100
AcDbEntity
  8
0
100
AcDbLine
 62
7
  6
BYLAYER
 10
43.7745519437
 20
41.1341090296
 11
30.8429292902
 21
48.6000159483
  0
LINE
  5
22C
100
AcDbEntity
  8
0
100
AcDbLine
 62
7
  6
BYLAYER
 10
23.8050267791
 20
54.3223918464
 11
29.4060823287
 21
51.0886940731
  0
LINE
  5
22D
100
AcDbEntity
  8
0
100
AcDbLine
 62
7
  6
BYLAYER
 10
28.3112228012
 20
52.7577287324
 11
24.7030486523
 21
54.8408619218
  0
LINE
  5
22E
100
AcDbEntity
  8
0
100
AcDbLine
 62
7
  6
BYLAYER
 10
41.2920141421
 20
37.8677475545
 11
41.2920141421
 21
38.4899223963
  0
LINE
  5
22F
100
AcDbEntity
  8
0
100
AcDbLine
 62
7
  6
BYLAYER
 10
46.1180141421
 20
37.8677475545
 11
46.1180141421
 21
28.3277333127
  0
LINE
  5
230
100
AcDbEntity
  8
0
100
AcDbLine
 62
7
  6
BYLAYER
 10
34.2026083832
 20
56.1591014806
 11
26.0660858694
 21
62.8678477093
  0
LINE
  5
231
100
AcDbEntity
  8
0
100
AcDbLine
 62
7
  6
BYLAYER
 10
50.8170141421
 20
27.8092542779
 11
50.8170141421
 21
22.6244639291
  0
LWPOLYLINE
  5
232
100
AcDbEntity
  8
0
100
AcDbPolyline
 62
7
  6
BYLAYER
 90
5
 70
0
 10
50.8170080771
 20
27.8092542774
 10
50.6590605448
 20
28.9620432248
 10
49.4208322107
 20
31.1515334089
 10
47.0782125657
 20
33.00490465
 10
46.1180141421
 20
33.4061927033
  0
SPLINE
  5
233
100
AcDbEntity
  8
0
100
AcDbSpline
 62
7
  6
BYLAYER
 70
0
 71
3
 72
14
 73
10
 74
0
 42
0.0000001
 43
0.0000001
 44
0.0000000001
 40
0.0
 40
0.0
 40
0.0
 40
0.0
 40
0.1080440875
 40
0.2181290092
 40
0.3321087655
 40
0.4514912778
 40
0.5774368373
 40
0.7107380737
 40
1.0
 40
1.0
 40
1.0
 40
1.0
 10
15.1809654603
 20
43.1472613999
 30
0.0
 10
15.1185040926
 20
43.1111912697
 30
0.0
 10
14.9983976556
 20
43.0273987463
 30
0.0
 10
14.8397062553
 20
42.8712154197
 30
0.0
 10
14.7032479297
 20
42.6858452458
 30
0.0
 10
14.590210123
 20
42.4734239249
 30
0.0
 10
14.5015568771
 20
42.2359940478
 30
0.0
 10
14.4144186951
 20
41.8796966466
 30
0.0
 10
14.3918613326
 20
41.5962158427
 30
0.0
 10
14.3918613326
 20
41.403110032
 30
0.0
  0
SPLINE
  5
234
100
AcDbEntity
  8
0
100
AcDbSpline
 62
7
  6
BYLAYER
 70
0
 71
3
 72
26
 73
22
 74
0
 42
0.0000001
 43
0.0000001
 44
0.0000000001
 40
0.0
 40
0.0
 40
0.0
 40
0.0
 40
0.0623780971
 40
0.1287142635
 40
0.1983018492
 40
0.270273761
 40
0.3436468015
 40
0.4173751586
 40
0.4903960471
 40
0.561678955
 40
0.6302724512
 40
0.6953562483
 40
0.7563001473
 40
0.8127339132
 40
0.8646311136
 40
0.8890161035
 40
0.9124639965
 40
0.9351068937
 40
0.9571107174
 40
0.9786694809
 40
1.0
 40
1.0
 40
1.0
 40
1.0
 10
47.0973076515
 20
17.4398063467
 30
0.0
 10
46.6410302049
 20
17.1763760125
 30
0.0
 10
45.6632031008
 20
16.6942585825
 30
0.0
 10
44.0858520206
 20
16.1227159613
 30
0.0
 10
42.3812770143
 20
15.6899994408
 30
0.0
 10
40.5859651515
 20
15.4053118595
 30
0.0
 10
38.7379659204
 20
15.2746772673
 30
0.0
 10
36.8767178756
 20
15.3008631727
 30
0.0
 10
35.04192364
 20
15.4833257675
 30
0.0
 10
33.2726932083
 20
15.8181739129
 30
0.0
 10
31.6066054163
 20
16.2983439901
 30
0.0
 10
30.0789061781
 20
16.9137849382
 30
0.0
 10
28.7216022391
 20
17.6520538553
 30
0.0
 10
27.5634084234
 20
18.4982463389
 30
0.0
 10
26.7681533585
 20
19.2970231648
 30
0.0
 10
26.2639464223
 20
19.9733228221
 30
0.0
 10
25.9576246066
 20
20.4850222315
 30
0.0
 10
25.7173445109
 20
21.0089078759
 30
0.0
 10
25.5444557488
 20
21.5421301214
 30
0.0
 10
25.4403108508
 20
22.0816324154
 30
0.0
 10
25.4170197319
 20
22.4443003403
 30
0.0
 10
25.4170197194
 20
22.6244639292
 30
0.0
  0
SPLINE
  5
235
100
AcDbEntity
  8
0
100
AcDbSpline
 62
7
  6
BYLAYER
 70
0
 71
3
 72
25
 73
21
 74
0
 42
0.0000001
 43
0.0000001
 44
0.0000000001
 40
0.0
 40
0.0
 40
0.0
 40
0.0
 40
0.0623792856
 40
0.1287250418
 40
0.1983146972
 40
0.270292077
 40
0.3436683093
 40
0.4174005293
 40
0.4904256686
 40
0.5617125971
 40
0.6303097955
 40
0.6953971749
 40
0.7563447457
 40
0.8127822888
 40
0.8646831438
 40
0.9124579207
 40
0.9351020485
 40
0.9571070114
 40
0.9786675066
 40
1.0
 40
1.0
 40
1.0
 40
1.0
 10
43.774599053
 20
25.0613990358
 30
0.0
 10
43.4871565206
 20
24.895445003
 30
0.0
 10
42.871105211
 20
24.5917194858
 30
0.0
 10
41.8773795045
 20
24.2316219478
 30
0.0
 10
40.8034667628
 20
23.9590359638
 30
0.0
 10
39.6724371698
 20
23.779668165
 30
0.0
 10
38.5082022981
 20
23.6973713521
 30
0.0
 10
37.3356282467
 20
23.7138595363
 30
0.0
 10
36.179714667
 20
23.8288089509
 30
0.0
 10
35.0651055588
 20
24.0397686467
 30
0.0
 10
34.0154815017
 20
24.342272059
 30
0.0
 10
33.0530250132
 20
24.7300157583
 30
0.0
 10
32.1979606771
 20
25.195059006
 30
0.0
 10
31.4681629621
 20
25.7283580845
 30
0.0
 10
30.8792766241
 20
26.3195905482
 30
0.0
 10
30.5106439401
 20
26.8620394085
 30
0.0
 10
30.30522719
 20
27.3099053713
 30
0.0
 10
30.1963271116
 20
27.6458557937
 30
0.0
 10
30.1306637533
 20
27.9857350126
 30
0.0
 10
30.1160480165
 20
28.2142268042
 30
0.0
 10
30.1160458834
 20
28.3277333673
 30
0.0
  0
SPLINE
  5
236
100
AcDbEntity
  8
0
100
AcDbSpline
 62
7
  6
BYLAYER
 70
0
 71
3
 72
23
 73
19
 74
0
 42
0.0000001
 43
0.0000001
 44
0.0000000001
 40
0.0
 40
0.0
 40
0.0
 40
0.0
 40
0.0428116928
 40
0.0873930345
 40
0.1351760651
 40
0.187083859
 40
0.2435308425
 40
0.304488335
 40
0.3695848348
 40
0.4381934371
 40
0.5094911509
 40
0.5825260428
 40
0.6562681546
 40
0.729659138
 40
0.8016478171
 40
0.8712458777
 40
0.937627095
 40
1.0
 40
1.0
 40
1.0
 40
1.0
 10
41.2919923331
 20
38.4899223962
 30
0.0
 10
41.2919916402
 20
38.5803019248
 30
0.0
 10
41.2678398336
 20
38.7655833607
 30
0.0
 10
41.1615782407
 20
39.0331184135
 30
0.0
 10
40.9891324829
 20
39.286722341
 30
0.0
 10
40.7554500575
 20
39.5214295486
 30
0.0
 10
40.4658523409
 20
39.7330306209
 30
0.0
 10
40.1265375903
 20
39.9175660256
 30
0.0
 10
39.7446235262
 20
40.0714533818
 30
0.0
 10
39.3281063013
 20
40.1914837007
 30
0.0
 10
38.8858060644
 20
40.2751847284
 30
0.0
 10
38.4271241837
 20
40.320823631
 30
0.0
 10
37.9618192409
 20
40.3273675256
 30
0.0
 10
37.4998236287
 20
40.2946887434
 30
0.0
 10
37.0509984286
 20
40.2235527786
 30
0.0
 10
36.624795697
 20
40.1153745307
 30
0.0
 10
36.2304717578
 20
39.9724209334
 30
0.0
 10
35.985974913
 20
39.8519240451
 30
0.0
 10
35.8719407648
 20
39.7860867919
 30
0.0
  0
SPLINE
  5
237
100
AcDbEntity
  8
0
100
AcDbSpline
 62
7
  6
BYLAYER
 70
0
 71
3
 72
11
 73
7
 74
0
 42
0.0000001
 43
0.0000001
 44
0.0000000001
 40
0.0
 40
0.0
 40
0.0
 40
0.0
 40
0.2666711146
 40
0.5196639094
 40
0.7624886857
 40
1.0
 40
1.0
 40
1.0
 40
1.0
 10
30.8399495572
 20
39.7878183686
 30
0.0
 10
30.7246894408
 20
39.642210661
 30
0.0
 10
30.5187194388
 20
39.3428442429
 30
0.0
 10
30.2877355311
 20
38.8621669039
 30
0.0
 10
30.1474857495
 20
38.3684372833
 30
0.0
 10
30.1160428199
 20
38.0331465922
 30
0.0
 10
30.1160450812
 20
37.8677475919
 30
0.0
  0
SPLINE
  5
238
100
AcDbEntity
  8
0
100
AcDbSpline
 62
7
  6
BYLAYER
 70
0
 71
3
 72
15
 73
11
 74
0
 42
0.0000001
 43
0.0000001
 44
0.0000000001
 40
0.0
 40
0.0
 40
0.0
 40
0.0
 40
0.1485739416
 40
0.2895115751
 40
0.4227282311
 40
0.5486418119
 40
0.6680032485
 40
0.7819402697
 40
0.8919877609
 40
1.0
 40
1.0
 40
1.0
 40
1.0
 10
9.9016248476
 20
62.8678088585
 30
0.0
 10
9.6438595123
 20
62.718988861
 30
0.0
 10
9.1532445775
 20
62.4079929266
 30
0.0
 10
8.4824785384
 20
61.8888561125
 30
0.0
 10
7.9023039729
 20
61.3335197796
 30
0.0
 10
7.4185608312
 20
60.7471102554
 30
0.0
 10
7.0360449399
 20
60.1348728037
 30
0.0
 10
6.7592056019
 20
59.5022523123
 30
0.0
 10
6.5915037983
 20
58.8557198124
 30
0.0
 10
6.5538973933
 20
58.4180002442
 30
0.0
 10
6.5538973901
 20
58.2016170354
 30
0.0
  0
SPLINE
  5
239
100
AcDbEntity
  8
0
100
AcDbSpline
 62
7
  6
BYLAYER
 70
0
 71
3
 72
19
 73
15
 74
0
 42
0.0000001
 43
0.0000001
 44
0.0000000001
 40
0.0
 40
0.0
 40
0.0
 40
0.0
 40
0.0558401685
 40
0.1142093161
 40
0.1748241808
 40
0.2374068928
 40
0.3670176762
 40
0.5000005204
 40
0.6329832921
 40
0.7625938638
 40
0.8251764229
 40
0.8857911076
 40
0.9441600521
 40
1.0
 40
1.0
 40
1.0
 40
1.0
 10
26.0660858694
 20
62.8678477093
 30
0.0
 10
25.7953516267
 20
63.0241526611
 30
0.0
 10
25.22751711
 20
63.3198762727
 30
0.0
 10
24.3264729378
 20
63.7041359335
 30
0.0
 10
23.3646839825
 20
64.0356525397
 30
0.0
 10
21.9981662108
 20
64.4073447828
 30
0.0
 10
20.1995299868
 20
64.7180768845
 30
0.0
 10
17.9838417289
 20
64.842441434
 30
0.0
 10
15.7681552441
 20
64.7180663693
 30
0.0
 10
13.9695229645
 20
64.4073256494
 30
0.0
 10
12.6030101546
 20
64.0356267551
 30
0.0
 10
11.6412259558
 20
63.7041055364
 30
0.0
 10
10.7401872933
 20
63.3198415505
 30
0.0
 10
10.172356894
 20
63.0241151452
 30
0.0
 10
9.9016248476
 20
62.8678088585
 30
0.0
  0
SPLINE
  5
23A
100
AcDbEntity
  8
0
100
AcDbSpline
 62
7
  6
BYLAYER
 70
0
 71
3
 72
25
 73
21
 74
0
 42
0.0000001
 43
0.0000001
 44
0.0000000001
 40
0.0
 40
0.0
 40
0.0
 40
0.0
 40
0.0642754902
 40
0.1321114854
 40
0.202749198
 40
0.2753358793
 40
0.3489137981
 40
0.4224931774
 40
0.4950788748
 40
0.5657183847
 40
0.6335443186
 40
0.6978211363
 40
0.7579989549
 40
0.8137774171
 40
0.865181841
 40
0.9126467458
 40
0.9352009695
 40
0.957151424
 40
0.9786831769
 40
1.0
 40
1.0
 40
1.0
 40
1.0
 10
23.8050267791
 20
54.3223918464
 30
0.0
 10
23.4752731327
 20
54.1574545688
 30
0.0
 10
22.7770104255
 20
53.8584104093
 30
0.0
 10
21.6653870359
 20
53.510805062
 30
0.0
 10
20.479804211
 20
53.2574742446
 30
0.0
 10
19.2442621653
 20
53.1034043795
 30
0.0
 10
17.9833779439
 20
53.0517426059
 30
0.0
 10
16.7225070436
 20
53.1034844113
 30
0.0
 10
15.4869484013
 20
53.2576240625
 30
0.0
 10
14.3014821947
 20
53.5110669264
 30
0.0
 10
13.1897937306
 20
53.8587731673
 30
0.0
 10
12.1739794036
 20
54.2939402108
 30
0.0
 10
11.2741272277
 20
54.8082045681
 30
0.0
 10
10.5079776937
 20
55.392170596
 30
0.0
 10
9.8910643639
 20
56.0351905124
 30
0.0
 10
9.5059984158
 20
56.6217642414
 30
0.0
 10
9.2914809468
 20
57.1048122091
 30
0.0
 10
9.1777635478
 20
57.467073935
 30
0.0
 10
9.1091735732
 20
57.8332751555
 30
0.0
 10
9.09390993
 20
58.0793375155
 30
0.0
 10
9.0939143636
 20
58.2016169854
 30
0.0
  0
SPLINE
  5
23B
100
AcDbEntity
  8
0
100
AcDbSpline
 62
7
  6
BYLAYER
 70
0
 71
3
 72
15
 73
11
 74
0
 42
0.0000001
 43
0.0000001
 44
0.0000000001
 40
0.0
 40
0.0
 40
0.0
 40
0.0
 40
0.1101328109
 40
0.2219880511
 40
0.337163076
 40
0.4570081177
 40
0.5825880502
 40
0.7146957507
 40
0.8538245506
 40
1.0
 40
1.0
 40
1.0
 40
1.0
 10
26.8738756095
 20
58.2016169862
 30
0.0
 10
26.873887064
 20
58.0486943106
 30
0.0
 10
26.8498051101
 20
57.7399441915
 30
0.0
 10
26.7423128786
 20
57.2825746711
 30
0.0
 10
26.5643955527
 20
56.8332456045
 30
0.0
 10
26.3180763331
 20
56.3957073697
 30
0.0
 10
26.0055065772
 20
55.9733518498
 30
0.0
 10
25.6294027828
 20
55.5692464588
 30
0.0
 10
25.1928844495
 20
55.186657742
 30
0.0
 10
24.8719486831
 20
54.9534193467
 30
0.0
 10
24.7030486523
 20
54.8408619218
 30
0.0
  0
SPLINE
  5
23C
100
AcDbEntity
  8
0
100
AcDbSpline
 62
7
  6
BYLAYER
 70
0
 71
3
 72
15
 73
11
 74
0
 42
0.0000001
 43
0.0000001
 44
0.0000000001
 40
0.0
 40
0.0
 40
0.0
 40
0.0
 40
0.148574205
 40
0.2895120449
 40
0.4227288317
 40
0.5486424551
 40
0.6680038398
 40
0.7819407219
 40
0.8919880058
 40
1.0
 40
1.0
 40
1.0
 40
1.0
 10
9.9016921677
 20
40.6771062785
 30
0.0
 10
9.643921973
 20
40.8259266031
 30
0.0
 10
9.1532976857
 20
41.1369235644
 30
0.0
 10
8.4825184524
 20
41.6560632107
 30
0.0
 10
7.9023322056
 20
42.2114034609
 30
0.0
 10
7.418579124
 20
42.7978178559
 30
0.0
 10
7.0360552398
 20
43.4100609918
 30
0.0
 10
6.759210016
 20
44.0426878188
 30
0.0
 10
6.5915046207
 20
44.6892271267
 30
0.0
 10
6.5538973868
 20
45.1269514576
 30
0.0
 10
6.5538973901
 20
45.3433369704
 30
0.0
  0
SPLINE
  5
23D
100
AcDbEntity
  8
0
100
AcDbSpline
 62
7
  6
BYLAYER
 70
0
 71
3
 72
15
 73
11
 74
0
 42
0.0000001
 43
0.0000001
 44
0.0000000001
 40
0.0
 40
0.0
 40
0.0
 40
0.0
 40
0.10801166
 40
0.2180602282
 40
0.3319988302
 40
0.4513592716
 40
0.5772663831
 40
0.710489749
 40
0.8514447311
 40
1.0
 40
1.0
 40
1.0
 40
1.0
 10
46.1179839596
 20
28.3277333127
 30
0.0
 10
46.1179839629
 20
28.1762660683
 30
0.0
 10
46.0917132392
 20
27.8698565352
 30
0.0
 10
45.9742730598
 20
27.417290045
 30
0.0
 10
45.7804916526
 20
26.9744553097
 30
0.0
 10
45.512746159
 20
26.545888
 30
0.0
 10
45.1741219947
 20
26.1354076285
 30
0.0
 10
44.7679924185
 20
25.7466439594
 30
0.0
 10
44.2984277771
 20
25.3832737791
 30
0.0
 10
43.9550118849
 20
25.1655598111
 30
0.0
 10
43.774599053
 20
25.0613990358
 30
0.0
  0
SPLINE
  5
23E
100
AcDbEntity
  8
0
100
AcDbSpline
 62
7
  6
BYLAYER
 70
0
 71
3
 72
15
 73
11
 74
0
 42
0.0000001
 43
0.0000001
 44
0.0000000001
 40
0.0
 40
0.0
 40
0.0
 40
0.0
 40
0.1080114153
 40
0.2180597762
 40
0.3319982388
 40
0.4513586289
 40
0.5772657828
 40
0.7104892788
 40
0.8514444675
 40
1.0
 40
1.0
 40
1.0
 40
1.0
 10
46.1179839596
 20
37.8677475545
 30
0.0
 10
46.1179839599
 20
38.0192164114
 30
0.0
 10
46.0917126725
 20
38.3256292785
 30
0.0
 10
45.9742699635
 20
38.7782005288
 30
0.0
 10
45.7804844519
 20
39.2210397035
 30
0.0
 10
45.512733354
 20
39.6496109848
 30
0.0
 10
45.1741022397
 20
40.060094768
 30
0.0
 10
44.7679644881
 20
40.4488611773
 30
0.0
 10
44.298390614
 20
40.812233339
 30
0.0
 10
43.9549681761
 20
41.0299480257
 30
0.0
 10
43.7745519437
 20
41.1341090296
 30
0.0
  0
SPLINE
  5
23F
100
AcDbEntity
  8
0
100
AcDbSpline
 62
7
  6
BYLAYER
 70
0
 71
3
 72
14
 73
10
 74
0
 42
0.0000001
 43
0.0000001
 44
0.0000000001
 40
0.0
 40
0.0
 40
0.0
 40
0.0
 40
0.2892468186
 40
0.4225690678
 40
0.5485171047
 40
0.6678930457
 40
0.781866611
 40
0.8919557973
 40
1.0
 40
1.0
 40
1.0
 40
1.0
 10
35.8719407648
 20
39.7860867919
 30
0.0
 10
35.732590924
 20
39.7056336041
 30
0.0
 10
35.5374215896
 20
39.5712276648
 30
0.0
 10
35.3165764684
 20
39.3599099794
 30
0.0
 10
35.1821765409
 20
39.1969908745
 30
0.0
 10
35.0759573836
 20
39.0269271876
 30
0.0
 10
34.9990862138
 20
38.8512021617
 30
0.0
 10
34.9524399663
 20
38.6716227537
 30
0.0
 10
34.9420354904
 20
38.5500270469
 30
0.0
 10
34.9420359512
 20
38.4899223965
 30
0.0
  0
SPLINE
  5
240
100
AcDbEntity
  8
0
100
AcDbSpline
 62
7
  6
BYLAYER
 70
0
 71
3
 72
24
 73
20
 74
0
 42
0.0000001
 43
0.0000001
 44
0.0000000001
 40
0.0
 40
0.0
 40
0.0
 40
0.0
 40
0.0623740444
 40
0.128740598
 40
0.1983305537
 40
0.2703134354
 40
0.3436953454
 40
0.4174299078
 40
0.4904601837
 40
0.5617523203
 40
0.6303550217
 40
0.6954487725
 40
0.7564008952
 40
0.8128420539
 40
0.8647475341
 40
0.9125266529
 40
0.9571044282
 40
0.9786668168
 40
1.0
 40
1.0
 40
1.0
 40
1.0
 10
14.3918613326
 20
41.403110032
 30
0.0
 10
14.3918613326
 20
41.24508333
 30
0.0
 10
14.4133151025
 20
40.9187008884
 30
0.0
 10
14.5013712316
 20
40.4231496583
 30
0.0
 10
14.6446655469
 20
39.9153482756
 30
0.0
 10
14.8399920044
 20
39.4062287663
 30
0.0
 10
15.0832501626
 20
38.906520299
 30
0.0
 10
15.3692329821
 20
38.426895763
 30
0.0
 10
15.6918401896
 20
37.9775759573
 30
0.0
 10
16.0442330538
 20
37.5681586958
 30
0.0
 10
16.418897834
 20
37.2073258735
 30
0.0
 10
16.807948374
 20
36.9027209525
 30
0.0
 10
17.2033398035
 20
36.6608428963
 30
0.0
 10
17.5969991684
 20
36.4868629422
 30
0.0
 10
17.9811543241
 20
36.3848156628
 30
0.0
 10
18.3480573015
 20
36.3577027517
 30
0.0
 10
18.6364894643
 20
36.400204712
 30
0.0
 10
18.846405691
 20
36.4727721735
 30
0.0
 10
18.9441286984
 20
36.5211354324
 30
0.0
 10
18.9909333106
 20
36.5481641145
 30
0.0
  0
SPLINE
  5
241
100
AcDbEntity
  8
0
100
AcDbSpline
 62
7
  6
BYLAYER
 70
0
 71
3
 72
15
 73
11
 74
0
 42
0.0000001
 43
0.0000001
 44
0.0000000001
 40
0.0
 40
0.0
 40
0.0
 40
0.0
 40
0.1080128635
 40
0.2180598029
 40
0.3319952009
 40
0.4513561384
 40
0.5772700385
 40
0.7104873083
 40
0.851425711
 40
1.0
 40
1.0
 40
1.0
 40
1.0
 10
50.8170085649
 20
22.624463929
 30
0.0
 10
50.8170085815
 20
22.3840366457
 30
0.0
 10
50.7752215121
 20
21.897681519
 30
0.0
 10
50.5888916634
 20
21.1793139773
 30
0.0
 10
50.2812926634
 20
20.476408063
 30
0.0
 10
49.8562766502
 20
19.7961477907
 30
0.0
 10
49.3187851749
 20
19.1445791457
 30
0.0
 10
48.6741436576
 20
18.5275358331
 30
0.0
 10
47.9288442477
 20
17.9507151384
 30
0.0
 10
47.3837143757
 20
17.6051623589
 30
0.0
 10
47.0973076515
 20
17.4398063467
 30
0.0
  0
SPLINE
  5
242
100
AcDbEntity
  8
0
100
AcDbSpline
 62
7
  6
BYLAYER
 70
0
 71
3
 72
15
 73
11
 74
0
 42
0.0000001
 43
0.0000001
 44
0.0000000001
 40
0.0
 40
0.0
 40
0.0
 40
0.0
 40
0.1485552698
 40
0.2895102443
 40
0.4227336065
 40
0.5486407192
 40
0.6680011625
 40
0.7819397656
 40
0.8919883364
 40
1.0
 40
1.0
 40
1.0
 40
1.0
 10
43.774599053
 20
34.6014132776
 30
0.0
 10
43.9550118862
 20
34.7055740536
 30
0.0
 10
44.2984277747
 20
34.9232880105
 30
0.0
 10
44.7679923996
 20
35.2866581884
 30
0.0
 10
45.1741219728
 20
35.6754218407
 30
0.0
 10
45.5127461335
 20
36.0859022136
 30
0.0
 10
45.7804916495
 20
36.5144695173
 30
0.0
 10
45.9742730476
 20
36.9573042653
 30
0.0
 10
46.0917132448
 20
37.4098707618
 30
0.0
 10
46.1179839593
 20
37.7162803048
 30
0.0
 10
46.1179839596
 20
37.8677475545
 30
0.0
  0
SPLINE
  5
243
100
AcDbEntity
  8
0
100
AcDbSpline
 62
7
  6
BYLAYER
 70
0
 71
3
 72
15
 73
11
 74
0
 42
0.0000001
 43
0.0000001
 44
0.0000000001
 40
0.0
 40
0.0
 40
0.0
 40
0.0
 40
0.1080114409
 40
0.2180581138
 40
0.331994734
 40
0.4513561939
 40
0.57726524
 40
0.7104876961
 40
0.8514399701
 40
1.0
 40
1.0
 40
1.0
 40
1.0
 10
9.0939143636
 20
58.2016169854
 30
0.0
 10
9.0939204658
 20
58.3699137349
 30
0.0
 10
9.1231054681
 20
58.7103655945
 30
0.0
 10
9.2535959939
 20
59.2132106934
 30
0.0
 10
9.4688954053
 20
59.7052509628
 30
0.0
 10
9.7664026395
 20
60.1814319904
 30
0.0
 10
10.1426470587
 20
60.6375293674
 30
0.0
 10
10.5939042153
 20
61.0694841597
 30
0.0
 10
11.1156388259
 20
61.4732374661
 30
0.0
 10
11.4972182393
 20
61.7151393341
 30
0.0
 10
11.6976835477
 20
61.830877343
 30
0.0
  0
SPLINE
  5
244
100
AcDbEntity
  8
0
100
AcDbSpline
 62
7
  6
BYLAYER
 70
0
 71
3
 72
15
 73
11
 74
0
 42
0.0000001
 43
0.0000001
 44
0.0000000001
 40
0.0
 40
0.0
 40
0.0
 40
0.0
 40
0.1080119942
 40
0.2180592781
 40
0.3319961602
 40
0.4513575449
 40
0.5772711683
 40
0.7104879551
 40
0.851425795
 40
1.0
 40
1.0
 40
1.0
 40
1.0
 10
6.5538973901
 20
58.2016170354
 30
0.0
 10
6.5538973868
 20
57.9852315226
 30
0.0
 10
6.5915046207
 20
57.5475071916
 30
0.0
 10
6.759210016
 20
56.9009678837
 30
0.0
 10
7.0360552398
 20
56.2683410567
 30
0.0
 10
7.418579124
 20
55.6560979209
 30
0.0
 10
7.9023322056
 20
55.0696835259
 30
0.0
 10
8.4825184524
 20
54.5143432756
 30
0.0
 10
9.1532976857
 20
53.9952036294
 30
0.0
 10
9.643921973
 20
53.684206668
 30
0.0
 10
9.9016921677
 20
53.5353863435
 30
0.0
  0
SPLINE
  5
245
100
AcDbEntity
  8
0
100
AcDbSpline
 62
7
  6
BYLAYER
 70
0
 71
3
 72
23
 73
19
 74
0
 42
0.0000001
 43
0.0000001
 44
0.0000000001
 40
0.0
 40
0.0
 40
0.0
 40
0.0
 40
0.0623728323
 40
0.1287524738
 40
0.1983487358
 40
0.270335976
 40
0.3437254962
 40
0.4174669057
 40
0.4905024154
 40
0.5618012899
 40
0.6304115087
 40
0.6955092255
 40
0.7564673166
 40
0.8129147516
 40
0.8648225764
 40
0.9126055309
 40
0.9571873836
 40
1.0
 40
1.0
 40
1.0
 40
1.0
 10
40.3620875195
 20
36.5715831589
 30
0.0
 10
40.248053508
 20
36.5057459846
 30
0.0
 10
40.0035602225
 20
36.3852497962
 30
0.0
 10
39.6092430624
 20
36.2422987943
 30
0.0
 10
39.183050612
 20
36.1341220676
 30
0.0
 10
38.7342359921
 20
36.0629825673
 30
0.0
 10
38.2722479843
 20
36.0303043092
 30
0.0
 10
37.8069463825
 20
36.0368425457
 30
0.0
 10
37.3482616883
 20
36.0824777274
 30
0.0
 10
36.9059544512
 20
36.1661798408
 30
0.0
 10
36.4894275735
 20
36.2862069033
 30
0.0
 10
36.1075060537
 20
36.4400957278
 30
0.0
 10
35.768187597
 20
36.6246340792
 30
0.0
 10
35.478585563
 20
36.8362327595
 30
0.0
 10
35.2449010821
 20
37.0709399903
 30
0.0
 10
35.0724581702
 20
37.3245460546
 30
0.0
 10
34.9661864038
 20
37.5920807533
 30
0.0
 10
34.9420397202
 20
37.7773660816
 30
0.0
 10
34.9420375732
 20
37.8677475571
 30
0.0
  0
SPLINE
  5
246
100
AcDbEntity
  8
0
100
AcDbSpline
 62
7
  6
BYLAYER
 70
0
 71
3
 72
14
 73
10
 74
0
 42
0.0000001
 43
0.0000001
 44
0.0000000001
 40
0.0
 40
0.0
 40
0.0
 40
0.0
 40
0.1080440875
 40
0.2181290092
 40
0.3321087655
 40
0.4514912778
 40
0.5774368373
 40
0.7107380737
 40
1.0
 40
1.0
 40
1.0
 40
1.0
 10
18.9909333106
 20
36.5481641145
 30
0.0
 10
19.0533946783
 20
36.5842342448
 30
0.0
 10
19.1735011153
 20
36.6680267681
 30
0.0
 10
19.3321925156
 20
36.8242100947
 30
0.0
 10
19.4686508412
 20
37.0095802686
 30
0.0
 10
19.5816886478
 20
37.2220015896
 30
0.0
 10
19.6703418938
 20
37.4594314667
 30
0.0
 10
19.7574800758
 20
37.8157288678
 30
0.0
 10
19.7800374383
 20
38.0992096717
 30
0.0
 10
19.7800374383
 20
38.2923154825
 30
0.0
  0
SPLINE
  5
247
100
AcDbEntity
  8
0
100
AcDbSpline
 62
7
  6
BYLAYER
 70
0
 71
3
 72
14
 73
10
 74
0
 42
0.0000001
 43
0.0000001
 44
0.0000000001
 40
0.0
 40
0.0
 40
0.0
 40
0.0
 40
0.1080439937
 40
0.2181338075
 40
0.332107207
 40
0.4514835989
 40
0.5774328078
 40
0.7107567148
 40
1.0
 40
1.0
 40
1.0
 40
1.0
 10
41.2919907111
 20
37.8677475519
 30
0.0
 10
41.2919921389
 20
37.8076430497
 30
0.0
 10
41.2815880404
 20
37.686046839
 30
0.0
 10
41.234938212
 20
37.5064685901
 30
0.0
 10
41.1580717358
 20
37.3307411098
 30
0.0
 10
41.0518493419
 20
37.1606783616
 30
0.0
 10
40.9174495268
 20
36.9977571296
 30
0.0
 10
40.6966031492
 20
36.7864413763
 30
0.0
 10
40.5014355841
 20
36.6520353212
 30
0.0
 10
40.3620875195
 20
36.5715831589
 30
0.0
  0
SPLINE
  5
248
100
AcDbEntity
  8
0
100
AcDbSpline
 62
7
  6
BYLAYER
 70
0
 71
3
 72
25
 73
21
 74
0
 42
0.0000001
 43
0.0000001
 44
0.0000000001
 40
0.0
 40
0.0
 40
0.0
 40
0.0
 40
0.0213322886
 40
0.0428926084
 40
0.0648974212
 40
0.0875415071
 40
0.1353163225
 40
0.1872174464
 40
0.24365532
 40
0.3046030581
 40
0.3696903427
 40
0.4382871426
 40
0.509573392
 40
0.5825977986
 40
0.6563295664
 40
0.7297057993
 40
0.8016835878
 40
0.8712737152
 40
0.9376203455
 40
1.0
 40
1.0
 40
1.0
 40
1.0
 10
30.1160450812
 20
37.8677475919
 30
0.0
 10
30.116046633
 20
37.7542421159
 30
0.0
 10
30.1306612869
 20
37.5257521413
 30
0.0
 10
30.1963264502
 20
37.1858762693
 30
0.0
 10
30.3052220413
 20
36.8499264634
 30
0.0
 10
30.5106408865
 20
36.4020622155
 30
0.0
 10
30.8792704227
 20
35.8596099605
 30
0.0
 10
31.4681592413
 20
35.2683745329
 30
0.0
 10
32.1979602414
 20
34.7350731424
 30
0.0
 10
33.0530267067
 20
34.2700291798
 30
0.0
 10
34.0154817178
 20
33.8822864619
 30
0.0
 10
35.0650997674
 20
33.5797847162
 30
0.0
 10
36.1796992666
 20
33.3688261967
 30
0.0
 10
37.3356027269
 20
33.2538755046
 30
0.0
 10
38.5081704503
 20
33.2373846168
 30
0.0
 10
39.6724053288
 20
33.3196788422
 30
0.0
 10
40.8034398474
 20
33.4990454949
 30
0.0
 10
41.8773625182
 20
33.7716306057
 30
0.0
 10
42.8710970118
 20
34.1317308731
 30
0.0
 10
43.4871548144
 20
34.4354582596
 30
0.0
 10
43.774599053
 20
34.6014132776
 30
0.0
  0
SPLINE
  5
249
100
AcDbEntity
  8
0
100
AcDbSpline
 62
7
  6
BYLAYER
 70
0
 71
3
 72
23
 73
19
 74
0
 42
0.0000001
 43
0.0000001
 44
0.0000000001
 40
0.0
 40
0.0
 40
0.0
 40
0.0
 40
0.0428116928
 40
0.0873930345
 40
0.1351760651
 40
0.187083859
 40
0.2435308425
 40
0.304488335
 40
0.3695848348
 40
0.4381934371
 40
0.5094911509
 40
0.5825260428
 40
0.6562681546
 40
0.729659138
 40
0.8016478171
 40
0.8712458777
 40
0.937627095
 40
1.0
 40
1.0
 40
1.0
 40
1.0
 10
34.9420359512
 20
38.4899223965
 30
0.0
 10
34.9420366441
 20
38.3995428679
 30
0.0
 10
34.9661884507
 20
38.214261432
 30
0.0
 10
35.0724500436
 20
37.9467263791
 30
0.0
 10
35.2448958014
 20
37.6931224517
 30
0.0
 10
35.4785782268
 20
37.4584152441
 30
0.0
 10
35.7681759434
 20
37.2468141718
 30
0.0
 10
36.107490694
 20
37.0622787671
 30
0.0
 10
36.4894047581
 20
36.9083914109
 30
0.0
 10
36.905921983
 20
36.788361092
 30
0.0
 10
37.3482222199
 20
36.7046600642
 30
0.0
 10
37.8069041006
 20
36.6590211617
 30
0.0
 10
38.2722090433
 20
36.6524772671
 30
0.0
 10
38.7342046556
 20
36.6851560493
 30
0.0
 10
39.1830298557
 20
36.7562920141
 30
0.0
 10
39.6092325873
 20
36.864470262
 30
0.0
 10
40.0035565265
 20
37.0074238592
 30
0.0
 10
40.2480533712
 20
37.1279207475
 30
0.0
 10
40.3620875195
 20
37.1937580007
 30
0.0
  0
SPLINE
  5
24A
100
AcDbEntity
  8
0
100
AcDbSpline
 62
7
  6
BYLAYER
 70
0
 71
3
 72
14
 73
10
 74
0
 42
0.0000001
 43
0.0000001
 44
0.0000000001
 40
0.0
 40
0.0
 40
0.0
 40
0.0
 40
0.2892468186
 40
0.4225690678
 40
0.5485171047
 40
0.6678930457
 40
0.781866611
 40
0.8919557973
 40
1.0
 40
1.0
 40
1.0
 40
1.0
 10
40.3620875195
 20
37.1937580007
 30
0.0
 10
40.5014373603
 20
37.2742111886
 30
0.0
 10
40.6966066947
 20
37.4086171279
 30
0.0
 10
40.9174518158
 20
37.6199348133
 30
0.0
 10
41.0518517434
 20
37.7828539181
 30
0.0
 10
41.1580709007
 20
37.952917605
 30
0.0
 10
41.2349420705
 20
38.1286426309
 30
0.0
 10
41.281588318
 20
38.308222039
 30
0.0
 10
41.2919927938
 20
38.4298177458
 30
0.0
 10
41.2919923331
 20
38.4899223962
 30
0.0
  0
SPLINE
  5
24B
100
AcDbEntity
  8
0
100
AcDbSpline
 62
7
  6
BYLAYER
 70
0
 71
3
 72
24
 73
20
 74
0
 42
0.0000001
 43
0.0000001
 44
0.0000000001
 40
0.0
 40
0.0
 40
0.0
 40
0.0
 40
0.0623740444
 40
0.128740598
 40
0.1983305537
 40
0.2703134354
 40
0.3436953454
 40
0.4174299078
 40
0.4904601837
 40
0.5617523203
 40
0.6303550217
 40
0.6954487725
 40
0.7564008952
 40
0.8128420539
 40
0.8647475341
 40
0.9125266529
 40
0.9571044282
 40
0.9786668168
 40
1.0
 40
1.0
 40
1.0
 40
1.0
 10
19.7800374383
 20
38.2923154825
 30
0.0
 10
19.7800374383
 20
38.4503421844
 30
0.0
 10
19.7585836683
 20
38.776724626
 30
0.0
 10
19.6705275393
 20
39.2722758562
 30
0.0
 10
19.527233224
 20
39.7800772389
 30
0.0
 10
19.3319067664
 20
40.2891967481
 30
0.0
 10
19.0886486083
 20
40.7889052155
 30
0.0
 10
18.8026657888
 20
41.2685297515
 30
0.0
 10
18.4800585813
 20
41.7178495572
 30
0.0
 10
18.1276657171
 20
42.1272668187
 30
0.0
 10
17.7530009369
 20
42.488099641
 30
0.0
 10
17.3639503968
 20
42.792704562
 30
0.0
 10
16.9685589674
 20
43.0345826182
 30
0.0
 10
16.5748996025
 20
43.2085625723
 30
0.0
 10
16.1907444468
 20
43.3106098517
 30
0.0
 10
15.8238414694
 20
43.3377227628
 30
0.0
 10
15.5354093066
 20
43.2952208024
 30
0.0
 10
15.3254930799
 20
43.222653341
 30
0.0
 10
15.2277700724
 20
43.1742900821
 30
0.0
 10
15.1809654603
 20
43.1472613999
 30
0.0
  0
SPLINE
  5
24C
100
AcDbEntity
  8
0
100
AcDbSpline
 62
7
  6
BYLAYER
 70
0
 71
3
 72
15
 73
11
 74
0
 42
0.0000001
 43
0.0000001
 44
0.0000000001
 40
0.0
 40
0.0
 40
0.0
 40
0.0
 40
0.1485731546
 40
0.2895091654
 40
0.4227258071
 40
0.5486400867
 40
0.6680014892
 40
0.781937748
 40
0.8919857997
 40
1.0
 40
1.0
 40
1.0
 40
1.0
 10
47.0973076515
 20
22.6245966955
 30
0.0
 10
47.3837121967
 20
22.7899514497
 30
0.0
 10
47.9288368314
 20
23.1354979366
 30
0.0
 10
48.674127876
 20
23.7123143185
 30
0.0
 10
49.3187679057
 20
24.3293504641
 30
0.0
 10
49.8562625689
 20
24.9809172866
 30
0.0
 10
50.2812825018
 20
25.6611795162
 30
0.0
 10
50.5888876356
 20
26.3640888083
 30
0.0
 10
50.775219664
 20
27.0824635219
 30
0.0
 10
50.8170084099
 20
27.5688240118
 30
0.0
 10
50.8170084702
 20
27.8092542774
 30
0.0
  0
SPLINE
  5
24D
100
AcDbEntity
  8
0
100
AcDbSpline
 62
7
  6
BYLAYER
 70
0
 71
3
 72
24
 73
20
 74
0
 42
0.0000001
 43
0.0000001
 44
0.0000000001
 40
0.0
 40
0.0
 40
0.0
 40
0.0
 40
0.0213329137
 40
0.0428951497
 40
0.0874728649
 40
0.1352521014
 40
0.1871578171
 40
0.2435989291
 40
0.3045504943
 40
0.3696433017
 40
0.4382447615
 40
0.5095355803
 40
0.5825650784
 40
0.6562997291
 40
0.729682502
 40
0.8016664652
 40
0.8712576521
 40
0.9376257001
 40
1.0
 40
1.0
 40
1.0
 40
1.0
 10
17.8750299699
 20
44.7026735533
 30
0.0
 10
17.9218339457
 20
44.7297019719
 30
0.0
 10
18.0195574872
 20
44.778061634
 30
0.0
 10
18.2294711888
 20
44.8506321799
 30
0.0
 10
18.5179038069
 20
44.8931312242
 30
0.0
 10
18.8848075281
 20
44.8660228293
 30
0.0
 10
19.2689633832
 20
44.7639735274
 30
0.0
 10
19.6626214156
 20
44.5899934454
 30
0.0
 10
20.0580102941
 20
44.3481187766
 30
0.0
 10
20.4470562753
 20
44.0435192756
 30
0.0
 10
20.8217150113
 20
43.6826929608
 30
0.0
 10
21.1741035141
 20
43.2732832665
 30
0.0
 10
21.4967121518
 20
42.8239707515
 30
0.0
 10
21.7826965646
 20
42.3443465267
 30
0.0
 10
22.0259584485
 20
41.8446342613
 30
0.0
 10
22.2212926454
 20
41.3355090733
 30
0.0
 10
22.3645904027
 20
40.8276984931
 30
0.0
 10
22.4526478834
 20
40.3321398727
 30
0.0
 10
22.474103058
 20
40.0057530584
 30
0.0
 10
22.474103058
 20
39.8477257088
 30
0.0
  0
SPLINE
  5
24E
100
AcDbEntity
  8
0
100
AcDbSpline
 62
7
  6
BYLAYER
 70
0
 71
3
 72
25
 73
21
 74
0
 42
0.0000001
 43
0.0000001
 44
0.0000000001
 40
0.0
 40
0.0
 40
0.0
 40
0.0
 40
0.0623797701
 40
0.128724034
 40
0.198314169
 40
0.2702912097
 40
0.3436676354
 40
0.4174002875
 40
0.4904258339
 40
0.5617132994
 40
0.6303109762
 40
0.695398573
 40
0.7563460179
 40
0.8127831963
 40
0.8646837062
 40
0.9124584781
 40
0.9351027268
 40
0.9571080783
 40
0.9786681842
 40
1.0
 40
1.0
 40
1.0
 40
1.0
 10
11.6976835477
 20
61.830877343
 30
0.0
 10
12.0170666031
 20
62.0152721354
 30
0.0
 10
12.7015605737
 20
62.3527469023
 30
0.0
 10
13.8056994753
 20
62.7528479343
 30
0.0
 10
14.9989259405
 20
63.0557269906
 30
0.0
 10
16.2556282321
 20
63.2550210871
 30
0.0
 10
17.5492240656
 20
63.3464615059
 30
0.0
 10
18.8520901228
 20
63.3281408045
 30
0.0
 10
20.1364468738
 20
63.2004228385
 30
0.0
 10
21.3749106976
 20
62.9660264275
 30
0.0
 10
22.5411663327
 20
62.6299081271
 30
0.0
 10
23.6105638865
 20
62.1990756511
 30
0.0
 10
24.560629176
 20
61.6823540789
 30
0.0
 10
25.3715090249
 20
61.0897963026
 30
0.0
 10
26.0258109
 20
60.43286772
 30
0.0
 10
26.4354356851
 20
59.8301645014
 30
0.0
 10
26.663636295
 20
59.3325165317
 30
0.0
 10
26.7846832178
 20
58.9592508651
 30
0.0
 10
26.8575767295
 20
58.5815993033
 30
0.0
 10
26.873866163
 20
58.3277313767
 30
0.0
 10
26.8738756095
 20
58.2016169862
 30
0.0
  0
SPLINE
  5
24F
100
AcDbEntity
  8
0
100
AcDbSpline
 62
7
  6
BYLAYER
 70
0
 71
3
 72
26
 73
22
 74
0
 42
0.0000001
 43
0.0000001
 44
0.0000000001
 40
0.0
 40
0.0
 40
0.0
 40
0.0
 40
0.0213311207
 40
0.0428905152
 40
0.0648949929
 40
0.0875385852
 40
0.1353116153
 40
0.1607335993
 40
0.187258016
 40
0.2436930152
 40
0.304637924
 40
0.3697224314
 40
0.4383162861
 40
0.5095992572
 40
0.5826200674
 40
0.6563483915
 40
0.7297216277
 40
0.8016941228
 40
0.8712825842
 40
0.9376203289
 40
1.0
 40
1.0
 40
1.0
 40
1.0
 10
25.417019814
 20
27.8092542783
 30
0.0
 10
25.4170197688
 20
27.6290880396
 30
0.0
 10
25.440314128
 20
27.26641287
 30
0.0
 10
25.5444554966
 20
26.7269105096
 30
0.0
 10
25.7173726457
 20
26.1936494767
 30
0.0
 10
26.0433708556
 20
25.4827826098
 30
0.0
 10
26.5020981483
 20
24.807771365
 30
0.0
 10
27.0667592959
 20
24.1819781956
 30
0.0
 10
27.7366390427
 20
23.5565180022
 30
0.0
 10
28.7218364495
 20
22.8366631758
 30
0.0
 10
30.0789371351
 20
22.09857959
 30
0.0
 10
31.6066978765
 20
21.4830957691
 30
0.0
 10
33.2727561085
 20
21.0029516249
 30
0.0
 10
35.0419715946
 20
20.668108285
 30
0.0
 10
36.8767394877
 20
20.4856526057
 30
0.0
 10
38.7379634651
 20
20.4594679993
 30
0.0
 10
40.5859439882
 20
20.5901004124
 30
0.0
 10
42.3812456275
 20
20.8747847497
 30
0.0
 10
44.0858237239
 20
21.3074971299
 30
0.0
 10
45.6631859977
 20
21.8790424773
 30
0.0
 10
46.6410248499
 20
22.3611632696
 30
0.0
 10
47.0973076515
 20
22.6245966955
 30
0.0
  0
SPLINE
  5
250
100
AcDbEntity
  8
0
100
AcDbSpline
 62
7
  6
BYLAYER
 70
0
 71
3
 72
14
 73
10
 74
0
 42
0.0000001
 43
0.0000001
 44
0.0000000001
 40
0.0
 40
0.0
 40
0.0
 40
0.0
 40
0.2892635654
 40
0.4225631583
 40
0.5485079906
 40
0.6678906368
 40
0.7818705333
 40
0.891955275
 40
1.0
 40
1.0
 40
1.0
 40
1.0
 10
22.474103058
 20
39.8477257088
 30
0.0
 10
22.474103058
 20
39.6546187208
 30
0.0
 10
22.4515466028
 20
39.37113759
 30
0.0
 10
22.3644072037
 20
39.0148409039
 30
0.0
 10
22.2757552345
 20
38.7774119304
 30
0.0
 10
22.1627165384
 20
38.5649915806
 30
0.0
 10
22.0262616803
 20
38.3796183335
 30
0.0
 10
21.867566275
 20
38.2234384501
 30
0.0
 10
21.7474617436
 20
38.1396428762
 30
0.0
 10
21.6850000405
 20
38.1035724137
 30
0.0
  0
ELLIPSE
  5
251
100
AcDbEntity
  8
0
100
AcDbEllipse
 62
7
  6
BYLAYER
 10
34.2026083832
 20
49.7299614481
 30
0.0
 11
-3.0376188318
 21
7.3211934008
 31
0.0
 40
0.46929334
 41
3.6709455097
 42
5.5592180927
  0
ENDSEC
  0
SECTION
  2
OBJECTS
  0
DICTIONARY
  5
C
100
AcDbDictionary
280
0
281
1
  3
ACAD_GROUP
350
D
  3
ACAD_MLINESTYLE
350
17
  3
ACAD_LAYOUT
350
1A
  3
ACAD_PLOTSETTINGS
350
19
  3
ACAD_PLOTSTYLENAME
350
E
  0
DICTIONARY
  5
D
102
{ACAD_REACTORS
330
C
102
}
100
AcDbDictionary
280
0
281
1
  0
ACDBDICTIONARYWDFLT
  5
E
102
{ACAD_REACTORS
330
C
102
}
100
AcDbDictionary
281
1
  3
Normal
350
F
100
AcDbDictionaryWithDefault
340
F
  0
DICTIONARY
  5
17
102
{ACAD_REACTORS
330
C
102
}
100
AcDbDictionary
280
0
281
1
  3
Standard
350
18
  0
DICTIONARY
  5
19
102
{ACAD_REACTORS
330
C
102
}
100
AcDbDictionary
281
1
  0
DICTIONARY
  5
1A
102
{ACAD_REACTORS
330
C
102
}
100
AcDbDictionary
281
1
  3
Model
350
252
  3
Layout1
350
253
  0
ACDBPLACEHOLDER
  5
F
102
{ACAD_REACTORS
330
E
102
}
  0
MLINESTYLE
  5
18
102
{ACAD_REACTORS
330
17
102
}
100
AcDbMlineStyle
  2
STANDARD
 70
0
  3

 62
256
 51
90.0
 52
90.0
 71
2
 49
0.5
 62
256
  6
BYLAYER
 49
-0.5
 62
256
  6
BYLAYER
  0
LAYOUT
  5
252
102
{ACAD_REACTORS
330
1A
102
}
100
AcDbPlotSettings
  1

  2
none_device
  4

  6

 40
0.0
 41
0.0
 42
0.0
 43
0.0
 44
210.0
 45
297.0
 46
0.0
 47
0.0
 48
0.0
 49
0.0
140
0.0
141
0.0
142
1.0
143
1.0
 70
1024
 72
1
 73
0
 74
0
  7

 75
0
147
1.0
148
0.0
149
0.0
100
AcDbLayout
  1
Model
 70
0
 71
0
 10
0.0
 20
0.0
 11
210.0
 21
297.0
 12
0.0
 22
0.0
 32
0.0
 14
0.0
 24
0.0
 34
0.0
 15
0.0
 25
0.0
 35
0.0
146
0.0
 13
0.0
 23
0.0
 33
0.0
 16
1.0
 26
0.0
 36
0.0
 17
0.0
 27
1.0
 37
0.0
 76
0
330
210
345
0
346
0
  0
LAYOUT
  5
253
102
{ACAD_REACTORS
330
1A
102
}
100
AcDbPlotSettings
  1

  2
none_device
  4

  6

 40
0.0
 41
0.0
 42
0.0
 43
0.0
 44
210.0
 45
297.0
 46
0.0
 47
0.0
 48
0.0
 49
0.0
140
0.0
141
0.0
142
1.0
143
1.0
 70
0
 72
1
 73
0
 74
0
  7

 75
0
147
1.0
148
0.0
149
0.0
100
AcDbLayout
  1
Layout1
 70
0
 71
1
 10
0.0
 20
0.0
 11
210.0
 21
297.0
 12
0.0
 22
0.0
 32
0.0
 14
0.0
 24
0.0
 34
0.0
 15
0.0
 25
0.0
 35
0.0
146
0.0
 13
0.0
 23
0.0
 33
0.0
 16
1.0
 26
0.0
 36
0.0
 17
0.0
 27
1.0
 37
0.0
 76
0
330
211
345
0
346
0
  0
ENDSEC
  0
EOF
