  0
SECTION
  2
HEADER
  9
$ACADVER
  1
AC1006
  9
$EXTMIN
 10
-2.282000
 20
-3.804256
  9
$EXTMAX
 10
2.277000
 20
3.802000
  9
$LTSCALE
 40
0.000394
  9
$PDMODE
 70
    35
  9
$PDSIZE
 40
0.000315
  0
ENDSEC
  0
SECTION
  2
TABLES
  0
TABLE
  2
LTYPE
 70
     9
  0
LTYPE
  2
CONTINUOUS
 70
    64
  3
Solid line
 72
    65
 73
     0
 40
0.000000
  0
LTYPE
  2
DASHED
 70
    64
  3
__ __ __ __ __ __ __ __ __ __ __ __ __ __ __
 72
    65
 73
     2
 40
0.000003
 49
0.000002
 49
-0.000001
  0
LTYPE
  2
HIDDEN
 70
    64
  3
 _ _ _ _ _ _ _ _ _ _ _ _ _ _ _ _ _ _ _ _ _ _
 72
    65
 73
     2
 40
0.000001
 49
0.000001
 49
-0.000000
  0
LTYPE
  2
CENTER
 70
    64
  3
____ _ ____ _ ____ _ ____ _ ____ _ ____ _ ____
 72
    65
 73
     4
 40
0.000008
 49
0.000005
 49
-0.000001
 49
0.000001
 49
-0.000001
  0
LTYPE
  2
PHANTOM
 70
    64
  3
_____ _ _ _____ _ _ _____ _ _ _____ _ _ ____
 72
    65
 73
     6
 40
0.000010
 49
0.000005
 49
-0.000001
 49
0.000001
 49
-0.000001
 49
0.000001
 49
-0.000001
  0
LTYPE
  2
DOT
 70
    64
  3
...............................................
 72
    65
 73
     2
 40
0.000001
 49
0.000000
 49
-0.000001
  0
LTYPE
  2
DASHDOT
 70
    64
  3
__ . __ . __ . __ . __ . __ . __ . __ . __ . __
 72
    65
 73
     4
 40
0.000004
 49
0.000002
 49
-0.000001
 49
0.000000
 49
-0.000001
  0
LTYPE
  2
BORDER
 70
    64
  3
__ __ . __ __ . __ __ . __ __ . __ __ . __ __
 72
    65
 73
     6
 40
0.000007
 49
0.000002
 49
-0.000001
 49
0.000002
 49
-0.000001
 49
0.000000
 49
-0.000001
  0
LTYPE
  2
DIVIDE
 70
    64
  3
__ . . __ . . __ . . __ . . __ . . __ . . __
 72
    65
 73
     6
 40
0.000005
 49
0.000002
 49
-0.000001
 49
0.000000
 49
-0.000001
 49
0.000000
 49
-0.000001
  0
LTYPE
  2
DOTDOT
 70
    64
  3
 . .  . .  . .  . .  . .  . . 
 72
    65
 73
     5
 40
0.000002
 49
-0.000001
 49
0.000000
 49
-0.000001
 49
0.000000
 49
-0.000001
  0
ENDTAB
  0
TABLE
  2
STYLE
 70
     0
  0
ENDTAB
  0
TABLE
  2
LAYER
 70
     3
  0
LAYER
  2
FOREGROUND
 70
    64
 62
     7
  6
CONTINUOUS
  0
LAYER
  2
BACKGROUND
 70
    65
 62
    -7
  6
CONTINUOUS
  0
LAYER
  2
PLAN_1
 70
    64
 62
     7
  6
CONTINUOUS
  0
ENDTAB
  0
ENDSEC
  0
SECTION
  2
ENTITIES
  0
POLYLINE
  8
PLAN_1
  6
CONTINUOUS
 66
     1
 40
0.003000
 41
0.003000
  0
VERTEX
  8
PLAN_1
  6
CONTINUOUS
 10
0.288913
 20
-3.769551
  0
VERTEX
  8
PLAN_1
  6
CONTINUOUS
 10
0.132035
 20
-3.769551
  0
VERTEX
  8
PLAN_1
  6
CONTINUOUS
 10
0.132035
 20
-3.747209
  0
VERTEX
  8
PLAN_1
  6
CONTINUOUS
 10
0.254213
 20
-3.594134
  0
VERTEX
  8
PLAN_1
  6
CONTINUOUS
 10
0.141067
 20
-3.594134
  0
VERTEX
  8
PLAN_1
  6
CONTINUOUS
 10
0.141067
 20
-3.570362
  0
VERTEX
  8
PLAN_1
  6
CONTINUOUS
 10
0.288913
 20
-3.570362
  0
VERTEX
  8
PLAN_1
  6
CONTINUOUS
 10
0.288913
 20
-3.593657
  0
VERTEX
  8
PLAN_1
  6
CONTINUOUS
 10
0.166264
 20
-3.745783
  0
VERTEX
  8
PLAN_1
  6
CONTINUOUS
 10
0.288913
 20
-3.745783
  0
VERTEX
  8
PLAN_1
  6
CONTINUOUS
 10
0.288913
 20
-3.769551
  0
SEQEND
  8
0
  0
POLYLINE
  8
PLAN_1
  6
CONTINUOUS
 66
     1
 40
0.003000
 41
0.003000
  0
VERTEX
  8
PLAN_1
  6
CONTINUOUS
 10
0.456252
 20
-3.630264
  0
VERTEX
  8
PLAN_1
  6
CONTINUOUS
 10
0.454350
 20
-3.624083
  0
VERTEX
  8
PLAN_1
  6
CONTINUOUS
 10
0.452449
 20
-3.618378
  0
VERTEX
  8
PLAN_1
  6
CONTINUOUS
 10
0.450071
 20
-3.613626
  0
VERTEX
  8
PLAN_1
  6
CONTINUOUS
 10
0.447220
 20
-3.608870
  0
VERTEX
  8
PLAN_1
  6
CONTINUOUS
 10
0.443894
 20
-3.605067
  0
VERTEX
  8
PLAN_1
  6
CONTINUOUS
 10
0.440091
 20
-3.601740
  0
VERTEX
  8
PLAN_1
  6
CONTINUOUS
 10
0.436760
 20
-3.598886
  0
VERTEX
  8
PLAN_1
  6
CONTINUOUS
 10
0.432484
 20
-3.596512
  0
VERTEX
  8
PLAN_1
  6
CONTINUOUS
 10
0.428681
 20
-3.594610
  0
VERTEX
  8
PLAN_1
  6
CONTINUOUS
 10
0.424402
 20
-3.592709
  0
VERTEX
  8
PLAN_1
  6
CONTINUOUS
 10
0.420122
 20
-3.591280
  0
VERTEX
  8
PLAN_1
  6
CONTINUOUS
 10
0.416319
 20
-3.590331
  0
VERTEX
  8
PLAN_1
  6
CONTINUOUS
 10
0.407764
 20
-3.589378
  0
VERTEX
  8
PLAN_1
  6
CONTINUOUS
 10
0.400157
 20
-3.588906
  0
VERTEX
  8
PLAN_1
  6
CONTINUOUS
 10
0.393500
 20
-3.589378
  0
VERTEX
  8
PLAN_1
  6
CONTINUOUS
 10
0.387319
 20
-3.590331
  0
VERTEX
  8
PLAN_1
  6
CONTINUOUS
 10
0.381142
 20
-3.591756
  0
VERTEX
  8
PLAN_1
  6
CONTINUOUS
 10
0.374961
 20
-3.593657
  0
VERTEX
  8
PLAN_1
  6
CONTINUOUS
 10
0.369256
 20
-3.596512
  0
VERTEX
  8
PLAN_1
  6
CONTINUOUS
 10
0.364028
 20
-3.600315
  0
VERTEX
  8
PLAN_1
  6
CONTINUOUS
 10
0.358795
 20
-3.604118
  0
VERTEX
  8
PLAN_1
  6
CONTINUOUS
 10
0.354043
 20
-3.608870
  0
VERTEX
  8
PLAN_1
  6
CONTINUOUS
 10
0.350240
 20
-3.614098
  0
VERTEX
  8
PLAN_1
  6
CONTINUOUS
 10
0.346437
 20
-3.619803
  0
VERTEX
  8
PLAN_1
  6
CONTINUOUS
 10
0.343110
 20
-3.626461
  0
VERTEX
  8
PLAN_1
  6
CONTINUOUS
 10
0.340256
 20
-3.633591
  0
VERTEX
  8
PLAN_1
  6
CONTINUOUS
 10
0.337882
 20
-3.641197
  0
VERTEX
  8
PLAN_1
  6
CONTINUOUS
 10
0.336453
 20
-3.649756
  0
VERTEX
  8
PLAN_1
  6
CONTINUOUS
 10
0.335504
 20
-3.658311
  0
VERTEX
  8
PLAN_1
  6
CONTINUOUS
 10
0.335028
 20
-3.667819
  0
VERTEX
  8
PLAN_1
  6
CONTINUOUS
 10
0.335504
 20
-3.676850
  0
VERTEX
  8
PLAN_1
  6
CONTINUOUS
 10
0.335980
 20
-3.684933
  0
VERTEX
  8
PLAN_1
  6
CONTINUOUS
 10
0.336929
 20
-3.693016
  0
VERTEX
  8
PLAN_1
  6
CONTINUOUS
 10
0.338354
 20
-3.700622
  0
VERTEX
  8
PLAN_1
  6
CONTINUOUS
 10
0.340732
 20
-3.708228
  0
VERTEX
  8
PLAN_1
  6
CONTINUOUS
 10
0.343110
 20
-3.714882
  0
VERTEX
  8
PLAN_1
  6
CONTINUOUS
 10
0.345961
 20
-3.721063
  0
VERTEX
  8
PLAN_1
  6
CONTINUOUS
 10
0.349764
 20
-3.727244
  0
VERTEX
  8
PLAN_1
  6
CONTINUOUS
 10
0.354043
 20
-3.732472
  0
VERTEX
  8
PLAN_1
  6
CONTINUOUS
 10
0.358795
 20
-3.737228
  0
VERTEX
  8
PLAN_1
  6
CONTINUOUS
 10
0.364028
 20
-3.741028
  0
VERTEX
  8
PLAN_1
  6
CONTINUOUS
 10
0.370205
 20
-3.744831
  0
VERTEX
  8
PLAN_1
  6
CONTINUOUS
 10
0.376862
 20
-3.747209
  0
VERTEX
  8
PLAN_1
  6
CONTINUOUS
 10
0.383992
 20
-3.749110
  0
VERTEX
  8
PLAN_1
  6
CONTINUOUS
 10
0.392551
 20
-3.750535
  0
VERTEX
  8
PLAN_1
  6
CONTINUOUS
 10
0.401106
 20
-3.751012
  0
VERTEX
  8
PLAN_1
  6
CONTINUOUS
 10
0.404433
 20
-3.751012
  0
VERTEX
  8
PLAN_1
  6
CONTINUOUS
 10
0.408236
 20
-3.750535
  0
VERTEX
  8
PLAN_1
  6
CONTINUOUS
 10
0.412039
 20
-3.750063
  0
VERTEX
  8
PLAN_1
  6
CONTINUOUS
 10
0.416319
 20
-3.749110
  0
VERTEX
  8
PLAN_1
  6
CONTINUOUS
 10
0.420122
 20
-3.747685
  0
VERTEX
  8
PLAN_1
  6
CONTINUOUS
 10
0.424402
 20
-3.745783
  0
VERTEX
  8
PLAN_1
  6
CONTINUOUS
 10
0.428681
 20
-3.743882
  0
VERTEX
  8
PLAN_1
  6
CONTINUOUS
 10
0.432957
 20
-3.741028
  0
VERTEX
  8
PLAN_1
  6
CONTINUOUS
 10
0.436760
 20
-3.737701
  0
VERTEX
  8
PLAN_1
  6
CONTINUOUS
 10
0.440563
 20
-3.733898
  0
VERTEX
  8
PLAN_1
  6
CONTINUOUS
 10
0.444366
 20
-3.729622
  0
VERTEX
  8
PLAN_1
  6
CONTINUOUS
 10
0.447697
 20
-3.724390
  0
VERTEX
  8
PLAN_1
  6
CONTINUOUS
 10
0.451024
 20
-3.718685
  0
VERTEX
  8
PLAN_1
  6
CONTINUOUS
 10
0.453874
 20
-3.712031
  0
VERTEX
  8
PLAN_1
  6
CONTINUOUS
 10
0.456252
 20
-3.704425
  0
VERTEX
  8
PLAN_1
  6
CONTINUOUS
 10
0.458154
 20
-3.696343
  0
VERTEX
  8
PLAN_1
  6
CONTINUOUS
 10
0.484299
 20
-3.696343
  0
VERTEX
  8
PLAN_1
  6
CONTINUOUS
 10
0.482874
 20
-3.703000
  0
VERTEX
  8
PLAN_1
  6
CONTINUOUS
 10
0.481449
 20
-3.709654
  0
VERTEX
  8
PLAN_1
  6
CONTINUOUS
 10
0.480024
 20
-3.715835
  0
VERTEX
  8
PLAN_1
  6
CONTINUOUS
 10
0.477646
 20
-3.721063
  0
VERTEX
  8
PLAN_1
  6
CONTINUOUS
 10
0.475744
 20
-3.726768
  0
VERTEX
  8
PLAN_1
  6
CONTINUOUS
 10
0.473366
 20
-3.731524
  0
VERTEX
  8
PLAN_1
  6
CONTINUOUS
 10
0.470516
 20
-3.736276
  0
VERTEX
  8
PLAN_1
  6
CONTINUOUS
 10
0.468138
 20
-3.740079
  0
VERTEX
  8
PLAN_1
  6
CONTINUOUS
 10
0.465283
 20
-3.744358
  0
VERTEX
  8
PLAN_1
  6
CONTINUOUS
 10
0.461957
 20
-3.747685
  0
VERTEX
  8
PLAN_1
  6
CONTINUOUS
 10
0.459106
 20
-3.751012
  0
VERTEX
  8
PLAN_1
  6
CONTINUOUS
 10
0.455776
 20
-3.754339
  0
VERTEX
  8
PLAN_1
  6
CONTINUOUS
 10
0.449122
 20
-3.759571
  0
VERTEX
  8
PLAN_1
  6
CONTINUOUS
 10
0.441992
 20
-3.763846
  0
VERTEX
  8
PLAN_1
  6
CONTINUOUS
 10
0.435335
 20
-3.767177
  0
VERTEX
  8
PLAN_1
  6
CONTINUOUS
 10
0.428205
 20
-3.770028
  0
VERTEX
  8
PLAN_1
  6
CONTINUOUS
 10
0.421547
 20
-3.771929
  0
VERTEX
  8
PLAN_1
  6
CONTINUOUS
 10
0.415370
 20
-3.773354
  0
VERTEX
  8
PLAN_1
  6
CONTINUOUS
 10
0.404433
 20
-3.774783
  0
VERTEX
  8
PLAN_1
  6
CONTINUOUS
 10
0.396827
 20
-3.774783
  0
VERTEX
  8
PLAN_1
  6
CONTINUOUS
 10
0.388748
 20
-3.774307
  0
VERTEX
  8
PLAN_1
  6
CONTINUOUS
 10
0.380189
 20
-3.773354
  0
VERTEX
  8
PLAN_1
  6
CONTINUOUS
 10
0.372106
 20
-3.771453
  0
VERTEX
  8
PLAN_1
  6
CONTINUOUS
 10
0.364028
 20
-3.769079
  0
VERTEX
  8
PLAN_1
  6
CONTINUOUS
 10
0.356421
 20
-3.765748
  0
VERTEX
  8
PLAN_1
  6
CONTINUOUS
 10
0.348815
 20
-3.761472
  0
VERTEX
  8
PLAN_1
  6
CONTINUOUS
 10
0.345012
 20
-3.759094
  0
VERTEX
  8
PLAN_1
  6
CONTINUOUS
 10
0.341685
 20
-3.756240
  0
VERTEX
  8
PLAN_1
  6
CONTINUOUS
 10
0.338354
 20
-3.753390
  0
VERTEX
  8
PLAN_1
  6
CONTINUOUS
 10
0.335028
 20
-3.750535
  0
VERTEX
  8
PLAN_1
  6
CONTINUOUS
 10
0.332177
 20
-3.747209
  0
VERTEX
  8
PLAN_1
  6
CONTINUOUS
 10
0.329323
 20
-3.743882
  0
VERTEX
  8
PLAN_1
  6
CONTINUOUS
 10
0.326472
 20
-3.740079
  0
VERTEX
  8
PLAN_1
  6
CONTINUOUS
 10
0.323618
 20
-3.735799
  0
VERTEX
  8
PLAN_1
  6
CONTINUOUS
 10
0.321240
 20
-3.731996
  0
VERTEX
  8
PLAN_1
  6
CONTINUOUS
 10
0.318866
 20
-3.727244
  0
VERTEX
  8
PLAN_1
  6
CONTINUOUS
 10
0.316965
 20
-3.722488
  0
VERTEX
  8
PLAN_1
  6
CONTINUOUS
 10
0.315063
 20
-3.717736
  0
VERTEX
  8
PLAN_1
  6
CONTINUOUS
 10
0.313161
 20
-3.712508
  0
VERTEX
  8
PLAN_1
  6
CONTINUOUS
 10
0.311732
 20
-3.707276
  0
VERTEX
  8
PLAN_1
  6
CONTINUOUS
 10
0.310307
 20
-3.701571
  0
VERTEX
  8
PLAN_1
  6
CONTINUOUS
 10
0.309358
 20
-3.695394
  0
VERTEX
  8
PLAN_1
  6
CONTINUOUS
 10
0.308406
 20
-3.689213
  0
VERTEX
  8
PLAN_1
  6
CONTINUOUS
 10
0.307929
 20
-3.682555
  0
VERTEX
  8
PLAN_1
  6
CONTINUOUS
 10
0.307457
 20
-3.675902
  0
VERTEX
  8
PLAN_1
  6
CONTINUOUS
 10
0.307457
 20
-3.668772
  0
VERTEX
  8
PLAN_1
  6
CONTINUOUS
 10
0.307929
 20
-3.657362
  0
VERTEX
  8
PLAN_1
  6
CONTINUOUS
 10
0.308882
 20
-3.646902
  0
VERTEX
  8
PLAN_1
  6
CONTINUOUS
 10
0.310783
 20
-3.636445
  0
VERTEX
  8
PLAN_1
  6
CONTINUOUS
 10
0.313634
 20
-3.626937
  0
VERTEX
  8
PLAN_1
  6
CONTINUOUS
 10
0.317437
 20
-3.617429
  0
VERTEX
  8
PLAN_1
  6
CONTINUOUS
 10
0.321717
 20
-3.608870
  0
VERTEX
  8
PLAN_1
  6
CONTINUOUS
 10
0.324094
 20
-3.605067
  0
VERTEX
  8
PLAN_1
  6
CONTINUOUS
 10
0.326472
 20
-3.601264
  0
VERTEX
  8
PLAN_1
  6
CONTINUOUS
 10
0.329323
 20
-3.597461
  0
VERTEX
  8
PLAN_1
  6
CONTINUOUS
 10
0.332177
 20
-3.594134
  0
VERTEX
  8
PLAN_1
  6
CONTINUOUS
 10
0.335028
 20
-3.590807
  0
VERTEX
  8
PLAN_1
  6
CONTINUOUS
 10
0.338354
 20
-3.587476
  0
VERTEX
  8
PLAN_1
  6
CONTINUOUS
 10
0.341685
 20
-3.584626
  0
VERTEX
  8
PLAN_1
  6
CONTINUOUS
 10
0.345488
 20
-3.581772
  0
VERTEX
  8
PLAN_1
  6
CONTINUOUS
 10
0.349287
 20
-3.578921
  0
VERTEX
  8
PLAN_1
  6
CONTINUOUS
 10
0.353091
 20
-3.576543
  0
VERTEX
  8
PLAN_1
  6
CONTINUOUS
 10
0.357370
 20
-3.574642
  0
VERTEX
  8
PLAN_1
  6
CONTINUOUS
 10
0.361173
 20
-3.572740
  0
VERTEX
  8
PLAN_1
  6
CONTINUOUS
 10
0.365929
 20
-3.570839
  0
VERTEX
  8
PLAN_1
  6
CONTINUOUS
 10
0.370205
 20
-3.569413
  0
VERTEX
  8
PLAN_1
  6
CONTINUOUS
 10
0.374961
 20
-3.567988
  0
VERTEX
  8
PLAN_1
  6
CONTINUOUS
 10
0.379713
 20
-3.567035
  0
VERTEX
  8
PLAN_1
  6
CONTINUOUS
 10
0.384469
 20
-3.566087
  0
VERTEX
  8
PLAN_1
  6
CONTINUOUS
 10
0.389697
 20
-3.565610
  0
VERTEX
  8
PLAN_1
  6
CONTINUOUS
 10
0.394925
 20
-3.565134
  0
VERTEX
  8
PLAN_1
  6
CONTINUOUS
 10
0.400157
 20
-3.565134
  0
VERTEX
  8
PLAN_1
  6
CONTINUOUS
 10
0.409665
 20
-3.565134
  0
VERTEX
  8
PLAN_1
  6
CONTINUOUS
 10
0.418697
 20
-3.566559
  0
VERTEX
  8
PLAN_1
  6
CONTINUOUS
 10
0.426780
 20
-3.567988
  0
VERTEX
  8
PLAN_1
  6
CONTINUOUS
 10
0.434386
 20
-3.570362
  0
VERTEX
  8
PLAN_1
  6
CONTINUOUS
 10
0.441516
 20
-3.573217
  0
VERTEX
  8
PLAN_1
  6
CONTINUOUS
 10
0.447697
 20
-3.577020
  0
VERTEX
  8
PLAN_1
  6
CONTINUOUS
 10
0.453874
 20
-3.580823
  0
VERTEX
  8
PLAN_1
  6
CONTINUOUS
 10
0.459106
 20
-3.585102
  0
VERTEX
  8
PLAN_1
  6
CONTINUOUS
 10
0.463858
 20
-3.589854
  0
VERTEX
  8
PLAN_1
  6
CONTINUOUS
 10
0.468138
 20
-3.595083
  0
VERTEX
  8
PLAN_1
  6
CONTINUOUS
 10
0.471941
 20
-3.600315
  0
VERTEX
  8
PLAN_1
  6
CONTINUOUS
 10
0.475268
 20
-3.606020
  0
VERTEX
  8
PLAN_1
  6
CONTINUOUS
 10
0.477646
 20
-3.611724
  0
VERTEX
  8
PLAN_1
  6
CONTINUOUS
 10
0.479547
 20
-3.617902
  0
VERTEX
  8
PLAN_1
  6
CONTINUOUS
 10
0.481449
 20
-3.624083
  0
VERTEX
  8
PLAN_1
  6
CONTINUOUS
 10
0.482398
 20
-3.630264
  0
VERTEX
  8
PLAN_1
  6
CONTINUOUS
 10
0.456252
 20
-3.630264
  0
SEQEND
  8
0
  0
POLYLINE
  8
PLAN_1
  6
CONTINUOUS
 66
     1
 40
0.003000
 41
0.003000
  0
VERTEX
  8
PLAN_1
  6
CONTINUOUS
 10
0.543724
 20
-3.769551
  0
VERTEX
  8
PLAN_1
  6
CONTINUOUS
 10
0.516626
 20
-3.769551
  0
VERTEX
  8
PLAN_1
  6
CONTINUOUS
 10
0.516626
 20
-3.570362
  0
VERTEX
  8
PLAN_1
  6
CONTINUOUS
 10
0.543724
 20
-3.570362
  0
VERTEX
  8
PLAN_1
  6
CONTINUOUS
 10
0.543724
 20
-3.666870
  0
VERTEX
  8
PLAN_1
  6
CONTINUOUS
 10
0.640228
 20
-3.570362
  0
VERTEX
  8
PLAN_1
  6
CONTINUOUS
 10
0.677311
 20
-3.570362
  0
VERTEX
  8
PLAN_1
  6
CONTINUOUS
 10
0.594591
 20
-3.650705
  0
VERTEX
  8
PLAN_1
  6
CONTINUOUS
 10
0.679685
 20
-3.769551
  0
VERTEX
  8
PLAN_1
  6
CONTINUOUS
 10
0.644508
 20
-3.769551
  0
VERTEX
  8
PLAN_1
  6
CONTINUOUS
 10
0.575098
 20
-3.669720
  0
VERTEX
  8
PLAN_1
  6
CONTINUOUS
 10
0.543724
 20
-3.699669
  0
VERTEX
  8
PLAN_1
  6
CONTINUOUS
 10
0.543724
 20
-3.769551
  0
SEQEND
  8
0
  0
POLYLINE
  8
PLAN_1
  6
CONTINUOUS
 66
     1
 40
0.003000
 41
0.003000
  0
VERTEX
  8
PLAN_1
  6
CONTINUOUS
 10
0.787126
 20
-3.769551
  0
VERTEX
  8
PLAN_1
  6
CONTINUOUS
 10
0.760028
 20
-3.769551
  0
VERTEX
  8
PLAN_1
  6
CONTINUOUS
 10
0.760028
 20
-3.689213
  0
VERTEX
  8
PLAN_1
  6
CONTINUOUS
 10
0.684917
 20
-3.570362
  0
VERTEX
  8
PLAN_1
  6
CONTINUOUS
 10
0.716291
 20
-3.570362
  0
VERTEX
  8
PLAN_1
  6
CONTINUOUS
 10
0.773339
 20
-3.665917
  0
VERTEX
  8
PLAN_1
  6
CONTINUOUS
 10
0.830386
 20
-3.570362
  0
VERTEX
  8
PLAN_1
  6
CONTINUOUS
 10
0.862236
 20
-3.570362
  0
VERTEX
  8
PLAN_1
  6
CONTINUOUS
 10
0.787126
 20
-3.689213
  0
VERTEX
  8
PLAN_1
  6
CONTINUOUS
 10
0.787126
 20
-3.769551
  0
SEQEND
  8
0
  0
POLYLINE
  8
PLAN_1
  6
CONTINUOUS
 66
     1
 40
0.003000
 41
0.003000
  0
VERTEX
  8
PLAN_1
  6
CONTINUOUS
 10
0.982512
 20
-3.722016
  0
VERTEX
  8
PLAN_1
  6
CONTINUOUS
 10
0.982512
 20
-3.769551
  0
VERTEX
  8
PLAN_1
  6
CONTINUOUS
 10
0.958264
 20
-3.769551
  0
VERTEX
  8
PLAN_1
  6
CONTINUOUS
 10
0.958264
 20
-3.722016
  0
VERTEX
  8
PLAN_1
  6
CONTINUOUS
 10
0.873169
 20
-3.722016
  0
VERTEX
  8
PLAN_1
  6
CONTINUOUS
 10
0.873169
 20
-3.698244
  0
VERTEX
  8
PLAN_1
  6
CONTINUOUS
 10
0.962543
 20
-3.574642
  0
VERTEX
  8
PLAN_1
  6
CONTINUOUS
 10
0.982512
 20
-3.574642
  0
VERTEX
  8
PLAN_1
  6
CONTINUOUS
 10
0.982512
 20
-3.701098
  0
VERTEX
  8
PLAN_1
  6
CONTINUOUS
 10
1.011508
 20
-3.701098
  0
VERTEX
  8
PLAN_1
  6
CONTINUOUS
 10
1.011508
 20
-3.722016
  0
VERTEX
  8
PLAN_1
  6
CONTINUOUS
 10
0.982512
 20
-3.722016
  0
SEQEND
  8
0
  0
SOLID
  8
PLAN_1
 10
0.895512
 20
-3.701098
 11
0.958264
 21
-3.701098
 12
0.957791
 22
-3.612673
 13
0.958264
 23
-3.612673
  0
POLYLINE
  8
PLAN_1
  6
CONTINUOUS
 66
     1
 40
0.003000
 41
0.003000
  0
VERTEX
  8
PLAN_1
  6
CONTINUOUS
 10
0.895512
 20
-3.701098
  0
VERTEX
  8
PLAN_1
  6
CONTINUOUS
 10
0.958264
 20
-3.701098
  0
VERTEX
  8
PLAN_1
  6
CONTINUOUS
 10
0.958264
 20
-3.612673
  0
VERTEX
  8
PLAN_1
  6
CONTINUOUS
 10
0.957791
 20
-3.612673
  0
VERTEX
  8
PLAN_1
  6
CONTINUOUS
 10
0.895512
 20
-3.701098
  0
SEQEND
  8
0
  0
POLYLINE
  8
PLAN_1
  6
CONTINUOUS
 66
     1
 40
0.003000
 41
0.003000
  0
VERTEX
  8
PLAN_1
  6
CONTINUOUS
 10
1.204520
 20
-3.615051
  0
VERTEX
  8
PLAN_1
  6
CONTINUOUS
 10
1.223059
 20
-3.615051
  0
VERTEX
  8
PLAN_1
  6
CONTINUOUS
 10
1.219256
 20
-3.629787
  0
VERTEX
  8
PLAN_1
  6
CONTINUOUS
 10
1.214976
 20
-3.644524
  0
VERTEX
  8
PLAN_1
  6
CONTINUOUS
 10
1.210697
 20
-3.658787
  0
VERTEX
  8
PLAN_1
  6
CONTINUOUS
 10
1.206894
 20
-3.672098
  0
VERTEX
  8
PLAN_1
  6
CONTINUOUS
 10
1.203091
 20
-3.683984
  0
VERTEX
  8
PLAN_1
  6
CONTINUOUS
 10
1.200717
 20
-3.693965
  0
VERTEX
  8
PLAN_1
  6
CONTINUOUS
 10
1.198815
 20
-3.701098
  0
VERTEX
  8
PLAN_1
  6
CONTINUOUS
 10
1.198339
 20
-3.705850
  0
VERTEX
  8
PLAN_1
  6
CONTINUOUS
 10
1.198339
 20
-3.707752
  0
VERTEX
  8
PLAN_1
  6
CONTINUOUS
 10
1.198339
 20
-3.709177
  0
VERTEX
  8
PLAN_1
  6
CONTINUOUS
 10
1.198815
 20
-3.710606
  0
VERTEX
  8
PLAN_1
  6
CONTINUOUS
 10
1.199287
 20
-3.711555
  0
VERTEX
  8
PLAN_1
  6
CONTINUOUS
 10
1.200240
 20
-3.712508
  0
VERTEX
  8
PLAN_1
  6
CONTINUOUS
 10
1.201189
 20
-3.713457
  0
VERTEX
  8
PLAN_1
  6
CONTINUOUS
 10
1.202618
 20
-3.713457
  0
VERTEX
  8
PLAN_1
  6
CONTINUOUS
 10
1.204043
 20
-3.713933
  0
VERTEX
  8
PLAN_1
  6
CONTINUOUS
 10
1.207370
 20
-3.713457
  0
VERTEX
  8
PLAN_1
  6
CONTINUOUS
 10
1.211173
 20
-3.712508
  0
VERTEX
  8
PLAN_1
  6
CONTINUOUS
 10
1.214500
 20
-3.710606
  0
VERTEX
  8
PLAN_1
  6
CONTINUOUS
 10
1.218303
 20
-3.708705
  0
VERTEX
  8
PLAN_1
  6
CONTINUOUS
 10
1.221634
 20
-3.705850
  0
VERTEX
  8
PLAN_1
  6
CONTINUOUS
 10
1.224961
 20
-3.702524
  0
VERTEX
  8
PLAN_1
  6
CONTINUOUS
 10
1.227811
 20
-3.699197
  0
VERTEX
  8
PLAN_1
  6
CONTINUOUS
 10
1.230665
 20
-3.694917
  0
VERTEX
  8
PLAN_1
  6
CONTINUOUS
 10
1.233516
 20
-3.690638
  0
VERTEX
  8
PLAN_1
  6
CONTINUOUS
 10
1.235894
 20
-3.685886
  0
VERTEX
  8
PLAN_1
  6
CONTINUOUS
 10
1.238272
 20
-3.681130
  0
VERTEX
  8
PLAN_1
  6
CONTINUOUS
 10
1.239697
 20
-3.675902
  0
VERTEX
  8
PLAN_1
  6
CONTINUOUS
 10
1.241598
 20
-3.670197
  0
VERTEX
  8
PLAN_1
  6
CONTINUOUS
 10
1.242547
 20
-3.664969
  0
VERTEX
  8
PLAN_1
  6
CONTINUOUS
 10
1.243024
 20
-3.659264
  0
VERTEX
  8
PLAN_1
  6
CONTINUOUS
 10
1.243500
 20
-3.654031
  0
VERTEX
  8
PLAN_1
  6
CONTINUOUS
 10
1.243024
 20
-3.645476
  0
VERTEX
  8
PLAN_1
  6
CONTINUOUS
 10
1.241598
 20
-3.637870
  0
VERTEX
  8
PLAN_1
  6
CONTINUOUS
 10
1.239697
 20
-3.630740
  0
VERTEX
  8
PLAN_1
  6
CONTINUOUS
 10
1.237319
 20
-3.624083
  0
VERTEX
  8
PLAN_1
  6
CONTINUOUS
 10
1.233992
 20
-3.617429
  0
VERTEX
  8
PLAN_1
  6
CONTINUOUS
 10
1.230189
 20
-3.611724
  0
VERTEX
  8
PLAN_1
  6
CONTINUOUS
 10
1.225433
 20
-3.606492
  0
VERTEX
  8
PLAN_1
  6
CONTINUOUS
 10
1.220205
 20
-3.601264
  0
VERTEX
  8
PLAN_1
  6
CONTINUOUS
 10
1.214976
 20
-3.596984
  0
VERTEX
  8
PLAN_1
  6
CONTINUOUS
 10
1.208795
 20
-3.593181
  0
VERTEX
  8
PLAN_1
  6
CONTINUOUS
 10
1.202618
 20
-3.589854
  0
VERTEX
  8
PLAN_1
  6
CONTINUOUS
 10
1.195961
 20
-3.587004
  0
VERTEX
  8
PLAN_1
  6
CONTINUOUS
 10
1.188831
 20
-3.585102
  0
VERTEX
  8
PLAN_1
  6
CONTINUOUS
 10
1.181224
 20
-3.583673
  0
VERTEX
  8
PLAN_1
  6
CONTINUOUS
 10
1.173618
 20
-3.582724
  0
VERTEX
  8
PLAN_1
  6
CONTINUOUS
 10
1.166012
 20
-3.582248
  0
VERTEX
  8
PLAN_1
  6
CONTINUOUS
 10
1.156980
 20
-3.582724
  0
VERTEX
  8
PLAN_1
  6
CONTINUOUS
 10
1.147945
 20
-3.584150
  0
VERTEX
  8
PLAN_1
  6
CONTINUOUS
 10
1.139866
 20
-3.586051
  0
VERTEX
  8
PLAN_1
  6
CONTINUOUS
 10
1.131783
 20
-3.589378
  0
VERTEX
  8
PLAN_1
  6
CONTINUOUS
 10
1.124654
 20
-3.592709
  0
VERTEX
  8
PLAN_1
  6
CONTINUOUS
 10
1.117520
 20
-3.597461
  0
VERTEX
  8
PLAN_1
  6
CONTINUOUS
 10
1.111343
 20
-3.602689
  0
VERTEX
  8
PLAN_1
  6
CONTINUOUS
 10
1.105161
 20
-3.608394
  0
VERTEX
  8
PLAN_1
  6
CONTINUOUS
 10
1.099933
 20
-3.614575
  0
VERTEX
  8
PLAN_1
  6
CONTINUOUS
 10
1.095177
 20
-3.621232
  0
VERTEX
  8
PLAN_1
  6
CONTINUOUS
 10
1.091374
 20
-3.628839
  0
VERTEX
  8
PLAN_1
  6
CONTINUOUS
 10
1.088047
 20
-3.636445
  0
VERTEX
  8
PLAN_1
  6
CONTINUOUS
 10
1.085193
 20
-3.644524
  0
VERTEX
  8
PLAN_1
  6
CONTINUOUS
 10
1.083291
 20
-3.653083
  0
VERTEX
  8
PLAN_1
  6
CONTINUOUS
 10
1.081866
 20
-3.662114
  0
VERTEX
  8
PLAN_1
  6
CONTINUOUS
 10
1.081390
 20
-3.671146
  0
VERTEX
  8
PLAN_1
  6
CONTINUOUS
 10
1.081866
 20
-3.680181
  0
VERTEX
  8
PLAN_1
  6
CONTINUOUS
 10
1.083291
 20
-3.688736
  0
VERTEX
  8
PLAN_1
  6
CONTINUOUS
 10
1.085193
 20
-3.697295
  0
VERTEX
  8
PLAN_1
  6
CONTINUOUS
 10
1.088047
 20
-3.705374
  0
VERTEX
  8
PLAN_1
  6
CONTINUOUS
 10
1.091850
 20
-3.712980
  0
VERTEX
  8
PLAN_1
  6
CONTINUOUS
 10
1.096130
 20
-3.720114
  0
VERTEX
  8
PLAN_1
  6
CONTINUOUS
 10
1.100882
 20
-3.726768
  0
VERTEX
  8
PLAN_1
  6
CONTINUOUS
 10
1.106587
 20
-3.732949
  0
VERTEX
  8
PLAN_1
  6
CONTINUOUS
 10
1.112768
 20
-3.738177
  0
VERTEX
  8
PLAN_1
  6
CONTINUOUS
 10
1.119421
 20
-3.743406
  0
VERTEX
  8
PLAN_1
  6
CONTINUOUS
 10
1.126555
 20
-3.747209
  0
VERTEX
  8
PLAN_1
  6
CONTINUOUS
 10
1.134161
 20
-3.751012
  0
VERTEX
  8
PLAN_1
  6
CONTINUOUS
 10
1.141768
 20
-3.753866
  0
VERTEX
  8
PLAN_1
  6
CONTINUOUS
 10
1.150323
 20
-3.755768
  0
VERTEX
  8
PLAN_1
  6
CONTINUOUS
 10
1.158882
 20
-3.757193
  0
VERTEX
  8
PLAN_1
  6
CONTINUOUS
 10
1.167913
 20
-3.757669
  0
VERTEX
  8
PLAN_1
  6
CONTINUOUS
 10
1.172665
 20
-3.757669
  0
VERTEX
  8
PLAN_1
  6
CONTINUOUS
 10
1.177421
 20
-3.757193
  0
VERTEX
  8
PLAN_1
  6
CONTINUOUS
 10
1.182173
 20
-3.756240
  0
VERTEX
  8
PLAN_1
  6
CONTINUOUS
 10
1.186929
 20
-3.755291
  0
VERTEX
  8
PLAN_1
  6
CONTINUOUS
 10
1.191681
 20
-3.754339
  0
VERTEX
  8
PLAN_1
  6
CONTINUOUS
 10
1.196437
 20
-3.752913
  0
VERTEX
  8
PLAN_1
  6
CONTINUOUS
 10
1.201189
 20
-3.751012
  0
VERTEX
  8
PLAN_1
  6
CONTINUOUS
 10
1.205469
 20
-3.749110
  0
VERTEX
  8
PLAN_1
  6
CONTINUOUS
 10
1.209748
 20
-3.746732
  0
VERTEX
  8
PLAN_1
  6
CONTINUOUS
 10
1.214028
 20
-3.744358
  0
VERTEX
  8
PLAN_1
  6
CONTINUOUS
 10
1.217831
 20
-3.741980
  0
VERTEX
  8
PLAN_1
  6
CONTINUOUS
 10
1.221634
 20
-3.739126
  0
VERTEX
  8
PLAN_1
  6
CONTINUOUS
 10
1.225433
 20
-3.736276
  0
VERTEX
  8
PLAN_1
  6
CONTINUOUS
 10
1.228764
 20
-3.732949
  0
VERTEX
  8
PLAN_1
  6
CONTINUOUS
 10
1.232091
 20
-3.729622
  0
VERTEX
  8
PLAN_1
  6
CONTINUOUS
 10
1.235417
 20
-3.725819
  0
VERTEX
  8
PLAN_1
  6
CONTINUOUS
 10
1.253957
 20
-3.725819
  0
VERTEX
  8
PLAN_1
  6
CONTINUOUS
 10
1.250630
 20
-3.731524
  0
VERTEX
  8
PLAN_1
  6
CONTINUOUS
 10
1.246350
 20
-3.736752
  0
VERTEX
  8
PLAN_1
  6
CONTINUOUS
 10
1.242547
 20
-3.741504
  0
VERTEX
  8
PLAN_1
  6
CONTINUOUS
 10
1.237795
 20
-3.746260
  0
VERTEX
  8
PLAN_1
  6
CONTINUOUS
 10
1.233039
 20
-3.750535
  0
VERTEX
  8
PLAN_1
  6
CONTINUOUS
 10
1.227811
 20
-3.754815
  0
VERTEX
  8
PLAN_1
  6
CONTINUOUS
 10
1.222583
 20
-3.758618
  0
VERTEX
  8
PLAN_1
  6
CONTINUOUS
 10
1.217354
 20
-3.761945
  0
VERTEX
  8
PLAN_1
  6
CONTINUOUS
 10
1.211650
 20
-3.764799
  0
VERTEX
  8
PLAN_1
  6
CONTINUOUS
 10
1.205469
 20
-3.767177
  0
VERTEX
  8
PLAN_1
  6
CONTINUOUS
 10
1.199764
 20
-3.769551
  0
VERTEX
  8
PLAN_1
  6
CONTINUOUS
 10
1.193583
 20
-3.771453
  0
VERTEX
  8
PLAN_1
  6
CONTINUOUS
 10
1.186929
 20
-3.772882
  0
VERTEX
  8
PLAN_1
  6
CONTINUOUS
 10
1.180748
 20
-3.773831
  0
VERTEX
  8
PLAN_1
  6
CONTINUOUS
 10
1.174094
 20
-3.774783
  0
VERTEX
  8
PLAN_1
  6
CONTINUOUS
 10
1.167437
 20
-3.774783
  0
VERTEX
  8
PLAN_1
  6
CONTINUOUS
 10
1.161732
 20
-3.774783
  0
VERTEX
  8
PLAN_1
  6
CONTINUOUS
 10
1.156504
 20
-3.774307
  0
VERTEX
  8
PLAN_1
  6
CONTINUOUS
 10
1.150799
 20
-3.773831
  0
VERTEX
  8
PLAN_1
  6
CONTINUOUS
 10
1.145571
 20
-3.772882
  0
VERTEX
  8
PLAN_1
  6
CONTINUOUS
 10
1.140815
 20
-3.771453
  0
VERTEX
  8
PLAN_1
  6
CONTINUOUS
 10
1.135587
 20
-3.770028
  0
VERTEX
  8
PLAN_1
  6
CONTINUOUS
 10
1.130358
 20
-3.768602
  0
VERTEX
  8
PLAN_1
  6
CONTINUOUS
 10
1.125602
 20
-3.766701
  0
VERTEX
  8
PLAN_1
  6
CONTINUOUS
 10
1.120850
 20
-3.764799
  0
VERTEX
  8
PLAN_1
  6
CONTINUOUS
 10
1.116571
 20
-3.762421
  0
VERTEX
  8
PLAN_1
  6
CONTINUOUS
 10
1.111815
 20
-3.759571
  0
VERTEX
  8
PLAN_1
  6
CONTINUOUS
 10
1.107539
 20
-3.757193
  0
VERTEX
  8
PLAN_1
  6
CONTINUOUS
 10
1.103736
 20
-3.754339
  0
VERTEX
  8
PLAN_1
  6
CONTINUOUS
 10
1.099457
 20
-3.751012
  0
VERTEX
  8
PLAN_1
  6
CONTINUOUS
 10
1.095654
 20
-3.747685
  0
VERTEX
  8
PLAN_1
  6
CONTINUOUS
 10
1.091850
 20
-3.744358
  0
VERTEX
  8
PLAN_1
  6
CONTINUOUS
 10
1.088524
 20
-3.740555
  0
VERTEX
  8
PLAN_1
  6
CONTINUOUS
 10
1.085193
 20
-3.736752
  0
VERTEX
  8
PLAN_1
  6
CONTINUOUS
 10
1.082343
 20
-3.732949
  0
VERTEX
  8
PLAN_1
  6
CONTINUOUS
 10
1.079016
 20
-3.728669
  0
VERTEX
  8
PLAN_1
  6
CONTINUOUS
 10
1.076638
 20
-3.724390
  0
VERTEX
  8
PLAN_1
  6
CONTINUOUS
 10
1.073783
 20
-3.720114
  0
VERTEX
  8
PLAN_1
  6
CONTINUOUS
 10
1.071882
 20
-3.715358
  0
VERTEX
  8
PLAN_1
  6
CONTINUOUS
 10
1.069508
 20
-3.710606
  0
VERTEX
  8
PLAN_1
  6
CONTINUOUS
 10
1.067606
 20
-3.705850
  0
VERTEX
  8
PLAN_1
  6
CONTINUOUS
 10
1.066177
 20
-3.701098
  0
VERTEX
  8
PLAN_1
  6
CONTINUOUS
 10
1.064752
 20
-3.695866
  0
VERTEX
  8
PLAN_1
  6
CONTINUOUS
 10
1.063327
 20
-3.691114
  0
VERTEX
  8
PLAN_1
  6
CONTINUOUS
 10
1.062374
 20
-3.685409
  0
VERTEX
  8
PLAN_1
  6
CONTINUOUS
 10
1.061902
 20
-3.680181
  0
VERTEX
  8
PLAN_1
  6
CONTINUOUS
 10
1.061425
 20
-3.674949
  0
VERTEX
  8
PLAN_1
  6
CONTINUOUS
 10
1.061425
 20
-3.669244
  0
VERTEX
  8
PLAN_1
  6
CONTINUOUS
 10
1.061425
 20
-3.664016
  0
VERTEX
  8
PLAN_1
  6
CONTINUOUS
 10
1.061902
 20
-3.658787
  0
VERTEX
  8
PLAN_1
  6
CONTINUOUS
 10
1.062374
 20
-3.653559
  0
VERTEX
  8
PLAN_1
  6
CONTINUOUS
 10
1.063327
 20
-3.648327
  0
VERTEX
  8
PLAN_1
  6
CONTINUOUS
 10
1.064752
 20
-3.643098
  0
VERTEX
  8
PLAN_1
  6
CONTINUOUS
 10
1.066177
 20
-3.638346
  0
VERTEX
  8
PLAN_1
  6
CONTINUOUS
 10
1.067606
 20
-3.633114
  0
VERTEX
  8
PLAN_1
  6
CONTINUOUS
 10
1.069508
 20
-3.628362
  0
VERTEX
  8
PLAN_1
  6
CONTINUOUS
 10
1.071882
 20
-3.624083
  0
VERTEX
  8
PLAN_1
  6
CONTINUOUS
 10
1.074260
 20
-3.619331
  0
VERTEX
  8
PLAN_1
  6
CONTINUOUS
 10
1.076638
 20
-3.615051
  0
VERTEX
  8
PLAN_1
  6
CONTINUOUS
 10
1.079488
 20
-3.610772
  0
VERTEX
  8
PLAN_1
  6
CONTINUOUS
 10
1.082343
 20
-3.606969
  0
VERTEX
  8
PLAN_1
  6
CONTINUOUS
 10
1.085193
 20
-3.602689
  0
VERTEX
  8
PLAN_1
  6
CONTINUOUS
 10
1.088524
 20
-3.598886
  0
VERTEX
  8
PLAN_1
  6
CONTINUOUS
 10
1.092327
 20
-3.595559
  0
VERTEX
  8
PLAN_1
  6
CONTINUOUS
 10
1.099457
 20
-3.588906
  0
VERTEX
  8
PLAN_1
  6
CONTINUOUS
 10
1.107539
 20
-3.582724
  0
VERTEX
  8
PLAN_1
  6
CONTINUOUS
 10
1.111815
 20
-3.579870
  0
VERTEX
  8
PLAN_1
  6
CONTINUOUS
 10
1.116571
 20
-3.577496
  0
VERTEX
  8
PLAN_1
  6
CONTINUOUS
 10
1.120850
 20
-3.575118
  0
VERTEX
  8
PLAN_1
  6
CONTINUOUS
 10
1.125602
 20
-3.573217
  0
VERTEX
  8
PLAN_1
  6
CONTINUOUS
 10
1.130358
 20
-3.571315
  0
VERTEX
  8
PLAN_1
  6
CONTINUOUS
 10
1.135110
 20
-3.569890
  0
VERTEX
  8
PLAN_1
  6
CONTINUOUS
 10
1.139866
 20
-3.568461
  0
VERTEX
  8
PLAN_1
  6
CONTINUOUS
 10
1.145094
 20
-3.567035
  0
VERTEX
  8
PLAN_1
  6
CONTINUOUS
 10
1.150323
 20
-3.566087
  0
VERTEX
  8
PLAN_1
  6
CONTINUOUS
 10
1.155551
 20
-3.565610
  0
VERTEX
  8
PLAN_1
  6
CONTINUOUS
 10
1.160783
 20
-3.565134
  0
VERTEX
  8
PLAN_1
  6
CONTINUOUS
 10
1.166012
 20
-3.565134
  0
VERTEX
  8
PLAN_1
  6
CONTINUOUS
 10
1.175520
 20
-3.565610
  0
VERTEX
  8
PLAN_1
  6
CONTINUOUS
 10
1.185028
 20
-3.566559
  0
VERTEX
  8
PLAN_1
  6
CONTINUOUS
 10
1.194059
 20
-3.568461
  0
VERTEX
  8
PLAN_1
  6
CONTINUOUS
 10
1.202618
 20
-3.571315
  0
VERTEX
  8
PLAN_1
  6
CONTINUOUS
 10
1.210697
 20
-3.575118
  0
VERTEX
  8
PLAN_1
  6
CONTINUOUS
 10
1.218780
 20
-3.578921
  0
VERTEX
  8
PLAN_1
  6
CONTINUOUS
 10
1.225909
 20
-3.584150
  0
VERTEX
  8
PLAN_1
  6
CONTINUOUS
 10
1.233039
 20
-3.589378
  0
VERTEX
  8
PLAN_1
  6
CONTINUOUS
 10
1.239220
 20
-3.595559
  0
VERTEX
  8
PLAN_1
  6
CONTINUOUS
 10
1.244925
 20
-3.602217
  0
VERTEX
  8
PLAN_1
  6
CONTINUOUS
 10
1.249681
 20
-3.609346
  0
VERTEX
  8
PLAN_1
  6
CONTINUOUS
 10
1.253957
 20
-3.616953
  0
VERTEX
  8
PLAN_1
  6
CONTINUOUS
 10
1.255386
 20
-3.620756
  0
VERTEX
  8
PLAN_1
  6
CONTINUOUS
 10
1.257287
 20
-3.625035
  0
VERTEX
  8
PLAN_1
  6
CONTINUOUS
 10
1.258236
 20
-3.628839
  0
VERTEX
  8
PLAN_1
  6
CONTINUOUS
 10
1.259661
 20
-3.633591
  0
VERTEX
  8
PLAN_1
  6
CONTINUOUS
 10
1.260138
 20
-3.637870
  0
VERTEX
  8
PLAN_1
  6
CONTINUOUS
 10
1.261091
 20
-3.642150
  0
VERTEX
  8
PLAN_1
  6
CONTINUOUS
 10
1.261563
 20
-3.646902
  0
VERTEX
  8
PLAN_1
  6
CONTINUOUS
 10
1.261563
 20
-3.651657
  0
VERTEX
  8
PLAN_1
  6
CONTINUOUS
 10
1.261091
 20
-3.660689
  0
VERTEX
  8
PLAN_1
  6
CONTINUOUS
 10
1.259661
 20
-3.669244
  0
VERTEX
  8
PLAN_1
  6
CONTINUOUS
 10
1.257287
 20
-3.677803
  0
VERTEX
  8
PLAN_1
  6
CONTINUOUS
 10
1.254433
 20
-3.685409
  0
VERTEX
  8
PLAN_1
  6
CONTINUOUS
 10
1.251106
 20
-3.692539
  0
VERTEX
  8
PLAN_1
  6
CONTINUOUS
 10
1.246827
 20
-3.699197
  0
VERTEX
  8
PLAN_1
  6
CONTINUOUS
 10
1.242547
 20
-3.704902
  0
VERTEX
  8
PLAN_1
  6
CONTINUOUS
 10
1.237795
 20
-3.710606
  0
VERTEX
  8
PLAN_1
  6
CONTINUOUS
 10
1.232567
 20
-3.715358
  0
VERTEX
  8
PLAN_1
  6
CONTINUOUS
 10
1.226862
 20
-3.719638
  0
VERTEX
  8
PLAN_1
  6
CONTINUOUS
 10
1.221634
 20
-3.723441
  0
VERTEX
  8
PLAN_1
  6
CONTINUOUS
 10
1.215929
 20
-3.726291
  0
VERTEX
  8
PLAN_1
  6
CONTINUOUS
 10
1.210224
 20
-3.728669
  0
VERTEX
  8
PLAN_1
  6
CONTINUOUS
 10
1.204992
 20
-3.730571
  0
VERTEX
  8
PLAN_1
  6
CONTINUOUS
 10
1.199764
 20
-3.731524
  0
VERTEX
  8
PLAN_1
  6
CONTINUOUS
 10
1.195012
 20
-3.731996
  0
VERTEX
  8
PLAN_1
  6
CONTINUOUS
 10
1.191681
 20
-3.731524
  0
VERTEX
  8
PLAN_1
  6
CONTINUOUS
 10
1.188354
 20
-3.730571
  0
VERTEX
  8
PLAN_1
  6
CONTINUOUS
 10
1.185504
 20
-3.729622
  0
VERTEX
  8
PLAN_1
  6
CONTINUOUS
 10
1.183126
 20
-3.727720
  0
VERTEX
  8
PLAN_1
  6
CONTINUOUS
 10
1.180748
 20
-3.725343
  0
VERTEX
  8
PLAN_1
  6
CONTINUOUS
 10
1.178846
 20
-3.722016
  0
VERTEX
  8
PLAN_1
  6
CONTINUOUS
 10
1.177898
 20
-3.718685
  0
VERTEX
  8
PLAN_1
  6
CONTINUOUS
 10
1.177421
 20
-3.714409
  0
VERTEX
  8
PLAN_1
  6
CONTINUOUS
 10
1.176945
 20
-3.714409
  0
VERTEX
  8
PLAN_1
  6
CONTINUOUS
 10
1.173618
 20
-3.717736
  0
VERTEX
  8
PLAN_1
  6
CONTINUOUS
 10
1.169815
 20
-3.721063
  0
VERTEX
  8
PLAN_1
  6
CONTINUOUS
 10
1.166012
 20
-3.723917
  0
VERTEX
  8
PLAN_1
  6
CONTINUOUS
 10
1.162209
 20
-3.726291
  0
VERTEX
  8
PLAN_1
  6
CONTINUOUS
 10
1.157453
 20
-3.728669
  0
VERTEX
  8
PLAN_1
  6
CONTINUOUS
 10
1.153177
 20
-3.730571
  0
VERTEX
  8
PLAN_1
  6
CONTINUOUS
 10
1.148421
 20
-3.731524
  0
VERTEX
  8
PLAN_1
  6
CONTINUOUS
 10
1.143669
 20
-3.731996
  0
VERTEX
  8
PLAN_1
  6
CONTINUOUS
 10
1.138913
 20
-3.731524
  0
VERTEX
  8
PLAN_1
  6
CONTINUOUS
 10
1.135110
 20
-3.731047
  0
VERTEX
  8
PLAN_1
  6
CONTINUOUS
 10
1.130831
 20
-3.729622
  0
VERTEX
  8
PLAN_1
  6
CONTINUOUS
 10
1.127028
 20
-3.728193
  0
VERTEX
  8
PLAN_1
  6
CONTINUOUS
 10
1.123224
 20
-3.726291
  0
VERTEX
  8
PLAN_1
  6
CONTINUOUS
 10
1.119898
 20
-3.723917
  0
VERTEX
  8
PLAN_1
  6
CONTINUOUS
 10
1.117047
 20
-3.721539
  0
VERTEX
  8
PLAN_1
  6
CONTINUOUS
 10
1.114193
 20
-3.718685
  0
VERTEX
  8
PLAN_1
  6
CONTINUOUS
 10
1.111343
 20
-3.715358
  0
VERTEX
  8
PLAN_1
  6
CONTINUOUS
 10
1.109441
 20
-3.712031
  0
VERTEX
  8
PLAN_1
  6
CONTINUOUS
 10
1.107539
 20
-3.708228
  0
VERTEX
  8
PLAN_1
  6
CONTINUOUS
 10
1.105638
 20
-3.704425
  0
VERTEX
  8
PLAN_1
  6
CONTINUOUS
 10
1.104209
 20
-3.700622
  0
VERTEX
  8
PLAN_1
  6
CONTINUOUS
 10
1.103260
 20
-3.696343
  0
VERTEX
  8
PLAN_1
  6
CONTINUOUS
 10
1.102783
 20
-3.692063
  0
VERTEX
  8
PLAN_1
  6
CONTINUOUS
 10
1.102783
 20
-3.687311
  0
VERTEX
  8
PLAN_1
  6
CONTINUOUS
 10
1.102783
 20
-3.680181
  0
VERTEX
  8
PLAN_1
  6
CONTINUOUS
 10
1.103736
 20
-3.673524
  0
VERTEX
  8
PLAN_1
  6
CONTINUOUS
 10
1.105161
 20
-3.666394
  0
VERTEX
  8
PLAN_1
  6
CONTINUOUS
 10
1.107063
 20
-3.659736
  0
VERTEX
  8
PLAN_1
  6
CONTINUOUS
 10
1.109913
 20
-3.653083
  0
VERTEX
  8
PLAN_1
  6
CONTINUOUS
 10
1.112768
 20
-3.646902
  0
VERTEX
  8
PLAN_1
  6
CONTINUOUS
 10
1.116094
 20
-3.640720
  0
VERTEX
  8
PLAN_1
  6
CONTINUOUS
 10
1.120374
 20
-3.635016
  0
VERTEX
  8
PLAN_1
  6
CONTINUOUS
 10
1.124654
 20
-3.629787
  0
VERTEX
  8
PLAN_1
  6
CONTINUOUS
 10
1.129406
 20
-3.625035
  0
VERTEX
  8
PLAN_1
  6
CONTINUOUS
 10
1.134634
 20
-3.621232
  0
VERTEX
  8
PLAN_1
  6
CONTINUOUS
 10
1.140339
 20
-3.617429
  0
VERTEX
  8
PLAN_1
  6
CONTINUOUS
 10
1.146520
 20
-3.614575
  0
VERTEX
  8
PLAN_1
  6
CONTINUOUS
 10
1.153177
 20
-3.612673
  0
VERTEX
  8
PLAN_1
  6
CONTINUOUS
 10
1.159831
 20
-3.611248
  0
VERTEX
  8
PLAN_1
  6
CONTINUOUS
 10
1.166961
 20
-3.610772
  0
VERTEX
  8
PLAN_1
  6
CONTINUOUS
 10
1.171717
 20
-3.611248
  0
VERTEX
  8
PLAN_1
  6
CONTINUOUS
 10
1.176469
 20
-3.612197
  0
VERTEX
  8
PLAN_1
  6
CONTINUOUS
 10
1.180748
 20
-3.613626
  0
VERTEX
  8
PLAN_1
  6
CONTINUOUS
 10
1.185028
 20
-3.616000
  0
VERTEX
  8
PLAN_1
  6
CONTINUOUS
 10
1.188831
 20
-3.618854
  0
VERTEX
  8
PLAN_1
  6
CONTINUOUS
 10
1.192634
 20
-3.622657
  0
VERTEX
  8
PLAN_1
  6
CONTINUOUS
 10
1.195961
 20
-3.626937
  0
VERTEX
  8
PLAN_1
  6
CONTINUOUS
 10
1.198815
 20
-3.632642
  0
VERTEX
  8
PLAN_1
  6
CONTINUOUS
 10
1.204520
 20
-3.615051
  0
SEQEND
  8
0
  0
POLYLINE
  8
PLAN_1
  6
CONTINUOUS
 66
     1
 40
0.003000
 41
0.003000
  0
VERTEX
  8
PLAN_1
  6
CONTINUOUS
 10
1.167437
 20
-3.630740
  0
VERTEX
  8
PLAN_1
  6
CONTINUOUS
 10
1.162685
 20
-3.631213
  0
VERTEX
  8
PLAN_1
  6
CONTINUOUS
 10
1.158406
 20
-3.632165
  0
VERTEX
  8
PLAN_1
  6
CONTINUOUS
 10
1.154126
 20
-3.633591
  0
VERTEX
  8
PLAN_1
  6
CONTINUOUS
 10
1.150323
 20
-3.635969
  0
VERTEX
  8
PLAN_1
  6
CONTINUOUS
 10
1.146520
 20
-3.638819
  0
VERTEX
  8
PLAN_1
  6
CONTINUOUS
 10
1.143193
 20
-3.641673
  0
VERTEX
  8
PLAN_1
  6
CONTINUOUS
 10
1.139866
 20
-3.645476
  0
VERTEX
  8
PLAN_1
  6
CONTINUOUS
 10
1.137012
 20
-3.649280
  0
VERTEX
  8
PLAN_1
  6
CONTINUOUS
 10
1.134634
 20
-3.653559
  0
VERTEX
  8
PLAN_1
  6
CONTINUOUS
 10
1.132260
 20
-3.657835
  0
VERTEX
  8
PLAN_1
  6
CONTINUOUS
 10
1.130358
 20
-3.662114
  0
VERTEX
  8
PLAN_1
  6
CONTINUOUS
 10
1.128457
 20
-3.666870
  0
VERTEX
  8
PLAN_1
  6
CONTINUOUS
 10
1.127028
 20
-3.671146
  0
VERTEX
  8
PLAN_1
  6
CONTINUOUS
 10
1.126079
 20
-3.675902
  0
VERTEX
  8
PLAN_1
  6
CONTINUOUS
 10
1.125602
 20
-3.680654
  0
VERTEX
  8
PLAN_1
  6
CONTINUOUS
 10
1.125602
 20
-3.684933
  0
VERTEX
  8
PLAN_1
  6
CONTINUOUS
 10
1.126079
 20
-3.690638
  0
VERTEX
  8
PLAN_1
  6
CONTINUOUS
 10
1.127028
 20
-3.695866
  0
VERTEX
  8
PLAN_1
  6
CONTINUOUS
 10
1.127980
 20
-3.698244
  0
VERTEX
  8
PLAN_1
  6
CONTINUOUS
 10
1.129406
 20
-3.700146
  0
VERTEX
  8
PLAN_1
  6
CONTINUOUS
 10
1.130358
 20
-3.702524
  0
VERTEX
  8
PLAN_1
  6
CONTINUOUS
 10
1.131783
 20
-3.704425
  0
VERTEX
  8
PLAN_1
  6
CONTINUOUS
 10
1.133685
 20
-3.705850
  0
VERTEX
  8
PLAN_1
  6
CONTINUOUS
 10
1.135110
 20
-3.707276
  0
VERTEX
  8
PLAN_1
  6
CONTINUOUS
 10
1.137012
 20
-3.708705
  0
VERTEX
  8
PLAN_1
  6
CONTINUOUS
 10
1.139390
 20
-3.709654
  0
VERTEX
  8
PLAN_1
  6
CONTINUOUS
 10
1.141291
 20
-3.710606
  0
VERTEX
  8
PLAN_1
  6
CONTINUOUS
 10
1.143669
 20
-3.711555
  0
VERTEX
  8
PLAN_1
  6
CONTINUOUS
 10
1.146043
 20
-3.711555
  0
VERTEX
  8
PLAN_1
  6
CONTINUOUS
 10
1.148898
 20
-3.712031
  0
VERTEX
  8
PLAN_1
  6
CONTINUOUS
 10
1.153177
 20
-3.711555
  0
VERTEX
  8
PLAN_1
  6
CONTINUOUS
 10
1.157453
 20
-3.710130
  0
VERTEX
  8
PLAN_1
  6
CONTINUOUS
 10
1.161256
 20
-3.708705
  0
VERTEX
  8
PLAN_1
  6
CONTINUOUS
 10
1.165059
 20
-3.706327
  0
VERTEX
  8
PLAN_1
  6
CONTINUOUS
 10
1.168862
 20
-3.703472
  0
VERTEX
  8
PLAN_1
  6
CONTINUOUS
 10
1.172193
 20
-3.700146
  0
VERTEX
  8
PLAN_1
  6
CONTINUOUS
 10
1.175520
 20
-3.696343
  0
VERTEX
  8
PLAN_1
  6
CONTINUOUS
 10
1.178370
 20
-3.692539
  0
VERTEX
  8
PLAN_1
  6
CONTINUOUS
 10
1.180748
 20
-3.688260
  0
VERTEX
  8
PLAN_1
  6
CONTINUOUS
 10
1.183126
 20
-3.683508
  0
VERTEX
  8
PLAN_1
  6
CONTINUOUS
 10
1.185504
 20
-3.679228
  0
VERTEX
  8
PLAN_1
  6
CONTINUOUS
 10
1.186929
 20
-3.674476
  0
VERTEX
  8
PLAN_1
  6
CONTINUOUS
 10
1.188354
 20
-3.669720
  0
VERTEX
  8
PLAN_1
  6
CONTINUOUS
 10
1.189307
 20
-3.664969
  0
VERTEX
  8
PLAN_1
  6
CONTINUOUS
 10
1.189780
 20
-3.660689
  0
VERTEX
  8
PLAN_1
  6
CONTINUOUS
 10
1.190256
 20
-3.656409
  0
VERTEX
  8
PLAN_1
  6
CONTINUOUS
 10
1.189780
 20
-3.651181
  0
VERTEX
  8
PLAN_1
  6
CONTINUOUS
 10
1.188354
 20
-3.646425
  0
VERTEX
  8
PLAN_1
  6
CONTINUOUS
 10
1.185976
 20
-3.642150
  0
VERTEX
  8
PLAN_1
  6
CONTINUOUS
 10
1.183126
 20
-3.638346
  0
VERTEX
  8
PLAN_1
  6
CONTINUOUS
 10
1.179799
 20
-3.635492
  0
VERTEX
  8
PLAN_1
  6
CONTINUOUS
 10
1.175996
 20
-3.632642
  0
VERTEX
  8
PLAN_1
  6
CONTINUOUS
 10
1.174094
 20
-3.632165
  0
VERTEX
  8
PLAN_1
  6
CONTINUOUS
 10
1.171717
 20
-3.631213
  0
VERTEX
  8
PLAN_1
  6
CONTINUOUS
 10
1.169815
 20
-3.630740
  0
VERTEX
  8
PLAN_1
  6
CONTINUOUS
 10
1.167437
 20
-3.630740
  0
SEQEND
  8
0
  0
SOLID
  8
PLAN_1
 10
1.302449
 20
-3.804256
 11
1.302449
 21
-3.790469
 12
1.456949
 22
-3.804256
 13
1.456949
 23
-3.790469
  0
POLYLINE
  8
PLAN_1
  6
CONTINUOUS
 66
     1
 40
0.003000
 41
0.003000
  0
VERTEX
  8
PLAN_1
  6
CONTINUOUS
 10
1.302449
 20
-3.804256
  0
VERTEX
  8
PLAN_1
  6
CONTINUOUS
 10
1.302449
 20
-3.790469
  0
VERTEX
  8
PLAN_1
  6
CONTINUOUS
 10
1.456949
 20
-3.790469
  0
VERTEX
  8
PLAN_1
  6
CONTINUOUS
 10
1.456949
 20
-3.804256
  0
VERTEX
  8
PLAN_1
  6
CONTINUOUS
 10
1.302449
 20
-3.804256
  0
SEQEND
  8
0
  0
POLYLINE
  8
PLAN_1
  6
CONTINUOUS
 66
     1
 40
0.003000
 41
0.003000
  0
VERTEX
  8
PLAN_1
  6
CONTINUOUS
 10
1.508291
 20
-3.769551
  0
VERTEX
  8
PLAN_1
  6
CONTINUOUS
 10
1.481197
 20
-3.769551
  0
VERTEX
  8
PLAN_1
  6
CONTINUOUS
 10
1.481197
 20
-3.570362
  0
VERTEX
  8
PLAN_1
  6
CONTINUOUS
 10
1.573421
 20
-3.570362
  0
VERTEX
  8
PLAN_1
  6
CONTINUOUS
 10
1.579602
 20
-3.570362
  0
VERTEX
  8
PLAN_1
  6
CONTINUOUS
 10
1.585780
 20
-3.570839
  0
VERTEX
  8
PLAN_1
  6
CONTINUOUS
 10
1.591484
 20
-3.571791
  0
VERTEX
  8
PLAN_1
  6
CONTINUOUS
 10
1.597189
 20
-3.572740
  0
VERTEX
  8
PLAN_1
  6
CONTINUOUS
 10
1.602894
 20
-3.574165
  0
VERTEX
  8
PLAN_1
  6
CONTINUOUS
 10
1.608598
 20
-3.576067
  0
VERTEX
  8
PLAN_1
  6
CONTINUOUS
 10
1.613831
 20
-3.578445
  0
VERTEX
  8
PLAN_1
  6
CONTINUOUS
 10
1.618583
 20
-3.581299
  0
VERTEX
  8
PLAN_1
  6
CONTINUOUS
 10
1.622862
 20
-3.584626
  0
VERTEX
  8
PLAN_1
  6
CONTINUOUS
 10
1.626665
 20
-3.588429
  0
VERTEX
  8
PLAN_1
  6
CONTINUOUS
 10
1.630469
 20
-3.592709
  0
VERTEX
  8
PLAN_1
  6
CONTINUOUS
 10
1.633319
 20
-3.597461
  0
VERTEX
  8
PLAN_1
  6
CONTINUOUS
 10
1.635697
 20
-3.603165
  0
VERTEX
  8
PLAN_1
  6
CONTINUOUS
 10
1.637598
 20
-3.609346
  0
VERTEX
  8
PLAN_1
  6
CONTINUOUS
 10
1.638551
 20
-3.616476
  0
VERTEX
  8
PLAN_1
  6
CONTINUOUS
 10
1.639024
 20
-3.623606
  0
VERTEX
  8
PLAN_1
  6
CONTINUOUS
 10
1.638551
 20
-3.629311
  0
VERTEX
  8
PLAN_1
  6
CONTINUOUS
 10
1.638075
 20
-3.634067
  0
VERTEX
  8
PLAN_1
  6
CONTINUOUS
 10
1.637598
 20
-3.638346
  0
VERTEX
  8
PLAN_1
  6
CONTINUOUS
 10
1.636173
 20
-3.642622
  0
VERTEX
  8
PLAN_1
  6
CONTINUOUS
 10
1.635220
 20
-3.646425
  0
VERTEX
  8
PLAN_1
  6
CONTINUOUS
 10
1.633319
 20
-3.649756
  0
VERTEX
  8
PLAN_1
  6
CONTINUOUS
 10
1.631894
 20
-3.653083
  0
VERTEX
  8
PLAN_1
  6
CONTINUOUS
 10
1.629992
 20
-3.655933
  0
VERTEX
  8
PLAN_1
  6
CONTINUOUS
 10
1.625713
 20
-3.661165
  0
VERTEX
  8
PLAN_1
  6
CONTINUOUS
 10
1.620961
 20
-3.664969
  0
VERTEX
  8
PLAN_1
  6
CONTINUOUS
 10
1.615732
 20
-3.668772
  0
VERTEX
  8
PLAN_1
  6
CONTINUOUS
 10
1.610976
 20
-3.671622
  0
VERTEX
  8
PLAN_1
  6
CONTINUOUS
 10
1.615256
 20
-3.673524
  0
VERTEX
  8
PLAN_1
  6
CONTINUOUS
 10
1.619535
 20
-3.675425
  0
VERTEX
  8
PLAN_1
  6
CONTINUOUS
 10
1.623339
 20
-3.678280
  0
VERTEX
  8
PLAN_1
  6
CONTINUOUS
 10
1.626665
 20
-3.681606
  0
VERTEX
  8
PLAN_1
  6
CONTINUOUS
 10
1.628567
 20
-3.683984
  0
VERTEX
  8
PLAN_1
  6
CONTINUOUS
 10
1.629992
 20
-3.686358
  0
VERTEX
  8
PLAN_1
  6
CONTINUOUS
 10
1.631417
 20
-3.689213
  0
VERTEX
  8
PLAN_1
  6
CONTINUOUS
 10
1.632370
 20
-3.692063
  0
VERTEX
  8
PLAN_1
  6
CONTINUOUS
 10
1.633319
 20
-3.695866
  0
VERTEX
  8
PLAN_1
  6
CONTINUOUS
 10
1.634272
 20
-3.699669
  0
VERTEX
  8
PLAN_1
  6
CONTINUOUS
 10
1.634748
 20
-3.703949
  0
VERTEX
  8
PLAN_1
  6
CONTINUOUS
 10
1.634748
 20
-3.709177
  0
VERTEX
  8
PLAN_1
  6
CONTINUOUS
 10
1.636650
 20
-3.745307
  0
VERTEX
  8
PLAN_1
  6
CONTINUOUS
 10
1.636650
 20
-3.749110
  0
VERTEX
  8
PLAN_1
  6
CONTINUOUS
 10
1.637122
 20
-3.752437
  0
VERTEX
  8
PLAN_1
  6
CONTINUOUS
 10
1.637598
 20
-3.755291
  0
VERTEX
  8
PLAN_1
  6
CONTINUOUS
 10
1.638551
 20
-3.757669
  0
VERTEX
  8
PLAN_1
  6
CONTINUOUS
 10
1.639976
 20
-3.759571
  0
VERTEX
  8
PLAN_1
  6
CONTINUOUS
 10
1.641402
 20
-3.761472
  0
VERTEX
  8
PLAN_1
  6
CONTINUOUS
 10
1.643780
 20
-3.763374
  0
VERTEX
  8
PLAN_1
  6
CONTINUOUS
 10
1.646630
 20
-3.765276
  0
VERTEX
  8
PLAN_1
  6
CONTINUOUS
 10
1.646630
 20
-3.769551
  0
VERTEX
  8
PLAN_1
  6
CONTINUOUS
 10
1.613831
 20
-3.769551
  0
VERTEX
  8
PLAN_1
  6
CONTINUOUS
 10
1.612402
 20
-3.764323
  0
VERTEX
  8
PLAN_1
  6
CONTINUOUS
 10
1.611453
 20
-3.757669
  0
VERTEX
  8
PLAN_1
  6
CONTINUOUS
 10
1.610500
 20
-3.750535
  0
VERTEX
  8
PLAN_1
  6
CONTINUOUS
 10
1.610028
 20
-3.742929
  0
VERTEX
  8
PLAN_1
  6
CONTINUOUS
 10
1.609551
 20
-3.735327
  0
VERTEX
  8
PLAN_1
  6
CONTINUOUS
 10
1.609075
 20
-3.728669
  0
VERTEX
  8
PLAN_1
  6
CONTINUOUS
 10
1.609075
 20
-3.723441
  0
VERTEX
  8
PLAN_1
  6
CONTINUOUS
 10
1.609075
 20
-3.719638
  0
VERTEX
  8
PLAN_1
  6
CONTINUOUS
 10
1.608598
 20
-3.713457
  0
VERTEX
  8
PLAN_1
  6
CONTINUOUS
 10
1.607650
 20
-3.707276
  0
VERTEX
  8
PLAN_1
  6
CONTINUOUS
 10
1.607173
 20
-3.703949
  0
VERTEX
  8
PLAN_1
  6
CONTINUOUS
 10
1.606224
 20
-3.701098
  0
VERTEX
  8
PLAN_1
  6
CONTINUOUS
 10
1.604795
 20
-3.698244
  0
VERTEX
  8
PLAN_1
  6
CONTINUOUS
 10
1.603370
 20
-3.695866
  0
VERTEX
  8
PLAN_1
  6
CONTINUOUS
 10
1.600992
 20
-3.693016
  0
VERTEX
  8
PLAN_1
  6
CONTINUOUS
 10
1.598618
 20
-3.691114
  0
VERTEX
  8
PLAN_1
  6
CONTINUOUS
 10
1.595764
 20
-3.689213
  0
VERTEX
  8
PLAN_1
  6
CONTINUOUS
 10
1.592437
 20
-3.687311
  0
VERTEX
  8
PLAN_1
  6
CONTINUOUS
 10
1.588634
 20
-3.685886
  0
VERTEX
  8
PLAN_1
  6
CONTINUOUS
 10
1.584354
 20
-3.684933
  0
VERTEX
  8
PLAN_1
  6
CONTINUOUS
 10
1.579126
 20
-3.684457
  0
VERTEX
  8
PLAN_1
  6
CONTINUOUS
 10
1.573421
 20
-3.683984
  0
VERTEX
  8
PLAN_1
  6
CONTINUOUS
 10
1.508291
 20
-3.683984
  0
VERTEX
  8
PLAN_1
  6
CONTINUOUS
 10
1.508291
 20
-3.769551
  0
SEQEND
  8
0
  0
POLYLINE
  8
PLAN_1
  6
CONTINUOUS
 66
     1
 40
0.003000
 41
0.003000
  0
VERTEX
  8
PLAN_1
  6
CONTINUOUS
 10
1.508291
 20
-3.661165
  0
VERTEX
  8
PLAN_1
  6
CONTINUOUS
 10
1.570571
 20
-3.661165
  0
VERTEX
  8
PLAN_1
  6
CONTINUOUS
 10
1.578173
 20
-3.660689
  0
VERTEX
  8
PLAN_1
  6
CONTINUOUS
 10
1.585307
 20
-3.659736
  0
VERTEX
  8
PLAN_1
  6
CONTINUOUS
 10
1.588634
 20
-3.658787
  0
VERTEX
  8
PLAN_1
  6
CONTINUOUS
 10
1.591961
 20
-3.657835
  0
VERTEX
  8
PLAN_1
  6
CONTINUOUS
 10
1.595287
 20
-3.656409
  0
VERTEX
  8
PLAN_1
  6
CONTINUOUS
 10
1.598142
 20
-3.654984
  0
VERTEX
  8
PLAN_1
  6
CONTINUOUS
 10
1.600992
 20
-3.653083
  0
VERTEX
  8
PLAN_1
  6
CONTINUOUS
 10
1.603370
 20
-3.650228
  0
VERTEX
  8
PLAN_1
  6
CONTINUOUS
 10
1.605748
 20
-3.647854
  0
VERTEX
  8
PLAN_1
  6
CONTINUOUS
 10
1.607650
 20
-3.644524
  0
VERTEX
  8
PLAN_1
  6
CONTINUOUS
 10
1.609075
 20
-3.640720
  0
VERTEX
  8
PLAN_1
  6
CONTINUOUS
 10
1.610028
 20
-3.636445
  0
VERTEX
  8
PLAN_1
  6
CONTINUOUS
 10
1.610976
 20
-3.631689
  0
VERTEX
  8
PLAN_1
  6
CONTINUOUS
 10
1.610976
 20
-3.626461
  0
VERTEX
  8
PLAN_1
  6
CONTINUOUS
 10
1.610976
 20
-3.621232
  0
VERTEX
  8
PLAN_1
  6
CONTINUOUS
 10
1.610028
 20
-3.616476
  0
VERTEX
  8
PLAN_1
  6
CONTINUOUS
 10
1.609075
 20
-3.612197
  0
VERTEX
  8
PLAN_1
  6
CONTINUOUS
 10
1.607173
 20
-3.608394
  0
VERTEX
  8
PLAN_1
  6
CONTINUOUS
 10
1.605272
 20
-3.605067
  0
VERTEX
  8
PLAN_1
  6
CONTINUOUS
 10
1.603370
 20
-3.602689
  0
VERTEX
  8
PLAN_1
  6
CONTINUOUS
 10
1.600992
 20
-3.600315
  0
VERTEX
  8
PLAN_1
  6
CONTINUOUS
 10
1.598142
 20
-3.598413
  0
VERTEX
  8
PLAN_1
  6
CONTINUOUS
 10
1.595287
 20
-3.596984
  0
VERTEX
  8
PLAN_1
  6
CONTINUOUS
 10
1.592437
 20
-3.595559
  0
VERTEX
  8
PLAN_1
  6
CONTINUOUS
 10
1.589583
 20
-3.594610
  0
VERTEX
  8
PLAN_1
  6
CONTINUOUS
 10
1.586732
 20
-3.594134
  0
VERTEX
  8
PLAN_1
  6
CONTINUOUS
 10
1.580551
 20
-3.593657
  0
VERTEX
  8
PLAN_1
  6
CONTINUOUS
 10
1.575323
 20
-3.593181
  0
VERTEX
  8
PLAN_1
  6
CONTINUOUS
 10
1.508291
 20
-3.593181
  0
VERTEX
  8
PLAN_1
  6
CONTINUOUS
 10
1.508291
 20
-3.661165
  0
SEQEND
  8
0
  0
SOLID
  8
PLAN_1
 10
1.710335
 20
-3.769551
 11
1.681335
 21
-3.769551
 12
1.710335
 22
-3.740079
 13
1.681335
 23
-3.740079
  0
POLYLINE
  8
PLAN_1
  6
CONTINUOUS
 66
     1
 40
0.003000
 41
0.003000
  0
VERTEX
  8
PLAN_1
  6
CONTINUOUS
 10
1.710335
 20
-3.769551
  0
VERTEX
  8
PLAN_1
  6
CONTINUOUS
 10
1.681335
 20
-3.769551
  0
VERTEX
  8
PLAN_1
  6
CONTINUOUS
 10
1.681335
 20
-3.740079
  0
VERTEX
  8
PLAN_1
  6
CONTINUOUS
 10
1.710335
 20
-3.740079
  0
VERTEX
  8
PLAN_1
  6
CONTINUOUS
 10
1.710335
 20
-3.769551
  0
SEQEND
  8
0
  0
POLYLINE
  8
PLAN_1
  6
CONTINUOUS
 66
     1
 40
0.003000
 41
0.003000
  0
VERTEX
  8
PLAN_1
  6
CONTINUOUS
 10
1.905244
 20
-3.769551
  0
VERTEX
  8
PLAN_1
  6
CONTINUOUS
 10
1.758346
 20
-3.769551
  0
VERTEX
  8
PLAN_1
  6
CONTINUOUS
 10
1.758346
 20
-3.570362
  0
VERTEX
  8
PLAN_1
  6
CONTINUOUS
 10
1.903343
 20
-3.570362
  0
VERTEX
  8
PLAN_1
  6
CONTINUOUS
 10
1.903343
 20
-3.594134
  0
VERTEX
  8
PLAN_1
  6
CONTINUOUS
 10
1.785445
 20
-3.594134
  0
VERTEX
  8
PLAN_1
  6
CONTINUOUS
 10
1.785445
 20
-3.654984
  0
VERTEX
  8
PLAN_1
  6
CONTINUOUS
 10
1.894311
 20
-3.654984
  0
VERTEX
  8
PLAN_1
  6
CONTINUOUS
 10
1.894311
 20
-3.679228
  0
VERTEX
  8
PLAN_1
  6
CONTINUOUS
 10
1.785445
 20
-3.679228
  0
VERTEX
  8
PLAN_1
  6
CONTINUOUS
 10
1.785445
 20
-3.745783
  0
VERTEX
  8
PLAN_1
  6
CONTINUOUS
 10
1.905244
 20
-3.745783
  0
VERTEX
  8
PLAN_1
  6
CONTINUOUS
 10
1.905244
 20
-3.769551
  0
SEQEND
  8
0
  0
POLYLINE
  8
PLAN_1
  6
CONTINUOUS
 66
     1
 40
0.003000
 41
0.003000
  0
VERTEX
  8
PLAN_1
  6
CONTINUOUS
 10
1.970374
 20
-3.769551
  0
VERTEX
  8
PLAN_1
  6
CONTINUOUS
 10
1.943752
 20
-3.769551
  0
VERTEX
  8
PLAN_1
  6
CONTINUOUS
 10
1.943752
 20
-3.570362
  0
VERTEX
  8
PLAN_1
  6
CONTINUOUS
 10
2.033126
 20
-3.570362
  0
VERTEX
  8
PLAN_1
  6
CONTINUOUS
 10
2.039780
 20
-3.570362
  0
VERTEX
  8
PLAN_1
  6
CONTINUOUS
 10
2.046437
 20
-3.571315
  0
VERTEX
  8
PLAN_1
  6
CONTINUOUS
 10
2.052142
 20
-3.572740
  0
VERTEX
  8
PLAN_1
  6
CONTINUOUS
 10
2.057846
 20
-3.574642
  0
VERTEX
  8
PLAN_1
  6
CONTINUOUS
 10
2.063075
 20
-3.577020
  0
VERTEX
  8
PLAN_1
  6
CONTINUOUS
 10
2.068303
 20
-3.579398
  0
VERTEX
  8
PLAN_1
  6
CONTINUOUS
 10
2.072583
 20
-3.582724
  0
VERTEX
  8
PLAN_1
  6
CONTINUOUS
 10
2.076386
 20
-3.586051
  0
VERTEX
  8
PLAN_1
  6
CONTINUOUS
 10
2.080189
 20
-3.590331
  0
VERTEX
  8
PLAN_1
  6
CONTINUOUS
 10
2.083516
 20
-3.594610
  0
VERTEX
  8
PLAN_1
  6
CONTINUOUS
 10
2.085894
 20
-3.598886
  0
VERTEX
  8
PLAN_1
  6
CONTINUOUS
 10
2.088272
 20
-3.604118
  0
VERTEX
  8
PLAN_1
  6
CONTINUOUS
 10
2.090173
 20
-3.609346
  0
VERTEX
  8
PLAN_1
  6
CONTINUOUS
 10
2.091122
 20
-3.614575
  0
VERTEX
  8
PLAN_1
  6
CONTINUOUS
 10
2.092075
 20
-3.620280
  0
VERTEX
  8
PLAN_1
  6
CONTINUOUS
 10
2.092547
 20
-3.626461
  0
VERTEX
  8
PLAN_1
  6
CONTINUOUS
 10
2.092075
 20
-3.631689
  0
VERTEX
  8
PLAN_1
  6
CONTINUOUS
 10
2.091598
 20
-3.636917
  0
VERTEX
  8
PLAN_1
  6
CONTINUOUS
 10
2.090646
 20
-3.642150
  0
VERTEX
  8
PLAN_1
  6
CONTINUOUS
 10
2.089220
 20
-3.647378
  0
VERTEX
  8
PLAN_1
  6
CONTINUOUS
 10
2.087319
 20
-3.652130
  0
VERTEX
  8
PLAN_1
  6
CONTINUOUS
 10
2.084941
 20
-3.657362
  0
VERTEX
  8
PLAN_1
  6
CONTINUOUS
 10
2.082091
 20
-3.662114
  0
VERTEX
  8
PLAN_1
  6
CONTINUOUS
 10
2.078764
 20
-3.666394
  0
VERTEX
  8
PLAN_1
  6
CONTINUOUS
 10
2.075433
 20
-3.670197
  0
VERTEX
  8
PLAN_1
  6
CONTINUOUS
 10
2.071157
 20
-3.674000
  0
VERTEX
  8
PLAN_1
  6
CONTINUOUS
 10
2.065925
 20
-3.677327
  0
VERTEX
  8
PLAN_1
  6
CONTINUOUS
 10
2.060697
 20
-3.680181
  0
VERTEX
  8
PLAN_1
  6
CONTINUOUS
 10
2.054516
 20
-3.682555
  0
VERTEX
  8
PLAN_1
  6
CONTINUOUS
 10
2.048339
 20
-3.683984
  0
VERTEX
  8
PLAN_1
  6
CONTINUOUS
 10
2.041205
 20
-3.684933
  0
VERTEX
  8
PLAN_1
  6
CONTINUOUS
 10
2.033126
 20
-3.685409
  0
VERTEX
  8
PLAN_1
  6
CONTINUOUS
 10
1.970374
 20
-3.685409
  0
VERTEX
  8
PLAN_1
  6
CONTINUOUS
 10
1.970374
 20
-3.769551
  0
SEQEND
  8
0
  0
POLYLINE
  8
PLAN_1
  6
CONTINUOUS
 66
     1
 40
0.003000
 41
0.003000
  0
VERTEX
  8
PLAN_1
  6
CONTINUOUS
 10
1.970374
 20
-3.662591
  0
VERTEX
  8
PLAN_1
  6
CONTINUOUS
 10
2.024091
 20
-3.662591
  0
VERTEX
  8
PLAN_1
  6
CONTINUOUS
 10
2.028370
 20
-3.662114
  0
VERTEX
  8
PLAN_1
  6
CONTINUOUS
 10
2.032650
 20
-3.662114
  0
VERTEX
  8
PLAN_1
  6
CONTINUOUS
 10
2.036929
 20
-3.661638
  0
VERTEX
  8
PLAN_1
  6
CONTINUOUS
 10
2.040732
 20
-3.660689
  0
VERTEX
  8
PLAN_1
  6
CONTINUOUS
 10
2.044059
 20
-3.659736
  0
VERTEX
  8
PLAN_1
  6
CONTINUOUS
 10
2.047386
 20
-3.658311
  0
VERTEX
  8
PLAN_1
  6
CONTINUOUS
 10
2.050713
 20
-3.656409
  0
VERTEX
  8
PLAN_1
  6
CONTINUOUS
 10
2.053567
 20
-3.654508
  0
VERTEX
  8
PLAN_1
  6
CONTINUOUS
 10
2.055945
 20
-3.652606
  0
VERTEX
  8
PLAN_1
  6
CONTINUOUS
 10
2.058319
 20
-3.649756
  0
VERTEX
  8
PLAN_1
  6
CONTINUOUS
 10
2.060220
 20
-3.646902
  0
VERTEX
  8
PLAN_1
  6
CONTINUOUS
 10
2.061650
 20
-3.643575
  0
VERTEX
  8
PLAN_1
  6
CONTINUOUS
 10
2.063075
 20
-3.639772
  0
VERTEX
  8
PLAN_1
  6
CONTINUOUS
 10
2.064024
 20
-3.635969
  0
VERTEX
  8
PLAN_1
  6
CONTINUOUS
 10
2.064500
 20
-3.631689
  0
VERTEX
  8
PLAN_1
  6
CONTINUOUS
 10
2.064500
 20
-3.626461
  0
VERTEX
  8
PLAN_1
  6
CONTINUOUS
 10
2.064500
 20
-3.622181
  0
VERTEX
  8
PLAN_1
  6
CONTINUOUS
 10
2.063551
 20
-3.617902
  0
VERTEX
  8
PLAN_1
  6
CONTINUOUS
 10
2.062598
 20
-3.614098
  0
VERTEX
  8
PLAN_1
  6
CONTINUOUS
 10
2.061650
 20
-3.610772
  0
VERTEX
  8
PLAN_1
  6
CONTINUOUS
 10
2.059748
 20
-3.607921
  0
VERTEX
  8
PLAN_1
  6
CONTINUOUS
 10
2.057846
 20
-3.605067
  0
VERTEX
  8
PLAN_1
  6
CONTINUOUS
 10
2.055469
 20
-3.602689
  0
VERTEX
  8
PLAN_1
  6
CONTINUOUS
 10
2.053091
 20
-3.600315
  0
VERTEX
  8
PLAN_1
  6
CONTINUOUS
 10
2.050240
 20
-3.598886
  0
VERTEX
  8
PLAN_1
  6
CONTINUOUS
 10
2.047386
 20
-3.596984
  0
VERTEX
  8
PLAN_1
  6
CONTINUOUS
 10
2.044059
 20
-3.596035
  0
VERTEX
  8
PLAN_1
  6
CONTINUOUS
 10
2.040732
 20
-3.595083
  0
VERTEX
  8
PLAN_1
  6
CONTINUOUS
 10
2.033126
 20
-3.593657
  0
VERTEX
  8
PLAN_1
  6
CONTINUOUS
 10
2.025043
 20
-3.593181
  0
VERTEX
  8
PLAN_1
  6
CONTINUOUS
 10
1.970374
 20
-3.593181
  0
VERTEX
  8
PLAN_1
  6
CONTINUOUS
 10
1.970374
 20
-3.662591
  0
SEQEND
  8
0
  0
POLYLINE
  8
PLAN_1
  6
CONTINUOUS
 66
     1
 40
0.003000
 41
0.003000
  0
VERTEX
  8
PLAN_1
  6
CONTINUOUS
 10
2.246098
 20
-3.628362
  0
VERTEX
  8
PLAN_1
  6
CONTINUOUS
 10
2.245626
 20
-3.623134
  0
VERTEX
  8
PLAN_1
  6
CONTINUOUS
 10
2.244673
 20
-3.617902
  0
VERTEX
  8
PLAN_1
  6
CONTINUOUS
 10
2.243248
 20
-3.613626
  0
VERTEX
  8
PLAN_1
  6
CONTINUOUS
 10
2.240870
 20
-3.609346
  0
VERTEX
  8
PLAN_1
  6
CONTINUOUS
 10
2.238492
 20
-3.605543
  0
VERTEX
  8
PLAN_1
  6
CONTINUOUS
 10
2.235642
 20
-3.602217
  0
VERTEX
  8
PLAN_1
  6
CONTINUOUS
 10
2.232787
 20
-3.599362
  0
VERTEX
  8
PLAN_1
  6
CONTINUOUS
 10
2.229461
 20
-3.596984
  0
VERTEX
  8
PLAN_1
  6
CONTINUOUS
 10
2.225657
 20
-3.594610
  0
VERTEX
  8
PLAN_1
  6
CONTINUOUS
 10
2.221854
 20
-3.592709
  0
VERTEX
  8
PLAN_1
  6
CONTINUOUS
 10
2.218051
 20
-3.591280
  0
VERTEX
  8
PLAN_1
  6
CONTINUOUS
 10
2.213772
 20
-3.589854
  0
VERTEX
  8
PLAN_1
  6
CONTINUOUS
 10
2.209496
 20
-3.589378
  0
VERTEX
  8
PLAN_1
  6
CONTINUOUS
 10
2.205217
 20
-3.588429
  0
VERTEX
  8
PLAN_1
  6
CONTINUOUS
 10
2.200937
 20
-3.587953
  0
VERTEX
  8
PLAN_1
  6
CONTINUOUS
 10
2.196657
 20
-3.587953
  0
VERTEX
  8
PLAN_1
  6
CONTINUOUS
 10
2.190004
 20
-3.588429
  0
VERTEX
  8
PLAN_1
  6
CONTINUOUS
 10
2.182398
 20
-3.589378
  0
VERTEX
  8
PLAN_1
  6
CONTINUOUS
 10
2.178594
 20
-3.589854
  0
VERTEX
  8
PLAN_1
  6
CONTINUOUS
 10
2.174791
 20
-3.591280
  0
VERTEX
  8
PLAN_1
  6
CONTINUOUS
 10
2.171465
 20
-3.592709
  0
VERTEX
  8
PLAN_1
  6
CONTINUOUS
 10
2.167661
 20
-3.594134
  0
VERTEX
  8
PLAN_1
  6
CONTINUOUS
 10
2.164331
 20
-3.596035
  0
VERTEX
  8
PLAN_1
  6
CONTINUOUS
 10
2.161004
 20
-3.598886
  0
VERTEX
  8
PLAN_1
  6
CONTINUOUS
 10
2.158626
 20
-3.601264
  0
VERTEX
  8
PLAN_1
  6
CONTINUOUS
 10
2.155776
 20
-3.604591
  0
VERTEX
  8
PLAN_1
  6
CONTINUOUS
 10
2.153874
 20
-3.608394
  0
VERTEX
  8
PLAN_1
  6
CONTINUOUS
 10
2.152449
 20
-3.612673
  0
VERTEX
  8
PLAN_1
  6
CONTINUOUS
 10
2.151496
 20
-3.617429
  0
VERTEX
  8
PLAN_1
  6
CONTINUOUS
 10
2.151496
 20
-3.623134
  0
VERTEX
  8
PLAN_1
  6
CONTINUOUS
 10
2.151496
 20
-3.625984
  0
VERTEX
  8
PLAN_1
  6
CONTINUOUS
 10
2.151972
 20
-3.628839
  0
VERTEX
  8
PLAN_1
  6
CONTINUOUS
 10
2.152449
 20
-3.631213
  0
VERTEX
  8
PLAN_1
  6
CONTINUOUS
 10
2.153398
 20
-3.633591
  0
VERTEX
  8
PLAN_1
  6
CONTINUOUS
 10
2.154350
 20
-3.635969
  0
VERTEX
  8
PLAN_1
  6
CONTINUOUS
 10
2.155776
 20
-3.637870
  0
VERTEX
  8
PLAN_1
  6
CONTINUOUS
 10
2.157201
 20
-3.639295
  0
VERTEX
  8
PLAN_1
  6
CONTINUOUS
 10
2.158626
 20
-3.640720
  0
VERTEX
  8
PLAN_1
  6
CONTINUOUS
 10
2.162429
 20
-3.643575
  0
VERTEX
  8
PLAN_1
  6
CONTINUOUS
 10
2.166232
 20
-3.645476
  0
VERTEX
  8
PLAN_1
  6
CONTINUOUS
 10
2.170512
 20
-3.646902
  0
VERTEX
  8
PLAN_1
  6
CONTINUOUS
 10
2.174791
 20
-3.648327
  0
VERTEX
  8
PLAN_1
  6
CONTINUOUS
 10
2.231839
 20
-3.661165
  0
VERTEX
  8
PLAN_1
  6
CONTINUOUS
 10
2.236591
 20
-3.662591
  0
VERTEX
  8
PLAN_1
  6
CONTINUOUS
 10
2.240870
 20
-3.664016
  0
VERTEX
  8
PLAN_1
  6
CONTINUOUS
 10
2.245626
 20
-3.665917
  0
VERTEX
  8
PLAN_1
  6
CONTINUOUS
 10
2.249902
 20
-3.667819
  0
VERTEX
  8
PLAN_1
  6
CONTINUOUS
 10
2.253705
 20
-3.670197
  0
VERTEX
  8
PLAN_1
  6
CONTINUOUS
 10
2.257508
 20
-3.672575
  0
VERTEX
  8
PLAN_1
  6
CONTINUOUS
 10
2.260839
 20
-3.675425
  0
VERTEX
  8
PLAN_1
  6
CONTINUOUS
 10
2.264165
 20
-3.678280
  0
VERTEX
  8
PLAN_1
  6
CONTINUOUS
 10
2.267016
 20
-3.681606
  0
VERTEX
  8
PLAN_1
  6
CONTINUOUS
 10
2.269394
 20
-3.685409
  0
VERTEX
  8
PLAN_1
  6
CONTINUOUS
 10
2.271772
 20
-3.689689
  0
VERTEX
  8
PLAN_1
  6
CONTINUOUS
 10
2.273673
 20
-3.693965
  0
VERTEX
  8
PLAN_1
  6
CONTINUOUS
 10
2.275098
 20
-3.698244
  0
VERTEX
  8
PLAN_1
  6
CONTINUOUS
 10
2.276051
 20
-3.703472
  0
VERTEX
  8
PLAN_1
  6
CONTINUOUS
 10
2.277000
 20
-3.708705
  0
VERTEX
  8
PLAN_1
  6
CONTINUOUS
 10
2.277000
 20
-3.714409
  0
VERTEX
  8
PLAN_1
  6
CONTINUOUS
 10
2.277000
 20
-3.719161
  0
VERTEX
  8
PLAN_1
  6
CONTINUOUS
 10
2.276524
 20
-3.722965
  0
VERTEX
  8
PLAN_1
  6
CONTINUOUS
 10
2.276051
 20
-3.726768
  0
VERTEX
  8
PLAN_1
  6
CONTINUOUS
 10
2.275098
 20
-3.730571
  0
VERTEX
  8
PLAN_1
  6
CONTINUOUS
 10
2.274150
 20
-3.734374
  0
VERTEX
  8
PLAN_1
  6
CONTINUOUS
 10
2.272720
 20
-3.737701
  0
VERTEX
  8
PLAN_1
  6
CONTINUOUS
 10
2.271295
 20
-3.741028
  0
VERTEX
  8
PLAN_1
  6
CONTINUOUS
 10
2.269394
 20
-3.743882
  0
VERTEX
  8
PLAN_1
  6
CONTINUOUS
 10
2.265591
 20
-3.749587
  0
VERTEX
  8
PLAN_1
  6
CONTINUOUS
 10
2.261311
 20
-3.754339
  0
VERTEX
  8
PLAN_1
  6
CONTINUOUS
 10
2.256083
 20
-3.758618
  0
VERTEX
  8
PLAN_1
  6
CONTINUOUS
 10
2.250854
 20
-3.762421
  0
VERTEX
  8
PLAN_1
  6
CONTINUOUS
 10
2.244673
 20
-3.765748
  0
VERTEX
  8
PLAN_1
  6
CONTINUOUS
 10
2.238492
 20
-3.768126
  0
VERTEX
  8
PLAN_1
  6
CONTINUOUS
 10
2.232315
 20
-3.770504
  0
VERTEX
  8
PLAN_1
  6
CONTINUOUS
 10
2.225657
 20
-3.771929
  0
VERTEX
  8
PLAN_1
  6
CONTINUOUS
 10
2.219004
 20
-3.773354
  0
VERTEX
  8
PLAN_1
  6
CONTINUOUS
 10
2.212346
 20
-3.774307
  0
VERTEX
  8
PLAN_1
  6
CONTINUOUS
 10
2.205693
 20
-3.774783
  0
VERTEX
  8
PLAN_1
  6
CONTINUOUS
 10
2.199035
 20
-3.774783
  0
VERTEX
  8
PLAN_1
  6
CONTINUOUS
 10
2.192382
 20
-3.774783
  0
VERTEX
  8
PLAN_1
  6
CONTINUOUS
 10
2.186201
 20
-3.774307
  0
VERTEX
  8
PLAN_1
  6
CONTINUOUS
 10
2.180496
 20
-3.773831
  0
VERTEX
  8
PLAN_1
  6
CONTINUOUS
 10
2.175268
 20
-3.772882
  0
VERTEX
  8
PLAN_1
  6
CONTINUOUS
 10
2.166232
 20
-3.770980
  0
VERTEX
  8
PLAN_1
  6
CONTINUOUS
 10
2.158154
 20
-3.768126
  0
VERTEX
  8
PLAN_1
  6
CONTINUOUS
 10
2.151972
 20
-3.765276
  0
VERTEX
  8
PLAN_1
  6
CONTINUOUS
 10
2.146744
 20
-3.761945
  0
VERTEX
  8
PLAN_1
  6
CONTINUOUS
 10
2.142465
 20
-3.758618
  0
VERTEX
  8
PLAN_1
  6
CONTINUOUS
 10
2.138661
 20
-3.755768
  0
VERTEX
  8
PLAN_1
  6
CONTINUOUS
 10
2.135807
 20
-3.752913
  0
VERTEX
  8
PLAN_1
  6
CONTINUOUS
 10
2.132957
 20
-3.750063
  0
VERTEX
  8
PLAN_1
  6
CONTINUOUS
 10
2.130579
 20
-3.746732
  0
VERTEX
  8
PLAN_1
  6
CONTINUOUS
 10
2.128677
 20
-3.743882
  0
VERTEX
  8
PLAN_1
  6
CONTINUOUS
 10
2.124874
 20
-3.737701
  0
VERTEX
  8
PLAN_1
  6
CONTINUOUS
 10
2.122496
 20
-3.731524
  0
VERTEX
  8
PLAN_1
  6
CONTINUOUS
 10
2.120594
 20
-3.725343
  0
VERTEX
  8
PLAN_1
  6
CONTINUOUS
 10
2.119169
 20
-3.718685
  0
VERTEX
  8
PLAN_1
  6
CONTINUOUS
 10
2.118693
 20
-3.712031
  0
VERTEX
  8
PLAN_1
  6
CONTINUOUS
 10
2.118693
 20
-3.705374
  0
VERTEX
  8
PLAN_1
  6
CONTINUOUS
 10
2.143890
 20
-3.705374
  0
VERTEX
  8
PLAN_1
  6
CONTINUOUS
 10
2.143890
 20
-3.711555
  0
VERTEX
  8
PLAN_1
  6
CONTINUOUS
 10
2.144843
 20
-3.717736
  0
VERTEX
  8
PLAN_1
  6
CONTINUOUS
 10
2.146744
 20
-3.722965
  0
VERTEX
  8
PLAN_1
  6
CONTINUOUS
 10
2.148646
 20
-3.727720
  0
VERTEX
  8
PLAN_1
  6
CONTINUOUS
 10
2.151496
 20
-3.731996
  0
VERTEX
  8
PLAN_1
  6
CONTINUOUS
 10
2.154350
 20
-3.735799
  0
VERTEX
  8
PLAN_1
  6
CONTINUOUS
 10
2.157677
 20
-3.739126
  0
VERTEX
  8
PLAN_1
  6
CONTINUOUS
 10
2.161480
 20
-3.741980
  0
VERTEX
  8
PLAN_1
  6
CONTINUOUS
 10
2.165760
 20
-3.744358
  0
VERTEX
  8
PLAN_1
  6
CONTINUOUS
 10
2.170035
 20
-3.746732
  0
VERTEX
  8
PLAN_1
  6
CONTINUOUS
 10
2.174791
 20
-3.748161
  0
VERTEX
  8
PLAN_1
  6
CONTINUOUS
 10
2.179543
 20
-3.749587
  0
VERTEX
  8
PLAN_1
  6
CONTINUOUS
 10
2.184299
 20
-3.750535
  0
VERTEX
  8
PLAN_1
  6
CONTINUOUS
 10
2.189051
 20
-3.751488
  0
VERTEX
  8
PLAN_1
  6
CONTINUOUS
 10
2.193807
 20
-3.751488
  0
VERTEX
  8
PLAN_1
  6
CONTINUOUS
 10
2.198559
 20
-3.751965
  0
VERTEX
  8
PLAN_1
  6
CONTINUOUS
 10
2.206642
 20
-3.751488
  0
VERTEX
  8
PLAN_1
  6
CONTINUOUS
 10
2.215201
 20
-3.750535
  0
VERTEX
  8
PLAN_1
  6
CONTINUOUS
 10
2.219476
 20
-3.749587
  0
VERTEX
  8
PLAN_1
  6
CONTINUOUS
 10
2.223756
 20
-3.748634
  0
VERTEX
  8
PLAN_1
  6
CONTINUOUS
 10
2.228035
 20
-3.747209
  0
VERTEX
  8
PLAN_1
  6
CONTINUOUS
 10
2.232315
 20
-3.745783
  0
VERTEX
  8
PLAN_1
  6
CONTINUOUS
 10
2.236118
 20
-3.743882
  0
VERTEX
  8
PLAN_1
  6
CONTINUOUS
 10
2.239445
 20
-3.741504
  0
VERTEX
  8
PLAN_1
  6
CONTINUOUS
 10
2.242772
 20
-3.738654
  0
VERTEX
  8
PLAN_1
  6
CONTINUOUS
 10
2.245626
 20
-3.735327
  0
VERTEX
  8
PLAN_1
  6
CONTINUOUS
 10
2.247528
 20
-3.731996
  0
VERTEX
  8
PLAN_1
  6
CONTINUOUS
 10
2.249429
 20
-3.727720
  0
VERTEX
  8
PLAN_1
  6
CONTINUOUS
 10
2.250378
 20
-3.723441
  0
VERTEX
  8
PLAN_1
  6
CONTINUOUS
 10
2.250854
 20
-3.718213
  0
VERTEX
  8
PLAN_1
  6
CONTINUOUS
 10
2.250854
 20
-3.714409
  0
VERTEX
  8
PLAN_1
  6
CONTINUOUS
 10
2.250378
 20
-3.711079
  0
VERTEX
  8
PLAN_1
  6
CONTINUOUS
 10
2.249902
 20
-3.707752
  0
VERTEX
  8
PLAN_1
  6
CONTINUOUS
 10
2.248953
 20
-3.704902
  0
VERTEX
  8
PLAN_1
  6
CONTINUOUS
 10
2.247528
 20
-3.702524
  0
VERTEX
  8
PLAN_1
  6
CONTINUOUS
 10
2.246098
 20
-3.700146
  0
VERTEX
  8
PLAN_1
  6
CONTINUOUS
 10
2.244197
 20
-3.697768
  0
VERTEX
  8
PLAN_1
  6
CONTINUOUS
 10
2.241823
 20
-3.695866
  0
VERTEX
  8
PLAN_1
  6
CONTINUOUS
 10
2.239445
 20
-3.693965
  0
VERTEX
  8
PLAN_1
  6
CONTINUOUS
 10
2.236118
 20
-3.692063
  0
VERTEX
  8
PLAN_1
  6
CONTINUOUS
 10
2.232787
 20
-3.690161
  0
VERTEX
  8
PLAN_1
  6
CONTINUOUS
 10
2.228984
 20
-3.688736
  0
VERTEX
  8
PLAN_1
  6
CONTINUOUS
 10
2.219476
 20
-3.685886
  0
VERTEX
  8
PLAN_1
  6
CONTINUOUS
 10
2.208543
 20
-3.683031
  0
VERTEX
  8
PLAN_1
  6
CONTINUOUS
 10
2.167661
 20
-3.673524
  0
VERTEX
  8
PLAN_1
  6
CONTINUOUS
 10
2.161957
 20
-3.672098
  0
VERTEX
  8
PLAN_1
  6
CONTINUOUS
 10
2.155299
 20
-3.669720
  0
VERTEX
  8
PLAN_1
  6
CONTINUOUS
 10
2.151972
 20
-3.668295
  0
VERTEX
  8
PLAN_1
  6
CONTINUOUS
 10
2.148646
 20
-3.666394
  0
VERTEX
  8
PLAN_1
  6
CONTINUOUS
 10
2.144843
 20
-3.664492
  0
VERTEX
  8
PLAN_1
  6
CONTINUOUS
 10
2.141512
 20
-3.662114
  0
VERTEX
  8
PLAN_1
  6
CONTINUOUS
 10
2.138185
 20
-3.659264
  0
VERTEX
  8
PLAN_1
  6
CONTINUOUS
 10
2.135335
 20
-3.655933
  0
VERTEX
  8
PLAN_1
  6
CONTINUOUS
 10
2.132480
 20
-3.652130
  0
VERTEX
  8
PLAN_1
  6
CONTINUOUS
 10
2.130102
 20
-3.648327
  0
VERTEX
  8
PLAN_1
  6
CONTINUOUS
 10
2.127728
 20
-3.643575
  0
VERTEX
  8
PLAN_1
  6
CONTINUOUS
 10
2.126299
 20
-3.638346
  0
VERTEX
  8
PLAN_1
  6
CONTINUOUS
 10
2.125350
 20
-3.632642
  0
VERTEX
  8
PLAN_1
  6
CONTINUOUS
 10
2.125350
 20
-3.626461
  0
VERTEX
  8
PLAN_1
  6
CONTINUOUS
 10
2.125350
 20
-3.620756
  0
VERTEX
  8
PLAN_1
  6
CONTINUOUS
 10
2.126299
 20
-3.615051
  0
VERTEX
  8
PLAN_1
  6
CONTINUOUS
 10
2.127252
 20
-3.609346
  0
VERTEX
  8
PLAN_1
  6
CONTINUOUS
 10
2.129154
 20
-3.604118
  0
VERTEX
  8
PLAN_1
  6
CONTINUOUS
 10
2.131531
 20
-3.598413
  0
VERTEX
  8
PLAN_1
  6
CONTINUOUS
 10
2.133906
 20
-3.593657
  0
VERTEX
  8
PLAN_1
  6
CONTINUOUS
 10
2.137236
 20
-3.588429
  0
VERTEX
  8
PLAN_1
  6
CONTINUOUS
 10
2.141512
 20
-3.584150
  0
VERTEX
  8
PLAN_1
  6
CONTINUOUS
 10
2.145791
 20
-3.579870
  0
VERTEX
  8
PLAN_1
  6
CONTINUOUS
 10
2.151020
 20
-3.576543
  0
VERTEX
  8
PLAN_1
  6
CONTINUOUS
 10
2.156252
 20
-3.573217
  0
VERTEX
  8
PLAN_1
  6
CONTINUOUS
 10
2.162429
 20
-3.570362
  0
VERTEX
  8
PLAN_1
  6
CONTINUOUS
 10
2.169563
 20
-3.567988
  0
VERTEX
  8
PLAN_1
  6
CONTINUOUS
 10
2.176693
 20
-3.566559
  0
VERTEX
  8
PLAN_1
  6
CONTINUOUS
 10
2.184776
 20
-3.565134
  0
VERTEX
  8
PLAN_1
  6
CONTINUOUS
 10
2.193807
 20
-3.565134
  0
VERTEX
  8
PLAN_1
  6
CONTINUOUS
 10
2.199988
 20
-3.565134
  0
VERTEX
  8
PLAN_1
  6
CONTINUOUS
 10
2.206165
 20
-3.565610
  0
VERTEX
  8
PLAN_1
  6
CONTINUOUS
 10
2.211870
 20
-3.566087
  0
VERTEX
  8
PLAN_1
  6
CONTINUOUS
 10
2.217102
 20
-3.567035
  0
VERTEX
  8
PLAN_1
  6
CONTINUOUS
 10
2.221854
 20
-3.567988
  0
VERTEX
  8
PLAN_1
  6
CONTINUOUS
 10
2.226610
 20
-3.568937
  0
VERTEX
  8
PLAN_1
  6
CONTINUOUS
 10
2.230886
 20
-3.570362
  0
VERTEX
  8
PLAN_1
  6
CONTINUOUS
 10
2.235165
 20
-3.571791
  0
VERTEX
  8
PLAN_1
  6
CONTINUOUS
 10
2.238969
 20
-3.573693
  0
VERTEX
  8
PLAN_1
  6
CONTINUOUS
 10
2.242295
 20
-3.575118
  0
VERTEX
  8
PLAN_1
  6
CONTINUOUS
 10
2.245626
 20
-3.577496
  0
VERTEX
  8
PLAN_1
  6
CONTINUOUS
 10
2.248476
 20
-3.579398
  0
VERTEX
  8
PLAN_1
  6
CONTINUOUS
 10
2.253705
 20
-3.583673
  0
VERTEX
  8
PLAN_1
  6
CONTINUOUS
 10
2.258461
 20
-3.588429
  0
VERTEX
  8
PLAN_1
  6
CONTINUOUS
 10
2.261787
 20
-3.593657
  0
VERTEX
  8
PLAN_1
  6
CONTINUOUS
 10
2.264642
 20
-3.598886
  0
VERTEX
  8
PLAN_1
  6
CONTINUOUS
 10
2.267016
 20
-3.604118
  0
VERTEX
  8
PLAN_1
  6
CONTINUOUS
 10
2.268445
 20
-3.609346
  0
VERTEX
  8
PLAN_1
  6
CONTINUOUS
 10
2.269870
 20
-3.614575
  0
VERTEX
  8
PLAN_1
  6
CONTINUOUS
 10
2.270819
 20
-3.619331
  0
VERTEX
  8
PLAN_1
  6
CONTINUOUS
 10
2.271295
 20
-3.624083
  0
VERTEX
  8
PLAN_1
  6
CONTINUOUS
 10
2.271295
 20
-3.628362
  0
VERTEX
  8
PLAN_1
  6
CONTINUOUS
 10
2.246098
 20
-3.628362
  0
SEQEND
  8
0
  0
POLYLINE
  8
PLAN_1
  6
CONTINUOUS
 66
     1
 40
0.008555
 41
0.008555
  0
VERTEX
  8
PLAN_1
  6
CONTINUOUS
 10
0.074988
 20
0.412937
  0
VERTEX
  8
PLAN_1
  6
CONTINUOUS
 10
0.074988
 20
1.410783
  0
VERTEX
  8
PLAN_1
  6
CONTINUOUS
 10
-1.221402
 20
1.410783
  0
VERTEX
  8
PLAN_1
  6
CONTINUOUS
 10
-1.221402
 20
0.412937
  0
VERTEX
  8
PLAN_1
  6
CONTINUOUS
 10
0.074988
 20
0.412937
  0
SEQEND
  8
0
  0
POLYLINE
  8
PLAN_1
  6
CONTINUOUS
 66
     1
 40
0.008555
 41
0.008555
  0
VERTEX
  8
PLAN_1
  6
CONTINUOUS
 10
-0.502610
 20
-0.197941
  0
VERTEX
  8
PLAN_1
  6
CONTINUOUS
 10
-0.502610
 20
-0.084795
  0
VERTEX
  8
PLAN_1
  6
CONTINUOUS
 10
-0.639047
 20
-0.084795
  0
VERTEX
  8
PLAN_1
  6
CONTINUOUS
 10
-0.639047
 20
-0.197941
  0
VERTEX
  8
PLAN_1
  6
CONTINUOUS
 10
-0.502610
 20
-0.197941
  0
SEQEND
  8
0
  0
POLYLINE
  8
PLAN_1
  6
CONTINUOUS
 66
     1
 40
0.008555
 41
0.008555
  0
VERTEX
  8
PLAN_1
  6
CONTINUOUS
 10
-0.030547
 20
0.388217
  0
VERTEX
  8
PLAN_1
  6
CONTINUOUS
 10
-0.030547
 20
0.408657
  0
VERTEX
  8
PLAN_1
  6
CONTINUOUS
 10
-1.094949
 20
0.408657
  0
VERTEX
  8
PLAN_1
  6
CONTINUOUS
 10
-1.094949
 20
0.388217
  0
VERTEX
  8
PLAN_1
  6
CONTINUOUS
 10
-0.030547
 20
0.388217
  0
SEQEND
  8
0
  0
POLYLINE
  8
PLAN_1
  6
CONTINUOUS
 66
     1
 40
0.008555
 41
0.008555
  0
VERTEX
  8
PLAN_1
  6
CONTINUOUS
 10
-0.297244
 20
-0.084795
  0
VERTEX
  8
PLAN_1
  6
CONTINUOUS
 10
-0.297244
 20
0.388217
  0
VERTEX
  8
PLAN_1
  6
CONTINUOUS
 10
-0.851075
 20
0.388217
  0
VERTEX
  8
PLAN_1
  6
CONTINUOUS
 10
-0.851075
 20
-0.084795
  0
VERTEX
  8
PLAN_1
  6
CONTINUOUS
 10
-0.297244
 20
-0.084795
  0
SEQEND
  8
0
  0
POLYLINE
  8
PLAN_1
 62
     5
  6
CONTINUOUS
 66
     1
 40
0.003000
 41
0.003000
  0
VERTEX
  8
PLAN_1
 62
     5
  6
CONTINUOUS
 10
-1.386362
 20
-0.281610
  0
VERTEX
  8
PLAN_1
 62
     5
  6
CONTINUOUS
 10
-1.386362
 20
-0.273051
  0
SEQEND
  8
0
  0
POLYLINE
  8
PLAN_1
 62
     5
  6
CONTINUOUS
 66
     1
 40
0.003000
 41
0.003000
  0
VERTEX
  8
PLAN_1
 62
     5
  6
CONTINUOUS
 10
-1.386362
 20
-0.264969
  0
VERTEX
  8
PLAN_1
 62
     5
  6
CONTINUOUS
 10
-1.386362
 20
-0.256413
  0
SEQEND
  8
0
  0
POLYLINE
  8
PLAN_1
 62
     5
  6
CONTINUOUS
 66
     1
 40
0.003000
 41
0.003000
  0
VERTEX
  8
PLAN_1
 62
     5
  6
CONTINUOUS
 10
-1.386362
 20
-0.248331
  0
VERTEX
  8
PLAN_1
 62
     5
  6
CONTINUOUS
 10
-1.386362
 20
-0.239776
  0
SEQEND
  8
0
  0
POLYLINE
  8
PLAN_1
 62
     5
  6
CONTINUOUS
 66
     1
 40
0.003000
 41
0.003000
  0
VERTEX
  8
PLAN_1
 62
     5
  6
CONTINUOUS
 10
-1.386362
 20
-0.231693
  0
VERTEX
  8
PLAN_1
 62
     5
  6
CONTINUOUS
 10
-1.386362
 20
-0.223138
  0
SEQEND
  8
0
  0
POLYLINE
  8
PLAN_1
 62
     5
  6
CONTINUOUS
 66
     1
 40
0.003000
 41
0.003000
  0
VERTEX
  8
PLAN_1
 62
     5
  6
CONTINUOUS
 10
-1.386362
 20
-0.215055
  0
VERTEX
  8
PLAN_1
 62
     5
  6
CONTINUOUS
 10
-1.386362
 20
-0.206496
  0
SEQEND
  8
0
  0
POLYLINE
  8
PLAN_1
 62
     5
  6
CONTINUOUS
 66
     1
 40
0.003000
 41
0.003000
  0
VERTEX
  8
PLAN_1
 62
     5
  6
CONTINUOUS
 10
-1.386362
 20
-0.198417
  0
VERTEX
  8
PLAN_1
 62
     5
  6
CONTINUOUS
 10
-1.386362
 20
-0.189858
  0
SEQEND
  8
0
  0
POLYLINE
  8
PLAN_1
 62
     5
  6
CONTINUOUS
 66
     1
 40
0.003000
 41
0.003000
  0
VERTEX
  8
PLAN_1
 62
     5
  6
CONTINUOUS
 10
-1.386362
 20
-0.181776
  0
VERTEX
  8
PLAN_1
 62
     5
  6
CONTINUOUS
 10
-1.386362
 20
-0.173220
  0
SEQEND
  8
0
  0
POLYLINE
  8
PLAN_1
 62
     5
  6
CONTINUOUS
 66
     1
 40
0.003000
 41
0.003000
  0
VERTEX
  8
PLAN_1
 62
     5
  6
CONTINUOUS
 10
-1.386362
 20
-0.165138
  0
VERTEX
  8
PLAN_1
 62
     5
  6
CONTINUOUS
 10
-1.386362
 20
-0.156583
  0
SEQEND
  8
0
  0
POLYLINE
  8
PLAN_1
 62
     5
  6
CONTINUOUS
 66
     1
 40
0.003000
 41
0.003000
  0
VERTEX
  8
PLAN_1
 62
     5
  6
CONTINUOUS
 10
-1.386362
 20
-0.148500
  0
VERTEX
  8
PLAN_1
 62
     5
  6
CONTINUOUS
 10
-1.386362
 20
-0.139941
  0
SEQEND
  8
0
  0
POLYLINE
  8
PLAN_1
 62
     5
  6
CONTINUOUS
 66
     1
 40
0.003000
 41
0.003000
  0
VERTEX
  8
PLAN_1
 62
     5
  6
CONTINUOUS
 10
-1.386362
 20
-0.131862
  0
VERTEX
  8
PLAN_1
 62
     5
  6
CONTINUOUS
 10
-1.386362
 20
-0.123303
  0
SEQEND
  8
0
  0
POLYLINE
  8
PLAN_1
 62
     5
  6
CONTINUOUS
 66
     1
 40
0.003000
 41
0.003000
  0
VERTEX
  8
PLAN_1
 62
     5
  6
CONTINUOUS
 10
-1.386362
 20
-0.115220
  0
VERTEX
  8
PLAN_1
 62
     5
  6
CONTINUOUS
 10
-1.386362
 20
-0.106665
  0
SEQEND
  8
0
  0
POLYLINE
  8
PLAN_1
 62
     5
  6
CONTINUOUS
 66
     1
 40
0.003000
 41
0.003000
  0
VERTEX
  8
PLAN_1
 62
     5
  6
CONTINUOUS
 10
-1.386362
 20
-0.098106
  0
VERTEX
  8
PLAN_1
 62
     5
  6
CONTINUOUS
 10
-1.386362
 20
-0.090028
  0
SEQEND
  8
0
  0
POLYLINE
  8
PLAN_1
 62
     5
  6
CONTINUOUS
 66
     1
 40
0.003000
 41
0.003000
  0
VERTEX
  8
PLAN_1
 62
     5
  6
CONTINUOUS
 10
-1.386362
 20
-0.081469
  0
VERTEX
  8
PLAN_1
 62
     5
  6
CONTINUOUS
 10
-1.386362
 20
-0.073386
  0
SEQEND
  8
0
  0
POLYLINE
  8
PLAN_1
 62
     5
  6
CONTINUOUS
 66
     1
 40
0.003000
 41
0.003000
  0
VERTEX
  8
PLAN_1
 62
     5
  6
CONTINUOUS
 10
-1.386362
 20
-0.064831
  0
VERTEX
  8
PLAN_1
 62
     5
  6
CONTINUOUS
 10
-1.386362
 20
-0.056748
  0
SEQEND
  8
0
  0
POLYLINE
  8
PLAN_1
 62
     5
  6
CONTINUOUS
 66
     1
 40
0.003000
 41
0.003000
  0
VERTEX
  8
PLAN_1
 62
     5
  6
CONTINUOUS
 10
-1.386362
 20
-0.048193
  0
VERTEX
  8
PLAN_1
 62
     5
  6
CONTINUOUS
 10
-1.386362
 20
-0.040110
  0
SEQEND
  8
0
  0
POLYLINE
  8
PLAN_1
 62
     5
  6
CONTINUOUS
 66
     1
 40
0.003000
 41
0.003000
  0
VERTEX
  8
PLAN_1
 62
     5
  6
CONTINUOUS
 10
-1.386362
 20
-0.031555
  0
VERTEX
  8
PLAN_1
 62
     5
  6
CONTINUOUS
 10
-1.386362
 20
-0.023472
  0
SEQEND
  8
0
  0
POLYLINE
  8
PLAN_1
 62
     5
  6
CONTINUOUS
 66
     1
 40
0.003000
 41
0.003000
  0
VERTEX
  8
PLAN_1
 62
     5
  6
CONTINUOUS
 10
-1.386362
 20
-0.014913
  0
VERTEX
  8
PLAN_1
 62
     5
  6
CONTINUOUS
 10
-1.386362
 20
-0.006835
  0
SEQEND
  8
0
  0
POLYLINE
  8
PLAN_1
 62
     5
  6
CONTINUOUS
 66
     1
 40
0.003000
 41
0.003000
  0
VERTEX
  8
PLAN_1
 62
     5
  6
CONTINUOUS
 10
-1.386362
 20
0.001724
  0
VERTEX
  8
PLAN_1
 62
     5
  6
CONTINUOUS
 10
-1.386362
 20
0.009807
  0
SEQEND
  8
0
  0
POLYLINE
  8
PLAN_1
 62
     5
  6
CONTINUOUS
 66
     1
 40
0.003000
 41
0.003000
  0
VERTEX
  8
PLAN_1
 62
     5
  6
CONTINUOUS
 10
-1.386362
 20
0.018362
  0
VERTEX
  8
PLAN_1
 62
     5
  6
CONTINUOUS
 10
-1.386362
 20
0.026445
  0
SEQEND
  8
0
  0
POLYLINE
  8
PLAN_1
 62
     5
  6
CONTINUOUS
 66
     1
 40
0.003000
 41
0.003000
  0
VERTEX
  8
PLAN_1
 62
     5
  6
CONTINUOUS
 10
-1.386362
 20
0.035000
  0
VERTEX
  8
PLAN_1
 62
     5
  6
CONTINUOUS
 10
-1.386362
 20
0.043083
  0
SEQEND
  8
0
  0
POLYLINE
  8
PLAN_1
 62
     5
  6
CONTINUOUS
 66
     1
 40
0.003000
 41
0.003000
  0
VERTEX
  8
PLAN_1
 62
     5
  6
CONTINUOUS
 10
-1.386362
 20
0.051642
  0
VERTEX
  8
PLAN_1
 62
     5
  6
CONTINUOUS
 10
-1.386362
 20
0.059720
  0
SEQEND
  8
0
  0
POLYLINE
  8
PLAN_1
 62
     5
  6
CONTINUOUS
 66
     1
 40
0.003000
 41
0.003000
  0
VERTEX
  8
PLAN_1
 62
     5
  6
CONTINUOUS
 10
-1.386362
 20
0.068280
  0
VERTEX
  8
PLAN_1
 62
     5
  6
CONTINUOUS
 10
-1.386362
 20
0.076362
  0
SEQEND
  8
0
  0
POLYLINE
  8
PLAN_1
 62
     5
  6
CONTINUOUS
 66
     1
 40
0.003000
 41
0.003000
  0
VERTEX
  8
PLAN_1
 62
     5
  6
CONTINUOUS
 10
-1.386362
 20
0.084917
  0
VERTEX
  8
PLAN_1
 62
     5
  6
CONTINUOUS
 10
-1.386362
 20
0.093000
  0
SEQEND
  8
0
  0
POLYLINE
  8
PLAN_1
 62
     5
  6
CONTINUOUS
 66
     1
 40
0.003000
 41
0.003000
  0
VERTEX
  8
PLAN_1
 62
     5
  6
CONTINUOUS
 10
-1.386362
 20
0.101555
  0
VERTEX
  8
PLAN_1
 62
     5
  6
CONTINUOUS
 10
-1.386362
 20
0.110114
  0
SEQEND
  8
0
  0
POLYLINE
  8
PLAN_1
 62
     5
  6
CONTINUOUS
 66
     1
 40
0.003000
 41
0.003000
  0
VERTEX
  8
PLAN_1
 62
     5
  6
CONTINUOUS
 10
-1.386362
 20
0.118197
  0
VERTEX
  8
PLAN_1
 62
     5
  6
CONTINUOUS
 10
-1.386362
 20
0.126752
  0
SEQEND
  8
0
  0
POLYLINE
  8
PLAN_1
 62
     5
  6
CONTINUOUS
 66
     1
 40
0.003000
 41
0.003000
  0
VERTEX
  8
PLAN_1
 62
     5
  6
CONTINUOUS
 10
-1.386362
 20
0.134835
  0
VERTEX
  8
PLAN_1
 62
     5
  6
CONTINUOUS
 10
-1.386362
 20
0.143390
  0
SEQEND
  8
0
  0
POLYLINE
  8
PLAN_1
 62
     5
  6
CONTINUOUS
 66
     1
 40
0.003000
 41
0.003000
  0
VERTEX
  8
PLAN_1
 62
     5
  6
CONTINUOUS
 10
-1.386362
 20
0.151472
  0
VERTEX
  8
PLAN_1
 62
     5
  6
CONTINUOUS
 10
-1.386362
 20
0.160028
  0
SEQEND
  8
0
  0
POLYLINE
  8
PLAN_1
 62
     5
  6
CONTINUOUS
 66
     1
 40
0.003000
 41
0.003000
  0
VERTEX
  8
PLAN_1
 62
     5
  6
CONTINUOUS
 10
-1.386362
 20
0.168110
  0
VERTEX
  8
PLAN_1
 62
     5
  6
CONTINUOUS
 10
-1.386362
 20
0.176669
  0
SEQEND
  8
0
  0
POLYLINE
  8
PLAN_1
 62
     5
  6
CONTINUOUS
 66
     1
 40
0.003000
 41
0.003000
  0
VERTEX
  8
PLAN_1
 62
     5
  6
CONTINUOUS
 10
-1.386362
 20
0.184748
  0
VERTEX
  8
PLAN_1
 62
     5
  6
CONTINUOUS
 10
-1.386362
 20
0.193307
  0
SEQEND
  8
0
  0
POLYLINE
  8
PLAN_1
 62
     5
  6
CONTINUOUS
 66
     1
 40
0.003000
 41
0.003000
  0
VERTEX
  8
PLAN_1
 62
     5
  6
CONTINUOUS
 10
-1.386362
 20
0.201390
  0
VERTEX
  8
PLAN_1
 62
     5
  6
CONTINUOUS
 10
-1.386362
 20
0.209945
  0
SEQEND
  8
0
  0
POLYLINE
  8
PLAN_1
 62
     5
  6
CONTINUOUS
 66
     1
 40
0.003000
 41
0.003000
  0
VERTEX
  8
PLAN_1
 62
     5
  6
CONTINUOUS
 10
-1.386362
 20
0.218028
  0
VERTEX
  8
PLAN_1
 62
     5
  6
CONTINUOUS
 10
-1.386362
 20
0.226583
  0
SEQEND
  8
0
  0
POLYLINE
  8
PLAN_1
 62
     5
  6
CONTINUOUS
 66
     1
 40
0.003000
 41
0.003000
  0
VERTEX
  8
PLAN_1
 62
     5
  6
CONTINUOUS
 10
-1.386362
 20
0.234665
  0
VERTEX
  8
PLAN_1
 62
     5
  6
CONTINUOUS
 10
-1.386362
 20
0.243224
  0
SEQEND
  8
0
  0
POLYLINE
  8
PLAN_1
 62
     5
  6
CONTINUOUS
 66
     1
 40
0.003000
 41
0.003000
  0
VERTEX
  8
PLAN_1
 62
     5
  6
CONTINUOUS
 10
-1.386362
 20
0.251303
  0
VERTEX
  8
PLAN_1
 62
     5
  6
CONTINUOUS
 10
-1.386362
 20
0.259862
  0
SEQEND
  8
0
  0
POLYLINE
  8
PLAN_1
 62
     5
  6
CONTINUOUS
 66
     1
 40
0.003000
 41
0.003000
  0
VERTEX
  8
PLAN_1
 62
     5
  6
CONTINUOUS
 10
-1.386362
 20
0.267945
  0
VERTEX
  8
PLAN_1
 62
     5
  6
CONTINUOUS
 10
-1.386362
 20
0.276500
  0
SEQEND
  8
0
  0
POLYLINE
  8
PLAN_1
 62
     5
  6
CONTINUOUS
 66
     1
 40
0.003000
 41
0.003000
  0
VERTEX
  8
PLAN_1
 62
     5
  6
CONTINUOUS
 10
-1.386362
 20
0.284583
  0
VERTEX
  8
PLAN_1
 62
     5
  6
CONTINUOUS
 10
-1.386362
 20
0.293138
  0
SEQEND
  8
0
  0
POLYLINE
  8
PLAN_1
 62
     5
  6
CONTINUOUS
 66
     1
 40
0.003000
 41
0.003000
  0
VERTEX
  8
PLAN_1
 62
     5
  6
CONTINUOUS
 10
-1.386362
 20
0.301220
  0
VERTEX
  8
PLAN_1
 62
     5
  6
CONTINUOUS
 10
-1.386362
 20
0.309776
  0
SEQEND
  8
0
  0
POLYLINE
  8
PLAN_1
 62
     5
  6
CONTINUOUS
 66
     1
 40
0.003000
 41
0.003000
  0
VERTEX
  8
PLAN_1
 62
     5
  6
CONTINUOUS
 10
-1.386362
 20
0.318335
  0
VERTEX
  8
PLAN_1
 62
     5
  6
CONTINUOUS
 10
-1.386362
 20
0.326417
  0
SEQEND
  8
0
  0
POLYLINE
  8
PLAN_1
 62
     5
  6
CONTINUOUS
 66
     1
 40
0.003000
 41
0.003000
  0
VERTEX
  8
PLAN_1
 62
     5
  6
CONTINUOUS
 10
-1.386362
 20
0.334972
  0
VERTEX
  8
PLAN_1
 62
     5
  6
CONTINUOUS
 10
-1.386362
 20
0.343055
  0
SEQEND
  8
0
  0
POLYLINE
  8
PLAN_1
 62
     5
  6
CONTINUOUS
 66
     1
 40
0.003000
 41
0.003000
  0
VERTEX
  8
PLAN_1
 62
     5
  6
CONTINUOUS
 10
-1.386362
 20
0.351610
  0
VERTEX
  8
PLAN_1
 62
     5
  6
CONTINUOUS
 10
-1.386362
 20
0.359693
  0
SEQEND
  8
0
  0
POLYLINE
  8
PLAN_1
 62
     5
  6
CONTINUOUS
 66
     1
 40
0.003000
 41
0.003000
  0
VERTEX
  8
PLAN_1
 62
     5
  6
CONTINUOUS
 10
-1.386362
 20
0.368252
  0
VERTEX
  8
PLAN_1
 62
     5
  6
CONTINUOUS
 10
-1.386362
 20
0.376331
  0
SEQEND
  8
0
  0
POLYLINE
  8
PLAN_1
 62
     5
  6
CONTINUOUS
 66
     1
 40
0.003000
 41
0.003000
  0
VERTEX
  8
PLAN_1
 62
     5
  6
CONTINUOUS
 10
-1.386362
 20
0.384890
  0
VERTEX
  8
PLAN_1
 62
     5
  6
CONTINUOUS
 10
-1.386362
 20
0.392972
  0
SEQEND
  8
0
  0
POLYLINE
  8
PLAN_1
 62
     5
  6
CONTINUOUS
 66
     1
 40
0.003000
 41
0.003000
  0
VERTEX
  8
PLAN_1
 62
     5
  6
CONTINUOUS
 10
-1.386362
 20
0.401528
  0
VERTEX
  8
PLAN_1
 62
     5
  6
CONTINUOUS
 10
-1.386362
 20
0.409610
  0
SEQEND
  8
0
  0
POLYLINE
  8
PLAN_1
 62
     5
  6
CONTINUOUS
 66
     1
 40
0.003000
 41
0.003000
  0
VERTEX
  8
PLAN_1
 62
     5
  6
CONTINUOUS
 10
-1.381610
 20
0.412937
  0
VERTEX
  8
PLAN_1
 62
     5
  6
CONTINUOUS
 10
-1.373051
 20
0.412937
  0
SEQEND
  8
0
  0
POLYLINE
  8
PLAN_1
 62
     5
  6
CONTINUOUS
 66
     1
 40
0.003000
 41
0.003000
  0
VERTEX
  8
PLAN_1
 62
     5
  6
CONTINUOUS
 10
-1.364972
 20
0.412937
  0
VERTEX
  8
PLAN_1
 62
     5
  6
CONTINUOUS
 10
-1.356413
 20
0.412937
  0
SEQEND
  8
0
  0
POLYLINE
  8
PLAN_1
 62
     5
  6
CONTINUOUS
 66
     1
 40
0.003000
 41
0.003000
  0
VERTEX
  8
PLAN_1
 62
     5
  6
CONTINUOUS
 10
-1.348331
 20
0.412937
  0
VERTEX
  8
PLAN_1
 62
     5
  6
CONTINUOUS
 10
-1.339776
 20
0.412937
  0
SEQEND
  8
0
  0
POLYLINE
  8
PLAN_1
 62
     5
  6
CONTINUOUS
 66
     1
 40
0.003000
 41
0.003000
  0
VERTEX
  8
PLAN_1
 62
     5
  6
CONTINUOUS
 10
-1.331693
 20
0.412937
  0
VERTEX
  8
PLAN_1
 62
     5
  6
CONTINUOUS
 10
-1.323138
 20
0.412937
  0
SEQEND
  8
0
  0
POLYLINE
  8
PLAN_1
 62
     5
  6
CONTINUOUS
 66
     1
 40
0.003000
 41
0.003000
  0
VERTEX
  8
PLAN_1
 62
     5
  6
CONTINUOUS
 10
-1.315055
 20
0.412937
  0
VERTEX
  8
PLAN_1
 62
     5
  6
CONTINUOUS
 10
-1.306496
 20
0.412937
  0
SEQEND
  8
0
  0
POLYLINE
  8
PLAN_1
 62
     5
  6
CONTINUOUS
 66
     1
 40
0.003000
 41
0.003000
  0
VERTEX
  8
PLAN_1
 62
     5
  6
CONTINUOUS
 10
-1.298417
 20
0.412937
  0
VERTEX
  8
PLAN_1
 62
     5
  6
CONTINUOUS
 10
-1.289858
 20
0.412937
  0
SEQEND
  8
0
  0
POLYLINE
  8
PLAN_1
 62
     5
  6
CONTINUOUS
 66
     1
 40
0.003000
 41
0.003000
  0
VERTEX
  8
PLAN_1
 62
     5
  6
CONTINUOUS
 10
-1.281776
 20
0.412937
  0
VERTEX
  8
PLAN_1
 62
     5
  6
CONTINUOUS
 10
-1.273220
 20
0.412937
  0
SEQEND
  8
0
  0
POLYLINE
  8
PLAN_1
 62
     5
  6
CONTINUOUS
 66
     1
 40
0.003000
 41
0.003000
  0
VERTEX
  8
PLAN_1
 62
     5
  6
CONTINUOUS
 10
-1.265138
 20
0.412937
  0
VERTEX
  8
PLAN_1
 62
     5
  6
CONTINUOUS
 10
-1.256583
 20
0.412937
  0
SEQEND
  8
0
  0
POLYLINE
  8
PLAN_1
 62
     5
  6
CONTINUOUS
 66
     1
 40
0.003000
 41
0.003000
  0
VERTEX
  8
PLAN_1
 62
     5
  6
CONTINUOUS
 10
-1.248500
 20
0.412937
  0
VERTEX
  8
PLAN_1
 62
     5
  6
CONTINUOUS
 10
-1.239941
 20
0.412937
  0
SEQEND
  8
0
  0
POLYLINE
  8
PLAN_1
 62
     5
  6
CONTINUOUS
 66
     1
 40
0.003000
 41
0.003000
  0
VERTEX
  8
PLAN_1
 62
     5
  6
CONTINUOUS
 10
-1.231862
 20
0.412937
  0
VERTEX
  8
PLAN_1
 62
     5
  6
CONTINUOUS
 10
-1.223303
 20
0.412937
  0
SEQEND
  8
0
  0
POLYLINE
  8
PLAN_1
 62
     5
  6
CONTINUOUS
 66
     1
 40
0.003000
 41
0.003000
  0
VERTEX
  8
PLAN_1
 62
     5
  6
CONTINUOUS
 10
-1.215224
 20
0.412937
  0
VERTEX
  8
PLAN_1
 62
     5
  6
CONTINUOUS
 10
-1.206665
 20
0.412937
  0
SEQEND
  8
0
  0
POLYLINE
  8
PLAN_1
 62
     5
  6
CONTINUOUS
 66
     1
 40
0.003000
 41
0.003000
  0
VERTEX
  8
PLAN_1
 62
     5
  6
CONTINUOUS
 10
-1.198110
 20
0.412937
  0
VERTEX
  8
PLAN_1
 62
     5
  6
CONTINUOUS
 10
-1.190028
 20
0.412937
  0
SEQEND
  8
0
  0
POLYLINE
  8
PLAN_1
 62
     5
  6
CONTINUOUS
 66
     1
 40
0.003000
 41
0.003000
  0
VERTEX
  8
PLAN_1
 62
     5
  6
CONTINUOUS
 10
-1.181469
 20
0.412937
  0
VERTEX
  8
PLAN_1
 62
     5
  6
CONTINUOUS
 10
-1.173390
 20
0.412937
  0
SEQEND
  8
0
  0
POLYLINE
  8
PLAN_1
 62
     5
  6
CONTINUOUS
 66
     1
 40
0.003000
 41
0.003000
  0
VERTEX
  8
PLAN_1
 62
     5
  6
CONTINUOUS
 10
-1.164831
 20
0.412937
  0
VERTEX
  8
PLAN_1
 62
     5
  6
CONTINUOUS
 10
-1.156748
 20
0.412937
  0
SEQEND
  8
0
  0
POLYLINE
  8
PLAN_1
 62
     5
  6
CONTINUOUS
 66
     1
 40
0.003000
 41
0.003000
  0
VERTEX
  8
PLAN_1
 62
     5
  6
CONTINUOUS
 10
-1.148193
 20
0.412937
  0
VERTEX
  8
PLAN_1
 62
     5
  6
CONTINUOUS
 10
-1.140110
 20
0.412937
  0
SEQEND
  8
0
  0
POLYLINE
  8
PLAN_1
 62
     5
  6
CONTINUOUS
 66
     1
 40
0.003000
 41
0.003000
  0
VERTEX
  8
PLAN_1
 62
     5
  6
CONTINUOUS
 10
-1.131555
 20
0.412937
  0
VERTEX
  8
PLAN_1
 62
     5
  6
CONTINUOUS
 10
-1.123472
 20
0.412937
  0
SEQEND
  8
0
  0
POLYLINE
  8
PLAN_1
 62
     5
  6
CONTINUOUS
 66
     1
 40
0.003000
 41
0.003000
  0
VERTEX
  8
PLAN_1
 62
     5
  6
CONTINUOUS
 10
-1.114913
 20
0.412937
  0
VERTEX
  8
PLAN_1
 62
     5
  6
CONTINUOUS
 10
-1.106835
 20
0.412937
  0
SEQEND
  8
0
  0
POLYLINE
  8
PLAN_1
 62
     5
  6
CONTINUOUS
 66
     1
 40
0.003000
 41
0.003000
  0
VERTEX
  8
PLAN_1
 62
     5
  6
CONTINUOUS
 10
-1.098276
 20
0.412937
  0
VERTEX
  8
PLAN_1
 62
     5
  6
CONTINUOUS
 10
-1.090193
 20
0.412937
  0
SEQEND
  8
0
  0
POLYLINE
  8
PLAN_1
 62
     5
  6
CONTINUOUS
 66
     1
 40
0.003000
 41
0.003000
  0
VERTEX
  8
PLAN_1
 62
     5
  6
CONTINUOUS
 10
-1.081638
 20
0.412937
  0
VERTEX
  8
PLAN_1
 62
     5
  6
CONTINUOUS
 10
-1.073555
 20
0.412937
  0
SEQEND
  8
0
  0
POLYLINE
  8
PLAN_1
 62
     5
  6
CONTINUOUS
 66
     1
 40
0.003000
 41
0.003000
  0
VERTEX
  8
PLAN_1
 62
     5
  6
CONTINUOUS
 10
-1.065000
 20
0.412937
  0
VERTEX
  8
PLAN_1
 62
     5
  6
CONTINUOUS
 10
-1.056917
 20
0.412937
  0
SEQEND
  8
0
  0
POLYLINE
  8
PLAN_1
 62
     5
  6
CONTINUOUS
 66
     1
 40
0.003000
 41
0.003000
  0
VERTEX
  8
PLAN_1
 62
     5
  6
CONTINUOUS
 10
-1.048362
 20
0.412937
  0
VERTEX
  8
PLAN_1
 62
     5
  6
CONTINUOUS
 10
-1.040280
 20
0.412937
  0
SEQEND
  8
0
  0
POLYLINE
  8
PLAN_1
 62
     5
  6
CONTINUOUS
 66
     1
 40
0.003000
 41
0.003000
  0
VERTEX
  8
PLAN_1
 62
     5
  6
CONTINUOUS
 10
-1.031720
 20
0.412937
  0
VERTEX
  8
PLAN_1
 62
     5
  6
CONTINUOUS
 10
-1.023642
 20
0.412937
  0
SEQEND
  8
0
  0
POLYLINE
  8
PLAN_1
 62
     5
  6
CONTINUOUS
 66
     1
 40
0.003000
 41
0.003000
  0
VERTEX
  8
PLAN_1
 62
     5
  6
CONTINUOUS
 10
-1.015083
 20
0.412937
  0
VERTEX
  8
PLAN_1
 62
     5
  6
CONTINUOUS
 10
-1.007000
 20
0.412937
  0
SEQEND
  8
0
  0
POLYLINE
  8
PLAN_1
 62
     5
  6
CONTINUOUS
 66
     1
 40
0.003000
 41
0.003000
  0
VERTEX
  8
PLAN_1
 62
     5
  6
CONTINUOUS
 10
-0.998445
 20
0.412937
  0
VERTEX
  8
PLAN_1
 62
     5
  6
CONTINUOUS
 10
-0.989886
 20
0.412937
  0
SEQEND
  8
0
  0
POLYLINE
  8
PLAN_1
 62
     5
  6
CONTINUOUS
 66
     1
 40
0.003000
 41
0.003000
  0
VERTEX
  8
PLAN_1
 62
     5
  6
CONTINUOUS
 10
-0.981807
 20
0.412937
  0
VERTEX
  8
PLAN_1
 62
     5
  6
CONTINUOUS
 10
-0.973248
 20
0.412937
  0
SEQEND
  8
0
  0
POLYLINE
  8
PLAN_1
 62
     5
  6
CONTINUOUS
 66
     1
 40
0.003000
 41
0.003000
  0
VERTEX
  8
PLAN_1
 62
     5
  6
CONTINUOUS
 10
-0.965165
 20
0.412937
  0
VERTEX
  8
PLAN_1
 62
     5
  6
CONTINUOUS
 10
-0.956610
 20
0.412937
  0
SEQEND
  8
0
  0
POLYLINE
  8
PLAN_1
 62
     5
  6
CONTINUOUS
 66
     1
 40
0.003000
 41
0.003000
  0
VERTEX
  8
PLAN_1
 62
     5
  6
CONTINUOUS
 10
-0.948528
 20
0.412937
  0
VERTEX
  8
PLAN_1
 62
     5
  6
CONTINUOUS
 10
-0.939972
 20
0.412937
  0
SEQEND
  8
0
  0
POLYLINE
  8
PLAN_1
 62
     5
  6
CONTINUOUS
 66
     1
 40
0.003000
 41
0.003000
  0
VERTEX
  8
PLAN_1
 62
     5
  6
CONTINUOUS
 10
-0.931890
 20
0.412937
  0
VERTEX
  8
PLAN_1
 62
     5
  6
CONTINUOUS
 10
-0.923331
 20
0.412937
  0
SEQEND
  8
0
  0
POLYLINE
  8
PLAN_1
 62
     5
  6
CONTINUOUS
 66
     1
 40
0.003000
 41
0.003000
  0
VERTEX
  8
PLAN_1
 62
     5
  6
CONTINUOUS
 10
-0.915252
 20
0.412937
  0
VERTEX
  8
PLAN_1
 62
     5
  6
CONTINUOUS
 10
-0.906693
 20
0.412937
  0
SEQEND
  8
0
  0
POLYLINE
  8
PLAN_1
 62
     5
  6
CONTINUOUS
 66
     1
 40
0.003000
 41
0.003000
  0
VERTEX
  8
PLAN_1
 62
     5
  6
CONTINUOUS
 10
-0.898610
 20
0.412937
  0
VERTEX
  8
PLAN_1
 62
     5
  6
CONTINUOUS
 10
-0.890055
 20
0.412937
  0
SEQEND
  8
0
  0
POLYLINE
  8
PLAN_1
 62
     5
  6
CONTINUOUS
 66
     1
 40
0.003000
 41
0.003000
  0
VERTEX
  8
PLAN_1
 62
     5
  6
CONTINUOUS
 10
-0.881972
 20
0.412937
  0
VERTEX
  8
PLAN_1
 62
     5
  6
CONTINUOUS
 10
-0.873417
 20
0.412937
  0
SEQEND
  8
0
  0
POLYLINE
  8
PLAN_1
 62
     5
  6
CONTINUOUS
 66
     1
 40
0.003000
 41
0.003000
  0
VERTEX
  8
PLAN_1
 62
     5
  6
CONTINUOUS
 10
-0.865335
 20
0.412937
  0
VERTEX
  8
PLAN_1
 62
     5
  6
CONTINUOUS
 10
-0.856780
 20
0.412937
  0
SEQEND
  8
0
  0
POLYLINE
  8
PLAN_1
 62
     5
  6
CONTINUOUS
 66
     1
 40
0.003000
 41
0.003000
  0
VERTEX
  8
PLAN_1
 62
     5
  6
CONTINUOUS
 10
-0.848697
 20
0.412937
  0
VERTEX
  8
PLAN_1
 62
     5
  6
CONTINUOUS
 10
-0.840138
 20
0.412937
  0
SEQEND
  8
0
  0
POLYLINE
  8
PLAN_1
 62
     5
  6
CONTINUOUS
 66
     1
 40
0.003000
 41
0.003000
  0
VERTEX
  8
PLAN_1
 62
     5
  6
CONTINUOUS
 10
-0.832059
 20
0.412937
  0
VERTEX
  8
PLAN_1
 62
     5
  6
CONTINUOUS
 10
-0.823500
 20
0.412937
  0
SEQEND
  8
0
  0
POLYLINE
  8
PLAN_1
 62
     5
  6
CONTINUOUS
 66
     1
 40
0.003000
 41
0.003000
  0
VERTEX
  8
PLAN_1
 62
     5
  6
CONTINUOUS
 10
-0.815417
 20
0.412937
  0
VERTEX
  8
PLAN_1
 62
     5
  6
CONTINUOUS
 10
-0.806862
 20
0.412937
  0
SEQEND
  8
0
  0
POLYLINE
  8
PLAN_1
 62
     5
  6
CONTINUOUS
 66
     1
 40
0.003000
 41
0.003000
  0
VERTEX
  8
PLAN_1
 62
     5
  6
CONTINUOUS
 10
-0.798780
 20
0.412937
  0
VERTEX
  8
PLAN_1
 62
     5
  6
CONTINUOUS
 10
-0.790224
 20
0.412937
  0
SEQEND
  8
0
  0
POLYLINE
  8
PLAN_1
 62
     5
  6
CONTINUOUS
 66
     1
 40
0.003000
 41
0.003000
  0
VERTEX
  8
PLAN_1
 62
     5
  6
CONTINUOUS
 10
-0.781665
 20
0.412937
  0
VERTEX
  8
PLAN_1
 62
     5
  6
CONTINUOUS
 10
-0.773583
 20
0.412937
  0
SEQEND
  8
0
  0
POLYLINE
  8
PLAN_1
 62
     5
  6
CONTINUOUS
 66
     1
 40
0.003000
 41
0.003000
  0
VERTEX
  8
PLAN_1
 62
     5
  6
CONTINUOUS
 10
-0.765028
 20
0.412937
  0
VERTEX
  8
PLAN_1
 62
     5
  6
CONTINUOUS
 10
-0.756945
 20
0.412937
  0
SEQEND
  8
0
  0
POLYLINE
  8
PLAN_1
 62
     5
  6
CONTINUOUS
 66
     1
 40
0.003000
 41
0.003000
  0
VERTEX
  8
PLAN_1
 62
     5
  6
CONTINUOUS
 10
-0.748390
 20
0.412937
  0
VERTEX
  8
PLAN_1
 62
     5
  6
CONTINUOUS
 10
-0.740307
 20
0.412937
  0
SEQEND
  8
0
  0
POLYLINE
  8
PLAN_1
 62
     5
  6
CONTINUOUS
 66
     1
 40
0.003000
 41
0.003000
  0
VERTEX
  8
PLAN_1
 62
     5
  6
CONTINUOUS
 10
-0.731748
 20
0.412937
  0
VERTEX
  8
PLAN_1
 62
     5
  6
CONTINUOUS
 10
-0.723669
 20
0.412937
  0
SEQEND
  8
0
  0
POLYLINE
  8
PLAN_1
 62
     5
  6
CONTINUOUS
 66
     1
 40
0.003000
 41
0.003000
  0
VERTEX
  8
PLAN_1
 62
     5
  6
CONTINUOUS
 10
-0.715110
 20
0.412937
  0
VERTEX
  8
PLAN_1
 62
     5
  6
CONTINUOUS
 10
-0.707028
 20
0.412937
  0
SEQEND
  8
0
  0
POLYLINE
  8
PLAN_1
 62
     5
  6
CONTINUOUS
 66
     1
 40
0.003000
 41
0.003000
  0
VERTEX
  8
PLAN_1
 62
     5
  6
CONTINUOUS
 10
-0.698472
 20
0.412937
  0
VERTEX
  8
PLAN_1
 62
     5
  6
CONTINUOUS
 10
-0.690390
 20
0.412937
  0
SEQEND
  8
0
  0
POLYLINE
  8
PLAN_1
 62
     5
  6
CONTINUOUS
 66
     1
 40
0.003000
 41
0.003000
  0
VERTEX
  8
PLAN_1
 62
     5
  6
CONTINUOUS
 10
-0.681835
 20
0.412937
  0
VERTEX
  8
PLAN_1
 62
     5
  6
CONTINUOUS
 10
-0.673752
 20
0.412937
  0
SEQEND
  8
0
  0
POLYLINE
  8
PLAN_1
 62
     5
  6
CONTINUOUS
 66
     1
 40
0.003000
 41
0.003000
  0
VERTEX
  8
PLAN_1
 62
     5
  6
CONTINUOUS
 10
-0.665197
 20
0.412937
  0
VERTEX
  8
PLAN_1
 62
     5
  6
CONTINUOUS
 10
-0.657114
 20
0.412937
  0
SEQEND
  8
0
  0
POLYLINE
  8
PLAN_1
 62
     5
  6
CONTINUOUS
 66
     1
 40
0.003000
 41
0.003000
  0
VERTEX
  8
PLAN_1
 62
     5
  6
CONTINUOUS
 10
-0.648555
 20
0.412937
  0
VERTEX
  8
PLAN_1
 62
     5
  6
CONTINUOUS
 10
-0.640476
 20
0.412937
  0
SEQEND
  8
0
  0
POLYLINE
  8
PLAN_1
 62
     5
  6
CONTINUOUS
 66
     1
 40
0.003000
 41
0.003000
  0
VERTEX
  8
PLAN_1
 62
     5
  6
CONTINUOUS
 10
-0.631917
 20
0.412937
  0
VERTEX
  8
PLAN_1
 62
     5
  6
CONTINUOUS
 10
-0.623835
 20
0.412937
  0
SEQEND
  8
0
  0
POLYLINE
  8
PLAN_1
 62
     5
  6
CONTINUOUS
 66
     1
 40
0.003000
 41
0.003000
  0
VERTEX
  8
PLAN_1
 62
     5
  6
CONTINUOUS
 10
-0.615280
 20
0.412937
  0
VERTEX
  8
PLAN_1
 62
     5
  6
CONTINUOUS
 10
-0.607197
 20
0.412937
  0
SEQEND
  8
0
  0
POLYLINE
  8
PLAN_1
 62
     5
  6
CONTINUOUS
 66
     1
 40
0.003000
 41
0.003000
  0
VERTEX
  8
PLAN_1
 62
     5
  6
CONTINUOUS
 10
-0.598642
 20
0.412937
  0
VERTEX
  8
PLAN_1
 62
     5
  6
CONTINUOUS
 10
-0.590083
 20
0.412937
  0
SEQEND
  8
0
  0
POLYLINE
  8
PLAN_1
 62
     5
  6
CONTINUOUS
 66
     1
 40
0.003000
 41
0.003000
  0
VERTEX
  8
PLAN_1
 62
     5
  6
CONTINUOUS
 10
-0.582000
 20
0.412937
  0
VERTEX
  8
PLAN_1
 62
     5
  6
CONTINUOUS
 10
-0.573445
 20
0.412937
  0
SEQEND
  8
0
  0
POLYLINE
  8
PLAN_1
 62
     5
  6
CONTINUOUS
 66
     1
 40
0.003000
 41
0.003000
  0
VERTEX
  8
PLAN_1
 62
     5
  6
CONTINUOUS
 10
-0.565362
 20
0.412937
  0
VERTEX
  8
PLAN_1
 62
     5
  6
CONTINUOUS
 10
-0.556807
 20
0.412937
  0
SEQEND
  8
0
  0
POLYLINE
  8
PLAN_1
 62
     5
  6
CONTINUOUS
 66
     1
 40
0.003000
 41
0.003000
  0
VERTEX
  8
PLAN_1
 62
     5
  6
CONTINUOUS
 10
-0.548724
 20
0.412937
  0
VERTEX
  8
PLAN_1
 62
     5
  6
CONTINUOUS
 10
-0.540165
 20
0.412937
  0
SEQEND
  8
0
  0
POLYLINE
  8
PLAN_1
 62
     5
  6
CONTINUOUS
 66
     1
 40
0.003000
 41
0.003000
  0
VERTEX
  8
PLAN_1
 62
     5
  6
CONTINUOUS
 10
-0.532087
 20
0.412937
  0
VERTEX
  8
PLAN_1
 62
     5
  6
CONTINUOUS
 10
-0.523528
 20
0.412937
  0
SEQEND
  8
0
  0
POLYLINE
  8
PLAN_1
 62
     5
  6
CONTINUOUS
 66
     1
 40
0.003000
 41
0.003000
  0
VERTEX
  8
PLAN_1
 62
     5
  6
CONTINUOUS
 10
-0.515449
 20
0.412937
  0
VERTEX
  8
PLAN_1
 62
     5
  6
CONTINUOUS
 10
-0.506890
 20
0.412937
  0
SEQEND
  8
0
  0
POLYLINE
  8
PLAN_1
 62
     5
  6
CONTINUOUS
 66
     1
 40
0.003000
 41
0.003000
  0
VERTEX
  8
PLAN_1
 62
     5
  6
CONTINUOUS
 10
-0.498807
 20
0.412937
  0
VERTEX
  8
PLAN_1
 62
     5
  6
CONTINUOUS
 10
-0.490252
 20
0.412937
  0
SEQEND
  8
0
  0
POLYLINE
  8
PLAN_1
 62
     5
  6
CONTINUOUS
 66
     1
 40
0.003000
 41
0.003000
  0
VERTEX
  8
PLAN_1
 62
     5
  6
CONTINUOUS
 10
-0.482169
 20
0.412937
  0
VERTEX
  8
PLAN_1
 62
     5
  6
CONTINUOUS
 10
-0.473614
 20
0.412937
  0
SEQEND
  8
0
  0
POLYLINE
  8
PLAN_1
 62
     5
  6
CONTINUOUS
 66
     1
 40
0.003000
 41
0.003000
  0
VERTEX
  8
PLAN_1
 62
     5
  6
CONTINUOUS
 10
-0.465531
 20
0.412937
  0
VERTEX
  8
PLAN_1
 62
     5
  6
CONTINUOUS
 10
-0.456972
 20
0.412937
  0
SEQEND
  8
0
  0
POLYLINE
  8
PLAN_1
 62
     5
  6
CONTINUOUS
 66
     1
 40
0.003000
 41
0.003000
  0
VERTEX
  8
PLAN_1
 62
     5
  6
CONTINUOUS
 10
-0.448894
 20
0.412937
  0
VERTEX
  8
PLAN_1
 62
     5
  6
CONTINUOUS
 10
-0.440335
 20
0.412937
  0
SEQEND
  8
0
  0
POLYLINE
  8
PLAN_1
 62
     5
  6
CONTINUOUS
 66
     1
 40
0.003000
 41
0.003000
  0
VERTEX
  8
PLAN_1
 62
     5
  6
CONTINUOUS
 10
-0.432252
 20
0.412937
  0
VERTEX
  8
PLAN_1
 62
     5
  6
CONTINUOUS
 10
-0.423697
 20
0.412937
  0
SEQEND
  8
0
  0
POLYLINE
  8
PLAN_1
 62
     5
  6
CONTINUOUS
 66
     1
 40
0.003000
 41
0.003000
  0
VERTEX
  8
PLAN_1
 62
     5
  6
CONTINUOUS
 10
-0.415614
 20
0.412937
  0
VERTEX
  8
PLAN_1
 62
     5
  6
CONTINUOUS
 10
-0.407059
 20
0.412937
  0
SEQEND
  8
0
  0
POLYLINE
  8
PLAN_1
 62
     5
  6
CONTINUOUS
 66
     1
 40
0.003000
 41
0.003000
  0
VERTEX
  8
PLAN_1
 62
     5
  6
CONTINUOUS
 10
-0.398976
 20
0.412937
  0
VERTEX
  8
PLAN_1
 62
     5
  6
CONTINUOUS
 10
-0.390417
 20
0.412937
  0
SEQEND
  8
0
  0
POLYLINE
  8
PLAN_1
 62
     5
  6
CONTINUOUS
 66
     1
 40
0.003000
 41
0.003000
  0
VERTEX
  8
PLAN_1
 62
     5
  6
CONTINUOUS
 10
-0.381862
 20
0.412937
  0
VERTEX
  8
PLAN_1
 62
     5
  6
CONTINUOUS
 10
-0.373780
 20
0.412937
  0
SEQEND
  8
0
  0
POLYLINE
  8
PLAN_1
 62
     5
  6
CONTINUOUS
 66
     1
 40
0.003000
 41
0.003000
  0
VERTEX
  8
PLAN_1
 62
     5
  6
CONTINUOUS
 10
-0.365224
 20
0.412937
  0
VERTEX
  8
PLAN_1
 62
     5
  6
CONTINUOUS
 10
-0.357142
 20
0.412937
  0
SEQEND
  8
0
  0
POLYLINE
  8
PLAN_1
 62
     5
  6
CONTINUOUS
 66
     1
 40
0.003000
 41
0.003000
  0
VERTEX
  8
PLAN_1
 62
     5
  6
CONTINUOUS
 10
-0.348587
 20
0.412937
  0
VERTEX
  8
PLAN_1
 62
     5
  6
CONTINUOUS
 10
-0.340504
 20
0.412937
  0
SEQEND
  8
0
  0
POLYLINE
  8
PLAN_1
 62
     5
  6
CONTINUOUS
 66
     1
 40
0.003000
 41
0.003000
  0
VERTEX
  8
PLAN_1
 62
     5
  6
CONTINUOUS
 10
-0.331945
 20
0.412937
  0
VERTEX
  8
PLAN_1
 62
     5
  6
CONTINUOUS
 10
-0.323866
 20
0.412937
  0
SEQEND
  8
0
  0
POLYLINE
  8
PLAN_1
 62
     5
  6
CONTINUOUS
 66
     1
 40
0.003000
 41
0.003000
  0
VERTEX
  8
PLAN_1
 62
     5
  6
CONTINUOUS
 10
-0.315307
 20
0.412937
  0
VERTEX
  8
PLAN_1
 62
     5
  6
CONTINUOUS
 10
-0.307224
 20
0.412937
  0
SEQEND
  8
0
  0
POLYLINE
  8
PLAN_1
 62
     5
  6
CONTINUOUS
 66
     1
 40
0.003000
 41
0.003000
  0
VERTEX
  8
PLAN_1
 62
     5
  6
CONTINUOUS
 10
-0.298669
 20
0.412937
  0
VERTEX
  8
PLAN_1
 62
     5
  6
CONTINUOUS
 10
-0.290587
 20
0.412937
  0
SEQEND
  8
0
  0
POLYLINE
  8
PLAN_1
 62
     5
  6
CONTINUOUS
 66
     1
 40
0.003000
 41
0.003000
  0
VERTEX
  8
PLAN_1
 62
     5
  6
CONTINUOUS
 10
-0.282031
 20
0.412937
  0
VERTEX
  8
PLAN_1
 62
     5
  6
CONTINUOUS
 10
-0.273949
 20
0.412937
  0
SEQEND
  8
0
  0
POLYLINE
  8
PLAN_1
 62
     5
  6
CONTINUOUS
 66
     1
 40
0.003000
 41
0.003000
  0
VERTEX
  8
PLAN_1
 62
     5
  6
CONTINUOUS
 10
-0.265390
 20
0.412937
  0
VERTEX
  8
PLAN_1
 62
     5
  6
CONTINUOUS
 10
-0.257311
 20
0.412937
  0
SEQEND
  8
0
  0
POLYLINE
  8
PLAN_1
 62
     5
  6
CONTINUOUS
 66
     1
 40
0.003000
 41
0.003000
  0
VERTEX
  8
PLAN_1
 62
     5
  6
CONTINUOUS
 10
-0.248752
 20
0.412937
  0
VERTEX
  8
PLAN_1
 62
     5
  6
CONTINUOUS
 10
-0.240669
 20
0.412937
  0
SEQEND
  8
0
  0
POLYLINE
  8
PLAN_1
 62
     5
  6
CONTINUOUS
 66
     1
 40
0.003000
 41
0.003000
  0
VERTEX
  8
PLAN_1
 62
     5
  6
CONTINUOUS
 10
-0.232114
 20
0.412937
  0
VERTEX
  8
PLAN_1
 62
     5
  6
CONTINUOUS
 10
-0.224031
 20
0.412937
  0
SEQEND
  8
0
  0
POLYLINE
  8
PLAN_1
 62
     5
  6
CONTINUOUS
 66
     1
 40
0.003000
 41
0.003000
  0
VERTEX
  8
PLAN_1
 62
     5
  6
CONTINUOUS
 10
-0.215476
 20
0.412937
  0
VERTEX
  8
PLAN_1
 62
     5
  6
CONTINUOUS
 10
-0.207394
 20
0.412937
  0
SEQEND
  8
0
  0
POLYLINE
  8
PLAN_1
 62
     5
  6
CONTINUOUS
 66
     1
 40
0.003000
 41
0.003000
  0
VERTEX
  8
PLAN_1
 62
     5
  6
CONTINUOUS
 10
-0.198835
 20
0.412937
  0
VERTEX
  8
PLAN_1
 62
     5
  6
CONTINUOUS
 10
-0.190756
 20
0.412937
  0
SEQEND
  8
0
  0
POLYLINE
  8
PLAN_1
 62
     5
  6
CONTINUOUS
 66
     1
 40
0.003000
 41
0.003000
  0
VERTEX
  8
PLAN_1
 62
     5
  6
CONTINUOUS
 10
-0.182197
 20
0.412937
  0
VERTEX
  8
PLAN_1
 62
     5
  6
CONTINUOUS
 10
-0.173642
 20
0.412937
  0
SEQEND
  8
0
  0
POLYLINE
  8
PLAN_1
 62
     5
  6
CONTINUOUS
 66
     1
 40
0.003000
 41
0.003000
  0
VERTEX
  8
PLAN_1
 62
     5
  6
CONTINUOUS
 10
-0.165559
 20
0.412937
  0
VERTEX
  8
PLAN_1
 62
     5
  6
CONTINUOUS
 10
-0.157004
 20
0.412937
  0
SEQEND
  8
0
  0
POLYLINE
  8
PLAN_1
 62
     5
  6
CONTINUOUS
 66
     1
 40
0.003000
 41
0.003000
  0
VERTEX
  8
PLAN_1
 62
     5
  6
CONTINUOUS
 10
-0.148921
 20
0.412937
  0
VERTEX
  8
PLAN_1
 62
     5
  6
CONTINUOUS
 10
-0.140362
 20
0.412937
  0
SEQEND
  8
0
  0
POLYLINE
  8
PLAN_1
 62
     5
  6
CONTINUOUS
 66
     1
 40
0.003000
 41
0.003000
  0
VERTEX
  8
PLAN_1
 62
     5
  6
CONTINUOUS
 10
-0.132283
 20
0.412937
  0
VERTEX
  8
PLAN_1
 62
     5
  6
CONTINUOUS
 10
-0.123724
 20
0.412937
  0
SEQEND
  8
0
  0
POLYLINE
  8
PLAN_1
 62
     5
  6
CONTINUOUS
 66
     1
 40
0.003000
 41
0.003000
  0
VERTEX
  8
PLAN_1
 62
     5
  6
CONTINUOUS
 10
-0.115642
 20
0.412937
  0
VERTEX
  8
PLAN_1
 62
     5
  6
CONTINUOUS
 10
-0.107087
 20
0.412937
  0
SEQEND
  8
0
  0
POLYLINE
  8
PLAN_1
 62
     5
  6
CONTINUOUS
 66
     1
 40
0.003000
 41
0.003000
  0
VERTEX
  8
PLAN_1
 62
     5
  6
CONTINUOUS
 10
-0.099004
 20
0.412937
  0
VERTEX
  8
PLAN_1
 62
     5
  6
CONTINUOUS
 10
-0.090449
 20
0.412937
  0
SEQEND
  8
0
  0
POLYLINE
  8
PLAN_1
 62
     5
  6
CONTINUOUS
 66
     1
 40
0.003000
 41
0.003000
  0
VERTEX
  8
PLAN_1
 62
     5
  6
CONTINUOUS
 10
-0.082366
 20
0.412937
  0
VERTEX
  8
PLAN_1
 62
     5
  6
CONTINUOUS
 10
-0.073807
 20
0.412937
  0
SEQEND
  8
0
  0
POLYLINE
  8
PLAN_1
 62
     5
  6
CONTINUOUS
 66
     1
 40
0.003000
 41
0.003000
  0
VERTEX
  8
PLAN_1
 62
     5
  6
CONTINUOUS
 10
-0.065728
 20
0.412937
  0
VERTEX
  8
PLAN_1
 62
     5
  6
CONTINUOUS
 10
-0.057169
 20
0.412937
  0
SEQEND
  8
0
  0
POLYLINE
  8
PLAN_1
 62
     5
  6
CONTINUOUS
 66
     1
 40
0.003000
 41
0.003000
  0
VERTEX
  8
PLAN_1
 62
     5
  6
CONTINUOUS
 10
-0.049087
 20
0.412937
  0
VERTEX
  8
PLAN_1
 62
     5
  6
CONTINUOUS
 10
-0.040531
 20
0.412937
  0
SEQEND
  8
0
  0
POLYLINE
  8
PLAN_1
 62
     5
  6
CONTINUOUS
 66
     1
 40
0.003000
 41
0.003000
  0
VERTEX
  8
PLAN_1
 62
     5
  6
CONTINUOUS
 10
-0.032449
 20
0.412937
  0
VERTEX
  8
PLAN_1
 62
     5
  6
CONTINUOUS
 10
-0.023894
 20
0.412937
  0
SEQEND
  8
0
  0
POLYLINE
  8
PLAN_1
 62
     5
  6
CONTINUOUS
 66
     1
 40
0.003000
 41
0.003000
  0
VERTEX
  8
PLAN_1
 62
     5
  6
CONTINUOUS
 10
-0.015811
 20
0.412937
  0
VERTEX
  8
PLAN_1
 62
     5
  6
CONTINUOUS
 10
-0.007252
 20
0.412937
  0
SEQEND
  8
0
  0
POLYLINE
  8
PLAN_1
 62
     5
  6
CONTINUOUS
 66
     1
 40
0.003000
 41
0.003000
  0
VERTEX
  8
PLAN_1
 62
     5
  6
CONTINUOUS
 10
0.000827
 20
0.412937
  0
VERTEX
  8
PLAN_1
 62
     5
  6
CONTINUOUS
 10
0.009386
 20
0.412937
  0
SEQEND
  8
0
  0
POLYLINE
  8
PLAN_1
 62
     5
  6
CONTINUOUS
 66
     1
 40
0.003000
 41
0.003000
  0
VERTEX
  8
PLAN_1
 62
     5
  6
CONTINUOUS
 10
0.017465
 20
0.412937
  0
VERTEX
  8
PLAN_1
 62
     5
  6
CONTINUOUS
 10
0.026024
 20
0.412937
  0
SEQEND
  8
0
  0
POLYLINE
  8
PLAN_1
 62
     5
  6
CONTINUOUS
 66
     1
 40
0.003000
 41
0.003000
  0
VERTEX
  8
PLAN_1
 62
     5
  6
CONTINUOUS
 10
0.034579
 20
0.412937
  0
VERTEX
  8
PLAN_1
 62
     5
  6
CONTINUOUS
 10
0.042661
 20
0.412937
  0
SEQEND
  8
0
  0
POLYLINE
  8
PLAN_1
 62
     5
  6
CONTINUOUS
 66
     1
 40
0.003000
 41
0.003000
  0
VERTEX
  8
PLAN_1
 62
     5
  6
CONTINUOUS
 10
0.051220
 20
0.412937
  0
VERTEX
  8
PLAN_1
 62
     5
  6
CONTINUOUS
 10
0.059299
 20
0.412937
  0
SEQEND
  8
0
  0
POLYLINE
  8
PLAN_1
 62
     5
  6
CONTINUOUS
 66
     1
 40
0.003000
 41
0.003000
  0
VERTEX
  8
PLAN_1
 62
     5
  6
CONTINUOUS
 10
0.067858
 20
0.412937
  0
VERTEX
  8
PLAN_1
 62
     5
  6
CONTINUOUS
 10
0.073563
 20
0.412937
  0
VERTEX
  8
PLAN_1
 62
     5
  6
CONTINUOUS
 10
0.073563
 20
0.410559
  0
SEQEND
  8
0
  0
POLYLINE
  8
PLAN_1
 62
     5
  6
CONTINUOUS
 66
     1
 40
0.003000
 41
0.003000
  0
VERTEX
  8
PLAN_1
 62
     5
  6
CONTINUOUS
 10
0.073563
 20
0.402480
  0
VERTEX
  8
PLAN_1
 62
     5
  6
CONTINUOUS
 10
0.073563
 20
0.393921
  0
SEQEND
  8
0
  0
POLYLINE
  8
PLAN_1
 62
     5
  6
CONTINUOUS
 66
     1
 40
0.003000
 41
0.003000
  0
VERTEX
  8
PLAN_1
 62
     5
  6
CONTINUOUS
 10
0.073563
 20
0.385839
  0
VERTEX
  8
PLAN_1
 62
     5
  6
CONTINUOUS
 10
0.073563
 20
0.377283
  0
SEQEND
  8
0
  0
POLYLINE
  8
PLAN_1
 62
     5
  6
CONTINUOUS
 66
     1
 40
0.003000
 41
0.003000
  0
VERTEX
  8
PLAN_1
 62
     5
  6
CONTINUOUS
 10
0.073563
 20
0.369201
  0
VERTEX
  8
PLAN_1
 62
     5
  6
CONTINUOUS
 10
0.073563
 20
0.360646
  0
SEQEND
  8
0
  0
POLYLINE
  8
PLAN_1
 62
     5
  6
CONTINUOUS
 66
     1
 40
0.003000
 41
0.003000
  0
VERTEX
  8
PLAN_1
 62
     5
  6
CONTINUOUS
 10
0.073563
 20
0.352563
  0
VERTEX
  8
PLAN_1
 62
     5
  6
CONTINUOUS
 10
0.073563
 20
0.344004
  0
SEQEND
  8
0
  0
POLYLINE
  8
PLAN_1
 62
     5
  6
CONTINUOUS
 66
     1
 40
0.003000
 41
0.003000
  0
VERTEX
  8
PLAN_1
 62
     5
  6
CONTINUOUS
 10
0.073563
 20
0.335925
  0
VERTEX
  8
PLAN_1
 62
     5
  6
CONTINUOUS
 10
0.073563
 20
0.327366
  0
SEQEND
  8
0
  0
POLYLINE
  8
PLAN_1
 62
     5
  6
CONTINUOUS
 66
     1
 40
0.003000
 41
0.003000
  0
VERTEX
  8
PLAN_1
 62
     5
  6
CONTINUOUS
 10
0.073563
 20
0.319283
  0
VERTEX
  8
PLAN_1
 62
     5
  6
CONTINUOUS
 10
0.073563
 20
0.310728
  0
SEQEND
  8
0
  0
POLYLINE
  8
PLAN_1
 62
     5
  6
CONTINUOUS
 66
     1
 40
0.003000
 41
0.003000
  0
VERTEX
  8
PLAN_1
 62
     5
  6
CONTINUOUS
 10
0.073563
 20
0.302646
  0
VERTEX
  8
PLAN_1
 62
     5
  6
CONTINUOUS
 10
0.073563
 20
0.294091
  0
SEQEND
  8
0
  0
POLYLINE
  8
PLAN_1
 62
     5
  6
CONTINUOUS
 66
     1
 40
0.003000
 41
0.003000
  0
VERTEX
  8
PLAN_1
 62
     5
  6
CONTINUOUS
 10
0.073563
 20
0.286008
  0
VERTEX
  8
PLAN_1
 62
     5
  6
CONTINUOUS
 10
0.073563
 20
0.277453
  0
SEQEND
  8
0
  0
POLYLINE
  8
PLAN_1
 62
     5
  6
CONTINUOUS
 66
     1
 40
0.003000
 41
0.003000
  0
VERTEX
  8
PLAN_1
 62
     5
  6
CONTINUOUS
 10
0.075941
 20
0.271748
  0
VERTEX
  8
PLAN_1
 62
     5
  6
CONTINUOUS
 10
0.084496
 20
0.271748
  0
SEQEND
  8
0
  0
POLYLINE
  8
PLAN_1
 62
     5
  6
CONTINUOUS
 66
     1
 40
0.003000
 41
0.003000
  0
VERTEX
  8
PLAN_1
 62
     5
  6
CONTINUOUS
 10
0.093055
 20
0.271748
  0
VERTEX
  8
PLAN_1
 62
     5
  6
CONTINUOUS
 10
0.101134
 20
0.271748
  0
SEQEND
  8
0
  0
POLYLINE
  8
PLAN_1
 62
     5
  6
CONTINUOUS
 66
     1
 40
0.003000
 41
0.003000
  0
VERTEX
  8
PLAN_1
 62
     5
  6
CONTINUOUS
 10
0.109693
 20
0.271748
  0
VERTEX
  8
PLAN_1
 62
     5
  6
CONTINUOUS
 10
0.112543
 20
0.271748
  0
VERTEX
  8
PLAN_1
 62
     5
  6
CONTINUOUS
 10
0.112543
 20
0.266516
  0
SEQEND
  8
0
  0
POLYLINE
  8
PLAN_1
 62
     5
  6
CONTINUOUS
 66
     1
 40
0.003000
 41
0.003000
  0
VERTEX
  8
PLAN_1
 62
     5
  6
CONTINUOUS
 10
0.112543
 20
0.257961
  0
VERTEX
  8
PLAN_1
 62
     5
  6
CONTINUOUS
 10
0.112543
 20
0.249878
  0
SEQEND
  8
0
  0
POLYLINE
  8
PLAN_1
 62
     5
  6
CONTINUOUS
 66
     1
 40
0.003000
 41
0.003000
  0
VERTEX
  8
PLAN_1
 62
     5
  6
CONTINUOUS
 10
0.112543
 20
0.241323
  0
VERTEX
  8
PLAN_1
 62
     5
  6
CONTINUOUS
 10
0.112543
 20
0.233240
  0
SEQEND
  8
0
  0
POLYLINE
  8
PLAN_1
 62
     5
  6
CONTINUOUS
 66
     1
 40
0.003000
 41
0.003000
  0
VERTEX
  8
PLAN_1
 62
     5
  6
CONTINUOUS
 10
0.112543
 20
0.224681
  0
VERTEX
  8
PLAN_1
 62
     5
  6
CONTINUOUS
 10
0.112543
 20
0.216602
  0
SEQEND
  8
0
  0
POLYLINE
  8
PLAN_1
 62
     5
  6
CONTINUOUS
 66
     1
 40
0.003000
 41
0.003000
  0
VERTEX
  8
PLAN_1
 62
     5
  6
CONTINUOUS
 10
0.112543
 20
0.208043
  0
VERTEX
  8
PLAN_1
 62
     5
  6
CONTINUOUS
 10
0.112543
 20
0.199961
  0
SEQEND
  8
0
  0
POLYLINE
  8
PLAN_1
 62
     5
  6
CONTINUOUS
 66
     1
 40
0.003000
 41
0.003000
  0
VERTEX
  8
PLAN_1
 62
     5
  6
CONTINUOUS
 10
0.112543
 20
0.191406
  0
VERTEX
  8
PLAN_1
 62
     5
  6
CONTINUOUS
 10
0.112543
 20
0.183323
  0
SEQEND
  8
0
  0
POLYLINE
  8
PLAN_1
 62
     5
  6
CONTINUOUS
 66
     1
 40
0.003000
 41
0.003000
  0
VERTEX
  8
PLAN_1
 62
     5
  6
CONTINUOUS
 10
0.112543
 20
0.174768
  0
VERTEX
  8
PLAN_1
 62
     5
  6
CONTINUOUS
 10
0.112543
 20
0.166685
  0
SEQEND
  8
0
  0
POLYLINE
  8
PLAN_1
 62
     5
  6
CONTINUOUS
 66
     1
 40
0.003000
 41
0.003000
  0
VERTEX
  8
PLAN_1
 62
     5
  6
CONTINUOUS
 10
0.112543
 20
0.158126
  0
VERTEX
  8
PLAN_1
 62
     5
  6
CONTINUOUS
 10
0.112543
 20
0.150047
  0
SEQEND
  8
0
  0
POLYLINE
  8
PLAN_1
 62
     5
  6
CONTINUOUS
 66
     1
 40
0.003000
 41
0.003000
  0
VERTEX
  8
PLAN_1
 62
     5
  6
CONTINUOUS
 10
0.112543
 20
0.141488
  0
VERTEX
  8
PLAN_1
 62
     5
  6
CONTINUOUS
 10
0.112543
 20
0.132933
  0
SEQEND
  8
0
  0
POLYLINE
  8
PLAN_1
 62
     5
  6
CONTINUOUS
 66
     1
 40
0.003000
 41
0.003000
  0
VERTEX
  8
PLAN_1
 62
     5
  6
CONTINUOUS
 10
0.112543
 20
0.124850
  0
VERTEX
  8
PLAN_1
 62
     5
  6
CONTINUOUS
 10
0.112543
 20
0.116295
  0
SEQEND
  8
0
  0
POLYLINE
  8
PLAN_1
 62
     5
  6
CONTINUOUS
 66
     1
 40
0.003000
 41
0.003000
  0
VERTEX
  8
PLAN_1
 62
     5
  6
CONTINUOUS
 10
0.112543
 20
0.108213
  0
VERTEX
  8
PLAN_1
 62
     5
  6
CONTINUOUS
 10
0.112543
 20
0.099654
  0
SEQEND
  8
0
  0
POLYLINE
  8
PLAN_1
 62
     5
  6
CONTINUOUS
 66
     1
 40
0.003000
 41
0.003000
  0
VERTEX
  8
PLAN_1
 62
     5
  6
CONTINUOUS
 10
0.112543
 20
0.091575
  0
VERTEX
  8
PLAN_1
 62
     5
  6
CONTINUOUS
 10
0.112543
 20
0.083016
  0
SEQEND
  8
0
  0
POLYLINE
  8
PLAN_1
 62
     5
  6
CONTINUOUS
 66
     1
 40
0.003000
 41
0.003000
  0
VERTEX
  8
PLAN_1
 62
     5
  6
CONTINUOUS
 10
0.112543
 20
0.074933
  0
VERTEX
  8
PLAN_1
 62
     5
  6
CONTINUOUS
 10
0.112543
 20
0.066378
  0
SEQEND
  8
0
  0
POLYLINE
  8
PLAN_1
 62
     5
  6
CONTINUOUS
 66
     1
 40
0.003000
 41
0.003000
  0
VERTEX
  8
PLAN_1
 62
     5
  6
CONTINUOUS
 10
0.112543
 20
0.058295
  0
VERTEX
  8
PLAN_1
 62
     5
  6
CONTINUOUS
 10
0.112543
 20
0.049740
  0
SEQEND
  8
0
  0
POLYLINE
  8
PLAN_1
 62
     5
  6
CONTINUOUS
 66
     1
 40
0.003000
 41
0.003000
  0
VERTEX
  8
PLAN_1
 62
     5
  6
CONTINUOUS
 10
0.112543
 20
0.041657
  0
VERTEX
  8
PLAN_1
 62
     5
  6
CONTINUOUS
 10
0.112543
 20
0.033098
  0
SEQEND
  8
0
  0
POLYLINE
  8
PLAN_1
 62
     5
  6
CONTINUOUS
 66
     1
 40
0.003000
 41
0.003000
  0
VERTEX
  8
PLAN_1
 62
     5
  6
CONTINUOUS
 10
0.112543
 20
0.025020
  0
VERTEX
  8
PLAN_1
 62
     5
  6
CONTINUOUS
 10
0.112543
 20
0.016461
  0
SEQEND
  8
0
  0
POLYLINE
  8
PLAN_1
 62
     5
  6
CONTINUOUS
 66
     1
 40
0.003000
 41
0.003000
  0
VERTEX
  8
PLAN_1
 62
     5
  6
CONTINUOUS
 10
0.112543
 20
0.008378
  0
VERTEX
  8
PLAN_1
 62
     5
  6
CONTINUOUS
 10
0.112543
 20
-0.000177
  0
SEQEND
  8
0
  0
POLYLINE
  8
PLAN_1
 62
     5
  6
CONTINUOUS
 66
     1
 40
0.003000
 41
0.003000
  0
VERTEX
  8
PLAN_1
 62
     5
  6
CONTINUOUS
 10
0.112543
 20
-0.008260
  0
VERTEX
  8
PLAN_1
 62
     5
  6
CONTINUOUS
 10
0.112543
 20
-0.011110
  0
VERTEX
  8
PLAN_1
 62
     5
  6
CONTINUOUS
 10
0.106839
 20
-0.011110
  0
SEQEND
  8
0
  0
POLYLINE
  8
PLAN_1
 62
     5
  6
CONTINUOUS
 66
     1
 40
0.003000
 41
0.003000
  0
VERTEX
  8
PLAN_1
 62
     5
  6
CONTINUOUS
 10
0.098760
 20
-0.011110
  0
VERTEX
  8
PLAN_1
 62
     5
  6
CONTINUOUS
 10
0.090201
 20
-0.011110
  0
SEQEND
  8
0
  0
POLYLINE
  8
PLAN_1
 62
     5
  6
CONTINUOUS
 66
     1
 40
0.003000
 41
0.003000
  0
VERTEX
  8
PLAN_1
 62
     5
  6
CONTINUOUS
 10
0.082118
 20
-0.011110
  0
VERTEX
  8
PLAN_1
 62
     5
  6
CONTINUOUS
 10
0.073563
 20
-0.011110
  0
SEQEND
  8
0
  0
POLYLINE
  8
PLAN_1
 62
     5
  6
CONTINUOUS
 66
     1
 40
0.003000
 41
0.003000
  0
VERTEX
  8
PLAN_1
 62
     5
  6
CONTINUOUS
 10
0.073563
 20
-0.019669
  0
VERTEX
  8
PLAN_1
 62
     5
  6
CONTINUOUS
 10
0.073563
 20
-0.027752
  0
SEQEND
  8
0
  0
POLYLINE
  8
PLAN_1
 62
     5
  6
CONTINUOUS
 66
     1
 40
0.003000
 41
0.003000
  0
VERTEX
  8
PLAN_1
 62
     5
  6
CONTINUOUS
 10
0.073563
 20
-0.036307
  0
VERTEX
  8
PLAN_1
 62
     5
  6
CONTINUOUS
 10
0.073563
 20
-0.044390
  0
SEQEND
  8
0
  0
POLYLINE
  8
PLAN_1
 62
     5
  6
CONTINUOUS
 66
     1
 40
0.003000
 41
0.003000
  0
VERTEX
  8
PLAN_1
 62
     5
  6
CONTINUOUS
 10
0.073563
 20
-0.052945
  0
VERTEX
  8
PLAN_1
 62
     5
  6
CONTINUOUS
 10
0.073563
 20
-0.061028
  0
SEQEND
  8
0
  0
POLYLINE
  8
PLAN_1
 62
     5
  6
CONTINUOUS
 66
     1
 40
0.003000
 41
0.003000
  0
VERTEX
  8
PLAN_1
 62
     5
  6
CONTINUOUS
 10
0.073563
 20
-0.069583
  0
VERTEX
  8
PLAN_1
 62
     5
  6
CONTINUOUS
 10
0.073563
 20
-0.077665
  0
SEQEND
  8
0
  0
POLYLINE
  8
PLAN_1
 62
     5
  6
CONTINUOUS
 66
     1
 40
0.003000
 41
0.003000
  0
VERTEX
  8
PLAN_1
 62
     5
  6
CONTINUOUS
 10
0.073563
 20
-0.086224
  0
VERTEX
  8
PLAN_1
 62
     5
  6
CONTINUOUS
 10
0.073563
 20
-0.094303
  0
SEQEND
  8
0
  0
POLYLINE
  8
PLAN_1
 62
     5
  6
CONTINUOUS
 66
     1
 40
0.003000
 41
0.003000
  0
VERTEX
  8
PLAN_1
 62
     5
  6
CONTINUOUS
 10
0.073563
 20
-0.102862
  0
VERTEX
  8
PLAN_1
 62
     5
  6
CONTINUOUS
 10
0.073563
 20
-0.110945
  0
SEQEND
  8
0
  0
POLYLINE
  8
PLAN_1
 62
     5
  6
CONTINUOUS
 66
     1
 40
0.003000
 41
0.003000
  0
VERTEX
  8
PLAN_1
 62
     5
  6
CONTINUOUS
 10
0.073563
 20
-0.119500
  0
VERTEX
  8
PLAN_1
 62
     5
  6
CONTINUOUS
 10
0.073563
 20
-0.127583
  0
SEQEND
  8
0
  0
POLYLINE
  8
PLAN_1
 62
     5
  6
CONTINUOUS
 66
     1
 40
0.003000
 41
0.003000
  0
VERTEX
  8
PLAN_1
 62
     5
  6
CONTINUOUS
 10
0.073563
 20
-0.136138
  0
VERTEX
  8
PLAN_1
 62
     5
  6
CONTINUOUS
 10
0.073563
 20
-0.144220
  0
SEQEND
  8
0
  0
POLYLINE
  8
PLAN_1
 62
     5
  6
CONTINUOUS
 66
     1
 40
0.003000
 41
0.003000
  0
VERTEX
  8
PLAN_1
 62
     5
  6
CONTINUOUS
 10
0.073563
 20
-0.152780
  0
VERTEX
  8
PLAN_1
 62
     5
  6
CONTINUOUS
 10
0.073563
 20
-0.161335
  0
SEQEND
  8
0
  0
POLYLINE
  8
PLAN_1
 62
     5
  6
CONTINUOUS
 66
     1
 40
0.003000
 41
0.003000
  0
VERTEX
  8
PLAN_1
 62
     5
  6
CONTINUOUS
 10
0.073563
 20
-0.169417
  0
VERTEX
  8
PLAN_1
 62
     5
  6
CONTINUOUS
 10
0.073563
 20
-0.177972
  0
SEQEND
  8
0
  0
POLYLINE
  8
PLAN_1
 62
     5
  6
CONTINUOUS
 66
     1
 40
0.003000
 41
0.003000
  0
VERTEX
  8
PLAN_1
 62
     5
  6
CONTINUOUS
 10
0.073563
 20
-0.186055
  0
VERTEX
  8
PLAN_1
 62
     5
  6
CONTINUOUS
 10
0.073563
 20
-0.194614
  0
SEQEND
  8
0
  0
POLYLINE
  8
PLAN_1
 62
     5
  6
CONTINUOUS
 66
     1
 40
0.003000
 41
0.003000
  0
VERTEX
  8
PLAN_1
 62
     5
  6
CONTINUOUS
 10
0.073563
 20
-0.202693
  0
VERTEX
  8
PLAN_1
 62
     5
  6
CONTINUOUS
 10
0.073563
 20
-0.211252
  0
SEQEND
  8
0
  0
POLYLINE
  8
PLAN_1
 62
     5
  6
CONTINUOUS
 66
     1
 40
0.003000
 41
0.003000
  0
VERTEX
  8
PLAN_1
 62
     5
  6
CONTINUOUS
 10
0.073563
 20
-0.219335
  0
VERTEX
  8
PLAN_1
 62
     5
  6
CONTINUOUS
 10
0.073563
 20
-0.227890
  0
SEQEND
  8
0
  0
POLYLINE
  8
PLAN_1
 62
     5
  6
CONTINUOUS
 66
     1
 40
0.003000
 41
0.003000
  0
VERTEX
  8
PLAN_1
 62
     5
  6
CONTINUOUS
 10
0.073563
 20
-0.235972
  0
VERTEX
  8
PLAN_1
 62
     5
  6
CONTINUOUS
 10
0.073563
 20
-0.244528
  0
SEQEND
  8
0
  0
POLYLINE
  8
PLAN_1
 62
     5
  6
CONTINUOUS
 66
     1
 40
0.003000
 41
0.003000
  0
VERTEX
  8
PLAN_1
 62
     5
  6
CONTINUOUS
 10
0.073563
 20
-0.252610
  0
VERTEX
  8
PLAN_1
 62
     5
  6
CONTINUOUS
 10
0.073563
 20
-0.261165
  0
SEQEND
  8
0
  0
POLYLINE
  8
PLAN_1
 62
     5
  6
CONTINUOUS
 66
     1
 40
0.003000
 41
0.003000
  0
VERTEX
  8
PLAN_1
 62
     5
  6
CONTINUOUS
 10
0.073563
 20
-0.269248
  0
VERTEX
  8
PLAN_1
 62
     5
  6
CONTINUOUS
 10
0.073563
 20
-0.277807
  0
SEQEND
  8
0
  0
POLYLINE
  8
PLAN_1
  6
CONTINUOUS
 66
     1
 40
0.008555
 41
0.008555
  0
VERTEX
  8
PLAN_1
  6
CONTINUOUS
 10
-0.879594
 20
0.414839
  0
VERTEX
  8
PLAN_1
  6
CONTINUOUS
 10
-0.879594
 20
0.599291
  0
VERTEX
  8
PLAN_1
  6
CONTINUOUS
 10
-1.225681
 20
0.599291
  0
SEQEND
  8
0
  0
POLYLINE
  8
PLAN_1
  6
CONTINUOUS
 66
     1
 40
0.008555
 41
0.008555
  0
VERTEX
  8
PLAN_1
  6
CONTINUOUS
 10
0.075941
 20
0.599291
  0
VERTEX
  8
PLAN_1
  6
CONTINUOUS
 10
-0.251130
 20
0.599291
  0
VERTEX
  8
PLAN_1
  6
CONTINUOUS
 10
-0.251130
 20
0.414839
  0
SEQEND
  8
0
  0
POLYLINE
  8
PLAN_1
  6
CONTINUOUS
 66
     1
 40
0.008555
 41
0.008555
  0
VERTEX
  8
PLAN_1
  6
CONTINUOUS
 10
-0.983232
 20
0.416740
  0
VERTEX
  8
PLAN_1
  6
CONTINUOUS
 10
-0.983232
 20
0.599291
  0
SEQEND
  8
0
  0
POLYLINE
  8
PLAN_1
  6
CONTINUOUS
 66
     1
 40
0.008555
 41
0.008555
  0
VERTEX
  8
PLAN_1
  6
CONTINUOUS
 10
-0.163181
 20
0.416740
  0
VERTEX
  8
PLAN_1
  6
CONTINUOUS
 10
-0.163181
 20
0.599291
  0
SEQEND
  8
0
  0
POLYLINE
  8
PLAN_1
  6
CONTINUOUS
 66
     1
 40
0.008555
 41
0.008555
  0
VERTEX
  8
PLAN_1
  6
CONTINUOUS
 10
-1.219976
 20
1.207315
  0
VERTEX
  8
PLAN_1
  6
CONTINUOUS
 10
0.070709
 20
1.207315
  0
SEQEND
  8
0
  0
POLYLINE
  8
PLAN_1
  6
CONTINUOUS
 66
     1
 40
0.008555
 41
0.008555
  0
VERTEX
  8
PLAN_1
  6
CONTINUOUS
 10
-1.921654
 20
0.822248
  0
VERTEX
  8
PLAN_1
  6
CONTINUOUS
 10
-1.921654
 20
1.245823
  0
VERTEX
  8
PLAN_1
  6
CONTINUOUS
 10
-2.021961
 20
1.245823
  0
VERTEX
  8
PLAN_1
  6
CONTINUOUS
 10
-2.021961
 20
0.822248
  0
VERTEX
  8
PLAN_1
  6
CONTINUOUS
 10
-1.921654
 20
0.822248
  0
SEQEND
  8
0
  0
POLYLINE
  8
PLAN_1
  6
CONTINUOUS
 66
     1
 40
0.008555
 41
0.008555
  0
VERTEX
  8
PLAN_1
  6
CONTINUOUS
 10
-2.021012
 20
1.137433
  0
VERTEX
  8
PLAN_1
  6
CONTINUOUS
 10
-1.924031
 20
1.137433
  0
SEQEND
  8
0
  0
POLYLINE
  8
PLAN_1
  6
CONTINUOUS
 66
     1
 40
0.008555
 41
0.008555
  0
VERTEX
  8
PLAN_1
  6
CONTINUOUS
 10
-2.021012
 20
0.930161
  0
VERTEX
  8
PLAN_1
  6
CONTINUOUS
 10
-1.924031
 20
0.930161
  0
SEQEND
  8
0
  0
POLYLINE
  8
PLAN_1
  6
CONTINUOUS
 66
     1
 40
0.008555
 41
0.008555
  0
VERTEX
  8
PLAN_1
  6
CONTINUOUS
 10
-2.009602
 20
1.245823
  0
VERTEX
  8
PLAN_1
  6
CONTINUOUS
 10
-2.011028
 20
1.242969
  0
VERTEX
  8
PLAN_1
  6
CONTINUOUS
 10
-2.013878
 20
1.236315
  0
VERTEX
  8
PLAN_1
  6
CONTINUOUS
 10
-2.015307
 20
1.231087
  0
VERTEX
  8
PLAN_1
  6
CONTINUOUS
 10
-2.017209
 20
1.225382
  0
VERTEX
  8
PLAN_1
  6
CONTINUOUS
 10
-2.018634
 20
1.218724
  0
VERTEX
  8
PLAN_1
  6
CONTINUOUS
 10
-2.020059
 20
1.211594
  0
VERTEX
  8
PLAN_1
  6
CONTINUOUS
 10
-2.021012
 20
1.203512
  0
VERTEX
  8
PLAN_1
  6
CONTINUOUS
 10
-2.021961
 20
1.194957
  0
VERTEX
  8
PLAN_1
  6
CONTINUOUS
 10
-2.021484
 20
1.185921
  0
VERTEX
  8
PLAN_1
  6
CONTINUOUS
 10
-2.021012
 20
1.176890
  0
VERTEX
  8
PLAN_1
  6
CONTINUOUS
 10
-2.019110
 20
1.167382
  0
VERTEX
  8
PLAN_1
  6
CONTINUOUS
 10
-2.016256
 20
1.157402
  0
VERTEX
  8
PLAN_1
  6
CONTINUOUS
 10
-2.014831
 20
1.152169
  0
VERTEX
  8
PLAN_1
  6
CONTINUOUS
 10
-2.012453
 20
1.147417
  0
VERTEX
  8
PLAN_1
  6
CONTINUOUS
 10
-2.010075
 20
1.142189
  0
VERTEX
  8
PLAN_1
  6
CONTINUOUS
 10
-2.007701
 20
1.137433
  0
VERTEX
  8
PLAN_1
  6
CONTINUOUS
 10
-2.008650
 20
1.133630
  0
VERTEX
  8
PLAN_1
  6
CONTINUOUS
 10
-2.011976
 20
1.122220
  0
VERTEX
  8
PLAN_1
  6
CONTINUOUS
 10
-2.013878
 20
1.114138
  0
VERTEX
  8
PLAN_1
  6
CONTINUOUS
 10
-2.015780
 20
1.104630
  0
VERTEX
  8
PLAN_1
  6
CONTINUOUS
 10
-2.017681
 20
1.093220
  0
VERTEX
  8
PLAN_1
  6
CONTINUOUS
 10
-2.019110
 20
1.080386
  0
VERTEX
  8
PLAN_1
  6
CONTINUOUS
 10
-2.020535
 20
1.065650
  0
VERTEX
  8
PLAN_1
  6
CONTINUOUS
 10
-2.021484
 20
1.049961
  0
VERTEX
  8
PLAN_1
  6
CONTINUOUS
 10
-2.021961
 20
1.032846
  0
VERTEX
  8
PLAN_1
  6
CONTINUOUS
 10
-2.021484
 20
1.014783
  0
VERTEX
  8
PLAN_1
  6
CONTINUOUS
 10
-2.020059
 20
0.995291
  0
VERTEX
  8
PLAN_1
  6
CONTINUOUS
 10
-2.018157
 20
0.974374
  0
VERTEX
  8
PLAN_1
  6
CONTINUOUS
 10
-2.016256
 20
0.963917
  0
VERTEX
  8
PLAN_1
  6
CONTINUOUS
 10
-2.014831
 20
0.952508
  0
VERTEX
  8
PLAN_1
  6
CONTINUOUS
 10
-2.012453
 20
0.941571
  0
VERTEX
  8
PLAN_1
  6
CONTINUOUS
 10
-2.010075
 20
0.929689
  0
VERTEX
  8
PLAN_1
  6
CONTINUOUS
 10
-2.011504
 20
0.927311
  0
VERTEX
  8
PLAN_1
  6
CONTINUOUS
 10
-2.013878
 20
0.920654
  0
VERTEX
  8
PLAN_1
  6
CONTINUOUS
 10
-2.015780
 20
0.915902
  0
VERTEX
  8
PLAN_1
  6
CONTINUOUS
 10
-2.017681
 20
0.910197
  0
VERTEX
  8
PLAN_1
  6
CONTINUOUS
 10
-2.019110
 20
0.903539
  0
VERTEX
  8
PLAN_1
  6
CONTINUOUS
 10
-2.020535
 20
0.896409
  0
VERTEX
  8
PLAN_1
  6
CONTINUOUS
 10
-2.021484
 20
0.888803
  0
VERTEX
  8
PLAN_1
  6
CONTINUOUS
 10
-2.021961
 20
0.880248
  0
VERTEX
  8
PLAN_1
  6
CONTINUOUS
 10
-2.021961
 20
0.871689
  0
VERTEX
  8
PLAN_1
  6
CONTINUOUS
 10
-2.021012
 20
0.862181
  0
VERTEX
  8
PLAN_1
  6
CONTINUOUS
 10
-2.019583
 20
0.852673
  0
VERTEX
  8
PLAN_1
  6
CONTINUOUS
 10
-2.016732
 20
0.843165
  0
VERTEX
  8
PLAN_1
  6
CONTINUOUS
 10
-2.014831
 20
0.837937
  0
VERTEX
  8
PLAN_1
  6
CONTINUOUS
 10
-2.012929
 20
0.833181
  0
VERTEX
  8
PLAN_1
  6
CONTINUOUS
 10
-2.010551
 20
0.827953
  0
VERTEX
  8
PLAN_1
  6
CONTINUOUS
 10
-2.007701
 20
0.823201
  0
SEQEND
  8
0
  0
POLYLINE
  8
PLAN_1
  6
CONTINUOUS
 66
     1
 40
0.008555
 41
0.008555
  0
VERTEX
  8
PLAN_1
  6
CONTINUOUS
 10
-1.319335
 20
1.402701
  0
VERTEX
  8
PLAN_1
  6
CONTINUOUS
 10
-1.319335
 20
0.624012
  0
SEQEND
  8
0
  0
POLYLINE
  8
PLAN_1
  6
CONTINUOUS
 66
     1
 40
0.008555
 41
0.008555
  0
VERTEX
  8
PLAN_1
  6
CONTINUOUS
 10
-2.068551
 20
1.153122
  0
VERTEX
  8
PLAN_1
  6
CONTINUOUS
 10
-2.068551
 20
0.912575
  0
SEQEND
  8
0
  0
POLYLINE
  8
PLAN_1
  6
CONTINUOUS
 66
     1
 40
0.008555
 41
0.008555
  0
VERTEX
  8
PLAN_1
  6
CONTINUOUS
 10
-2.068551
 20
0.912575
  0
VERTEX
  8
PLAN_1
  6
CONTINUOUS
 10
-2.077106
 20
0.920654
  0
VERTEX
  8
PLAN_1
  6
CONTINUOUS
 10
-2.077106
 20
1.143614
  0
VERTEX
  8
PLAN_1
  6
CONTINUOUS
 10
-2.068551
 20
1.152169
  0
VERTEX
  8
PLAN_1
  6
CONTINUOUS
 10
-2.021961
 20
1.153122
  0
VERTEX
  8
PLAN_1
  6
CONTINUOUS
 10
-2.021961
 20
0.912575
  0
VERTEX
  8
PLAN_1
  6
CONTINUOUS
 10
-2.068551
 20
0.912575
  0
SEQEND
  8
0
  0
POLYLINE
  8
PLAN_1
  6
CONTINUOUS
 66
     1
 40
0.008555
 41
0.008555
  0
VERTEX
  8
PLAN_1
  6
CONTINUOUS
 10
-1.855575
 20
2.493724
  0
VERTEX
  8
PLAN_1
  6
CONTINUOUS
 10
-1.855575
 20
3.210138
  0
VERTEX
  8
PLAN_1
  6
CONTINUOUS
 10
-2.014354
 20
3.210138
  0
VERTEX
  8
PLAN_1
  6
CONTINUOUS
 10
-2.014354
 20
2.493724
  0
VERTEX
  8
PLAN_1
  6
CONTINUOUS
 10
-1.855575
 20
2.493724
  0
SEQEND
  8
0
  0
POLYLINE
  8
PLAN_1
  6
CONTINUOUS
 66
     1
 40
0.008555
 41
0.008555
  0
VERTEX
  8
PLAN_1
  6
CONTINUOUS
 10
-2.039075
 20
2.649177
  0
VERTEX
  8
PLAN_1
  6
CONTINUOUS
 10
-2.039075
 20
3.047079
  0
VERTEX
  8
PLAN_1
  6
CONTINUOUS
 10
-2.133201
 20
3.047079
  0
VERTEX
  8
PLAN_1
  6
CONTINUOUS
 10
-2.133201
 20
2.649177
  0
VERTEX
  8
PLAN_1
  6
CONTINUOUS
 10
-2.039075
 20
2.649177
  0
SEQEND
  8
0
  0
POLYLINE
  8
PLAN_1
  6
CONTINUOUS
 66
     1
 40
0.008555
 41
0.008555
  0
VERTEX
  8
PLAN_1
  6
CONTINUOUS
 10
-2.132728
 20
2.945346
  0
VERTEX
  8
PLAN_1
  6
CONTINUOUS
 10
-2.041929
 20
2.945346
  0
SEQEND
  8
0
  0
POLYLINE
  8
PLAN_1
  6
CONTINUOUS
 66
     1
 40
0.008555
 41
0.008555
  0
VERTEX
  8
PLAN_1
  6
CONTINUOUS
 10
-2.132728
 20
2.750433
  0
VERTEX
  8
PLAN_1
  6
CONTINUOUS
 10
-2.041929
 20
2.750433
  0
SEQEND
  8
0
  0
POLYLINE
  8
PLAN_1
  6
CONTINUOUS
 66
     1
 40
0.008555
 41
0.008555
  0
VERTEX
  8
PLAN_1
  6
CONTINUOUS
 10
-2.039551
 20
2.682929
  0
VERTEX
  8
PLAN_1
  6
CONTINUOUS
 10
-2.039551
 20
3.018555
  0
VERTEX
  8
PLAN_1
  6
CONTINUOUS
 10
-2.013878
 20
3.018555
  0
VERTEX
  8
PLAN_1
  6
CONTINUOUS
 10
-2.013878
 20
2.682929
  0
VERTEX
  8
PLAN_1
  6
CONTINUOUS
 10
-2.039551
 20
2.682929
  0
SEQEND
  8
0
  0
POLYLINE
  8
PLAN_1
  6
CONTINUOUS
 66
     1
 40
0.008555
 41
0.008555
  0
VERTEX
  8
PLAN_1
  6
CONTINUOUS
 10
-1.855575
 20
2.681980
  0
VERTEX
  8
PLAN_1
  6
CONTINUOUS
 10
-1.855575
 20
3.017606
  0
VERTEX
  8
PLAN_1
  6
CONTINUOUS
 10
-1.795673
 20
3.017606
  0
VERTEX
  8
PLAN_1
  6
CONTINUOUS
 10
-1.795673
 20
2.681980
  0
VERTEX
  8
PLAN_1
  6
CONTINUOUS
 10
-1.855575
 20
2.681980
  0
SEQEND
  8
0
  0
POLYLINE
  8
PLAN_1
  6
CONTINUOUS
 66
     1
 40
0.008555
 41
0.008555
  0
VERTEX
  8
PLAN_1
  6
CONTINUOUS
 10
-2.121791
 20
3.046602
  0
VERTEX
  8
PLAN_1
  6
CONTINUOUS
 10
-2.123220
 20
3.044228
  0
VERTEX
  8
PLAN_1
  6
CONTINUOUS
 10
-2.125594
 20
3.038047
  0
VERTEX
  8
PLAN_1
  6
CONTINUOUS
 10
-2.127496
 20
3.033291
  0
VERTEX
  8
PLAN_1
  6
CONTINUOUS
 10
-2.128925
 20
3.027587
  0
VERTEX
  8
PLAN_1
  6
CONTINUOUS
 10
-2.130350
 20
3.021409
  0
VERTEX
  8
PLAN_1
  6
CONTINUOUS
 10
-2.131776
 20
3.014752
  0
VERTEX
  8
PLAN_1
  6
CONTINUOUS
 10
-2.132728
 20
3.007146
  0
VERTEX
  8
PLAN_1
  6
CONTINUOUS
 10
-2.133201
 20
2.999063
  0
VERTEX
  8
PLAN_1
  6
CONTINUOUS
 10
-2.133201
 20
2.990984
  0
VERTEX
  8
PLAN_1
  6
CONTINUOUS
 10
-2.132252
 20
2.981949
  0
VERTEX
  8
PLAN_1
  6
CONTINUOUS
 10
-2.130827
 20
2.972917
  0
VERTEX
  8
PLAN_1
  6
CONTINUOUS
 10
-2.128449
 20
2.963886
  0
VERTEX
  8
PLAN_1
  6
CONTINUOUS
 10
-2.126547
 20
2.959130
  0
VERTEX
  8
PLAN_1
  6
CONTINUOUS
 10
-2.124646
 20
2.954378
  0
VERTEX
  8
PLAN_1
  6
CONTINUOUS
 10
-2.122268
 20
2.949622
  0
VERTEX
  8
PLAN_1
  6
CONTINUOUS
 10
-2.119890
 20
2.944870
  0
VERTEX
  8
PLAN_1
  6
CONTINUOUS
 10
-2.121319
 20
2.941543
  0
VERTEX
  8
PLAN_1
  6
CONTINUOUS
 10
-2.124169
 20
2.931083
  0
VERTEX
  8
PLAN_1
  6
CONTINUOUS
 10
-2.125594
 20
2.923476
  0
VERTEX
  8
PLAN_1
  6
CONTINUOUS
 10
-2.127496
 20
2.913969
  0
VERTEX
  8
PLAN_1
  6
CONTINUOUS
 10
-2.129398
 20
2.903512
  0
VERTEX
  8
PLAN_1
  6
CONTINUOUS
 10
-2.130827
 20
2.891626
  0
VERTEX
  8
PLAN_1
  6
CONTINUOUS
 10
-2.132252
 20
2.877839
  0
VERTEX
  8
PLAN_1
  6
CONTINUOUS
 10
-2.133201
 20
2.863102
  0
VERTEX
  8
PLAN_1
  6
CONTINUOUS
 10
-2.133201
 20
2.846941
  0
VERTEX
  8
PLAN_1
  6
CONTINUOUS
 10
-2.133201
 20
2.829827
  0
VERTEX
  8
PLAN_1
  6
CONTINUOUS
 10
-2.131776
 20
2.811760
  0
VERTEX
  8
PLAN_1
  6
CONTINUOUS
 10
-2.129874
 20
2.792268
  0
VERTEX
  8
PLAN_1
  6
CONTINUOUS
 10
-2.128449
 20
2.782287
  0
VERTEX
  8
PLAN_1
  6
CONTINUOUS
 10
-2.126547
 20
2.771827
  0
VERTEX
  8
PLAN_1
  6
CONTINUOUS
 10
-2.124646
 20
2.761370
  0
VERTEX
  8
PLAN_1
  6
CONTINUOUS
 10
-2.122268
 20
2.750433
  0
VERTEX
  8
PLAN_1
  6
CONTINUOUS
 10
-2.123693
 20
2.748059
  0
VERTEX
  8
PLAN_1
  6
CONTINUOUS
 10
-2.126071
 20
2.741878
  0
VERTEX
  8
PLAN_1
  6
CONTINUOUS
 10
-2.127496
 20
2.737126
  0
VERTEX
  8
PLAN_1
  6
CONTINUOUS
 10
-2.129398
 20
2.731894
  0
VERTEX
  8
PLAN_1
  6
CONTINUOUS
 10
-2.130827
 20
2.725717
  0
VERTEX
  8
PLAN_1
  6
CONTINUOUS
 10
-2.132252
 20
2.719059
  0
VERTEX
  8
PLAN_1
  6
CONTINUOUS
 10
-2.133201
 20
2.711929
  0
VERTEX
  8
PLAN_1
  6
CONTINUOUS
 10
-2.133677
 20
2.703846
  0
VERTEX
  8
PLAN_1
  6
CONTINUOUS
 10
-2.133677
 20
2.695764
  0
VERTEX
  8
PLAN_1
  6
CONTINUOUS
 10
-2.132728
 20
2.687209
  0
VERTEX
  8
PLAN_1
  6
CONTINUOUS
 10
-2.131299
 20
2.678177
  0
VERTEX
  8
PLAN_1
  6
CONTINUOUS
 10
-2.128449
 20
2.669142
  0
VERTEX
  8
PLAN_1
  6
CONTINUOUS
 10
-2.127024
 20
2.664390
  0
VERTEX
  8
PLAN_1
  6
CONTINUOUS
 10
-2.125122
 20
2.659634
  0
VERTEX
  8
PLAN_1
  6
CONTINUOUS
 10
-2.122744
 20
2.654882
  0
VERTEX
  8
PLAN_1
  6
CONTINUOUS
 10
-2.120366
 20
2.650126
  0
SEQEND
  8
0
  0
POLYLINE
  8
PLAN_1
 62
     5
  6
CONTINUOUS
 66
     1
 40
0.003000
 41
0.003000
  0
VERTEX
  8
PLAN_1
 62
     5
  6
CONTINUOUS
 10
-1.474787
 20
2.633965
  0
VERTEX
  8
PLAN_1
 62
     5
  6
CONTINUOUS
 10
-1.466228
 20
2.633965
  0
SEQEND
  8
0
  0
POLYLINE
  8
PLAN_1
 62
     5
  6
CONTINUOUS
 66
     1
 40
0.003000
 41
0.003000
  0
VERTEX
  8
PLAN_1
 62
     5
  6
CONTINUOUS
 10
-1.457673
 20
2.633965
  0
VERTEX
  8
PLAN_1
 62
     5
  6
CONTINUOUS
 10
-1.449591
 20
2.633965
  0
SEQEND
  8
0
  0
POLYLINE
  8
PLAN_1
 62
     5
  6
CONTINUOUS
 66
     1
 40
0.003000
 41
0.003000
  0
VERTEX
  8
PLAN_1
 62
     5
  6
CONTINUOUS
 10
-1.441031
 20
2.633965
  0
VERTEX
  8
PLAN_1
 62
     5
  6
CONTINUOUS
 10
-1.432953
 20
2.633965
  0
SEQEND
  8
0
  0
POLYLINE
  8
PLAN_1
 62
     5
  6
CONTINUOUS
 66
     1
 40
0.003000
 41
0.003000
  0
VERTEX
  8
PLAN_1
 62
     5
  6
CONTINUOUS
 10
-1.424394
 20
2.633965
  0
VERTEX
  8
PLAN_1
 62
     5
  6
CONTINUOUS
 10
-1.416311
 20
2.633965
  0
SEQEND
  8
0
  0
POLYLINE
  8
PLAN_1
 62
     5
  6
CONTINUOUS
 66
     1
 40
0.003000
 41
0.003000
  0
VERTEX
  8
PLAN_1
 62
     5
  6
CONTINUOUS
 10
-1.407756
 20
2.633965
  0
VERTEX
  8
PLAN_1
 62
     5
  6
CONTINUOUS
 10
-1.399673
 20
2.633965
  0
SEQEND
  8
0
  0
POLYLINE
  8
PLAN_1
 62
     5
  6
CONTINUOUS
 66
     1
 40
0.003000
 41
0.003000
  0
VERTEX
  8
PLAN_1
 62
     5
  6
CONTINUOUS
 10
-1.391118
 20
2.633965
  0
VERTEX
  8
PLAN_1
 62
     5
  6
CONTINUOUS
 10
-1.383035
 20
2.633965
  0
SEQEND
  8
0
  0
POLYLINE
  8
PLAN_1
 62
     5
  6
CONTINUOUS
 66
     1
 40
0.003000
 41
0.003000
  0
VERTEX
  8
PLAN_1
 62
     5
  6
CONTINUOUS
 10
-1.380185
 20
2.639669
  0
VERTEX
  8
PLAN_1
 62
     5
  6
CONTINUOUS
 10
-1.380185
 20
2.648224
  0
SEQEND
  8
0
  0
POLYLINE
  8
PLAN_1
 62
     5
  6
CONTINUOUS
 66
     1
 40
0.003000
 41
0.003000
  0
VERTEX
  8
PLAN_1
 62
     5
  6
CONTINUOUS
 10
-1.380185
 20
2.656307
  0
VERTEX
  8
PLAN_1
 62
     5
  6
CONTINUOUS
 10
-1.380185
 20
2.664866
  0
SEQEND
  8
0
  0
POLYLINE
  8
PLAN_1
 62
     5
  6
CONTINUOUS
 66
     1
 40
0.003000
 41
0.003000
  0
VERTEX
  8
PLAN_1
 62
     5
  6
CONTINUOUS
 10
-1.380185
 20
2.672945
  0
VERTEX
  8
PLAN_1
 62
     5
  6
CONTINUOUS
 10
-1.380185
 20
2.681504
  0
SEQEND
  8
0
  0
POLYLINE
  8
PLAN_1
 62
     5
  6
CONTINUOUS
 66
     1
 40
0.003000
 41
0.003000
  0
VERTEX
  8
PLAN_1
 62
     5
  6
CONTINUOUS
 10
-1.380185
 20
2.689587
  0
VERTEX
  8
PLAN_1
 62
     5
  6
CONTINUOUS
 10
-1.380185
 20
2.698142
  0
SEQEND
  8
0
  0
POLYLINE
  8
PLAN_1
 62
     5
  6
CONTINUOUS
 66
     1
 40
0.003000
 41
0.003000
  0
VERTEX
  8
PLAN_1
 62
     5
  6
CONTINUOUS
 10
-1.380185
 20
2.706224
  0
VERTEX
  8
PLAN_1
 62
     5
  6
CONTINUOUS
 10
-1.380185
 20
2.714780
  0
SEQEND
  8
0
  0
POLYLINE
  8
PLAN_1
 62
     5
  6
CONTINUOUS
 66
     1
 40
0.003000
 41
0.003000
  0
VERTEX
  8
PLAN_1
 62
     5
  6
CONTINUOUS
 10
-1.380185
 20
2.722862
  0
VERTEX
  8
PLAN_1
 62
     5
  6
CONTINUOUS
 10
-1.380185
 20
2.731421
  0
SEQEND
  8
0
  0
POLYLINE
  8
PLAN_1
 62
     5
  6
CONTINUOUS
 66
     1
 40
0.003000
 41
0.003000
  0
VERTEX
  8
PLAN_1
 62
     5
  6
CONTINUOUS
 10
-1.380185
 20
2.739500
  0
VERTEX
  8
PLAN_1
 62
     5
  6
CONTINUOUS
 10
-1.380185
 20
2.748059
  0
SEQEND
  8
0
  0
POLYLINE
  8
PLAN_1
 62
     5
  6
CONTINUOUS
 66
     1
 40
0.003000
 41
0.003000
  0
VERTEX
  8
PLAN_1
 62
     5
  6
CONTINUOUS
 10
-1.380185
 20
2.756138
  0
VERTEX
  8
PLAN_1
 62
     5
  6
CONTINUOUS
 10
-1.380185
 20
2.764697
  0
SEQEND
  8
0
  0
POLYLINE
  8
PLAN_1
 62
     5
  6
CONTINUOUS
 66
     1
 40
0.003000
 41
0.003000
  0
VERTEX
  8
PLAN_1
 62
     5
  6
CONTINUOUS
 10
-1.380185
 20
2.772780
  0
VERTEX
  8
PLAN_1
 62
     5
  6
CONTINUOUS
 10
-1.380185
 20
2.781335
  0
SEQEND
  8
0
  0
POLYLINE
  8
PLAN_1
 62
     5
  6
CONTINUOUS
 66
     1
 40
0.003000
 41
0.003000
  0
VERTEX
  8
PLAN_1
 62
     5
  6
CONTINUOUS
 10
-1.380185
 20
2.789417
  0
VERTEX
  8
PLAN_1
 62
     5
  6
CONTINUOUS
 10
-1.380185
 20
2.797972
  0
SEQEND
  8
0
  0
POLYLINE
  8
PLAN_1
 62
     5
  6
CONTINUOUS
 66
     1
 40
0.003000
 41
0.003000
  0
VERTEX
  8
PLAN_1
 62
     5
  6
CONTINUOUS
 10
-1.380185
 20
2.806055
  0
VERTEX
  8
PLAN_1
 62
     5
  6
CONTINUOUS
 10
-1.380185
 20
2.814614
  0
SEQEND
  8
0
  0
POLYLINE
  8
PLAN_1
 62
     5
  6
CONTINUOUS
 66
     1
 40
0.003000
 41
0.003000
  0
VERTEX
  8
PLAN_1
 62
     5
  6
CONTINUOUS
 10
-1.380185
 20
2.823169
  0
VERTEX
  8
PLAN_1
 62
     5
  6
CONTINUOUS
 10
-1.380185
 20
2.831252
  0
SEQEND
  8
0
  0
POLYLINE
  8
PLAN_1
 62
     5
  6
CONTINUOUS
 66
     1
 40
0.003000
 41
0.003000
  0
VERTEX
  8
PLAN_1
 62
     5
  6
CONTINUOUS
 10
-1.380185
 20
2.839807
  0
VERTEX
  8
PLAN_1
 62
     5
  6
CONTINUOUS
 10
-1.380185
 20
2.847890
  0
SEQEND
  8
0
  0
POLYLINE
  8
PLAN_1
 62
     5
  6
CONTINUOUS
 66
     1
 40
0.003000
 41
0.003000
  0
VERTEX
  8
PLAN_1
 62
     5
  6
CONTINUOUS
 10
-1.380185
 20
2.856449
  0
VERTEX
  8
PLAN_1
 62
     5
  6
CONTINUOUS
 10
-1.380185
 20
2.864528
  0
SEQEND
  8
0
  0
POLYLINE
  8
PLAN_1
 62
     5
  6
CONTINUOUS
 66
     1
 40
0.003000
 41
0.003000
  0
VERTEX
  8
PLAN_1
 62
     5
  6
CONTINUOUS
 10
-1.380185
 20
2.873087
  0
VERTEX
  8
PLAN_1
 62
     5
  6
CONTINUOUS
 10
-1.380185
 20
2.881169
  0
SEQEND
  8
0
  0
POLYLINE
  8
PLAN_1
 62
     5
  6
CONTINUOUS
 66
     1
 40
0.003000
 41
0.003000
  0
VERTEX
  8
PLAN_1
 62
     5
  6
CONTINUOUS
 10
-1.380185
 20
2.889724
  0
VERTEX
  8
PLAN_1
 62
     5
  6
CONTINUOUS
 10
-1.380185
 20
2.897807
  0
SEQEND
  8
0
  0
POLYLINE
  8
PLAN_1
 62
     5
  6
CONTINUOUS
 66
     1
 40
0.003000
 41
0.003000
  0
VERTEX
  8
PLAN_1
 62
     5
  6
CONTINUOUS
 10
-1.380185
 20
2.906362
  0
VERTEX
  8
PLAN_1
 62
     5
  6
CONTINUOUS
 10
-1.380185
 20
2.914445
  0
SEQEND
  8
0
  0
POLYLINE
  8
PLAN_1
 62
     5
  6
CONTINUOUS
 66
     1
 40
0.003000
 41
0.003000
  0
VERTEX
  8
PLAN_1
 62
     5
  6
CONTINUOUS
 10
-1.380185
 20
2.923004
  0
VERTEX
  8
PLAN_1
 62
     5
  6
CONTINUOUS
 10
-1.380185
 20
2.931083
  0
SEQEND
  8
0
  0
POLYLINE
  8
PLAN_1
 62
     5
  6
CONTINUOUS
 66
     1
 40
0.003000
 41
0.003000
  0
VERTEX
  8
PLAN_1
 62
     5
  6
CONTINUOUS
 10
-1.380185
 20
2.939642
  0
VERTEX
  8
PLAN_1
 62
     5
  6
CONTINUOUS
 10
-1.380185
 20
2.947720
  0
SEQEND
  8
0
  0
POLYLINE
  8
PLAN_1
 62
     5
  6
CONTINUOUS
 66
     1
 40
0.003000
 41
0.003000
  0
VERTEX
  8
PLAN_1
 62
     5
  6
CONTINUOUS
 10
-1.380185
 20
2.956280
  0
VERTEX
  8
PLAN_1
 62
     5
  6
CONTINUOUS
 10
-1.380185
 20
2.964362
  0
SEQEND
  8
0
  0
POLYLINE
  8
PLAN_1
 62
     5
  6
CONTINUOUS
 66
     1
 40
0.003000
 41
0.003000
  0
VERTEX
  8
PLAN_1
 62
     5
  6
CONTINUOUS
 10
-1.380185
 20
2.972917
  0
VERTEX
  8
PLAN_1
 62
     5
  6
CONTINUOUS
 10
-1.380185
 20
2.981000
  0
SEQEND
  8
0
  0
POLYLINE
  8
PLAN_1
 62
     5
  6
CONTINUOUS
 66
     1
 40
0.003000
 41
0.003000
  0
VERTEX
  8
PLAN_1
 62
     5
  6
CONTINUOUS
 10
-1.380185
 20
2.989555
  0
VERTEX
  8
PLAN_1
 62
     5
  6
CONTINUOUS
 10
-1.380185
 20
2.997638
  0
SEQEND
  8
0
  0
POLYLINE
  8
PLAN_1
 62
     5
  6
CONTINUOUS
 66
     1
 40
0.003000
 41
0.003000
  0
VERTEX
  8
PLAN_1
 62
     5
  6
CONTINUOUS
 10
-1.380185
 20
3.006197
  0
VERTEX
  8
PLAN_1
 62
     5
  6
CONTINUOUS
 10
-1.380185
 20
3.014276
  0
SEQEND
  8
0
  0
POLYLINE
  8
PLAN_1
 62
     5
  6
CONTINUOUS
 66
     1
 40
0.003000
 41
0.003000
  0
VERTEX
  8
PLAN_1
 62
     5
  6
CONTINUOUS
 10
-1.380185
 20
3.022835
  0
VERTEX
  8
PLAN_1
 62
     5
  6
CONTINUOUS
 10
-1.380185
 20
3.031390
  0
SEQEND
  8
0
  0
POLYLINE
  8
PLAN_1
 62
     5
  6
CONTINUOUS
 66
     1
 40
0.003000
 41
0.003000
  0
VERTEX
  8
PLAN_1
 62
     5
  6
CONTINUOUS
 10
-1.387791
 20
3.031866
  0
VERTEX
  8
PLAN_1
 62
     5
  6
CONTINUOUS
 10
-1.396346
 20
3.031866
  0
SEQEND
  8
0
  0
POLYLINE
  8
PLAN_1
 62
     5
  6
CONTINUOUS
 66
     1
 40
0.003000
 41
0.003000
  0
VERTEX
  8
PLAN_1
 62
     5
  6
CONTINUOUS
 10
-1.404429
 20
3.031866
  0
VERTEX
  8
PLAN_1
 62
     5
  6
CONTINUOUS
 10
-1.412984
 20
3.031866
  0
SEQEND
  8
0
  0
POLYLINE
  8
PLAN_1
 62
     5
  6
CONTINUOUS
 66
     1
 40
0.003000
 41
0.003000
  0
VERTEX
  8
PLAN_1
 62
     5
  6
CONTINUOUS
 10
-1.421067
 20
3.031866
  0
VERTEX
  8
PLAN_1
 62
     5
  6
CONTINUOUS
 10
-1.429622
 20
3.031866
  0
SEQEND
  8
0
  0
POLYLINE
  8
PLAN_1
 62
     5
  6
CONTINUOUS
 66
     1
 40
0.003000
 41
0.003000
  0
VERTEX
  8
PLAN_1
 62
     5
  6
CONTINUOUS
 10
-1.438181
 20
3.031866
  0
VERTEX
  8
PLAN_1
 62
     5
  6
CONTINUOUS
 10
-1.446264
 20
3.031866
  0
SEQEND
  8
0
  0
POLYLINE
  8
PLAN_1
 62
     5
  6
CONTINUOUS
 66
     1
 40
0.003000
 41
0.003000
  0
VERTEX
  8
PLAN_1
 62
     5
  6
CONTINUOUS
 10
-1.454819
 20
3.031866
  0
VERTEX
  8
PLAN_1
 62
     5
  6
CONTINUOUS
 10
-1.462902
 20
3.031866
  0
SEQEND
  8
0
  0
POLYLINE
  8
PLAN_1
 62
     5
  6
CONTINUOUS
 66
     1
 40
0.003000
 41
0.003000
  0
VERTEX
  8
PLAN_1
 62
     5
  6
CONTINUOUS
 10
-1.471457
 20
3.031866
  0
VERTEX
  8
PLAN_1
 62
     5
  6
CONTINUOUS
 10
-1.474787
 20
3.031866
  0
VERTEX
  8
PLAN_1
 62
     5
  6
CONTINUOUS
 10
-1.474787
 20
3.026638
  0
SEQEND
  8
0
  0
POLYLINE
  8
PLAN_1
 62
     5
  6
CONTINUOUS
 66
     1
 40
0.003000
 41
0.003000
  0
VERTEX
  8
PLAN_1
 62
     5
  6
CONTINUOUS
 10
-1.474787
 20
3.018555
  0
VERTEX
  8
PLAN_1
 62
     5
  6
CONTINUOUS
 10
-1.474787
 20
3.010000
  0
SEQEND
  8
0
  0
POLYLINE
  8
PLAN_1
 62
     5
  6
CONTINUOUS
 66
     1
 40
0.003000
 41
0.003000
  0
VERTEX
  8
PLAN_1
 62
     5
  6
CONTINUOUS
 10
-1.474787
 20
3.001917
  0
VERTEX
  8
PLAN_1
 62
     5
  6
CONTINUOUS
 10
-1.474787
 20
3.000965
  0
VERTEX
  8
PLAN_1
 62
     5
  6
CONTINUOUS
 10
-1.481917
 20
3.000965
  0
SEQEND
  8
0
  0
POLYLINE
  8
PLAN_1
 62
     5
  6
CONTINUOUS
 66
     1
 40
0.003000
 41
0.003000
  0
VERTEX
  8
PLAN_1
 62
     5
  6
CONTINUOUS
 10
-1.490472
 20
3.000965
  0
VERTEX
  8
PLAN_1
 62
     5
  6
CONTINUOUS
 10
-1.498555
 20
3.000965
  0
SEQEND
  8
0
  0
POLYLINE
  8
PLAN_1
 62
     5
  6
CONTINUOUS
 66
     1
 40
0.003000
 41
0.003000
  0
VERTEX
  8
PLAN_1
 62
     5
  6
CONTINUOUS
 10
-1.502358
 20
3.005720
  0
VERTEX
  8
PLAN_1
 62
     5
  6
CONTINUOUS
 10
-1.502358
 20
3.014276
  0
SEQEND
  8
0
  0
POLYLINE
  8
PLAN_1
 62
     5
  6
CONTINUOUS
 66
     1
 40
0.003000
 41
0.003000
  0
VERTEX
  8
PLAN_1
 62
     5
  6
CONTINUOUS
 10
-1.502358
 20
3.022358
  0
VERTEX
  8
PLAN_1
 62
     5
  6
CONTINUOUS
 10
-1.502358
 20
3.030917
  0
SEQEND
  8
0
  0
POLYLINE
  8
PLAN_1
 62
     5
  6
CONTINUOUS
 66
     1
 40
0.003000
 41
0.003000
  0
VERTEX
  8
PLAN_1
 62
     5
  6
CONTINUOUS
 10
-1.502358
 20
3.038996
  0
VERTEX
  8
PLAN_1
 62
     5
  6
CONTINUOUS
 10
-1.502358
 20
3.047555
  0
SEQEND
  8
0
  0
POLYLINE
  8
PLAN_1
 62
     5
  6
CONTINUOUS
 66
     1
 40
0.003000
 41
0.003000
  0
VERTEX
  8
PLAN_1
 62
     5
  6
CONTINUOUS
 10
-1.502358
 20
3.055638
  0
VERTEX
  8
PLAN_1
 62
     5
  6
CONTINUOUS
 10
-1.502358
 20
3.064193
  0
SEQEND
  8
0
  0
POLYLINE
  8
PLAN_1
 62
     5
  6
CONTINUOUS
 66
     1
 40
0.003000
 41
0.003000
  0
VERTEX
  8
PLAN_1
 62
     5
  6
CONTINUOUS
 10
-1.502358
 20
3.072276
  0
VERTEX
  8
PLAN_1
 62
     5
  6
CONTINUOUS
 10
-1.502358
 20
3.080831
  0
SEQEND
  8
0
  0
POLYLINE
  8
PLAN_1
 62
     5
  6
CONTINUOUS
 66
     1
 40
0.003000
 41
0.003000
  0
VERTEX
  8
PLAN_1
 62
     5
  6
CONTINUOUS
 10
-1.502358
 20
3.088913
  0
VERTEX
  8
PLAN_1
 62
     5
  6
CONTINUOUS
 10
-1.502358
 20
3.097472
  0
SEQEND
  8
0
  0
POLYLINE
  8
PLAN_1
 62
     5
  6
CONTINUOUS
 66
     1
 40
0.003000
 41
0.003000
  0
VERTEX
  8
PLAN_1
 62
     5
  6
CONTINUOUS
 10
-1.502358
 20
3.105551
  0
VERTEX
  8
PLAN_1
 62
     5
  6
CONTINUOUS
 10
-1.502358
 20
3.114110
  0
SEQEND
  8
0
  0
POLYLINE
  8
PLAN_1
 62
     5
  6
CONTINUOUS
 66
     1
 40
0.003000
 41
0.003000
  0
VERTEX
  8
PLAN_1
 62
     5
  6
CONTINUOUS
 10
-1.502358
 20
3.122189
  0
VERTEX
  8
PLAN_1
 62
     5
  6
CONTINUOUS
 10
-1.502358
 20
3.130748
  0
SEQEND
  8
0
  0
POLYLINE
  8
PLAN_1
 62
     5
  6
CONTINUOUS
 66
     1
 40
0.003000
 41
0.003000
  0
VERTEX
  8
PLAN_1
 62
     5
  6
CONTINUOUS
 10
-1.502358
 20
3.138831
  0
VERTEX
  8
PLAN_1
 62
     5
  6
CONTINUOUS
 10
-1.502358
 20
3.147386
  0
SEQEND
  8
0
  0
POLYLINE
  8
PLAN_1
 62
     5
  6
CONTINUOUS
 66
     1
 40
0.003000
 41
0.003000
  0
VERTEX
  8
PLAN_1
 62
     5
  6
CONTINUOUS
 10
-1.502358
 20
3.155469
  0
VERTEX
  8
PLAN_1
 62
     5
  6
CONTINUOUS
 10
-1.502358
 20
3.164024
  0
SEQEND
  8
0
  0
POLYLINE
  8
PLAN_1
 62
     5
  6
CONTINUOUS
 66
     1
 40
0.003000
 41
0.003000
  0
VERTEX
  8
PLAN_1
 62
     5
  6
CONTINUOUS
 10
-1.502358
 20
3.172583
  0
VERTEX
  8
PLAN_1
 62
     5
  6
CONTINUOUS
 10
-1.502358
 20
3.180665
  0
SEQEND
  8
0
  0
POLYLINE
  8
PLAN_1
 62
     5
  6
CONTINUOUS
 66
     1
 40
0.003000
 41
0.003000
  0
VERTEX
  8
PLAN_1
 62
     5
  6
CONTINUOUS
 10
-1.502358
 20
3.189220
  0
VERTEX
  8
PLAN_1
 62
     5
  6
CONTINUOUS
 10
-1.502358
 20
3.192547
  0
VERTEX
  8
PLAN_1
 62
     5
  6
CONTINUOUS
 10
-1.507114
 20
3.192547
  0
SEQEND
  8
0
  0
POLYLINE
  8
PLAN_1
 62
     5
  6
CONTINUOUS
 66
     1
 40
0.003000
 41
0.003000
  0
VERTEX
  8
PLAN_1
 62
     5
  6
CONTINUOUS
 10
-1.515669
 20
3.192547
  0
VERTEX
  8
PLAN_1
 62
     5
  6
CONTINUOUS
 10
-1.523752
 20
3.192547
  0
SEQEND
  8
0
  0
POLYLINE
  8
PLAN_1
 62
     5
  6
CONTINUOUS
 66
     1
 40
0.003000
 41
0.003000
  0
VERTEX
  8
PLAN_1
 62
     5
  6
CONTINUOUS
 10
-1.532307
 20
3.192547
  0
VERTEX
  8
PLAN_1
 62
     5
  6
CONTINUOUS
 10
-1.540390
 20
3.192547
  0
SEQEND
  8
0
  0
POLYLINE
  8
PLAN_1
 62
     5
  6
CONTINUOUS
 66
     1
 40
0.003000
 41
0.003000
  0
VERTEX
  8
PLAN_1
 62
     5
  6
CONTINUOUS
 10
-1.548949
 20
3.192547
  0
VERTEX
  8
PLAN_1
 62
     5
  6
CONTINUOUS
 10
-1.557028
 20
3.192547
  0
SEQEND
  8
0
  0
POLYLINE
  8
PLAN_1
 62
     5
  6
CONTINUOUS
 66
     1
 40
0.003000
 41
0.003000
  0
VERTEX
  8
PLAN_1
 62
     5
  6
CONTINUOUS
 10
-1.565587
 20
3.192547
  0
VERTEX
  8
PLAN_1
 62
     5
  6
CONTINUOUS
 10
-1.573669
 20
3.192547
  0
SEQEND
  8
0
  0
POLYLINE
  8
PLAN_1
 62
     5
  6
CONTINUOUS
 66
     1
 40
0.003000
 41
0.003000
  0
VERTEX
  8
PLAN_1
 62
     5
  6
CONTINUOUS
 10
-1.582224
 20
3.192547
  0
VERTEX
  8
PLAN_1
 62
     5
  6
CONTINUOUS
 10
-1.590307
 20
3.192547
  0
SEQEND
  8
0
  0
POLYLINE
  8
PLAN_1
 62
     5
  6
CONTINUOUS
 66
     1
 40
0.003000
 41
0.003000
  0
VERTEX
  8
PLAN_1
 62
     5
  6
CONTINUOUS
 10
-1.598862
 20
3.192547
  0
VERTEX
  8
PLAN_1
 62
     5
  6
CONTINUOUS
 10
-1.606945
 20
3.192547
  0
SEQEND
  8
0
  0
POLYLINE
  8
PLAN_1
 62
     5
  6
CONTINUOUS
 66
     1
 40
0.003000
 41
0.003000
  0
VERTEX
  8
PLAN_1
 62
     5
  6
CONTINUOUS
 10
-1.615500
 20
3.192547
  0
VERTEX
  8
PLAN_1
 62
     5
  6
CONTINUOUS
 10
-1.623583
 20
3.192547
  0
SEQEND
  8
0
  0
POLYLINE
  8
PLAN_1
 62
     5
  6
CONTINUOUS
 66
     1
 40
0.003000
 41
0.003000
  0
VERTEX
  8
PLAN_1
 62
     5
  6
CONTINUOUS
 10
-1.632142
 20
3.192547
  0
VERTEX
  8
PLAN_1
 62
     5
  6
CONTINUOUS
 10
-1.640220
 20
3.192547
  0
SEQEND
  8
0
  0
POLYLINE
  8
PLAN_1
 62
     5
  6
CONTINUOUS
 66
     1
 40
0.003000
 41
0.003000
  0
VERTEX
  8
PLAN_1
 62
     5
  6
CONTINUOUS
 10
-1.648780
 20
3.192547
  0
VERTEX
  8
PLAN_1
 62
     5
  6
CONTINUOUS
 10
-1.656862
 20
3.192547
  0
SEQEND
  8
0
  0
POLYLINE
  8
PLAN_1
 62
     5
  6
CONTINUOUS
 66
     1
 40
0.003000
 41
0.003000
  0
VERTEX
  8
PLAN_1
 62
     5
  6
CONTINUOUS
 10
-1.660665
 20
3.187795
  0
VERTEX
  8
PLAN_1
 62
     5
  6
CONTINUOUS
 10
-1.660665
 20
3.179713
  0
SEQEND
  8
0
  0
POLYLINE
  8
PLAN_1
 62
     5
  6
CONTINUOUS
 66
     1
 40
0.003000
 41
0.003000
  0
VERTEX
  8
PLAN_1
 62
     5
  6
CONTINUOUS
 10
-1.660665
 20
3.171157
  0
VERTEX
  8
PLAN_1
 62
     5
  6
CONTINUOUS
 10
-1.660665
 20
3.162598
  0
SEQEND
  8
0
  0
POLYLINE
  8
PLAN_1
 62
     5
  6
CONTINUOUS
 66
     1
 40
0.003000
 41
0.003000
  0
VERTEX
  8
PLAN_1
 62
     5
  6
CONTINUOUS
 10
-1.660665
 20
3.154516
  0
VERTEX
  8
PLAN_1
 62
     5
  6
CONTINUOUS
 10
-1.660665
 20
3.145961
  0
SEQEND
  8
0
  0
POLYLINE
  8
PLAN_1
 62
     5
  6
CONTINUOUS
 66
     1
 40
0.003000
 41
0.003000
  0
VERTEX
  8
PLAN_1
 62
     5
  6
CONTINUOUS
 10
-1.660665
 20
3.137878
  0
VERTEX
  8
PLAN_1
 62
     5
  6
CONTINUOUS
 10
-1.660665
 20
3.129323
  0
SEQEND
  8
0
  0
POLYLINE
  8
PLAN_1
 62
     5
  6
CONTINUOUS
 66
     1
 40
0.003000
 41
0.003000
  0
VERTEX
  8
PLAN_1
 62
     5
  6
CONTINUOUS
 10
-1.660665
 20
3.121240
  0
VERTEX
  8
PLAN_1
 62
     5
  6
CONTINUOUS
 10
-1.660665
 20
3.112681
  0
SEQEND
  8
0
  0
POLYLINE
  8
PLAN_1
 62
     5
  6
CONTINUOUS
 66
     1
 40
0.003000
 41
0.003000
  0
VERTEX
  8
PLAN_1
 62
     5
  6
CONTINUOUS
 10
-1.660665
 20
3.104602
  0
VERTEX
  8
PLAN_1
 62
     5
  6
CONTINUOUS
 10
-1.660665
 20
3.096043
  0
SEQEND
  8
0
  0
POLYLINE
  8
PLAN_1
 62
     5
  6
CONTINUOUS
 66
     1
 40
0.003000
 41
0.003000
  0
VERTEX
  8
PLAN_1
 62
     5
  6
CONTINUOUS
 10
-1.660665
 20
3.087965
  0
VERTEX
  8
PLAN_1
 62
     5
  6
CONTINUOUS
 10
-1.660665
 20
3.079406
  0
SEQEND
  8
0
  0
POLYLINE
  8
PLAN_1
 62
     5
  6
CONTINUOUS
 66
     1
 40
0.003000
 41
0.003000
  0
VERTEX
  8
PLAN_1
 62
     5
  6
CONTINUOUS
 10
-1.660665
 20
3.071323
  0
VERTEX
  8
PLAN_1
 62
     5
  6
CONTINUOUS
 10
-1.660665
 20
3.062768
  0
SEQEND
  8
0
  0
POLYLINE
  8
PLAN_1
 62
     5
  6
CONTINUOUS
 66
     1
 40
0.003000
 41
0.003000
  0
VERTEX
  8
PLAN_1
 62
     5
  6
CONTINUOUS
 10
-1.660665
 20
3.054685
  0
VERTEX
  8
PLAN_1
 62
     5
  6
CONTINUOUS
 10
-1.660665
 20
3.046130
  0
SEQEND
  8
0
  0
POLYLINE
  8
PLAN_1
 62
     5
  6
CONTINUOUS
 66
     1
 40
0.003000
 41
0.003000
  0
VERTEX
  8
PLAN_1
 62
     5
  6
CONTINUOUS
 10
-1.660665
 20
3.038047
  0
VERTEX
  8
PLAN_1
 62
     5
  6
CONTINUOUS
 10
-1.660665
 20
3.029488
  0
SEQEND
  8
0
  0
POLYLINE
  8
PLAN_1
 62
     5
  6
CONTINUOUS
 66
     1
 40
0.003000
 41
0.003000
  0
VERTEX
  8
PLAN_1
 62
     5
  6
CONTINUOUS
 10
-1.660665
 20
3.021409
  0
VERTEX
  8
PLAN_1
 62
     5
  6
CONTINUOUS
 10
-1.660665
 20
3.012850
  0
SEQEND
  8
0
  0
POLYLINE
  8
PLAN_1
 62
     5
  6
CONTINUOUS
 66
     1
 40
0.003000
 41
0.003000
  0
VERTEX
  8
PLAN_1
 62
     5
  6
CONTINUOUS
 10
-1.660665
 20
3.004768
  0
VERTEX
  8
PLAN_1
 62
     5
  6
CONTINUOUS
 10
-1.660665
 20
2.996213
  0
SEQEND
  8
0
  0
POLYLINE
  8
PLAN_1
 62
     5
  6
CONTINUOUS
 66
     1
 40
0.003000
 41
0.003000
  0
VERTEX
  8
PLAN_1
 62
     5
  6
CONTINUOUS
 10
-1.660665
 20
2.988130
  0
VERTEX
  8
PLAN_1
 62
     5
  6
CONTINUOUS
 10
-1.660665
 20
2.979575
  0
SEQEND
  8
0
  0
POLYLINE
  8
PLAN_1
 62
     5
  6
CONTINUOUS
 66
     1
 40
0.003000
 41
0.003000
  0
VERTEX
  8
PLAN_1
 62
     5
  6
CONTINUOUS
 10
-1.660665
 20
2.971492
  0
VERTEX
  8
PLAN_1
 62
     5
  6
CONTINUOUS
 10
-1.660665
 20
2.962933
  0
SEQEND
  8
0
  0
POLYLINE
  8
PLAN_1
 62
     5
  6
CONTINUOUS
 66
     1
 40
0.003000
 41
0.003000
  0
VERTEX
  8
PLAN_1
 62
     5
  6
CONTINUOUS
 10
-1.660665
 20
2.954378
  0
VERTEX
  8
PLAN_1
 62
     5
  6
CONTINUOUS
 10
-1.660665
 20
2.946295
  0
SEQEND
  8
0
  0
POLYLINE
  8
PLAN_1
 62
     5
  6
CONTINUOUS
 66
     1
 40
0.003000
 41
0.003000
  0
VERTEX
  8
PLAN_1
 62
     5
  6
CONTINUOUS
 10
-1.660665
 20
2.937740
  0
VERTEX
  8
PLAN_1
 62
     5
  6
CONTINUOUS
 10
-1.660665
 20
2.929657
  0
SEQEND
  8
0
  0
POLYLINE
  8
PLAN_1
 62
     5
  6
CONTINUOUS
 66
     1
 40
0.003000
 41
0.003000
  0
VERTEX
  8
PLAN_1
 62
     5
  6
CONTINUOUS
 10
-1.660665
 20
2.921102
  0
VERTEX
  8
PLAN_1
 62
     5
  6
CONTINUOUS
 10
-1.660665
 20
2.913020
  0
SEQEND
  8
0
  0
POLYLINE
  8
PLAN_1
 62
     5
  6
CONTINUOUS
 66
     1
 40
0.003000
 41
0.003000
  0
VERTEX
  8
PLAN_1
 62
     5
  6
CONTINUOUS
 10
-1.660665
 20
2.904461
  0
VERTEX
  8
PLAN_1
 62
     5
  6
CONTINUOUS
 10
-1.660665
 20
2.896382
  0
SEQEND
  8
0
  0
POLYLINE
  8
PLAN_1
 62
     5
  6
CONTINUOUS
 66
     1
 40
0.003000
 41
0.003000
  0
VERTEX
  8
PLAN_1
 62
     5
  6
CONTINUOUS
 10
-1.660665
 20
2.887823
  0
VERTEX
  8
PLAN_1
 62
     5
  6
CONTINUOUS
 10
-1.660665
 20
2.879740
  0
SEQEND
  8
0
  0
POLYLINE
  8
PLAN_1
 62
     5
  6
CONTINUOUS
 66
     1
 40
0.003000
 41
0.003000
  0
VERTEX
  8
PLAN_1
 62
     5
  6
CONTINUOUS
 10
-1.660665
 20
2.871185
  0
VERTEX
  8
PLAN_1
 62
     5
  6
CONTINUOUS
 10
-1.660665
 20
2.863102
  0
SEQEND
  8
0
  0
POLYLINE
  8
PLAN_1
 62
     5
  6
CONTINUOUS
 66
     1
 40
0.003000
 41
0.003000
  0
VERTEX
  8
PLAN_1
 62
     5
  6
CONTINUOUS
 10
-1.660665
 20
2.854547
  0
VERTEX
  8
PLAN_1
 62
     5
  6
CONTINUOUS
 10
-1.660665
 20
2.846465
  0
SEQEND
  8
0
  0
POLYLINE
  8
PLAN_1
 62
     5
  6
CONTINUOUS
 66
     1
 40
0.003000
 41
0.003000
  0
VERTEX
  8
PLAN_1
 62
     5
  6
CONTINUOUS
 10
-1.660665
 20
2.837906
  0
VERTEX
  8
PLAN_1
 62
     5
  6
CONTINUOUS
 10
-1.660665
 20
2.829827
  0
SEQEND
  8
0
  0
POLYLINE
  8
PLAN_1
 62
     5
  6
CONTINUOUS
 66
     1
 40
0.003000
 41
0.003000
  0
VERTEX
  8
PLAN_1
 62
     5
  6
CONTINUOUS
 10
-1.660665
 20
2.821268
  0
VERTEX
  8
PLAN_1
 62
     5
  6
CONTINUOUS
 10
-1.660665
 20
2.813185
  0
SEQEND
  8
0
  0
POLYLINE
  8
PLAN_1
 62
     5
  6
CONTINUOUS
 66
     1
 40
0.003000
 41
0.003000
  0
VERTEX
  8
PLAN_1
 62
     5
  6
CONTINUOUS
 10
-1.660665
 20
2.804630
  0
VERTEX
  8
PLAN_1
 62
     5
  6
CONTINUOUS
 10
-1.660665
 20
2.796547
  0
SEQEND
  8
0
  0
POLYLINE
  8
PLAN_1
 62
     5
  6
CONTINUOUS
 66
     1
 40
0.003000
 41
0.003000
  0
VERTEX
  8
PLAN_1
 62
     5
  6
CONTINUOUS
 10
-1.660665
 20
2.787992
  0
VERTEX
  8
PLAN_1
 62
     5
  6
CONTINUOUS
 10
-1.660665
 20
2.779909
  0
SEQEND
  8
0
  0
POLYLINE
  8
PLAN_1
 62
     5
  6
CONTINUOUS
 66
     1
 40
0.003000
 41
0.003000
  0
VERTEX
  8
PLAN_1
 62
     5
  6
CONTINUOUS
 10
-1.660665
 20
2.771350
  0
VERTEX
  8
PLAN_1
 62
     5
  6
CONTINUOUS
 10
-1.660665
 20
2.763272
  0
SEQEND
  8
0
  0
POLYLINE
  8
PLAN_1
 62
     5
  6
CONTINUOUS
 66
     1
 40
0.003000
 41
0.003000
  0
VERTEX
  8
PLAN_1
 62
     5
  6
CONTINUOUS
 10
-1.660665
 20
2.754713
  0
VERTEX
  8
PLAN_1
 62
     5
  6
CONTINUOUS
 10
-1.660665
 20
2.746157
  0
SEQEND
  8
0
  0
POLYLINE
  8
PLAN_1
 62
     5
  6
CONTINUOUS
 66
     1
 40
0.003000
 41
0.003000
  0
VERTEX
  8
PLAN_1
 62
     5
  6
CONTINUOUS
 10
-1.660665
 20
2.738075
  0
VERTEX
  8
PLAN_1
 62
     5
  6
CONTINUOUS
 10
-1.660665
 20
2.729520
  0
SEQEND
  8
0
  0
POLYLINE
  8
PLAN_1
 62
     5
  6
CONTINUOUS
 66
     1
 40
0.003000
 41
0.003000
  0
VERTEX
  8
PLAN_1
 62
     5
  6
CONTINUOUS
 10
-1.660665
 20
2.721437
  0
VERTEX
  8
PLAN_1
 62
     5
  6
CONTINUOUS
 10
-1.660665
 20
2.712878
  0
SEQEND
  8
0
  0
POLYLINE
  8
PLAN_1
 62
     5
  6
CONTINUOUS
 66
     1
 40
0.003000
 41
0.003000
  0
VERTEX
  8
PLAN_1
 62
     5
  6
CONTINUOUS
 10
-1.660665
 20
2.704799
  0
VERTEX
  8
PLAN_1
 62
     5
  6
CONTINUOUS
 10
-1.660665
 20
2.696240
  0
SEQEND
  8
0
  0
POLYLINE
  8
PLAN_1
 62
     5
  6
CONTINUOUS
 66
     1
 40
0.003000
 41
0.003000
  0
VERTEX
  8
PLAN_1
 62
     5
  6
CONTINUOUS
 10
-1.660665
 20
2.688157
  0
VERTEX
  8
PLAN_1
 62
     5
  6
CONTINUOUS
 10
-1.660665
 20
2.679602
  0
SEQEND
  8
0
  0
POLYLINE
  8
PLAN_1
 62
     5
  6
CONTINUOUS
 66
     1
 40
0.003000
 41
0.003000
  0
VERTEX
  8
PLAN_1
 62
     5
  6
CONTINUOUS
 10
-1.660665
 20
2.671520
  0
VERTEX
  8
PLAN_1
 62
     5
  6
CONTINUOUS
 10
-1.660665
 20
2.662965
  0
SEQEND
  8
0
  0
POLYLINE
  8
PLAN_1
 62
     5
  6
CONTINUOUS
 66
     1
 40
0.003000
 41
0.003000
  0
VERTEX
  8
PLAN_1
 62
     5
  6
CONTINUOUS
 10
-1.660665
 20
2.654882
  0
VERTEX
  8
PLAN_1
 62
     5
  6
CONTINUOUS
 10
-1.660665
 20
2.646323
  0
SEQEND
  8
0
  0
POLYLINE
  8
PLAN_1
 62
     5
  6
CONTINUOUS
 66
     1
 40
0.003000
 41
0.003000
  0
VERTEX
  8
PLAN_1
 62
     5
  6
CONTINUOUS
 10
-1.660665
 20
2.638244
  0
VERTEX
  8
PLAN_1
 62
     5
  6
CONTINUOUS
 10
-1.660665
 20
2.629685
  0
SEQEND
  8
0
  0
POLYLINE
  8
PLAN_1
 62
     5
  6
CONTINUOUS
 66
     1
 40
0.003000
 41
0.003000
  0
VERTEX
  8
PLAN_1
 62
     5
  6
CONTINUOUS
 10
-1.660665
 20
2.621602
  0
VERTEX
  8
PLAN_1
 62
     5
  6
CONTINUOUS
 10
-1.660665
 20
2.613047
  0
SEQEND
  8
0
  0
POLYLINE
  8
PLAN_1
 62
     5
  6
CONTINUOUS
 66
     1
 40
0.003000
 41
0.003000
  0
VERTEX
  8
PLAN_1
 62
     5
  6
CONTINUOUS
 10
-1.660665
 20
2.604965
  0
VERTEX
  8
PLAN_1
 62
     5
  6
CONTINUOUS
 10
-1.660665
 20
2.596409
  0
SEQEND
  8
0
  0
POLYLINE
  8
PLAN_1
 62
     5
  6
CONTINUOUS
 66
     1
 40
0.003000
 41
0.003000
  0
VERTEX
  8
PLAN_1
 62
     5
  6
CONTINUOUS
 10
-1.660665
 20
2.588327
  0
VERTEX
  8
PLAN_1
 62
     5
  6
CONTINUOUS
 10
-1.660665
 20
2.579768
  0
SEQEND
  8
0
  0
POLYLINE
  8
PLAN_1
 62
     5
  6
CONTINUOUS
 66
     1
 40
0.003000
 41
0.003000
  0
VERTEX
  8
PLAN_1
 62
     5
  6
CONTINUOUS
 10
-1.660665
 20
2.571689
  0
VERTEX
  8
PLAN_1
 62
     5
  6
CONTINUOUS
 10
-1.660665
 20
2.563130
  0
SEQEND
  8
0
  0
POLYLINE
  8
PLAN_1
 62
     5
  6
CONTINUOUS
 66
     1
 40
0.003000
 41
0.003000
  0
VERTEX
  8
PLAN_1
 62
     5
  6
CONTINUOUS
 10
-1.660665
 20
2.555051
  0
VERTEX
  8
PLAN_1
 62
     5
  6
CONTINUOUS
 10
-1.660665
 20
2.546492
  0
SEQEND
  8
0
  0
POLYLINE
  8
PLAN_1
 62
     5
  6
CONTINUOUS
 66
     1
 40
0.003000
 41
0.003000
  0
VERTEX
  8
PLAN_1
 62
     5
  6
CONTINUOUS
 10
-1.660665
 20
2.537937
  0
VERTEX
  8
PLAN_1
 62
     5
  6
CONTINUOUS
 10
-1.660665
 20
2.529854
  0
SEQEND
  8
0
  0
POLYLINE
  8
PLAN_1
 62
     5
  6
CONTINUOUS
 66
     1
 40
0.003000
 41
0.003000
  0
VERTEX
  8
PLAN_1
 62
     5
  6
CONTINUOUS
 10
-1.660665
 20
2.521295
  0
VERTEX
  8
PLAN_1
 62
     5
  6
CONTINUOUS
 10
-1.660665
 20
2.513217
  0
SEQEND
  8
0
  0
POLYLINE
  8
PLAN_1
 62
     5
  6
CONTINUOUS
 66
     1
 40
0.003000
 41
0.003000
  0
VERTEX
  8
PLAN_1
 62
     5
  6
CONTINUOUS
 10
-1.660665
 20
2.504657
  0
VERTEX
  8
PLAN_1
 62
     5
  6
CONTINUOUS
 10
-1.660665
 20
2.496575
  0
SEQEND
  8
0
  0
POLYLINE
  8
PLAN_1
 62
     5
  6
CONTINUOUS
 66
     1
 40
0.003000
 41
0.003000
  0
VERTEX
  8
PLAN_1
 62
     5
  6
CONTINUOUS
 10
-1.660665
 20
2.488020
  0
VERTEX
  8
PLAN_1
 62
     5
  6
CONTINUOUS
 10
-1.660665
 20
2.479937
  0
SEQEND
  8
0
  0
POLYLINE
  8
PLAN_1
 62
     5
  6
CONTINUOUS
 66
     1
 40
0.003000
 41
0.003000
  0
VERTEX
  8
PLAN_1
 62
     5
  6
CONTINUOUS
 10
-1.656386
 20
2.475657
  0
VERTEX
  8
PLAN_1
 62
     5
  6
CONTINUOUS
 10
-1.648303
 20
2.475657
  0
SEQEND
  8
0
  0
POLYLINE
  8
PLAN_1
 62
     5
  6
CONTINUOUS
 66
     1
 40
0.003000
 41
0.003000
  0
VERTEX
  8
PLAN_1
 62
     5
  6
CONTINUOUS
 10
-1.639748
 20
2.475657
  0
VERTEX
  8
PLAN_1
 62
     5
  6
CONTINUOUS
 10
-1.631665
 20
2.475657
  0
SEQEND
  8
0
  0
POLYLINE
  8
PLAN_1
 62
     5
  6
CONTINUOUS
 66
     1
 40
0.003000
 41
0.003000
  0
VERTEX
  8
PLAN_1
 62
     5
  6
CONTINUOUS
 10
-1.623106
 20
2.475657
  0
VERTEX
  8
PLAN_1
 62
     5
  6
CONTINUOUS
 10
-1.615028
 20
2.475657
  0
SEQEND
  8
0
  0
POLYLINE
  8
PLAN_1
 62
     5
  6
CONTINUOUS
 66
     1
 40
0.003000
 41
0.003000
  0
VERTEX
  8
PLAN_1
 62
     5
  6
CONTINUOUS
 10
-1.606469
 20
2.475657
  0
VERTEX
  8
PLAN_1
 62
     5
  6
CONTINUOUS
 10
-1.598386
 20
2.475657
  0
SEQEND
  8
0
  0
POLYLINE
  8
PLAN_1
 62
     5
  6
CONTINUOUS
 66
     1
 40
0.003000
 41
0.003000
  0
VERTEX
  8
PLAN_1
 62
     5
  6
CONTINUOUS
 10
-1.589831
 20
2.475657
  0
VERTEX
  8
PLAN_1
 62
     5
  6
CONTINUOUS
 10
-1.581748
 20
2.475657
  0
SEQEND
  8
0
  0
POLYLINE
  8
PLAN_1
 62
     5
  6
CONTINUOUS
 66
     1
 40
0.003000
 41
0.003000
  0
VERTEX
  8
PLAN_1
 62
     5
  6
CONTINUOUS
 10
-1.573193
 20
2.475657
  0
VERTEX
  8
PLAN_1
 62
     5
  6
CONTINUOUS
 10
-1.565110
 20
2.475657
  0
SEQEND
  8
0
  0
POLYLINE
  8
PLAN_1
 62
     5
  6
CONTINUOUS
 66
     1
 40
0.003000
 41
0.003000
  0
VERTEX
  8
PLAN_1
 62
     5
  6
CONTINUOUS
 10
-1.556555
 20
2.475657
  0
VERTEX
  8
PLAN_1
 62
     5
  6
CONTINUOUS
 10
-1.548472
 20
2.475657
  0
SEQEND
  8
0
  0
POLYLINE
  8
PLAN_1
 62
     5
  6
CONTINUOUS
 66
     1
 40
0.003000
 41
0.003000
  0
VERTEX
  8
PLAN_1
 62
     5
  6
CONTINUOUS
 10
-1.539913
 20
2.475657
  0
VERTEX
  8
PLAN_1
 62
     5
  6
CONTINUOUS
 10
-1.531835
 20
2.475657
  0
SEQEND
  8
0
  0
POLYLINE
  8
PLAN_1
 62
     5
  6
CONTINUOUS
 66
     1
 40
0.003000
 41
0.003000
  0
VERTEX
  8
PLAN_1
 62
     5
  6
CONTINUOUS
 10
-1.523276
 20
2.475657
  0
VERTEX
  8
PLAN_1
 62
     5
  6
CONTINUOUS
 10
-1.515193
 20
2.475657
  0
SEQEND
  8
0
  0
POLYLINE
  8
PLAN_1
 62
     5
  6
CONTINUOUS
 66
     1
 40
0.003000
 41
0.003000
  0
VERTEX
  8
PLAN_1
 62
     5
  6
CONTINUOUS
 10
-1.506638
 20
2.475657
  0
VERTEX
  8
PLAN_1
 62
     5
  6
CONTINUOUS
 10
-1.502358
 20
2.475657
  0
VERTEX
  8
PLAN_1
 62
     5
  6
CONTINUOUS
 10
-1.502358
 20
2.479461
  0
SEQEND
  8
0
  0
POLYLINE
  8
PLAN_1
 62
     5
  6
CONTINUOUS
 66
     1
 40
0.003000
 41
0.003000
  0
VERTEX
  8
PLAN_1
 62
     5
  6
CONTINUOUS
 10
-1.502358
 20
2.488020
  0
VERTEX
  8
PLAN_1
 62
     5
  6
CONTINUOUS
 10
-1.502358
 20
2.496102
  0
SEQEND
  8
0
  0
POLYLINE
  8
PLAN_1
 62
     5
  6
CONTINUOUS
 66
     1
 40
0.003000
 41
0.003000
  0
VERTEX
  8
PLAN_1
 62
     5
  6
CONTINUOUS
 10
-1.502358
 20
2.504657
  0
VERTEX
  8
PLAN_1
 62
     5
  6
CONTINUOUS
 10
-1.502358
 20
2.512740
  0
SEQEND
  8
0
  0
POLYLINE
  8
PLAN_1
 62
     5
  6
CONTINUOUS
 66
     1
 40
0.003000
 41
0.003000
  0
VERTEX
  8
PLAN_1
 62
     5
  6
CONTINUOUS
 10
-1.502358
 20
2.521295
  0
VERTEX
  8
PLAN_1
 62
     5
  6
CONTINUOUS
 10
-1.501882
 20
2.529378
  0
SEQEND
  8
0
  0
POLYLINE
  8
PLAN_1
 62
     5
  6
CONTINUOUS
 66
     1
 40
0.003000
 41
0.003000
  0
VERTEX
  8
PLAN_1
 62
     5
  6
CONTINUOUS
 10
-1.501882
 20
2.537937
  0
VERTEX
  8
PLAN_1
 62
     5
  6
CONTINUOUS
 10
-1.501882
 20
2.546016
  0
SEQEND
  8
0
  0
POLYLINE
  8
PLAN_1
 62
     5
  6
CONTINUOUS
 66
     1
 40
0.003000
 41
0.003000
  0
VERTEX
  8
PLAN_1
 62
     5
  6
CONTINUOUS
 10
-1.501882
 20
2.554575
  0
VERTEX
  8
PLAN_1
 62
     5
  6
CONTINUOUS
 10
-1.501882
 20
2.563130
  0
SEQEND
  8
0
  0
POLYLINE
  8
PLAN_1
 62
     5
  6
CONTINUOUS
 66
     1
 40
0.003000
 41
0.003000
  0
VERTEX
  8
PLAN_1
 62
     5
  6
CONTINUOUS
 10
-1.501882
 20
2.571213
  0
VERTEX
  8
PLAN_1
 62
     5
  6
CONTINUOUS
 10
-1.501882
 20
2.579768
  0
SEQEND
  8
0
  0
POLYLINE
  8
PLAN_1
 62
     5
  6
CONTINUOUS
 66
     1
 40
0.003000
 41
0.003000
  0
VERTEX
  8
PLAN_1
 62
     5
  6
CONTINUOUS
 10
-1.501882
 20
2.587850
  0
VERTEX
  8
PLAN_1
 62
     5
  6
CONTINUOUS
 10
-1.501882
 20
2.596409
  0
SEQEND
  8
0
  0
POLYLINE
  8
PLAN_1
 62
     5
  6
CONTINUOUS
 66
     1
 40
0.003000
 41
0.003000
  0
VERTEX
  8
PLAN_1
 62
     5
  6
CONTINUOUS
 10
-1.501882
 20
2.604488
  0
VERTEX
  8
PLAN_1
 62
     5
  6
CONTINUOUS
 10
-1.501882
 20
2.613047
  0
SEQEND
  8
0
  0
POLYLINE
  8
PLAN_1
 62
     5
  6
CONTINUOUS
 66
     1
 40
0.003000
 41
0.003000
  0
VERTEX
  8
PLAN_1
 62
     5
  6
CONTINUOUS
 10
-1.501882
 20
2.621130
  0
VERTEX
  8
PLAN_1
 62
     5
  6
CONTINUOUS
 10
-1.501882
 20
2.629685
  0
SEQEND
  8
0
  0
POLYLINE
  8
PLAN_1
 62
     5
  6
CONTINUOUS
 66
     1
 40
0.003000
 41
0.003000
  0
VERTEX
  8
PLAN_1
 62
     5
  6
CONTINUOUS
 10
-1.501882
 20
2.637768
  0
VERTEX
  8
PLAN_1
 62
     5
  6
CONTINUOUS
 10
-1.501882
 20
2.646323
  0
SEQEND
  8
0
  0
POLYLINE
  8
PLAN_1
 62
     5
  6
CONTINUOUS
 66
     1
 40
0.003000
 41
0.003000
  0
VERTEX
  8
PLAN_1
 62
     5
  6
CONTINUOUS
 10
-1.501882
 20
2.654406
  0
VERTEX
  8
PLAN_1
 62
     5
  6
CONTINUOUS
 10
-1.501882
 20
2.662965
  0
SEQEND
  8
0
  0
POLYLINE
  8
PLAN_1
 62
     5
  6
CONTINUOUS
 66
     1
 40
0.003000
 41
0.003000
  0
VERTEX
  8
PLAN_1
 62
     5
  6
CONTINUOUS
 10
-1.496177
 20
2.665339
  0
VERTEX
  8
PLAN_1
 62
     5
  6
CONTINUOUS
 10
-1.488098
 20
2.665339
  0
SEQEND
  8
0
  0
POLYLINE
  8
PLAN_1
 62
     5
  6
CONTINUOUS
 66
     1
 40
0.003000
 41
0.003000
  0
VERTEX
  8
PLAN_1
 62
     5
  6
CONTINUOUS
 10
-1.479539
 20
2.665339
  0
VERTEX
  8
PLAN_1
 62
     5
  6
CONTINUOUS
 10
-1.474787
 20
2.665339
  0
VERTEX
  8
PLAN_1
 62
     5
  6
CONTINUOUS
 10
-1.474787
 20
2.662488
  0
SEQEND
  8
0
  0
POLYLINE
  8
PLAN_1
 62
     5
  6
CONTINUOUS
 66
     1
 40
0.003000
 41
0.003000
  0
VERTEX
  8
PLAN_1
 62
     5
  6
CONTINUOUS
 10
-1.474787
 20
2.653929
  0
VERTEX
  8
PLAN_1
 62
     5
  6
CONTINUOUS
 10
-1.474787
 20
2.645850
  0
SEQEND
  8
0
  0
POLYLINE
  8
PLAN_1
 62
     5
  6
CONTINUOUS
 66
     1
 40
0.003000
 41
0.003000
  0
VERTEX
  8
PLAN_1
 62
     5
  6
CONTINUOUS
 10
-1.474787
 20
2.637291
  0
VERTEX
  8
PLAN_1
 62
     5
  6
CONTINUOUS
 10
-1.474787
 20
2.633965
  0
SEQEND
  8
0
  0
POLYLINE
  8
PLAN_1
 62
     5
  6
CONTINUOUS
 66
     1
 40
0.003000
 41
0.003000
  0
VERTEX
  8
PLAN_1
 62
     5
  6
CONTINUOUS
 10
-1.474787
 20
2.637291
  0
VERTEX
  8
PLAN_1
 62
     5
  6
CONTINUOUS
 10
-1.474787
 20
2.633965
  0
SEQEND
  8
0
  0
POLYLINE
  8
PLAN_1
  6
CONTINUOUS
 66
     1
 40
0.008555
 41
0.008555
  0
VERTEX
  8
PLAN_1
  6
CONTINUOUS
 10
-1.660665
 20
2.736650
  0
VERTEX
  8
PLAN_1
  6
CONTINUOUS
 10
-1.660665
 20
3.014752
  0
VERTEX
  8
PLAN_1
  6
CONTINUOUS
 10
-1.726744
 20
3.014752
  0
VERTEX
  8
PLAN_1
  6
CONTINUOUS
 10
-1.726744
 20
2.736650
  0
VERTEX
  8
PLAN_1
  6
CONTINUOUS
 10
-1.660665
 20
2.736650
  0
SEQEND
  8
0
  0
POLYLINE
  8
PLAN_1
  6
CONTINUOUS
 66
     1
 40
0.008555
 41
0.008555
  0
VERTEX
  8
PLAN_1
  6
CONTINUOUS
 10
-1.726744
 20
2.942016
  0
VERTEX
  8
PLAN_1
  6
CONTINUOUS
 10
-1.661138
 20
2.942016
  0
SEQEND
  8
0
  0
POLYLINE
  8
PLAN_1
  6
CONTINUOUS
 66
     1
 40
0.008555
 41
0.008555
  0
VERTEX
  8
PLAN_1
  6
CONTINUOUS
 10
-1.726744
 20
2.809382
  0
VERTEX
  8
PLAN_1
  6
CONTINUOUS
 10
-1.661138
 20
2.809382
  0
SEQEND
  8
0
  0
POLYLINE
  8
PLAN_1
  6
CONTINUOUS
 66
     1
 40
0.008555
 41
0.008555
  0
VERTEX
  8
PLAN_1
  6
CONTINUOUS
 10
-1.718661
 20
3.014276
  0
VERTEX
  8
PLAN_1
  6
CONTINUOUS
 10
-1.719614
 20
3.012850
  0
VERTEX
  8
PLAN_1
  6
CONTINUOUS
 10
-1.721039
 20
3.008098
  0
VERTEX
  8
PLAN_1
  6
CONTINUOUS
 10
-1.723417
 20
3.000965
  0
VERTEX
  8
PLAN_1
  6
CONTINUOUS
 10
-1.725319
 20
2.991933
  0
VERTEX
  8
PLAN_1
  6
CONTINUOUS
 10
-1.725791
 20
2.986705
  0
VERTEX
  8
PLAN_1
  6
CONTINUOUS
 10
-1.726268
 20
2.981000
  0
VERTEX
  8
PLAN_1
  6
CONTINUOUS
 10
-1.726268
 20
2.975295
  0
VERTEX
  8
PLAN_1
  6
CONTINUOUS
 10
-1.726268
 20
2.969114
  0
VERTEX
  8
PLAN_1
  6
CONTINUOUS
 10
-1.725319
 20
2.962461
  0
VERTEX
  8
PLAN_1
  6
CONTINUOUS
 10
-1.723890
 20
2.955803
  0
VERTEX
  8
PLAN_1
  6
CONTINUOUS
 10
-1.721516
 20
2.949150
  0
VERTEX
  8
PLAN_1
  6
CONTINUOUS
 10
-1.718661
 20
2.942492
  0
VERTEX
  8
PLAN_1
  6
CONTINUOUS
 10
-1.719614
 20
2.939642
  0
VERTEX
  8
PLAN_1
  6
CONTINUOUS
 10
-1.721039
 20
2.931559
  0
VERTEX
  8
PLAN_1
  6
CONTINUOUS
 10
-1.723417
 20
2.918724
  0
VERTEX
  8
PLAN_1
  6
CONTINUOUS
 10
-1.725319
 20
2.902087
  0
VERTEX
  8
PLAN_1
  6
CONTINUOUS
 10
-1.725791
 20
2.892579
  0
VERTEX
  8
PLAN_1
  6
CONTINUOUS
 10
-1.726268
 20
2.882118
  0
VERTEX
  8
PLAN_1
  6
CONTINUOUS
 10
-1.726268
 20
2.871185
  0
VERTEX
  8
PLAN_1
  6
CONTINUOUS
 10
-1.725791
 20
2.859299
  0
VERTEX
  8
PLAN_1
  6
CONTINUOUS
 10
-1.724843
 20
2.847413
  0
VERTEX
  8
PLAN_1
  6
CONTINUOUS
 10
-1.723417
 20
2.834579
  0
VERTEX
  8
PLAN_1
  6
CONTINUOUS
 10
-1.721039
 20
2.821744
  0
VERTEX
  8
PLAN_1
  6
CONTINUOUS
 10
-1.718185
 20
2.808433
  0
VERTEX
  8
PLAN_1
  6
CONTINUOUS
 10
-1.719138
 20
2.807008
  0
VERTEX
  8
PLAN_1
  6
CONTINUOUS
 10
-1.720563
 20
2.802252
  0
VERTEX
  8
PLAN_1
  6
CONTINUOUS
 10
-1.722941
 20
2.795122
  0
VERTEX
  8
PLAN_1
  6
CONTINUOUS
 10
-1.724843
 20
2.786091
  0
VERTEX
  8
PLAN_1
  6
CONTINUOUS
 10
-1.725791
 20
2.780858
  0
VERTEX
  8
PLAN_1
  6
CONTINUOUS
 10
-1.725791
 20
2.775154
  0
VERTEX
  8
PLAN_1
  6
CONTINUOUS
 10
-1.726268
 20
2.768976
  0
VERTEX
  8
PLAN_1
  6
CONTINUOUS
 10
-1.725791
 20
2.762795
  0
VERTEX
  8
PLAN_1
  6
CONTINUOUS
 10
-1.724843
 20
2.756614
  0
VERTEX
  8
PLAN_1
  6
CONTINUOUS
 10
-1.723417
 20
2.749961
  0
VERTEX
  8
PLAN_1
  6
CONTINUOUS
 10
-1.721039
 20
2.743303
  0
VERTEX
  8
PLAN_1
  6
CONTINUOUS
 10
-1.718185
 20
2.736650
  0
SEQEND
  8
0
  0
POLYLINE
  8
PLAN_1
  6
CONTINUOUS
 66
     1
 40
0.008555
 41
0.008555
  0
VERTEX
  8
PLAN_1
  6
CONTINUOUS
 10
-1.668744
 20
2.737126
  0
VERTEX
  8
PLAN_1
  6
CONTINUOUS
 10
-1.668272
 20
2.739028
  0
VERTEX
  8
PLAN_1
  6
CONTINUOUS
 10
-1.666370
 20
2.743303
  0
VERTEX
  8
PLAN_1
  6
CONTINUOUS
 10
-1.664469
 20
2.750433
  0
VERTEX
  8
PLAN_1
  6
CONTINUOUS
 10
-1.662091
 20
2.759941
  0
VERTEX
  8
PLAN_1
  6
CONTINUOUS
 10
-1.661614
 20
2.765173
  0
VERTEX
  8
PLAN_1
  6
CONTINUOUS
 10
-1.661138
 20
2.770878
  0
VERTEX
  8
PLAN_1
  6
CONTINUOUS
 10
-1.661138
 20
2.776583
  0
VERTEX
  8
PLAN_1
  6
CONTINUOUS
 10
-1.661614
 20
2.782760
  0
VERTEX
  8
PLAN_1
  6
CONTINUOUS
 10
-1.662567
 20
2.789417
  0
VERTEX
  8
PLAN_1
  6
CONTINUOUS
 10
-1.663992
 20
2.796071
  0
VERTEX
  8
PLAN_1
  6
CONTINUOUS
 10
-1.665894
 20
2.802728
  0
VERTEX
  8
PLAN_1
  6
CONTINUOUS
 10
-1.668744
 20
2.809382
  0
SEQEND
  8
0
  0
POLYLINE
  8
PLAN_1
  6
CONTINUOUS
 66
     1
 40
0.008555
 41
0.008555
  0
VERTEX
  8
PLAN_1
  6
CONTINUOUS
 10
-1.668272
 20
2.942492
  0
VERTEX
  8
PLAN_1
  6
CONTINUOUS
 10
-1.667319
 20
2.944394
  0
VERTEX
  8
PLAN_1
  6
CONTINUOUS
 10
-1.665894
 20
2.948673
  0
VERTEX
  8
PLAN_1
  6
CONTINUOUS
 10
-1.663516
 20
2.955803
  0
VERTEX
  8
PLAN_1
  6
CONTINUOUS
 10
-1.661614
 20
2.965311
  0
VERTEX
  8
PLAN_1
  6
CONTINUOUS
 10
-1.660665
 20
2.970539
  0
VERTEX
  8
PLAN_1
  6
CONTINUOUS
 10
-1.660665
 20
2.976244
  0
VERTEX
  8
PLAN_1
  6
CONTINUOUS
 10
-1.660189
 20
2.981949
  0
VERTEX
  8
PLAN_1
  6
CONTINUOUS
 10
-1.660665
 20
2.988130
  0
VERTEX
  8
PLAN_1
  6
CONTINUOUS
 10
-1.661614
 20
2.994787
  0
VERTEX
  8
PLAN_1
  6
CONTINUOUS
 10
-1.663039
 20
3.000965
  0
VERTEX
  8
PLAN_1
  6
CONTINUOUS
 10
-1.665417
 20
3.007622
  0
VERTEX
  8
PLAN_1
  6
CONTINUOUS
 10
-1.668272
 20
3.014276
  0
SEQEND
  8
0
  0
POLYLINE
  8
PLAN_1
  6
CONTINUOUS
 66
     1
 40
0.008555
 41
0.008555
  0
VERTEX
  8
PLAN_1
  6
CONTINUOUS
 10
-1.668272
 20
2.809382
  0
VERTEX
  8
PLAN_1
  6
CONTINUOUS
 10
-1.667795
 20
2.812236
  0
VERTEX
  8
PLAN_1
  6
CONTINUOUS
 10
-1.665894
 20
2.820319
  0
VERTEX
  8
PLAN_1
  6
CONTINUOUS
 10
-1.663992
 20
2.832677
  0
VERTEX
  8
PLAN_1
  6
CONTINUOUS
 10
-1.662091
 20
2.849315
  0
VERTEX
  8
PLAN_1
  6
CONTINUOUS
 10
-1.661138
 20
2.859299
  0
VERTEX
  8
PLAN_1
  6
CONTINUOUS
 10
-1.661138
 20
2.869760
  0
VERTEX
  8
PLAN_1
  6
CONTINUOUS
 10
-1.660665
 20
2.880693
  0
VERTEX
  8
PLAN_1
  6
CONTINUOUS
 10
-1.661138
 20
2.892102
  0
VERTEX
  8
PLAN_1
  6
CONTINUOUS
 10
-1.662091
 20
2.904461
  0
VERTEX
  8
PLAN_1
  6
CONTINUOUS
 10
-1.663516
 20
2.916823
  0
VERTEX
  8
PLAN_1
  6
CONTINUOUS
 10
-1.665894
 20
2.930134
  0
VERTEX
  8
PLAN_1
  6
CONTINUOUS
 10
-1.668744
 20
2.943445
  0
SEQEND
  8
0
  0
POLYLINE
  8
PLAN_1
  6
CONTINUOUS
 66
     1
 40
0.008555
 41
0.008555
  0
VERTEX
  8
PLAN_1
  6
CONTINUOUS
 10
-1.727220
 20
1.339949
  0
VERTEX
  8
PLAN_1
  6
CONTINUOUS
 10
-1.727693
 20
1.339949
  0
SEQEND
  8
0
  0
POLYLINE
  8
PLAN_1
  6
CONTINUOUS
 66
     1
 40
0.008555
 41
0.008555
  0
VERTEX
  8
PLAN_1
  6
CONTINUOUS
 10
-1.792823
 20
1.339949
  0
VERTEX
  8
PLAN_1
  6
CONTINUOUS
 10
-1.866508
 20
1.339949
  0
VERTEX
  8
PLAN_1
  6
CONTINUOUS
 10
-1.866508
 20
0.675827
  0
VERTEX
  8
PLAN_1
  6
CONTINUOUS
 10
-1.792823
 20
0.675827
  0
SEQEND
  8
0
  0
POLYLINE
  8
PLAN_1
  6
CONTINUOUS
 66
     1
 40
0.008555
 41
0.008555
  0
VERTEX
  8
PLAN_1
  6
CONTINUOUS
 10
-1.661614
 20
0.675827
  0
VERTEX
  8
PLAN_1
  6
CONTINUOUS
 10
-1.562260
 20
0.675827
  0
VERTEX
  8
PLAN_1
  6
CONTINUOUS
 10
-1.562260
 20
0.647303
  0
VERTEX
  8
PLAN_1
  6
CONTINUOUS
 10
-1.320283
 20
0.622587
  0
VERTEX
  8
PLAN_1
  6
CONTINUOUS
 10
-1.217126
 20
0.622587
  0
VERTEX
  8
PLAN_1
  6
CONTINUOUS
 10
-1.217126
 20
1.409358
  0
VERTEX
  8
PLAN_1
  6
CONTINUOUS
 10
-1.319335
 20
1.408882
  0
VERTEX
  8
PLAN_1
  6
CONTINUOUS
 10
-1.562260
 20
1.373701
  0
VERTEX
  8
PLAN_1
  6
CONTINUOUS
 10
-1.562260
 20
1.339949
  0
VERTEX
  8
PLAN_1
  6
CONTINUOUS
 10
-1.661614
 20
1.339949
  0
SEQEND
  8
0
  0
POLYLINE
  8
PLAN_1
  6
CONTINUOUS
 66
     1
 40
0.008555
 41
0.008555
  0
VERTEX
  8
PLAN_1
  6
CONTINUOUS
 10
-1.727693
 20
0.675827
  0
VERTEX
  8
PLAN_1
  6
CONTINUOUS
 10
-1.727220
 20
0.675827
  0
SEQEND
  8
0
  0
POLYLINE
  8
PLAN_1
  6
CONTINUOUS
 66
     1
 40
0.008555
 41
0.008555
  0
VERTEX
  8
PLAN_1
  6
CONTINUOUS
 10
-1.727693
 20
1.339949
  0
VERTEX
  8
PLAN_1
  6
CONTINUOUS
 10
-1.727693
 20
0.675827
  0
SEQEND
  8
0
  0
POLYLINE
  8
PLAN_1
  6
CONTINUOUS
 66
     1
 40
0.008555
 41
0.008555
  0
VERTEX
  8
PLAN_1
  6
CONTINUOUS
 10
-1.792823
 20
1.339949
  0
VERTEX
  8
PLAN_1
  6
CONTINUOUS
 10
-1.792823
 20
3.026161
  0
VERTEX
  8
PLAN_1
  6
CONTINUOUS
 10
-1.727693
 20
3.026161
  0
VERTEX
  8
PLAN_1
  6
CONTINUOUS
 10
-1.727693
 20
1.339949
  0
SEQEND
  8
0
  0
POLYLINE
  8
PLAN_1
  6
CONTINUOUS
 66
     1
 40
0.008555
 41
0.008555
  0
VERTEX
  8
PLAN_1
  6
CONTINUOUS
 10
-1.792823
 20
0.675827
  0
VERTEX
  8
PLAN_1
  6
CONTINUOUS
 10
-1.792823
 20
-0.286362
  0
VERTEX
  8
PLAN_1
  6
CONTINUOUS
 10
-1.727693
 20
-0.286362
  0
VERTEX
  8
PLAN_1
  6
CONTINUOUS
 10
-1.727693
 20
0.675827
  0
SEQEND
  8
0
  0
POLYLINE
  8
PLAN_1
  6
CONTINUOUS
 66
     1
 40
0.008555
 41
0.008555
  0
VERTEX
  8
PLAN_1
  6
CONTINUOUS
 10
-1.792823
 20
1.339949
  0
VERTEX
  8
PLAN_1
  6
CONTINUOUS
 10
-1.792823
 20
0.675827
  0
SEQEND
  8
0
  0
POLYLINE
  8
PLAN_1
  6
CONTINUOUS
 66
     1
 40
0.008555
 41
0.008555
  0
VERTEX
  8
PLAN_1
  6
CONTINUOUS
 10
-1.661614
 20
1.339949
  0
VERTEX
  8
PLAN_1
  6
CONTINUOUS
 10
-1.661614
 20
0.675827
  0
SEQEND
  8
0
  0
POLYLINE
  8
PLAN_1
  6
CONTINUOUS
 66
     1
 40
0.008555
 41
0.008555
  0
VERTEX
  8
PLAN_1
  6
CONTINUOUS
 10
-1.727220
 20
0.675827
  0
VERTEX
  8
PLAN_1
  6
CONTINUOUS
 10
-1.727220
 20
0.607374
  0
VERTEX
  8
PLAN_1
  6
CONTINUOUS
 10
-1.661614
 20
0.607374
  0
VERTEX
  8
PLAN_1
  6
CONTINUOUS
 10
-1.661614
 20
0.675827
  0
SEQEND
  8
0
  0
POLYLINE
  8
PLAN_1
  6
CONTINUOUS
 66
     1
 40
0.008555
 41
0.008555
  0
VERTEX
  8
PLAN_1
  6
CONTINUOUS
 10
-1.727220
 20
1.339949
  0
VERTEX
  8
PLAN_1
  6
CONTINUOUS
 10
-1.727220
 20
0.675827
  0
SEQEND
  8
0
  0
POLYLINE
  8
PLAN_1
  6
CONTINUOUS
 66
     1
 40
0.008555
 41
0.008555
  0
VERTEX
  8
PLAN_1
  6
CONTINUOUS
 10
-1.661614
 20
1.339949
  0
VERTEX
  8
PLAN_1
  6
CONTINUOUS
 10
-1.661614
 20
1.418390
  0
VERTEX
  8
PLAN_1
  6
CONTINUOUS
 10
-1.727220
 20
1.418390
  0
VERTEX
  8
PLAN_1
  6
CONTINUOUS
 10
-1.727220
 20
1.339949
  0
SEQEND
  8
0
  0
POLYLINE
  8
PLAN_1
  6
CONTINUOUS
 66
     1
 40
0.008555
 41
0.008555
  0
VERTEX
  8
PLAN_1
  6
CONTINUOUS
 10
-2.116087
 20
1.368472
  0
VERTEX
  8
PLAN_1
  6
CONTINUOUS
 10
-2.116087
 20
1.420768
  0
VERTEX
  8
PLAN_1
  6
CONTINUOUS
 10
-1.795673
 20
1.420768
  0
VERTEX
  8
PLAN_1
  6
CONTINUOUS
 10
-1.795673
 20
1.368472
  0
VERTEX
  8
PLAN_1
  6
CONTINUOUS
 10
-2.116087
 20
1.368472
  0
SEQEND
  8
0
  0
POLYLINE
  8
PLAN_1
  6
CONTINUOUS
 66
     1
 40
0.008555
 41
0.008555
  0
VERTEX
  8
PLAN_1
  6
CONTINUOUS
 10
-1.864130
 20
0.715287
  0
VERTEX
  8
PLAN_1
  6
CONTINUOUS
 10
-1.864130
 20
1.319508
  0
VERTEX
  8
PLAN_1
  6
CONTINUOUS
 10
-1.919752
 20
1.319508
  0
VERTEX
  8
PLAN_1
  6
CONTINUOUS
 10
-1.919752
 20
0.715287
  0
VERTEX
  8
PLAN_1
  6
CONTINUOUS
 10
-1.864130
 20
0.715287
  0
SEQEND
  8
0
  0
POLYLINE
  8
PLAN_1
  6
CONTINUOUS
 66
     1
 40
0.008555
 41
0.008555
  0
VERTEX
  8
PLAN_1
  6
CONTINUOUS
 10
-1.562260
 20
0.672024
  0
VERTEX
  8
PLAN_1
  6
CONTINUOUS
 10
-1.562260
 20
1.334720
  0
SEQEND
  8
0
  0
POLYLINE
  8
PLAN_1
 62
     2
  6
CONTINUOUS
 66
     1
 40
0.004276
 41
0.004276
  0
VERTEX
  8
PLAN_1
 62
     2
  6
CONTINUOUS
 10
-2.014354
 20
2.469953
  0
VERTEX
  8
PLAN_1
 62
     2
  6
CONTINUOUS
 10
-2.014354
 20
2.263157
  0
SEQEND
  8
0
  0
POLYLINE
  8
PLAN_1
 62
     2
  6
CONTINUOUS
 66
     1
 40
0.004276
 41
0.004276
  0
VERTEX
  8
PLAN_1
 62
     2
  6
CONTINUOUS
 10
-1.855575
 20
2.469953
  0
VERTEX
  8
PLAN_1
 62
     2
  6
CONTINUOUS
 10
-1.855575
 20
2.263157
  0
SEQEND
  8
0
  0
POLYLINE
  8
PLAN_1
 62
     2
  6
CONTINUOUS
 66
     1
 40
0.004276
 41
0.004276
  0
VERTEX
  8
PLAN_1
 62
     2
  6
CONTINUOUS
 10
-1.548472
 20
3.368445
  0
VERTEX
  8
PLAN_1
 62
     2
  6
CONTINUOUS
 10
0.083071
 20
3.368445
  0
SEQEND
  8
0
  0
SOLID
  8
PLAN_1
 62
     2
 10
0.112543
 20
3.368445
 11
0.053594
 21
3.384130
 12
0.112543
 22
3.368445
 13
0.053594
 23
3.352756
  0
POLYLINE
  8
PLAN_1
 62
     2
  6
CONTINUOUS
 66
     1
 40
0.003000
 41
0.003000
  0
VERTEX
  8
PLAN_1
 62
     2
  6
CONTINUOUS
 10
0.112543
 20
3.368445
  0
VERTEX
  8
PLAN_1
 62
     2
  6
CONTINUOUS
 10
0.053594
 20
3.384130
  0
VERTEX
  8
PLAN_1
 62
     2
  6
CONTINUOUS
 10
0.053594
 20
3.352756
  0
VERTEX
  8
PLAN_1
 62
     2
  6
CONTINUOUS
 10
0.112543
 20
3.368445
  0
SEQEND
  8
0
  0
SOLID
  8
PLAN_1
 62
     2
 10
-1.577945
 20
3.368445
 11
-1.518996
 21
3.384130
 12
-1.577945
 22
3.368445
 13
-1.518996
 23
3.352756
  0
POLYLINE
  8
PLAN_1
 62
     2
  6
CONTINUOUS
 66
     1
 40
0.003000
 41
0.003000
  0
VERTEX
  8
PLAN_1
 62
     2
  6
CONTINUOUS
 10
-1.577945
 20
3.368445
  0
VERTEX
  8
PLAN_1
 62
     2
  6
CONTINUOUS
 10
-1.518996
 20
3.384130
  0
VERTEX
  8
PLAN_1
 62
     2
  6
CONTINUOUS
 10
-1.518996
 20
3.352756
  0
VERTEX
  8
PLAN_1
 62
     2
  6
CONTINUOUS
 10
-1.577945
 20
3.368445
  0
SEQEND
  8
0
  0
POLYLINE
  8
PLAN_1
 62
     2
  6
CONTINUOUS
 66
     1
 40
0.004276
 41
0.004276
  0
VERTEX
  8
PLAN_1
 62
     2
  6
CONTINUOUS
 10
-2.282000
 20
2.289307
  0
VERTEX
  8
PLAN_1
 62
     2
  6
CONTINUOUS
 10
-1.826098
 20
2.289307
  0
SEQEND
  8
0
  0
SOLID
  8
PLAN_1
 62
     2
 10
-2.014354
 20
2.289307
 11
-2.073303
 21
2.304992
 12
-2.014354
 22
2.289307
 13
-2.073303
 23
2.273618
  0
POLYLINE
  8
PLAN_1
 62
     2
  6
CONTINUOUS
 66
     1
 40
0.003000
 41
0.003000
  0
VERTEX
  8
PLAN_1
 62
     2
  6
CONTINUOUS
 10
-2.014354
 20
2.289307
  0
VERTEX
  8
PLAN_1
 62
     2
  6
CONTINUOUS
 10
-2.073303
 20
2.304992
  0
VERTEX
  8
PLAN_1
 62
     2
  6
CONTINUOUS
 10
-2.073303
 20
2.273618
  0
VERTEX
  8
PLAN_1
 62
     2
  6
CONTINUOUS
 10
-2.014354
 20
2.289307
  0
SEQEND
  8
0
  0
SOLID
  8
PLAN_1
 62
     2
 10
-1.855575
 20
2.289307
 11
-1.796626
 21
2.304992
 12
-1.855575
 22
2.289307
 13
-1.796626
 23
2.273618
  0
POLYLINE
  8
PLAN_1
 62
     2
  6
CONTINUOUS
 66
     1
 40
0.003000
 41
0.003000
  0
VERTEX
  8
PLAN_1
 62
     2
  6
CONTINUOUS
 10
-1.855575
 20
2.289307
  0
VERTEX
  8
PLAN_1
 62
     2
  6
CONTINUOUS
 10
-1.796626
 20
2.304992
  0
VERTEX
  8
PLAN_1
 62
     2
  6
CONTINUOUS
 10
-1.796626
 20
2.273618
  0
VERTEX
  8
PLAN_1
 62
     2
  6
CONTINUOUS
 10
-1.855575
 20
2.289307
  0
SEQEND
  8
0
  0
POLYLINE
  8
PLAN_1
 62
     2
  6
CONTINUOUS
 66
     1
 40
0.004276
 41
0.004276
  0
VERTEX
  8
PLAN_1
 62
     2
  6
CONTINUOUS
 10
-1.912622
 20
3.549567
  0
VERTEX
  8
PLAN_1
 62
     2
  6
CONTINUOUS
 10
0.083071
 20
3.549567
  0
SEQEND
  8
0
  0
SOLID
  8
PLAN_1
 62
     2
 10
0.112543
 20
3.549567
 11
0.053594
 21
3.565256
 12
0.112543
 22
3.549567
 13
0.053594
 23
3.533406
  0
POLYLINE
  8
PLAN_1
 62
     2
  6
CONTINUOUS
 66
     1
 40
0.003000
 41
0.003000
  0
VERTEX
  8
PLAN_1
 62
     2
  6
CONTINUOUS
 10
0.112543
 20
3.549567
  0
VERTEX
  8
PLAN_1
 62
     2
  6
CONTINUOUS
 10
0.053594
 20
3.565256
  0
VERTEX
  8
PLAN_1
 62
     2
  6
CONTINUOUS
 10
0.053594
 20
3.533406
  0
VERTEX
  8
PLAN_1
 62
     2
  6
CONTINUOUS
 10
0.112543
 20
3.549567
  0
SEQEND
  8
0
  0
SOLID
  8
PLAN_1
 62
     2
 10
-1.935441
 20
3.549567
 11
-1.876492
 21
3.565256
 12
-1.935441
 22
3.549567
 13
-1.876492
 23
3.533406
  0
POLYLINE
  8
PLAN_1
 62
     2
  6
CONTINUOUS
 66
     1
 40
0.003000
 41
0.003000
  0
VERTEX
  8
PLAN_1
 62
     2
  6
CONTINUOUS
 10
-1.935441
 20
3.549567
  0
VERTEX
  8
PLAN_1
 62
     2
  6
CONTINUOUS
 10
-1.876492
 20
3.565256
  0
VERTEX
  8
PLAN_1
 62
     2
  6
CONTINUOUS
 10
-1.876492
 20
3.533406
  0
VERTEX
  8
PLAN_1
 62
     2
  6
CONTINUOUS
 10
-1.935441
 20
3.549567
  0
SEQEND
  8
0
  0
POLYLINE
  8
PLAN_1
 62
     2
  6
CONTINUOUS
 66
     1
 40
0.004276
 41
0.004276
  0
VERTEX
  8
PLAN_1
 62
     2
  6
CONTINUOUS
 10
-2.103728
 20
3.706921
  0
VERTEX
  8
PLAN_1
 62
     2
  6
CONTINUOUS
 10
0.083071
 20
3.706921
  0
SEQEND
  8
0
  0
SOLID
  8
PLAN_1
 62
     2
 10
0.112543
 20
3.706921
 11
0.053594
 21
3.722610
 12
0.112543
 22
3.706921
 13
0.053594
 23
3.691232
  0
POLYLINE
  8
PLAN_1
 62
     2
  6
CONTINUOUS
 66
     1
 40
0.003000
 41
0.003000
  0
VERTEX
  8
PLAN_1
 62
     2
  6
CONTINUOUS
 10
0.112543
 20
3.706921
  0
VERTEX
  8
PLAN_1
 62
     2
  6
CONTINUOUS
 10
0.053594
 20
3.722610
  0
VERTEX
  8
PLAN_1
 62
     2
  6
CONTINUOUS
 10
0.053594
 20
3.691232
  0
VERTEX
  8
PLAN_1
 62
     2
  6
CONTINUOUS
 10
0.112543
 20
3.706921
  0
SEQEND
  8
0
  0
SOLID
  8
PLAN_1
 62
     2
 10
-2.133201
 20
3.706921
 11
-2.074256
 21
3.722610
 12
-2.133201
 22
3.706921
 13
-2.074256
 23
3.691232
  0
POLYLINE
  8
PLAN_1
 62
     2
  6
CONTINUOUS
 66
     1
 40
0.003000
 41
0.003000
  0
VERTEX
  8
PLAN_1
 62
     2
  6
CONTINUOUS
 10
-2.133201
 20
3.706921
  0
VERTEX
  8
PLAN_1
 62
     2
  6
CONTINUOUS
 10
-2.074256
 20
3.722610
  0
VERTEX
  8
PLAN_1
 62
     2
  6
CONTINUOUS
 10
-2.074256
 20
3.691232
  0
VERTEX
  8
PLAN_1
 62
     2
  6
CONTINUOUS
 10
-2.133201
 20
3.706921
  0
SEQEND
  8
0
  0
POLYLINE
  8
PLAN_1
 62
     2
  6
CONTINUOUS
 66
     1
 40
0.004276
 41
0.004276
  0
VERTEX
  8
PLAN_1
 62
     2
  6
CONTINUOUS
 10
-1.577945
 20
3.391736
  0
VERTEX
  8
PLAN_1
 62
     2
  6
CONTINUOUS
 10
-1.577945
 20
3.132650
  0
SEQEND
  8
0
  0
POLYLINE
  8
PLAN_1
 62
     2
  6
CONTINUOUS
 66
     1
 40
0.004276
 41
0.004276
  0
VERTEX
  8
PLAN_1
 62
     2
  6
CONTINUOUS
 10
0.112543
 20
0.295516
  0
VERTEX
  8
PLAN_1
 62
     2
  6
CONTINUOUS
 10
0.112543
 20
3.730217
  0
SEQEND
  8
0
  0
POLYLINE
  8
PLAN_1
 62
     2
  6
CONTINUOUS
 66
     1
 40
0.004276
 41
0.004276
  0
VERTEX
  8
PLAN_1
 62
     2
  6
CONTINUOUS
 10
-2.133201
 20
3.730217
  0
VERTEX
  8
PLAN_1
 62
     2
  6
CONTINUOUS
 10
-2.133201
 20
3.070374
  0
SEQEND
  8
0
  0
POLYLINE
  8
PLAN_1
 62
     2
  6
CONTINUOUS
 66
     1
 40
0.004276
 41
0.004276
  0
VERTEX
  8
PLAN_1
 62
     2
  6
CONTINUOUS
 10
-1.935441
 20
3.572862
  0
VERTEX
  8
PLAN_1
 62
     2
  6
CONTINUOUS
 10
-1.935441
 20
3.192547
  0
SEQEND
  8
0
  0
POLYLINE
  8
PLAN_1
 62
     2
  6
CONTINUOUS
 66
     1
 40
0.003000
 41
0.003000
  0
VERTEX
  8
PLAN_1
 62
     2
  6
CONTINUOUS
 10
-1.053114
 20
3.773000
  0
VERTEX
  8
PLAN_1
 62
     2
  6
CONTINUOUS
 10
-1.051689
 20
3.773953
  0
VERTEX
  8
PLAN_1
 62
     2
  6
CONTINUOUS
 10
-1.050264
 20
3.774902
  0
VERTEX
  8
PLAN_1
 62
     2
  6
CONTINUOUS
 10
-1.048835
 20
3.775378
  0
VERTEX
  8
PLAN_1
 62
     2
  6
CONTINUOUS
 10
-1.047409
 20
3.776331
  0
VERTEX
  8
PLAN_1
 62
     2
  6
CONTINUOUS
 10
-1.045508
 20
3.776803
  0
VERTEX
  8
PLAN_1
 62
     2
  6
CONTINUOUS
 10
-1.043606
 20
3.777280
  0
VERTEX
  8
PLAN_1
 62
     2
  6
CONTINUOUS
 10
-1.041228
 20
3.777280
  0
VERTEX
  8
PLAN_1
 62
     2
  6
CONTINUOUS
 10
-1.038854
 20
3.777756
  0
VERTEX
  8
PLAN_1
 62
     2
  6
CONTINUOUS
 10
-1.034575
 20
3.777280
  0
VERTEX
  8
PLAN_1
 62
     2
  6
CONTINUOUS
 10
-1.030295
 20
3.775854
  0
VERTEX
  8
PLAN_1
 62
     2
  6
CONTINUOUS
 10
-1.026016
 20
3.773953
  0
VERTEX
  8
PLAN_1
 62
     2
  6
CONTINUOUS
 10
-1.022213
 20
3.771575
  0
VERTEX
  8
PLAN_1
 62
     2
  6
CONTINUOUS
 10
-1.020787
 20
3.770150
  0
VERTEX
  8
PLAN_1
 62
     2
  6
CONTINUOUS
 10
-1.019362
 20
3.768248
  0
VERTEX
  8
PLAN_1
 62
     2
  6
CONTINUOUS
 10
-1.017937
 20
3.766346
  0
VERTEX
  8
PLAN_1
 62
     2
  6
CONTINUOUS
 10
-1.016984
 20
3.763969
  0
VERTEX
  8
PLAN_1
 62
     2
  6
CONTINUOUS
 10
-1.016035
 20
3.762067
  0
VERTEX
  8
PLAN_1
 62
     2
  6
CONTINUOUS
 10
-1.015559
 20
3.759689
  0
VERTEX
  8
PLAN_1
 62
     2
  6
CONTINUOUS
 10
-1.015083
 20
3.756839
  0
VERTEX
  8
PLAN_1
 62
     2
  6
CONTINUOUS
 10
-1.014606
 20
3.753984
  0
VERTEX
  8
PLAN_1
 62
     2
  6
CONTINUOUS
 10
-1.015083
 20
3.750657
  0
VERTEX
  8
PLAN_1
 62
     2
  6
CONTINUOUS
 10
-1.015559
 20
3.746854
  0
VERTEX
  8
PLAN_1
 62
     2
  6
CONTINUOUS
 10
-1.016984
 20
3.742575
  0
VERTEX
  8
PLAN_1
 62
     2
  6
CONTINUOUS
 10
-1.019362
 20
3.738299
  0
VERTEX
  8
PLAN_1
 62
     2
  6
CONTINUOUS
 10
-1.021264
 20
3.736398
  0
VERTEX
  8
PLAN_1
 62
     2
  6
CONTINUOUS
 10
-1.022689
 20
3.734496
  0
VERTEX
  8
PLAN_1
 62
     2
  6
CONTINUOUS
 10
-1.025067
 20
3.732594
  0
VERTEX
  8
PLAN_1
 62
     2
  6
CONTINUOUS
 10
-1.027445
 20
3.731165
  0
VERTEX
  8
PLAN_1
 62
     2
  6
CONTINUOUS
 10
-1.030295
 20
3.730217
  0
VERTEX
  8
PLAN_1
 62
     2
  6
CONTINUOUS
 10
-1.033622
 20
3.729264
  0
VERTEX
  8
PLAN_1
 62
     2
  6
CONTINUOUS
 10
-1.037425
 20
3.728791
  0
VERTEX
  8
PLAN_1
 62
     2
  6
CONTINUOUS
 10
-1.041228
 20
3.728315
  0
VERTEX
  8
PLAN_1
 62
     2
  6
CONTINUOUS
 10
-1.045031
 20
3.728791
  0
VERTEX
  8
PLAN_1
 62
     2
  6
CONTINUOUS
 10
-1.048835
 20
3.729264
  0
VERTEX
  8
PLAN_1
 62
     2
  6
CONTINUOUS
 10
-1.052638
 20
3.730693
  0
VERTEX
  8
PLAN_1
 62
     2
  6
CONTINUOUS
 10
-1.055965
 20
3.732594
  0
VERTEX
  8
PLAN_1
 62
     2
  6
CONTINUOUS
 10
-1.057866
 20
3.733543
  0
VERTEX
  8
PLAN_1
 62
     2
  6
CONTINUOUS
 10
-1.059295
 20
3.734969
  0
VERTEX
  8
PLAN_1
 62
     2
  6
CONTINUOUS
 10
-1.060720
 20
3.736870
  0
VERTEX
  8
PLAN_1
 62
     2
  6
CONTINUOUS
 10
-1.061669
 20
3.738772
  0
VERTEX
  8
PLAN_1
 62
     2
  6
CONTINUOUS
 10
-1.063098
 20
3.740673
  0
VERTEX
  8
PLAN_1
 62
     2
  6
CONTINUOUS
 10
-1.064047
 20
3.743051
  0
VERTEX
  8
PLAN_1
 62
     2
  6
CONTINUOUS
 10
-1.064524
 20
3.745906
  0
VERTEX
  8
PLAN_1
 62
     2
  6
CONTINUOUS
 10
-1.065000
 20
3.748756
  0
VERTEX
  8
PLAN_1
 62
     2
  6
CONTINUOUS
 10
-1.055492
 20
3.748756
  0
VERTEX
  8
PLAN_1
 62
     2
  6
CONTINUOUS
 10
-1.055016
 20
3.745429
  0
VERTEX
  8
PLAN_1
 62
     2
  6
CONTINUOUS
 10
-1.054067
 20
3.743051
  0
VERTEX
  8
PLAN_1
 62
     2
  6
CONTINUOUS
 10
-1.052165
 20
3.741150
  0
VERTEX
  8
PLAN_1
 62
     2
  6
CONTINUOUS
 10
-1.050264
 20
3.739248
  0
VERTEX
  8
PLAN_1
 62
     2
  6
CONTINUOUS
 10
-1.048362
 20
3.737823
  0
VERTEX
  8
PLAN_1
 62
     2
  6
CONTINUOUS
 10
-1.045984
 20
3.736870
  0
VERTEX
  8
PLAN_1
 62
     2
  6
CONTINUOUS
 10
-1.043130
 20
3.736398
  0
VERTEX
  8
PLAN_1
 62
     2
  6
CONTINUOUS
 10
-1.039803
 20
3.736398
  0
VERTEX
  8
PLAN_1
 62
     2
  6
CONTINUOUS
 10
-1.036476
 20
3.736870
  0
VERTEX
  8
PLAN_1
 62
     2
  6
CONTINUOUS
 10
-1.033622
 20
3.737823
  0
VERTEX
  8
PLAN_1
 62
     2
  6
CONTINUOUS
 10
-1.030772
 20
3.739248
  0
VERTEX
  8
PLAN_1
 62
     2
  6
CONTINUOUS
 10
-1.028870
 20
3.741150
  0
VERTEX
  8
PLAN_1
 62
     2
  6
CONTINUOUS
 10
-1.026969
 20
3.744004
  0
VERTEX
  8
PLAN_1
 62
     2
  6
CONTINUOUS
 10
-1.025543
 20
3.746854
  0
VERTEX
  8
PLAN_1
 62
     2
  6
CONTINUOUS
 10
-1.025067
 20
3.749709
  0
VERTEX
  8
PLAN_1
 62
     2
  6
CONTINUOUS
 10
-1.024591
 20
3.753035
  0
VERTEX
  8
PLAN_1
 62
     2
  6
CONTINUOUS
 10
-1.025067
 20
3.756839
  0
VERTEX
  8
PLAN_1
 62
     2
  6
CONTINUOUS
 10
-1.026016
 20
3.760165
  0
VERTEX
  8
PLAN_1
 62
     2
  6
CONTINUOUS
 10
-1.027445
 20
3.763020
  0
VERTEX
  8
PLAN_1
 62
     2
  6
CONTINUOUS
 10
-1.029346
 20
3.765394
  0
VERTEX
  8
PLAN_1
 62
     2
  6
CONTINUOUS
 10
-1.031720
 20
3.766823
  0
VERTEX
  8
PLAN_1
 62
     2
  6
CONTINUOUS
 10
-1.034575
 20
3.768248
  0
VERTEX
  8
PLAN_1
 62
     2
  6
CONTINUOUS
 10
-1.037425
 20
3.769197
  0
VERTEX
  8
PLAN_1
 62
     2
  6
CONTINUOUS
 10
-1.040756
 20
3.769197
  0
VERTEX
  8
PLAN_1
 62
     2
  6
CONTINUOUS
 10
-1.042657
 20
3.769197
  0
VERTEX
  8
PLAN_1
 62
     2
  6
CONTINUOUS
 10
-1.044559
 20
3.768724
  0
VERTEX
  8
PLAN_1
 62
     2
  6
CONTINUOUS
 10
-1.046461
 20
3.768248
  0
VERTEX
  8
PLAN_1
 62
     2
  6
CONTINUOUS
 10
-1.048362
 20
3.767295
  0
VERTEX
  8
PLAN_1
 62
     2
  6
CONTINUOUS
 10
-1.049787
 20
3.766346
  0
VERTEX
  8
PLAN_1
 62
     2
  6
CONTINUOUS
 10
-1.051689
 20
3.765394
  0
VERTEX
  8
PLAN_1
 62
     2
  6
CONTINUOUS
 10
-1.053114
 20
3.763969
  0
VERTEX
  8
PLAN_1
 62
     2
  6
CONTINUOUS
 10
-1.054539
 20
3.762543
  0
VERTEX
  8
PLAN_1
 62
     2
  6
CONTINUOUS
 10
-1.062146
 20
3.763020
  0
VERTEX
  8
PLAN_1
 62
     2
  6
CONTINUOUS
 10
-1.056917
 20
3.802000
  0
VERTEX
  8
PLAN_1
 62
     2
  6
CONTINUOUS
 10
-1.018886
 20
3.802000
  0
VERTEX
  8
PLAN_1
 62
     2
  6
CONTINUOUS
 10
-1.018886
 20
3.792969
  0
VERTEX
  8
PLAN_1
 62
     2
  6
CONTINUOUS
 10
-1.049787
 20
3.792969
  0
VERTEX
  8
PLAN_1
 62
     2
  6
CONTINUOUS
 10
-1.053114
 20
3.773000
  0
SEQEND
  8
0
  0
POLYLINE
  8
PLAN_1
 62
     2
  6
CONTINUOUS
 66
     1
 40
0.003000
 41
0.003000
  0
VERTEX
  8
PLAN_1
 62
     2
  6
CONTINUOUS
 10
-1.006528
 20
3.802000
  0
VERTEX
  8
PLAN_1
 62
     2
  6
CONTINUOUS
 10
-0.956134
 20
3.802000
  0
VERTEX
  8
PLAN_1
 62
     2
  6
CONTINUOUS
 10
-0.956134
 20
3.793917
  0
VERTEX
  8
PLAN_1
 62
     2
  6
CONTINUOUS
 10
-0.958988
 20
3.790591
  0
VERTEX
  8
PLAN_1
 62
     2
  6
CONTINUOUS
 10
-0.963264
 20
3.785362
  0
VERTEX
  8
PLAN_1
 62
     2
  6
CONTINUOUS
 10
-0.967543
 20
3.779181
  0
VERTEX
  8
PLAN_1
 62
     2
  6
CONTINUOUS
 10
-0.971823
 20
3.771575
  0
VERTEX
  8
PLAN_1
 62
     2
  6
CONTINUOUS
 10
-0.976102
 20
3.763020
  0
VERTEX
  8
PLAN_1
 62
     2
  6
CONTINUOUS
 10
-0.980378
 20
3.753035
  0
VERTEX
  8
PLAN_1
 62
     2
  6
CONTINUOUS
 10
-0.981807
 20
3.747807
  0
VERTEX
  8
PLAN_1
 62
     2
  6
CONTINUOUS
 10
-0.983709
 20
3.742102
  0
VERTEX
  8
PLAN_1
 62
     2
  6
CONTINUOUS
 10
-0.985134
 20
3.736398
  0
VERTEX
  8
PLAN_1
 62
     2
  6
CONTINUOUS
 10
-0.986083
 20
3.730217
  0
VERTEX
  8
PLAN_1
 62
     2
  6
CONTINUOUS
 10
-0.996067
 20
3.730217
  0
VERTEX
  8
PLAN_1
 62
     2
  6
CONTINUOUS
 10
-0.994642
 20
3.738299
  0
VERTEX
  8
PLAN_1
 62
     2
  6
CONTINUOUS
 10
-0.992264
 20
3.746378
  0
VERTEX
  8
PLAN_1
 62
     2
  6
CONTINUOUS
 10
-0.989413
 20
3.754937
  0
VERTEX
  8
PLAN_1
 62
     2
  6
CONTINUOUS
 10
-0.985610
 20
3.763020
  0
VERTEX
  8
PLAN_1
 62
     2
  6
CONTINUOUS
 10
-0.981331
 20
3.771575
  0
VERTEX
  8
PLAN_1
 62
     2
  6
CONTINUOUS
 10
-0.976575
 20
3.779181
  0
VERTEX
  8
PLAN_1
 62
     2
  6
CONTINUOUS
 10
-0.971346
 20
3.786311
  0
VERTEX
  8
PLAN_1
 62
     2
  6
CONTINUOUS
 10
-0.966118
 20
3.792969
  0
VERTEX
  8
PLAN_1
 62
     2
  6
CONTINUOUS
 10
-1.006528
 20
3.792969
  0
VERTEX
  8
PLAN_1
 62
     2
  6
CONTINUOUS
 10
-1.006528
 20
3.802000
  0
SEQEND
  8
0
  0
POLYLINE
  8
PLAN_1
 62
     2
  6
CONTINUOUS
 66
     1
 40
0.003000
 41
0.003000
  0
VERTEX
  8
PLAN_1
 62
     2
  6
CONTINUOUS
 10
-2.244445
 20
2.355386
  0
VERTEX
  8
PLAN_1
 62
     2
  6
CONTINUOUS
 10
-2.243492
 20
2.356335
  0
VERTEX
  8
PLAN_1
 62
     2
  6
CONTINUOUS
 10
-2.242067
 20
2.356811
  0
VERTEX
  8
PLAN_1
 62
     2
  6
CONTINUOUS
 10
-2.240642
 20
2.357764
  0
VERTEX
  8
PLAN_1
 62
     2
  6
CONTINUOUS
 10
-2.238740
 20
2.358713
  0
VERTEX
  8
PLAN_1
 62
     2
  6
CONTINUOUS
 10
-2.236839
 20
2.359189
  0
VERTEX
  8
PLAN_1
 62
     2
  6
CONTINUOUS
 10
-2.234937
 20
2.359665
  0
VERTEX
  8
PLAN_1
 62
     2
  6
CONTINUOUS
 10
-2.233035
 20
2.359665
  0
VERTEX
  8
PLAN_1
 62
     2
  6
CONTINUOUS
 10
-2.230657
 20
2.359665
  0
VERTEX
  8
PLAN_1
 62
     2
  6
CONTINUOUS
 10
-2.225906
 20
2.359665
  0
VERTEX
  8
PLAN_1
 62
     2
  6
CONTINUOUS
 10
-2.221626
 20
2.358236
  0
VERTEX
  8
PLAN_1
 62
     2
  6
CONTINUOUS
 10
-2.217823
 20
2.356335
  0
VERTEX
  8
PLAN_1
 62
     2
  6
CONTINUOUS
 10
-2.214020
 20
2.353961
  0
VERTEX
  8
PLAN_1
 62
     2
  6
CONTINUOUS
 10
-2.212594
 20
2.352059
  0
VERTEX
  8
PLAN_1
 62
     2
  6
CONTINUOUS
 10
-2.210693
 20
2.350630
  0
VERTEX
  8
PLAN_1
 62
     2
  6
CONTINUOUS
 10
-2.209740
 20
2.348728
  0
VERTEX
  8
PLAN_1
 62
     2
  6
CONTINUOUS
 10
-2.208315
 20
2.346354
  0
VERTEX
  8
PLAN_1
 62
     2
  6
CONTINUOUS
 10
-2.207839
 20
2.344453
  0
VERTEX
  8
PLAN_1
 62
     2
  6
CONTINUOUS
 10
-2.206890
 20
2.341598
  0
VERTEX
  8
PLAN_1
 62
     2
  6
CONTINUOUS
 10
-2.206413
 20
2.339220
  0
VERTEX
  8
PLAN_1
 62
     2
  6
CONTINUOUS
 10
-2.206413
 20
2.336370
  0
VERTEX
  8
PLAN_1
 62
     2
  6
CONTINUOUS
 10
-2.206413
 20
2.333043
  0
VERTEX
  8
PLAN_1
 62
     2
  6
CONTINUOUS
 10
-2.207362
 20
2.329240
  0
VERTEX
  8
PLAN_1
 62
     2
  6
CONTINUOUS
 10
-2.208791
 20
2.324961
  0
VERTEX
  8
PLAN_1
 62
     2
  6
CONTINUOUS
 10
-2.211165
 20
2.320681
  0
VERTEX
  8
PLAN_1
 62
     2
  6
CONTINUOUS
 10
-2.212594
 20
2.318780
  0
VERTEX
  8
PLAN_1
 62
     2
  6
CONTINUOUS
 10
-2.214496
 20
2.316878
  0
VERTEX
  8
PLAN_1
 62
     2
  6
CONTINUOUS
 10
-2.216870
 20
2.314976
  0
VERTEX
  8
PLAN_1
 62
     2
  6
CONTINUOUS
 10
-2.219248
 20
2.313551
  0
VERTEX
  8
PLAN_1
 62
     2
  6
CONTINUOUS
 10
-2.222102
 20
2.312598
  0
VERTEX
  8
PLAN_1
 62
     2
  6
CONTINUOUS
 10
-2.225429
 20
2.311650
  0
VERTEX
  8
PLAN_1
 62
     2
  6
CONTINUOUS
 10
-2.228756
 20
2.311173
  0
VERTEX
  8
PLAN_1
 62
     2
  6
CONTINUOUS
 10
-2.233035
 20
2.310697
  0
VERTEX
  8
PLAN_1
 62
     2
  6
CONTINUOUS
 10
-2.236839
 20
2.311173
  0
VERTEX
  8
PLAN_1
 62
     2
  6
CONTINUOUS
 10
-2.240642
 20
2.311650
  0
VERTEX
  8
PLAN_1
 62
     2
  6
CONTINUOUS
 10
-2.243969
 20
2.313075
  0
VERTEX
  8
PLAN_1
 62
     2
  6
CONTINUOUS
 10
-2.247772
 20
2.314500
  0
VERTEX
  8
PLAN_1
 62
     2
  6
CONTINUOUS
 10
-2.249197
 20
2.315929
  0
VERTEX
  8
PLAN_1
 62
     2
  6
CONTINUOUS
 10
-2.250626
 20
2.317354
  0
VERTEX
  8
PLAN_1
 62
     2
  6
CONTINUOUS
 10
-2.252051
 20
2.319256
  0
VERTEX
  8
PLAN_1
 62
     2
  6
CONTINUOUS
 10
-2.253476
 20
2.320681
  0
VERTEX
  8
PLAN_1
 62
     2
  6
CONTINUOUS
 10
-2.254429
 20
2.323059
  0
VERTEX
  8
PLAN_1
 62
     2
  6
CONTINUOUS
 10
-2.255378
 20
2.325437
  0
VERTEX
  8
PLAN_1
 62
     2
  6
CONTINUOUS
 10
-2.256331
 20
2.327811
  0
VERTEX
  8
PLAN_1
 62
     2
  6
CONTINUOUS
 10
-2.256803
 20
2.331142
  0
VERTEX
  8
PLAN_1
 62
     2
  6
CONTINUOUS
 10
-2.247295
 20
2.331142
  0
VERTEX
  8
PLAN_1
 62
     2
  6
CONTINUOUS
 10
-2.246346
 20
2.327811
  0
VERTEX
  8
PLAN_1
 62
     2
  6
CONTINUOUS
 10
-2.245394
 20
2.325437
  0
VERTEX
  8
PLAN_1
 62
     2
  6
CONTINUOUS
 10
-2.243969
 20
2.323535
  0
VERTEX
  8
PLAN_1
 62
     2
  6
CONTINUOUS
 10
-2.242067
 20
2.321634
  0
VERTEX
  8
PLAN_1
 62
     2
  6
CONTINUOUS
 10
-2.239689
 20
2.320205
  0
VERTEX
  8
PLAN_1
 62
     2
  6
CONTINUOUS
 10
-2.237315
 20
2.319256
  0
VERTEX
  8
PLAN_1
 62
     2
  6
CONTINUOUS
 10
-2.234461
 20
2.318780
  0
VERTEX
  8
PLAN_1
 62
     2
  6
CONTINUOUS
 10
-2.231610
 20
2.318780
  0
VERTEX
  8
PLAN_1
 62
     2
  6
CONTINUOUS
 10
-2.228280
 20
2.318780
  0
VERTEX
  8
PLAN_1
 62
     2
  6
CONTINUOUS
 10
-2.225429
 20
2.320205
  0
VERTEX
  8
PLAN_1
 62
     2
  6
CONTINUOUS
 10
-2.222575
 20
2.321634
  0
VERTEX
  8
PLAN_1
 62
     2
  6
CONTINUOUS
 10
-2.220201
 20
2.323535
  0
VERTEX
  8
PLAN_1
 62
     2
  6
CONTINUOUS
 10
-2.218772
 20
2.325909
  0
VERTEX
  8
PLAN_1
 62
     2
  6
CONTINUOUS
 10
-2.217346
 20
2.328764
  0
VERTEX
  8
PLAN_1
 62
     2
  6
CONTINUOUS
 10
-2.216398
 20
2.332091
  0
VERTEX
  8
PLAN_1
 62
     2
  6
CONTINUOUS
 10
-2.216398
 20
2.335417
  0
VERTEX
  8
PLAN_1
 62
     2
  6
CONTINUOUS
 10
-2.216398
 20
2.339220
  0
VERTEX
  8
PLAN_1
 62
     2
  6
CONTINUOUS
 10
-2.217346
 20
2.342551
  0
VERTEX
  8
PLAN_1
 62
     2
  6
CONTINUOUS
 10
-2.218772
 20
2.345402
  0
VERTEX
  8
PLAN_1
 62
     2
  6
CONTINUOUS
 10
-2.221150
 20
2.347303
  0
VERTEX
  8
PLAN_1
 62
     2
  6
CONTINUOUS
 10
-2.223528
 20
2.349205
  0
VERTEX
  8
PLAN_1
 62
     2
  6
CONTINUOUS
 10
-2.225906
 20
2.350630
  0
VERTEX
  8
PLAN_1
 62
     2
  6
CONTINUOUS
 10
-2.229232
 20
2.351583
  0
VERTEX
  8
PLAN_1
 62
     2
  6
CONTINUOUS
 10
-2.232559
 20
2.351583
  0
VERTEX
  8
PLAN_1
 62
     2
  6
CONTINUOUS
 10
-2.234461
 20
2.351583
  0
VERTEX
  8
PLAN_1
 62
     2
  6
CONTINUOUS
 10
-2.236362
 20
2.351106
  0
VERTEX
  8
PLAN_1
 62
     2
  6
CONTINUOUS
 10
-2.238264
 20
2.350630
  0
VERTEX
  8
PLAN_1
 62
     2
  6
CONTINUOUS
 10
-2.239689
 20
2.349681
  0
VERTEX
  8
PLAN_1
 62
     2
  6
CONTINUOUS
 10
-2.241591
 20
2.348728
  0
VERTEX
  8
PLAN_1
 62
     2
  6
CONTINUOUS
 10
-2.243020
 20
2.347780
  0
VERTEX
  8
PLAN_1
 62
     2
  6
CONTINUOUS
 10
-2.244445
 20
2.346354
  0
VERTEX
  8
PLAN_1
 62
     2
  6
CONTINUOUS
 10
-2.245870
 20
2.344453
  0
VERTEX
  8
PLAN_1
 62
     2
  6
CONTINUOUS
 10
-2.253953
 20
2.344925
  0
VERTEX
  8
PLAN_1
 62
     2
  6
CONTINUOUS
 10
-2.248248
 20
2.384386
  0
VERTEX
  8
PLAN_1
 62
     2
  6
CONTINUOUS
 10
-2.210693
 20
2.384386
  0
VERTEX
  8
PLAN_1
 62
     2
  6
CONTINUOUS
 10
-2.210693
 20
2.375350
  0
VERTEX
  8
PLAN_1
 62
     2
  6
CONTINUOUS
 10
-2.241591
 20
2.375350
  0
VERTEX
  8
PLAN_1
 62
     2
  6
CONTINUOUS
 10
-2.244445
 20
2.355386
  0
SEQEND
  8
0
  0
POLYLINE
  8
PLAN_1
 62
     2
  6
CONTINUOUS
 66
     1
 40
0.003000
 41
0.003000
  0
VERTEX
  8
PLAN_1
 62
     2
  6
CONTINUOUS
 10
-2.193102
 20
2.324008
  0
VERTEX
  8
PLAN_1
 62
     2
  6
CONTINUOUS
 10
-2.182169
 20
2.324008
  0
VERTEX
  8
PLAN_1
 62
     2
  6
CONTINUOUS
 10
-2.182169
 20
2.313551
  0
VERTEX
  8
PLAN_1
 62
     2
  6
CONTINUOUS
 10
-2.182642
 20
2.308795
  0
VERTEX
  8
PLAN_1
 62
     2
  6
CONTINUOUS
 10
-2.183594
 20
2.304992
  0
VERTEX
  8
PLAN_1
 62
     2
  6
CONTINUOUS
 10
-2.185020
 20
2.302142
  0
VERTEX
  8
PLAN_1
 62
     2
  6
CONTINUOUS
 10
-2.186921
 20
2.300240
  0
VERTEX
  8
PLAN_1
 62
     2
  6
CONTINUOUS
 10
-2.188823
 20
2.298815
  0
VERTEX
  8
PLAN_1
 62
     2
  6
CONTINUOUS
 10
-2.190248
 20
2.298339
  0
VERTEX
  8
PLAN_1
 62
     2
  6
CONTINUOUS
 10
-2.191677
 20
2.297862
  0
VERTEX
  8
PLAN_1
 62
     2
  6
CONTINUOUS
 10
-2.193102
 20
2.297386
  0
VERTEX
  8
PLAN_1
 62
     2
  6
CONTINUOUS
 10
-2.193102
 20
2.302142
  0
VERTEX
  8
PLAN_1
 62
     2
  6
CONTINUOUS
 10
-2.191677
 20
2.302618
  0
VERTEX
  8
PLAN_1
 62
     2
  6
CONTINUOUS
 10
-2.190248
 20
2.303567
  0
VERTEX
  8
PLAN_1
 62
     2
  6
CONTINUOUS
 10
-2.189299
 20
2.304520
  0
VERTEX
  8
PLAN_1
 62
     2
  6
CONTINUOUS
 10
-2.188346
 20
2.305945
  0
VERTEX
  8
PLAN_1
 62
     2
  6
CONTINUOUS
 10
-2.187874
 20
2.307370
  0
VERTEX
  8
PLAN_1
 62
     2
  6
CONTINUOUS
 10
-2.187874
 20
2.309272
  0
VERTEX
  8
PLAN_1
 62
     2
  6
CONTINUOUS
 10
-2.187398
 20
2.310697
  0
VERTEX
  8
PLAN_1
 62
     2
  6
CONTINUOUS
 10
-2.187398
 20
2.312598
  0
VERTEX
  8
PLAN_1
 62
     2
  6
CONTINUOUS
 10
-2.193102
 20
2.312598
  0
VERTEX
  8
PLAN_1
 62
     2
  6
CONTINUOUS
 10
-2.193102
 20
2.324008
  0
SEQEND
  8
0
  0
POLYLINE
  8
PLAN_1
 62
     2
  6
CONTINUOUS
 66
     1
 40
0.003000
 41
0.003000
  0
VERTEX
  8
PLAN_1
 62
     2
  6
CONTINUOUS
 10
-2.157921
 20
2.355386
  0
VERTEX
  8
PLAN_1
 62
     2
  6
CONTINUOUS
 10
-2.156496
 20
2.356335
  0
VERTEX
  8
PLAN_1
 62
     2
  6
CONTINUOUS
 10
-2.155071
 20
2.356811
  0
VERTEX
  8
PLAN_1
 62
     2
  6
CONTINUOUS
 10
-2.153646
 20
2.357764
  0
VERTEX
  8
PLAN_1
 62
     2
  6
CONTINUOUS
 10
-2.152217
 20
2.358713
  0
VERTEX
  8
PLAN_1
 62
     2
  6
CONTINUOUS
 10
-2.150315
 20
2.359189
  0
VERTEX
  8
PLAN_1
 62
     2
  6
CONTINUOUS
 10
-2.147941
 20
2.359665
  0
VERTEX
  8
PLAN_1
 62
     2
  6
CONTINUOUS
 10
-2.146039
 20
2.359665
  0
VERTEX
  8
PLAN_1
 62
     2
  6
CONTINUOUS
 10
-2.143661
 20
2.359665
  0
VERTEX
  8
PLAN_1
 62
     2
  6
CONTINUOUS
 10
-2.139382
 20
2.359665
  0
VERTEX
  8
PLAN_1
 62
     2
  6
CONTINUOUS
 10
-2.135102
 20
2.358236
  0
VERTEX
  8
PLAN_1
 62
     2
  6
CONTINUOUS
 10
-2.130827
 20
2.356335
  0
VERTEX
  8
PLAN_1
 62
     2
  6
CONTINUOUS
 10
-2.127024
 20
2.353961
  0
VERTEX
  8
PLAN_1
 62
     2
  6
CONTINUOUS
 10
-2.125594
 20
2.352059
  0
VERTEX
  8
PLAN_1
 62
     2
  6
CONTINUOUS
 10
-2.124169
 20
2.350630
  0
VERTEX
  8
PLAN_1
 62
     2
  6
CONTINUOUS
 10
-2.122744
 20
2.348728
  0
VERTEX
  8
PLAN_1
 62
     2
  6
CONTINUOUS
 10
-2.121791
 20
2.346354
  0
VERTEX
  8
PLAN_1
 62
     2
  6
CONTINUOUS
 10
-2.120843
 20
2.344453
  0
VERTEX
  8
PLAN_1
 62
     2
  6
CONTINUOUS
 10
-2.120366
 20
2.341598
  0
VERTEX
  8
PLAN_1
 62
     2
  6
CONTINUOUS
 10
-2.119890
 20
2.339220
  0
VERTEX
  8
PLAN_1
 62
     2
  6
CONTINUOUS
 10
-2.119417
 20
2.336370
  0
VERTEX
  8
PLAN_1
 62
     2
  6
CONTINUOUS
 10
-2.119890
 20
2.333043
  0
VERTEX
  8
PLAN_1
 62
     2
  6
CONTINUOUS
 10
-2.120366
 20
2.329240
  0
VERTEX
  8
PLAN_1
 62
     2
  6
CONTINUOUS
 10
-2.121791
 20
2.324961
  0
VERTEX
  8
PLAN_1
 62
     2
  6
CONTINUOUS
 10
-2.124169
 20
2.320681
  0
VERTEX
  8
PLAN_1
 62
     2
  6
CONTINUOUS
 10
-2.126071
 20
2.318780
  0
VERTEX
  8
PLAN_1
 62
     2
  6
CONTINUOUS
 10
-2.127496
 20
2.316878
  0
VERTEX
  8
PLAN_1
 62
     2
  6
CONTINUOUS
 10
-2.129874
 20
2.314976
  0
VERTEX
  8
PLAN_1
 62
     2
  6
CONTINUOUS
 10
-2.132252
 20
2.313551
  0
VERTEX
  8
PLAN_1
 62
     2
  6
CONTINUOUS
 10
-2.135102
 20
2.312598
  0
VERTEX
  8
PLAN_1
 62
     2
  6
CONTINUOUS
 10
-2.138433
 20
2.311650
  0
VERTEX
  8
PLAN_1
 62
     2
  6
CONTINUOUS
 10
-2.142236
 20
2.311173
  0
VERTEX
  8
PLAN_1
 62
     2
  6
CONTINUOUS
 10
-2.146039
 20
2.310697
  0
VERTEX
  8
PLAN_1
 62
     2
  6
CONTINUOUS
 10
-2.149843
 20
2.311173
  0
VERTEX
  8
PLAN_1
 62
     2
  6
CONTINUOUS
 10
-2.153646
 20
2.311650
  0
VERTEX
  8
PLAN_1
 62
     2
  6
CONTINUOUS
 10
-2.157449
 20
2.313075
  0
VERTEX
  8
PLAN_1
 62
     2
  6
CONTINUOUS
 10
-2.160776
 20
2.314500
  0
VERTEX
  8
PLAN_1
 62
     2
  6
CONTINUOUS
 10
-2.162677
 20
2.315929
  0
VERTEX
  8
PLAN_1
 62
     2
  6
CONTINUOUS
 10
-2.164102
 20
2.317354
  0
VERTEX
  8
PLAN_1
 62
     2
  6
CONTINUOUS
 10
-2.165528
 20
2.319256
  0
VERTEX
  8
PLAN_1
 62
     2
  6
CONTINUOUS
 10
-2.166480
 20
2.320681
  0
VERTEX
  8
PLAN_1
 62
     2
  6
CONTINUOUS
 10
-2.167906
 20
2.323059
  0
VERTEX
  8
PLAN_1
 62
     2
  6
CONTINUOUS
 10
-2.168382
 20
2.325437
  0
VERTEX
  8
PLAN_1
 62
     2
  6
CONTINUOUS
 10
-2.169331
 20
2.327811
  0
VERTEX
  8
PLAN_1
 62
     2
  6
CONTINUOUS
 10
-2.169807
 20
2.331142
  0
VERTEX
  8
PLAN_1
 62
     2
  6
CONTINUOUS
 10
-2.160299
 20
2.331142
  0
VERTEX
  8
PLAN_1
 62
     2
  6
CONTINUOUS
 10
-2.159823
 20
2.327811
  0
VERTEX
  8
PLAN_1
 62
     2
  6
CONTINUOUS
 10
-2.158398
 20
2.325437
  0
VERTEX
  8
PLAN_1
 62
     2
  6
CONTINUOUS
 10
-2.156972
 20
2.323535
  0
VERTEX
  8
PLAN_1
 62
     2
  6
CONTINUOUS
 10
-2.155071
 20
2.321634
  0
VERTEX
  8
PLAN_1
 62
     2
  6
CONTINUOUS
 10
-2.153169
 20
2.320205
  0
VERTEX
  8
PLAN_1
 62
     2
  6
CONTINUOUS
 10
-2.150315
 20
2.319256
  0
VERTEX
  8
PLAN_1
 62
     2
  6
CONTINUOUS
 10
-2.147941
 20
2.318780
  0
VERTEX
  8
PLAN_1
 62
     2
  6
CONTINUOUS
 10
-2.144610
 20
2.318780
  0
VERTEX
  8
PLAN_1
 62
     2
  6
CONTINUOUS
 10
-2.141283
 20
2.318780
  0
VERTEX
  8
PLAN_1
 62
     2
  6
CONTINUOUS
 10
-2.138433
 20
2.320205
  0
VERTEX
  8
PLAN_1
 62
     2
  6
CONTINUOUS
 10
-2.135579
 20
2.321634
  0
VERTEX
  8
PLAN_1
 62
     2
  6
CONTINUOUS
 10
-2.133677
 20
2.323535
  0
VERTEX
  8
PLAN_1
 62
     2
  6
CONTINUOUS
 10
-2.131776
 20
2.325909
  0
VERTEX
  8
PLAN_1
 62
     2
  6
CONTINUOUS
 10
-2.130350
 20
2.328764
  0
VERTEX
  8
PLAN_1
 62
     2
  6
CONTINUOUS
 10
-2.129874
 20
2.332091
  0
VERTEX
  8
PLAN_1
 62
     2
  6
CONTINUOUS
 10
-2.129398
 20
2.335417
  0
VERTEX
  8
PLAN_1
 62
     2
  6
CONTINUOUS
 10
-2.129874
 20
2.339220
  0
VERTEX
  8
PLAN_1
 62
     2
  6
CONTINUOUS
 10
-2.130827
 20
2.342551
  0
VERTEX
  8
PLAN_1
 62
     2
  6
CONTINUOUS
 10
-2.132252
 20
2.345402
  0
VERTEX
  8
PLAN_1
 62
     2
  6
CONTINUOUS
 10
-2.134154
 20
2.347303
  0
VERTEX
  8
PLAN_1
 62
     2
  6
CONTINUOUS
 10
-2.136531
 20
2.349205
  0
VERTEX
  8
PLAN_1
 62
     2
  6
CONTINUOUS
 10
-2.139382
 20
2.350630
  0
VERTEX
  8
PLAN_1
 62
     2
  6
CONTINUOUS
 10
-2.142236
 20
2.351583
  0
VERTEX
  8
PLAN_1
 62
     2
  6
CONTINUOUS
 10
-2.145563
 20
2.351583
  0
VERTEX
  8
PLAN_1
 62
     2
  6
CONTINUOUS
 10
-2.147465
 20
2.351583
  0
VERTEX
  8
PLAN_1
 62
     2
  6
CONTINUOUS
 10
-2.149366
 20
2.351106
  0
VERTEX
  8
PLAN_1
 62
     2
  6
CONTINUOUS
 10
-2.151268
 20
2.350630
  0
VERTEX
  8
PLAN_1
 62
     2
  6
CONTINUOUS
 10
-2.153169
 20
2.349681
  0
VERTEX
  8
PLAN_1
 62
     2
  6
CONTINUOUS
 10
-2.154594
 20
2.348728
  0
VERTEX
  8
PLAN_1
 62
     2
  6
CONTINUOUS
 10
-2.156496
 20
2.347780
  0
VERTEX
  8
PLAN_1
 62
     2
  6
CONTINUOUS
 10
-2.157921
 20
2.346354
  0
VERTEX
  8
PLAN_1
 62
     2
  6
CONTINUOUS
 10
-2.159350
 20
2.344453
  0
VERTEX
  8
PLAN_1
 62
     2
  6
CONTINUOUS
 10
-2.166957
 20
2.344925
  0
VERTEX
  8
PLAN_1
 62
     2
  6
CONTINUOUS
 10
-2.161724
 20
2.384386
  0
VERTEX
  8
PLAN_1
 62
     2
  6
CONTINUOUS
 10
-2.123693
 20
2.384386
  0
VERTEX
  8
PLAN_1
 62
     2
  6
CONTINUOUS
 10
-2.123693
 20
2.375350
  0
VERTEX
  8
PLAN_1
 62
     2
  6
CONTINUOUS
 10
-2.154594
 20
2.375350
  0
VERTEX
  8
PLAN_1
 62
     2
  6
CONTINUOUS
 10
-2.157921
 20
2.355386
  0
SEQEND
  8
0
  0
POLYLINE
  8
PLAN_1
 62
     2
  6
CONTINUOUS
 66
     1
 40
0.003000
 41
0.003000
  0
VERTEX
  8
PLAN_1
 62
     2
  6
CONTINUOUS
 10
-0.746961
 20
3.409803
  0
VERTEX
  8
PLAN_1
 62
     2
  6
CONTINUOUS
 10
-0.746961
 20
3.391736
  0
VERTEX
  8
PLAN_1
 62
     2
  6
CONTINUOUS
 10
-0.755996
 20
3.391736
  0
VERTEX
  8
PLAN_1
 62
     2
  6
CONTINUOUS
 10
-0.755996
 20
3.409803
  0
VERTEX
  8
PLAN_1
 62
     2
  6
CONTINUOUS
 10
-0.787846
 20
3.409803
  0
VERTEX
  8
PLAN_1
 62
     2
  6
CONTINUOUS
 10
-0.787846
 20
3.418835
  0
VERTEX
  8
PLAN_1
 62
     2
  6
CONTINUOUS
 10
-0.754567
 20
3.464949
  0
VERTEX
  8
PLAN_1
 62
     2
  6
CONTINUOUS
 10
-0.746961
 20
3.464949
  0
VERTEX
  8
PLAN_1
 62
     2
  6
CONTINUOUS
 10
-0.746961
 20
3.417409
  0
VERTEX
  8
PLAN_1
 62
     2
  6
CONTINUOUS
 10
-0.736028
 20
3.417409
  0
VERTEX
  8
PLAN_1
 62
     2
  6
CONTINUOUS
 10
-0.736028
 20
3.409803
  0
VERTEX
  8
PLAN_1
 62
     2
  6
CONTINUOUS
 10
-0.746961
 20
3.409803
  0
SEQEND
  8
0
  0
SOLID
  8
PLAN_1
 62
     2
 10
-0.779764
 20
3.417409
 11
-0.755996
 21
3.417409
 12
-0.756469
 22
3.450685
 13
-0.755996
 23
3.450685
  0
POLYLINE
  8
PLAN_1
 62
     2
  6
CONTINUOUS
 66
     1
 40
0.003000
 41
0.003000
  0
VERTEX
  8
PLAN_1
 62
     2
  6
CONTINUOUS
 10
-0.779764
 20
3.417409
  0
VERTEX
  8
PLAN_1
 62
     2
  6
CONTINUOUS
 10
-0.755996
 20
3.417409
  0
VERTEX
  8
PLAN_1
 62
     2
  6
CONTINUOUS
 10
-0.755996
 20
3.450685
  0
VERTEX
  8
PLAN_1
 62
     2
  6
CONTINUOUS
 10
-0.756469
 20
3.450685
  0
VERTEX
  8
PLAN_1
 62
     2
  6
CONTINUOUS
 10
-0.779764
 20
3.417409
  0
SEQEND
  8
0
  0
POLYLINE
  8
PLAN_1
 62
     2
  6
CONTINUOUS
 66
     1
 40
0.003000
 41
0.003000
  0
VERTEX
  8
PLAN_1
 62
     2
  6
CONTINUOUS
 10
-0.688965
 20
3.409803
  0
VERTEX
  8
PLAN_1
 62
     2
  6
CONTINUOUS
 10
-0.688965
 20
3.391736
  0
VERTEX
  8
PLAN_1
 62
     2
  6
CONTINUOUS
 10
-0.697996
 20
3.391736
  0
VERTEX
  8
PLAN_1
 62
     2
  6
CONTINUOUS
 10
-0.697996
 20
3.409803
  0
VERTEX
  8
PLAN_1
 62
     2
  6
CONTINUOUS
 10
-0.729846
 20
3.409803
  0
VERTEX
  8
PLAN_1
 62
     2
  6
CONTINUOUS
 10
-0.729846
 20
3.418835
  0
VERTEX
  8
PLAN_1
 62
     2
  6
CONTINUOUS
 10
-0.696571
 20
3.464949
  0
VERTEX
  8
PLAN_1
 62
     2
  6
CONTINUOUS
 10
-0.688965
 20
3.464949
  0
VERTEX
  8
PLAN_1
 62
     2
  6
CONTINUOUS
 10
-0.688965
 20
3.417409
  0
VERTEX
  8
PLAN_1
 62
     2
  6
CONTINUOUS
 10
-0.678031
 20
3.417409
  0
VERTEX
  8
PLAN_1
 62
     2
  6
CONTINUOUS
 10
-0.678031
 20
3.409803
  0
VERTEX
  8
PLAN_1
 62
     2
  6
CONTINUOUS
 10
-0.688965
 20
3.409803
  0
SEQEND
  8
0
  0
SOLID
  8
PLAN_1
 62
     2
 10
-0.721768
 20
3.417409
 11
-0.697996
 21
3.417409
 12
-0.698472
 22
3.450685
 13
-0.697996
 23
3.450685
  0
POLYLINE
  8
PLAN_1
 62
     2
  6
CONTINUOUS
 66
     1
 40
0.003000
 41
0.003000
  0
VERTEX
  8
PLAN_1
 62
     2
  6
CONTINUOUS
 10
-0.721768
 20
3.417409
  0
VERTEX
  8
PLAN_1
 62
     2
  6
CONTINUOUS
 10
-0.697996
 20
3.417409
  0
VERTEX
  8
PLAN_1
 62
     2
  6
CONTINUOUS
 10
-0.697996
 20
3.450685
  0
VERTEX
  8
PLAN_1
 62
     2
  6
CONTINUOUS
 10
-0.698472
 20
3.450685
  0
VERTEX
  8
PLAN_1
 62
     2
  6
CONTINUOUS
 10
-0.721768
 20
3.417409
  0
SEQEND
  8
0
  0
POLYLINE
  8
PLAN_1
 62
     2
  6
CONTINUOUS
 66
     1
 40
0.003000
 41
0.003000
  0
VERTEX
  8
PLAN_1
 62
     2
  6
CONTINUOUS
 10
-0.957559
 20
3.615646
  0
VERTEX
  8
PLAN_1
 62
     2
  6
CONTINUOUS
 10
-0.956134
 20
3.616598
  0
VERTEX
  8
PLAN_1
 62
     2
  6
CONTINUOUS
 10
-0.954709
 20
3.617075
  0
VERTEX
  8
PLAN_1
 62
     2
  6
CONTINUOUS
 10
-0.953283
 20
3.618024
  0
VERTEX
  8
PLAN_1
 62
     2
  6
CONTINUOUS
 10
-0.951854
 20
3.618500
  0
VERTEX
  8
PLAN_1
 62
     2
  6
CONTINUOUS
 10
-0.949953
 20
3.619449
  0
VERTEX
  8
PLAN_1
 62
     2
  6
CONTINUOUS
 10
-0.948051
 20
3.619925
  0
VERTEX
  8
PLAN_1
 62
     2
  6
CONTINUOUS
 10
-0.945677
 20
3.619925
  0
VERTEX
  8
PLAN_1
 62
     2
  6
CONTINUOUS
 10
-0.943299
 20
3.619925
  0
VERTEX
  8
PLAN_1
 62
     2
  6
CONTINUOUS
 10
-0.939020
 20
3.619925
  0
VERTEX
  8
PLAN_1
 62
     2
  6
CONTINUOUS
 10
-0.934740
 20
3.618500
  0
VERTEX
  8
PLAN_1
 62
     2
  6
CONTINUOUS
 10
-0.930465
 20
3.616598
  0
VERTEX
  8
PLAN_1
 62
     2
  6
CONTINUOUS
 10
-0.927134
 20
3.614220
  0
VERTEX
  8
PLAN_1
 62
     2
  6
CONTINUOUS
 10
-0.925232
 20
3.612319
  0
VERTEX
  8
PLAN_1
 62
     2
  6
CONTINUOUS
 10
-0.923807
 20
3.610894
  0
VERTEX
  8
PLAN_1
 62
     2
  6
CONTINUOUS
 10
-0.922382
 20
3.608992
  0
VERTEX
  8
PLAN_1
 62
     2
  6
CONTINUOUS
 10
-0.921429
 20
3.606614
  0
VERTEX
  8
PLAN_1
 62
     2
  6
CONTINUOUS
 10
-0.920480
 20
3.604236
  0
VERTEX
  8
PLAN_1
 62
     2
  6
CONTINUOUS
 10
-0.920004
 20
3.601862
  0
VERTEX
  8
PLAN_1
 62
     2
  6
CONTINUOUS
 10
-0.919528
 20
3.599484
  0
VERTEX
  8
PLAN_1
 62
     2
  6
CONTINUOUS
 10
-0.919528
 20
3.596630
  0
VERTEX
  8
PLAN_1
 62
     2
  6
CONTINUOUS
 10
-0.919528
 20
3.593303
  0
VERTEX
  8
PLAN_1
 62
     2
  6
CONTINUOUS
 10
-0.920480
 20
3.589024
  0
VERTEX
  8
PLAN_1
 62
     2
  6
CONTINUOUS
 10
-0.921906
 20
3.585220
  0
VERTEX
  8
PLAN_1
 62
     2
  6
CONTINUOUS
 10
-0.923807
 20
3.580945
  0
VERTEX
  8
PLAN_1
 62
     2
  6
CONTINUOUS
 10
-0.925709
 20
3.579043
  0
VERTEX
  8
PLAN_1
 62
     2
  6
CONTINUOUS
 10
-0.927610
 20
3.577142
  0
VERTEX
  8
PLAN_1
 62
     2
  6
CONTINUOUS
 10
-0.929512
 20
3.575240
  0
VERTEX
  8
PLAN_1
 62
     2
  6
CONTINUOUS
 10
-0.931890
 20
3.573811
  0
VERTEX
  8
PLAN_1
 62
     2
  6
CONTINUOUS
 10
-0.934740
 20
3.572862
  0
VERTEX
  8
PLAN_1
 62
     2
  6
CONTINUOUS
 10
-0.938071
 20
3.571909
  0
VERTEX
  8
PLAN_1
 62
     2
  6
CONTINUOUS
 10
-0.941874
 20
3.571437
  0
VERTEX
  8
PLAN_1
 62
     2
  6
CONTINUOUS
 10
-0.945677
 20
3.570961
  0
VERTEX
  8
PLAN_1
 62
     2
  6
CONTINUOUS
 10
-0.949480
 20
3.571437
  0
VERTEX
  8
PLAN_1
 62
     2
  6
CONTINUOUS
 10
-0.953283
 20
3.571909
  0
VERTEX
  8
PLAN_1
 62
     2
  6
CONTINUOUS
 10
-0.957087
 20
3.572862
  0
VERTEX
  8
PLAN_1
 62
     2
  6
CONTINUOUS
 10
-0.960413
 20
3.574764
  0
VERTEX
  8
PLAN_1
 62
     2
  6
CONTINUOUS
 10
-0.962315
 20
3.576189
  0
VERTEX
  8
PLAN_1
 62
     2
  6
CONTINUOUS
 10
-0.963740
 20
3.577614
  0
VERTEX
  8
PLAN_1
 62
     2
  6
CONTINUOUS
 10
-0.965165
 20
3.579043
  0
VERTEX
  8
PLAN_1
 62
     2
  6
CONTINUOUS
 10
-0.966594
 20
3.580945
  0
VERTEX
  8
PLAN_1
 62
     2
  6
CONTINUOUS
 10
-0.967543
 20
3.583319
  0
VERTEX
  8
PLAN_1
 62
     2
  6
CONTINUOUS
 10
-0.968496
 20
3.585697
  0
VERTEX
  8
PLAN_1
 62
     2
  6
CONTINUOUS
 10
-0.968969
 20
3.588075
  0
VERTEX
  8
PLAN_1
 62
     2
  6
CONTINUOUS
 10
-0.969445
 20
3.591402
  0
VERTEX
  8
PLAN_1
 62
     2
  6
CONTINUOUS
 10
-0.959937
 20
3.591402
  0
VERTEX
  8
PLAN_1
 62
     2
  6
CONTINUOUS
 10
-0.959461
 20
3.588075
  0
VERTEX
  8
PLAN_1
 62
     2
  6
CONTINUOUS
 10
-0.958512
 20
3.585697
  0
VERTEX
  8
PLAN_1
 62
     2
  6
CONTINUOUS
 10
-0.957087
 20
3.583319
  0
VERTEX
  8
PLAN_1
 62
     2
  6
CONTINUOUS
 10
-0.955185
 20
3.581894
  0
VERTEX
  8
PLAN_1
 62
     2
  6
CONTINUOUS
 10
-0.952807
 20
3.580469
  0
VERTEX
  8
PLAN_1
 62
     2
  6
CONTINUOUS
 10
-0.950429
 20
3.579516
  0
VERTEX
  8
PLAN_1
 62
     2
  6
CONTINUOUS
 10
-0.947579
 20
3.579043
  0
VERTEX
  8
PLAN_1
 62
     2
  6
CONTINUOUS
 10
-0.944724
 20
3.579043
  0
VERTEX
  8
PLAN_1
 62
     2
  6
CONTINUOUS
 10
-0.940921
 20
3.579043
  0
VERTEX
  8
PLAN_1
 62
     2
  6
CONTINUOUS
 10
-0.938071
 20
3.580469
  0
VERTEX
  8
PLAN_1
 62
     2
  6
CONTINUOUS
 10
-0.935693
 20
3.581894
  0
VERTEX
  8
PLAN_1
 62
     2
  6
CONTINUOUS
 10
-0.933315
 20
3.583795
  0
VERTEX
  8
PLAN_1
 62
     2
  6
CONTINUOUS
 10
-0.931413
 20
3.586173
  0
VERTEX
  8
PLAN_1
 62
     2
  6
CONTINUOUS
 10
-0.929988
 20
3.589024
  0
VERTEX
  8
PLAN_1
 62
     2
  6
CONTINUOUS
 10
-0.929512
 20
3.592354
  0
VERTEX
  8
PLAN_1
 62
     2
  6
CONTINUOUS
 10
-0.929035
 20
3.595681
  0
VERTEX
  8
PLAN_1
 62
     2
  6
CONTINUOUS
 10
-0.929512
 20
3.599484
  0
VERTEX
  8
PLAN_1
 62
     2
  6
CONTINUOUS
 10
-0.930465
 20
3.602811
  0
VERTEX
  8
PLAN_1
 62
     2
  6
CONTINUOUS
 10
-0.931890
 20
3.605189
  0
VERTEX
  8
PLAN_1
 62
     2
  6
CONTINUOUS
 10
-0.933791
 20
3.607567
  0
VERTEX
  8
PLAN_1
 62
     2
  6
CONTINUOUS
 10
-0.936169
 20
3.609469
  0
VERTEX
  8
PLAN_1
 62
     2
  6
CONTINUOUS
 10
-0.939020
 20
3.610894
  0
VERTEX
  8
PLAN_1
 62
     2
  6
CONTINUOUS
 10
-0.941874
 20
3.611843
  0
VERTEX
  8
PLAN_1
 62
     2
  6
CONTINUOUS
 10
-0.945201
 20
3.611843
  0
VERTEX
  8
PLAN_1
 62
     2
  6
CONTINUOUS
 10
-0.947102
 20
3.611843
  0
VERTEX
  8
PLAN_1
 62
     2
  6
CONTINUOUS
 10
-0.949004
 20
3.611370
  0
VERTEX
  8
PLAN_1
 62
     2
  6
CONTINUOUS
 10
-0.950906
 20
3.610894
  0
VERTEX
  8
PLAN_1
 62
     2
  6
CONTINUOUS
 10
-0.952807
 20
3.609941
  0
VERTEX
  8
PLAN_1
 62
     2
  6
CONTINUOUS
 10
-0.954709
 20
3.608992
  0
VERTEX
  8
PLAN_1
 62
     2
  6
CONTINUOUS
 10
-0.956134
 20
3.608039
  0
VERTEX
  8
PLAN_1
 62
     2
  6
CONTINUOUS
 10
-0.957559
 20
3.606614
  0
VERTEX
  8
PLAN_1
 62
     2
  6
CONTINUOUS
 10
-0.958988
 20
3.604713
  0
VERTEX
  8
PLAN_1
 62
     2
  6
CONTINUOUS
 10
-0.966594
 20
3.605189
  0
VERTEX
  8
PLAN_1
 62
     2
  6
CONTINUOUS
 10
-0.961362
 20
3.644646
  0
VERTEX
  8
PLAN_1
 62
     2
  6
CONTINUOUS
 10
-0.923331
 20
3.644646
  0
VERTEX
  8
PLAN_1
 62
     2
  6
CONTINUOUS
 10
-0.923331
 20
3.635614
  0
VERTEX
  8
PLAN_1
 62
     2
  6
CONTINUOUS
 10
-0.954232
 20
3.635614
  0
VERTEX
  8
PLAN_1
 62
     2
  6
CONTINUOUS
 10
-0.957559
 20
3.615646
  0
SEQEND
  8
0
  0
POLYLINE
  8
PLAN_1
 62
     2
  6
CONTINUOUS
 66
     1
 40
0.003000
 41
0.003000
  0
VERTEX
  8
PLAN_1
 62
     2
  6
CONTINUOUS
 10
-0.910496
 20
3.619925
  0
VERTEX
  8
PLAN_1
 62
     2
  6
CONTINUOUS
 10
-0.910020
 20
3.624205
  0
VERTEX
  8
PLAN_1
 62
     2
  6
CONTINUOUS
 10
-0.909547
 20
3.628008
  0
VERTEX
  8
PLAN_1
 62
     2
  6
CONTINUOUS
 10
-0.908594
 20
3.631335
  0
VERTEX
  8
PLAN_1
 62
     2
  6
CONTINUOUS
 10
-0.907646
 20
3.634185
  0
VERTEX
  8
PLAN_1
 62
     2
  6
CONTINUOUS
 10
-0.906217
 20
3.636563
  0
VERTEX
  8
PLAN_1
 62
     2
  6
CONTINUOUS
 10
-0.904315
 20
3.638465
  0
VERTEX
  8
PLAN_1
 62
     2
  6
CONTINUOUS
 10
-0.902413
 20
3.640366
  0
VERTEX
  8
PLAN_1
 62
     2
  6
CONTINUOUS
 10
-0.900512
 20
3.641791
  0
VERTEX
  8
PLAN_1
 62
     2
  6
CONTINUOUS
 10
-0.896709
 20
3.644169
  0
VERTEX
  8
PLAN_1
 62
     2
  6
CONTINUOUS
 10
-0.892433
 20
3.645594
  0
VERTEX
  8
PLAN_1
 62
     2
  6
CONTINUOUS
 10
-0.888630
 20
3.646071
  0
VERTEX
  8
PLAN_1
 62
     2
  6
CONTINUOUS
 10
-0.884827
 20
3.646071
  0
VERTEX
  8
PLAN_1
 62
     2
  6
CONTINUOUS
 10
-0.880547
 20
3.645594
  0
VERTEX
  8
PLAN_1
 62
     2
  6
CONTINUOUS
 10
-0.876268
 20
3.644646
  0
VERTEX
  8
PLAN_1
 62
     2
  6
CONTINUOUS
 10
-0.872465
 20
3.642744
  0
VERTEX
  8
PLAN_1
 62
     2
  6
CONTINUOUS
 10
-0.868661
 20
3.640366
  0
VERTEX
  8
PLAN_1
 62
     2
  6
CONTINUOUS
 10
-0.866287
 20
3.637039
  0
VERTEX
  8
PLAN_1
 62
     2
  6
CONTINUOUS
 10
-0.863909
 20
3.633236
  0
VERTEX
  8
PLAN_1
 62
     2
  6
CONTINUOUS
 10
-0.863433
 20
3.631335
  0
VERTEX
  8
PLAN_1
 62
     2
  6
CONTINUOUS
 10
-0.862484
 20
3.628957
  0
VERTEX
  8
PLAN_1
 62
     2
  6
CONTINUOUS
 10
-0.862484
 20
3.626583
  0
VERTEX
  8
PLAN_1
 62
     2
  6
CONTINUOUS
 10
-0.862008
 20
3.624205
  0
VERTEX
  8
PLAN_1
 62
     2
  6
CONTINUOUS
 10
-0.862484
 20
3.619925
  0
VERTEX
  8
PLAN_1
 62
     2
  6
CONTINUOUS
 10
-0.863909
 20
3.615646
  0
VERTEX
  8
PLAN_1
 62
     2
  6
CONTINUOUS
 10
-0.865335
 20
3.612319
  0
VERTEX
  8
PLAN_1
 62
     2
  6
CONTINUOUS
 10
-0.867713
 20
3.609469
  0
VERTEX
  8
PLAN_1
 62
     2
  6
CONTINUOUS
 10
-0.870563
 20
3.606614
  0
VERTEX
  8
PLAN_1
 62
     2
  6
CONTINUOUS
 10
-0.873894
 20
3.604236
  0
VERTEX
  8
PLAN_1
 62
     2
  6
CONTINUOUS
 10
-0.877697
 20
3.601862
  0
VERTEX
  8
PLAN_1
 62
     2
  6
CONTINUOUS
 10
-0.881972
 20
3.599961
  0
VERTEX
  8
PLAN_1
 62
     2
  6
CONTINUOUS
 10
-0.889102
 20
3.595681
  0
VERTEX
  8
PLAN_1
 62
     2
  6
CONTINUOUS
 10
-0.892906
 20
3.593780
  0
VERTEX
  8
PLAN_1
 62
     2
  6
CONTINUOUS
 10
-0.895283
 20
3.591402
  0
VERTEX
  8
PLAN_1
 62
     2
  6
CONTINUOUS
 10
-0.897661
 20
3.589500
  0
VERTEX
  8
PLAN_1
 62
     2
  6
CONTINUOUS
 10
-0.899087
 20
3.587598
  0
VERTEX
  8
PLAN_1
 62
     2
  6
CONTINUOUS
 10
-0.900512
 20
3.585697
  0
VERTEX
  8
PLAN_1
 62
     2
  6
CONTINUOUS
 10
-0.900988
 20
3.584272
  0
VERTEX
  8
PLAN_1
 62
     2
  6
CONTINUOUS
 10
-0.901465
 20
3.582846
  0
VERTEX
  8
PLAN_1
 62
     2
  6
CONTINUOUS
 10
-0.901941
 20
3.581417
  0
VERTEX
  8
PLAN_1
 62
     2
  6
CONTINUOUS
 10
-0.862008
 20
3.581417
  0
VERTEX
  8
PLAN_1
 62
     2
  6
CONTINUOUS
 10
-0.862008
 20
3.572862
  0
VERTEX
  8
PLAN_1
 62
     2
  6
CONTINUOUS
 10
-0.912398
 20
3.572862
  0
VERTEX
  8
PLAN_1
 62
     2
  6
CONTINUOUS
 10
-0.911921
 20
3.578567
  0
VERTEX
  8
PLAN_1
 62
     2
  6
CONTINUOUS
 10
-0.910496
 20
3.583319
  0
VERTEX
  8
PLAN_1
 62
     2
  6
CONTINUOUS
 10
-0.909071
 20
3.587122
  0
VERTEX
  8
PLAN_1
 62
     2
  6
CONTINUOUS
 10
-0.907169
 20
3.590925
  0
VERTEX
  8
PLAN_1
 62
     2
  6
CONTINUOUS
 10
-0.904791
 20
3.594256
  0
VERTEX
  8
PLAN_1
 62
     2
  6
CONTINUOUS
 10
-0.901941
 20
3.597106
  0
VERTEX
  8
PLAN_1
 62
     2
  6
CONTINUOUS
 10
-0.898610
 20
3.599961
  0
VERTEX
  8
PLAN_1
 62
     2
  6
CONTINUOUS
 10
-0.895283
 20
3.601862
  0
VERTEX
  8
PLAN_1
 62
     2
  6
CONTINUOUS
 10
-0.885299
 20
3.607567
  0
VERTEX
  8
PLAN_1
 62
     2
  6
CONTINUOUS
 10
-0.882449
 20
3.609469
  0
VERTEX
  8
PLAN_1
 62
     2
  6
CONTINUOUS
 10
-0.880071
 20
3.610894
  0
VERTEX
  8
PLAN_1
 62
     2
  6
CONTINUOUS
 10
-0.877697
 20
3.612319
  0
VERTEX
  8
PLAN_1
 62
     2
  6
CONTINUOUS
 10
-0.875795
 20
3.614220
  0
VERTEX
  8
PLAN_1
 62
     2
  6
CONTINUOUS
 10
-0.874366
 20
3.616122
  0
VERTEX
  8
PLAN_1
 62
     2
  6
CONTINUOUS
 10
-0.872941
 20
3.618500
  0
VERTEX
  8
PLAN_1
 62
     2
  6
CONTINUOUS
 10
-0.871992
 20
3.621350
  0
VERTEX
  8
PLAN_1
 62
     2
  6
CONTINUOUS
 10
-0.871992
 20
3.624681
  0
VERTEX
  8
PLAN_1
 62
     2
  6
CONTINUOUS
 10
-0.871992
 20
3.627055
  0
VERTEX
  8
PLAN_1
 62
     2
  6
CONTINUOUS
 10
-0.872941
 20
3.629433
  0
VERTEX
  8
PLAN_1
 62
     2
  6
CONTINUOUS
 10
-0.873894
 20
3.631335
  0
VERTEX
  8
PLAN_1
 62
     2
  6
CONTINUOUS
 10
-0.875319
 20
3.633713
  0
VERTEX
  8
PLAN_1
 62
     2
  6
CONTINUOUS
 10
-0.877220
 20
3.635138
  0
VERTEX
  8
PLAN_1
 62
     2
  6
CONTINUOUS
 10
-0.879594
 20
3.636563
  0
VERTEX
  8
PLAN_1
 62
     2
  6
CONTINUOUS
 10
-0.882925
 20
3.637516
  0
VERTEX
  8
PLAN_1
 62
     2
  6
CONTINUOUS
 10
-0.886252
 20
3.637988
  0
VERTEX
  8
PLAN_1
 62
     2
  6
CONTINUOUS
 10
-0.888630
 20
3.637516
  0
VERTEX
  8
PLAN_1
 62
     2
  6
CONTINUOUS
 10
-0.891004
 20
3.637516
  0
VERTEX
  8
PLAN_1
 62
     2
  6
CONTINUOUS
 10
-0.892906
 20
3.636563
  0
VERTEX
  8
PLAN_1
 62
     2
  6
CONTINUOUS
 10
-0.894335
 20
3.635614
  0
VERTEX
  8
PLAN_1
 62
     2
  6
CONTINUOUS
 10
-0.897185
 20
3.633713
  0
VERTEX
  8
PLAN_1
 62
     2
  6
CONTINUOUS
 10
-0.899087
 20
3.630858
  0
VERTEX
  8
PLAN_1
 62
     2
  6
CONTINUOUS
 10
-0.900039
 20
3.628008
  0
VERTEX
  8
PLAN_1
 62
     2
  6
CONTINUOUS
 10
-0.900512
 20
3.624681
  0
VERTEX
  8
PLAN_1
 62
     2
  6
CONTINUOUS
 10
-0.900988
 20
3.622303
  0
VERTEX
  8
PLAN_1
 62
     2
  6
CONTINUOUS
 10
-0.900988
 20
3.619925
  0
VERTEX
  8
PLAN_1
 62
     2
  6
CONTINUOUS
 10
-0.910496
 20
3.619925
  0
SEQEND
  8
0
  0
ENDSEC
  0
EOF
