999
DXF file: C:\Users\sesa63760\Dev\_Creo\CAD\MCADID0002084_3D-CAD\drw0001_5.dxf
999
Pro/ENGINEER 2019471 by Parametric Technology Corporation
  0
SECTION
  2
HEADER
  9
$ACADVER
  1
AC1024
  9
$DWGCODEPAGE
  3
ANSI_1252
  9
$EXTMAX
 10
100.6844097899
 20
142.3965224172
 30
0.0
  9
$EXTMIN
 10
0.0
 20
0.0
 30
0.0
  9
$LIMMIN
 10
0.0
 20
0.0
  9
$LIMMAX
 10
100.6844097899
 20
142.3965224172
  9
$VIEWCTR
 10
50.342204895
 20
71.1982612086
  9
$VIEWSIZE
 40
142.3965224172
  9
$CLAYER
  8
0
  9
$LTSCALE
 40
9.2821436835
  9
$CELTYPE
  6
BYLAYER
  9
$DIMSCALE
 40
1.0
  9
$DIMASZ
 40
1.1986239261
  9
$DIMEXO
 40
1.0
  9
$DIMDLI
 40
6.413117454
  9
$DIMEXE
 40
1.0
  9
$DIMCEN
 40
1.5188962391
  9
$DIMLFAC
 40
1.0
  9
$DIMBLK
  1
_FILLED
  9
$DIMALT
 70
0
  9
$DIMALTF
 40
0.0393700787
  9
$DIMTXT
 40
1.6780734965
  9
$DIMTOL
 70
1
  9
$DIMLIM
 70
0
  9
$DIMTFAC
 40
1.0
  9
$DIMTP
 40
0.01
  9
$DIMTM
 40
0.01
  9
$DIMGAP
 40
0.625
  9
$DIMDSEP
 70
46
  9
$AUNITS
 70
0
  9
$PDMODE
 70
3
  9
$PDSIZE
 40
0.3125
  9
$HANDSEED
  5
293
  9
$TILEMODE
 70
1
  9
$MEASUREMENT
 70
1
  9
$INSUNITS
 70
4
  0
ENDSEC
  0
SECTION
  2
CLASSES
  0
CLASS
  1
ACDBDICTIONARYWDFLT
  2
AcDbDictionaryWithDefault
  3
AutoCAD 2000
 90
0
 91
1
280
0
281
0
  0
CLASS
  1
ACDBPLACEHOLDER
  2
AcDbPlaceHolder
  3
AutoCAD 2000
 90
0
 91
1
280
0
281
0
  0
CLASS
  1
LAYOUT
  2
AcDbLayout
  3
AutoCAD 2000
 90
0
 91
0
280
0
281
0
  0
ENDSEC
  0
SECTION
  2
TABLES
  0
TABLE
  2
VPORT
  5
8
100
AcDbSymbolTable
 70
2
  0
VPORT
  5
1F4
100
AcDbSymbolTableRecord
100
AcDbViewportTableRecord
  2
*ACTIVE
 70
0
 10
0.0
 20
0.0
 11
1.0
 21
1.0
 12
50.342204895
 22
71.1982612086
 13
0.0
 23
0.0
 14
1.0
 24
1.0
 15
0.0
 25
0.0
 16
0.0
 26
0.0
 36
1.0
 17
0.0
 27
0.0
 37
0.0
 40
142.3965224172
 41
0.7070707071
 42
50.0
 43
0.0
 44
0.0
 50
0.0
 51
0.0
 71
0
 72
100
 73
1
 74
1
 75
0
 76
0
 77
0
 78
0
  0
ENDTAB
  0
TABLE
  2
LTYPE
  5
5
100
AcDbSymbolTable
 70
6
  0
LTYPE
  5
14
100
AcDbSymbolTableRecord
100
AcDbLinetypeTableRecord
  2
BYBLOCK
 70
0
  3

 72
65
 73
0
 40
0.0
  0
LTYPE
  5
15
100
AcDbSymbolTableRecord
100
AcDbLinetypeTableRecord
  2
BYLAYER
 70
0
  3

 72
65
 73
0
 40
0.0
  0
LTYPE
  5
16
100
AcDbSymbolTableRecord
100
AcDbLinetypeTableRecord
  2
CONTINUOUS
 70
64
  3
Solid line
 72
65
 73
0
 40
0.0
  0
LTYPE
  5
1F5
100
AcDbSymbolTableRecord
100
AcDbLinetypeTableRecord
  2
CENTER
 70
64
  3
____ _ ____ _ ____ _ ____ _ ____ _ ____ _ ____
 72
65
 73
4
 40
0.6
 49
0.375
 74
0
 49
-0.075
 74
0
 49
0.075
 74
0
 49
-0.075
 74
0
  0
LTYPE
  5
1F6
100
AcDbSymbolTableRecord
100
AcDbLinetypeTableRecord
  2
HIDDEN
 70
64
  3
- - - - - - - - - - - - - - - - - - - -
 72
65
 73
2
 40
0.2
 49
0.1
 74
0
 49
-0.1
 74
0
  0
LTYPE
  5
1F7
100
AcDbSymbolTableRecord
100
AcDbLinetypeTableRecord
  2
PHANTOM
 70
64
  3
_____ _ _ _____ _ _ _____ _ _ _____
 72
65
 73
6
 40
0.8
 49
0.45
 74
0
 49
-0.05
 74
0
 49
0.1
 74
0
 49
-0.05
 74
0
 49
0.1
 74
0
 49
-0.05
 74
0
  0
LTYPE
  5
1F8
100
AcDbSymbolTableRecord
100
AcDbLinetypeTableRecord
  2
DOT
 70
64
  3
. . . . . . . . . . . . . . . . . . . .
 72
65
 73
2
 40
0.2
 49
0.1
 74
0
 49
-0.1
 74
0
  0
LTYPE
  5
1F9
100
AcDbSymbolTableRecord
100
AcDbLinetypeTableRecord
  2
DASHED
 70
64
  3
- - - - - - - - - - - - - - - - - - - -
 72
65
 73
2
 40
0.2
 49
0.1
 74
0
 49
-0.1
 74
0
  0
ENDTAB
  0
TABLE
  2
LAYER
  5
2
100
AcDbSymbolTable
 70
36
  0
LAYER
  5
10
100
AcDbSymbolTableRecord
100
AcDbLayerTableRecord
  2
0
 70
0
 62
7
  6
CONTINUOUS
370
-3
390
F
  0
LAYER
  5
1FA
100
AcDbSymbolTableRecord
100
AcDbLayerTableRecord
  2
DEFAULT_1
 70
0
 62
7
  6
CENTER
370
-3
390
F
  0
LAYER
  5
1FB
100
AcDbSymbolTableRecord
100
AcDbLayerTableRecord
  2
DEFAULT_2
 70
0
 62
8
  6
HIDDEN
370
-3
390
F
  0
LAYER
  5
1FC
100
AcDbSymbolTableRecord
100
AcDbLayerTableRecord
  2
DEFAULT_3
 70
0
 62
7
  6
PHANTOM
370
-3
390
F
  0
LAYER
  5
1FD
100
AcDbSymbolTableRecord
100
AcDbLayerTableRecord
  2
00_COMPONENTS
 70
0
 62
7
  6
CONTINUOUS
370
-3
390
F
  0
LAYER
  5
1FE
100
AcDbSymbolTableRecord
100
AcDbLayerTableRecord
  2
01_1_DEFAULT_DATUMS
 70
0
 62
7
  6
CONTINUOUS
370
-3
390
F
  0
LAYER
  5
1FF
100
AcDbSymbolTableRecord
100
AcDbLayerTableRecord
  2
01_PLANES
 70
0
 62
7
  6
CONTINUOUS
370
-3
390
F
  0
LAYER
  5
200
100
AcDbSymbolTableRecord
100
AcDbLayerTableRecord
  2
02_COORD_SYS
 70
0
 62
7
  6
CONTINUOUS
370
-3
390
F
  0
LAYER
  5
201
100
AcDbSymbolTableRecord
100
AcDbLayerTableRecord
  2
03_AXES
 70
0
 62
7
  6
CONTINUOUS
370
-3
390
F
  0
LAYER
  5
202
100
AcDbSymbolTableRecord
100
AcDbLayerTableRecord
  2
04_POINTS
 70
0
 62
7
  6
CONTINUOUS
370
-3
390
F
  0
LAYER
  5
203
100
AcDbSymbolTableRecord
100
AcDbLayerTableRecord
  2
05_CURVES
 70
0
 62
7
  6
CONTINUOUS
370
-3
390
F
  0
LAYER
  5
204
100
AcDbSymbolTableRecord
100
AcDbLayerTableRecord
  2
06_SURFS
 70
0
 62
7
  6
CONTINUOUS
370
-3
390
F
  0
LAYER
  5
205
100
AcDbSymbolTableRecord
100
AcDbLayerTableRecord
  2
07_COSMETICS
 70
0
 62
7
  6
CONTINUOUS
370
-3
390
F
  0
LAYER
  5
206
100
AcDbSymbolTableRecord
100
AcDbLayerTableRecord
  2
10_NOTES
 70
0
 62
7
  6
CONTINUOUS
370
-3
390
F
  0
LAYER
  5
207
100
AcDbSymbolTableRecord
100
AcDbLayerTableRecord
  2
11_NOTES_PUB
 70
0
 62
7
  6
CONTINUOUS
370
-3
390
F
  0
LAYER
  5
208
100
AcDbSymbolTableRecord
100
AcDbLayerTableRecord
  2
13_REF_GTOL
 70
0
 62
7
  6
CONTINUOUS
370
-3
390
F
  0
LAYER
  5
209
100
AcDbSymbolTableRecord
100
AcDbLayerTableRecord
  2
16_MISC
 70
0
 62
7
  6
CONTINUOUS
370
-3
390
F
  0
LAYER
  5
20A
100
AcDbSymbolTableRecord
100
AcDbLayerTableRecord
  2
17_NO_PRINT
 70
0
 62
7
  6
CONTINUOUS
370
-3
390
F
  0
LAYER
  5
20B
100
AcDbSymbolTableRecord
100
AcDbLayerTableRecord
  2
18_DATUM_CAMS_JOINTS
 70
0
 62
7
  6
CONTINUOUS
370
-3
390
F
  0
LAYER
  5
20C
100
AcDbSymbolTableRecord
100
AcDbLayerTableRecord
  2
19_DATUM_FUNCTIONAL
 70
0
 62
7
  6
CONTINUOUS
370
-3
390
F
  0
LAYER
  5
20D
100
AcDbSymbolTableRecord
100
AcDbLayerTableRecord
  2
20_DATUM_KINEMATIC_SCHEME
 70
0
 62
7
  6
CONTINUOUS
370
-3
390
F
  0
ENDTAB
  0
TABLE
  2
STYLE
  5
3
100
AcDbSymbolTable
 70
1
  0
STYLE
  5
11
100
AcDbSymbolTableRecord
100
AcDbTextStyleTableRecord
  2
STANDARD
 70
0
 40
0.0
 41
0.8
 50
0.0
 71
0
 42
0.2
  3
txt
  4

  0
STYLE
  5
20E
100
AcDbSymbolTableRecord
100
AcDbTextStyleTableRecord
  2
TEXTSTYLE_1
 70
0
 40
0.0
 41
0.8
 50
0.0
 71
0
 42
0.2
  3
gdt
  4

  0
ENDTAB
  0
TABLE
  2
VIEW
  5
6
100
AcDbSymbolTable
 70
0
  0
ENDTAB
  0
TABLE
  2
UCS
  5
7
100
AcDbSymbolTable
 70
0
  0
ENDTAB
  0
TABLE
  2
APPID
  5
9
100
AcDbSymbolTable
 70
1
  0
APPID
  5
20F
100
AcDbSymbolTableRecord
100
AcDbRegAppTableRecord
  2
ACAD
 70
0
  0
ENDTAB
  0
TABLE
  2
BLOCK_RECORD
  5
1
100
AcDbSymbolTable
 70
0
  0
BLOCK_RECORD
  5
210
100
AcDbSymbolTableRecord
100
AcDbBlockTableRecord
  2
*Model_Space
  0
BLOCK_RECORD
  5
211
100
AcDbSymbolTableRecord
100
AcDbBlockTableRecord
  2
*Paper_Space
  0
BLOCK_RECORD
  5
212
100
AcDbSymbolTableRecord
100
AcDbBlockTableRecord
  2
_FILLED
  0
ENDTAB
  0
TABLE
  2
DIMSTYLE
  5
A
100
AcDbSymbolTable
 70
1
100
AcDbDimStyleTable
 71
0
  0
DIMSTYLE
105
213
100
AcDbSymbolTableRecord
100
AcDbDimStyleTableRecord
  2
STANDARD
 70
0
  3

  4

 40
1.0
 41
1.1986239261
 42
1.0
 43
0.38
 44
1.0
 45
0.0
 46
0.0
 47
0.01
 48
0.01
140
1.6780734965
141
0.09
142
0.0
143
25.4
144
1.0
145
0.0
146
1.0
147
0.625
 71
1
 72
0
 73
0
 74
0
 75
0
 76
0
 77
1
 78
8
 79
2
170
0
171
1
172
0
173
0
174
0
175
0
176
0
177
0
178
0
270
2
179
2
271
2
272
2
273
2
274
2
275
0
280
0
281
0
282
0
283
1
284
8
285
0
286
0
287
3
288
0
340
11
278
46
341
212
342
212
343
212
344
212
  0
ENDTAB
  0
ENDSEC
  0
SECTION
  2
BLOCKS
  0
BLOCK
  5
20
100
AcDbEntity
  8
0
100
AcDbBlockBegin
  2
*Model_Space
 70
0
 10
0.0
 20
0.0
 30
0.0
  3
*Model_Space
  1

  0
ENDBLK
  5
21
100
AcDbEntity
  8
0
100
AcDbBlockEnd
  0
BLOCK
  5
1C
100
AcDbEntity
  8
0
100
AcDbBlockBegin
  2
*Paper_Space
 70
0
 10
0.0
 20
0.0
 30
0.0
  3
*Paper_Space
  1

  0
ENDBLK
  5
1D
100
AcDbEntity
  8
0
100
AcDbBlockEnd
  0
BLOCK
  5
214
100
AcDbEntity
  8
0
100
AcDbBlockBegin
  2
_FILLED
 70
64
 10
0.0
 20
0.0
  3
_FILLED
  1

  0
SOLID
  5
215
100
AcDbEntity
  8
0
  6
BYBLOCK
 62
0
100
AcDbTrace
 10
0.0
 20
0.0
 11
-1.0
 21
0.25
 12
-1.0
 22
-0.25
 13
-1.0
 23
-0.25
  0
ENDBLK
  5
216
100
AcDbEntity
  8
0
  6
BYBLOCK
 62
0
100
AcDbBlockEnd
  0
ENDSEC
  0
SECTION
  2
ENTITIES
  0
LINE
  5
217
100
AcDbEntity
  8
0
100
AcDbLine
 62
7
  6
CONTINUOUS
 10
13.236538164
 20
72.9725531577
 11
13.236538164
 21
67.1225530888
  0
LINE
  5
218
100
AcDbEntity
  8
0
100
AcDbLine
 62
7
  6
CONTINUOUS
 10
64.325868318
 20
40.0785902054
 11
64.0877451099
 21
40.057729874
  0
LINE
  5
219
100
AcDbEntity
  8
0
100
AcDbLine
 62
7
  6
CONTINUOUS
 10
64.3263810019
 20
40.0763809161
 11
64.0877451099
 21
40.057729874
  0
LINE
  5
21A
100
AcDbEntity
  8
0
100
AcDbLine
 62
7
  6
CONTINUOUS
 10
39.3853220903
 20
40.0577312392
 11
39.1468327596
 21
40.076370664
  0
LINE
  5
21B
100
AcDbEntity
  8
0
100
AcDbLine
 62
7
  6
CONTINUOUS
 10
39.3853220903
 20
40.0577312392
 11
39.1473471578
 21
40.0785873236
  0
LINE
  5
21C
100
AcDbEntity
  8
0
100
AcDbLine
 62
7
  6
CONTINUOUS
 10
35.0044920067
 20
38.6225531577
 11
34.1183853456
 21
40.1573349157
  0
LINE
  5
21D
100
AcDbEntity
  8
0
100
AcDbLine
 62
7
  6
CONTINUOUS
 10
34.3640539681
 20
40.0281891726
 11
35.2558899461
 21
38.4799308729
  0
LINE
  5
21E
100
AcDbEntity
  8
0
100
AcDbLine
 62
7
  6
CONTINUOUS
 10
25.0706760393
 20
70.1225531577
 11
25.0706760393
 21
72.9725531577
  0
LINE
  5
21F
100
AcDbEntity
  8
0
100
AcDbLine
 62
7
  6
CONTINUOUS
 10
25.0749775511
 20
67.1225531232
 11
25.0749775414
 21
70.1225531577
  0
LINE
  5
220
100
AcDbEntity
  8
0
100
AcDbLine
 62
7
  6
CONTINUOUS
 10
26.536538164
 20
70.1225531577
 11
26.536538164
 21
81.481692829
  0
LINE
  5
221
100
AcDbEntity
  8
0
100
AcDbLine
 62
7
  6
CONTINUOUS
 10
64.3377137767
 20
39.9434302092
 11
64.1894080161
 21
40.0064263887
  0
LINE
  5
222
100
AcDbEntity
  8
0
100
AcDbLine
 62
7
  6
CONTINUOUS
 10
28.6301496046
 20
81.754956189
 11
28.6301496046
 21
70.1225531577
  0
LINE
  5
223
100
AcDbEntity
  8
0
100
AcDbLine
 62
7
  6
CONTINUOUS
 10
11.736548594
 20
67.1225530543
 11
91.7365370349
 21
67.1225530543
  0
LINE
  5
224
100
AcDbEntity
  8
0
100
AcDbLine
 62
7
  6
CONTINUOUS
 10
48.736538164
 20
101.1225531577
 11
48.736538164
 21
105.1225531577
  0
LINE
  5
225
100
AcDbEntity
  8
0
100
AcDbLine
 62
7
  6
CONTINUOUS
 10
13.236538164
 20
70.1225531577
 11
90.236538164
 21
70.1225531577
  0
LINE
  5
226
100
AcDbEntity
  8
0
100
AcDbLine
 62
7
  6
CONTINUOUS
 10
54.736538164
 20
105.1225531577
 11
54.736538164
 21
101.1225531577
  0
LINE
  5
227
100
AcDbEntity
  8
0
100
AcDbLine
 62
7
  6
CONTINUOUS
 10
91.736532385
 20
72.9725531577
 11
76.936538164
 21
72.9725531577
  0
LINE
  5
228
100
AcDbEntity
  8
0
100
AcDbLine
 62
7
  6
CONTINUOUS
 10
26.536538164
 20
72.9725531577
 11
11.7365522591
 21
72.9725531577
  0
LINE
  5
229
100
AcDbEntity
  8
0
100
AcDbLine
 62
7
  6
CONTINUOUS
 10
74.8428907495
 20
81.7549608914
 11
74.8428907495
 21
70.1225531577
  0
LINE
  5
22A
100
AcDbEntity
  8
0
100
AcDbLine
 62
7
  6
CONTINUOUS
 10
39.2829857262
 20
40.0062016524
 11
39.1355068614
 21
39.9434855614
  0
LINE
  5
22B
100
AcDbEntity
  8
0
100
AcDbLine
 62
7
  6
CONTINUOUS
 10
76.936538164
 20
70.1225531577
 11
76.936538164
 21
81.481692829
  0
LINE
  5
22C
100
AcDbEntity
  8
0
100
AcDbLine
 62
7
  6
CONTINUOUS
 10
78.3981072209
 20
70.1225531577
 11
78.3981072209
 21
67.1225531232
  0
LINE
  5
22D
100
AcDbEntity
  8
0
100
AcDbLine
 62
7
  6
CONTINUOUS
 10
78.4023988295
 20
72.9725531577
 11
78.402398868
 21
70.1225531577
  0
LINE
  5
22E
100
AcDbEntity
  8
0
100
AcDbLine
 62
7
  6
CONTINUOUS
 10
68.2171915683
 20
38.4800738076
 11
69.1090245387
 21
40.0283297004
  0
LINE
  5
22F
100
AcDbEntity
  8
0
100
AcDbLine
 62
7
  6
CONTINUOUS
 10
69.3546952104
 20
40.1573261297
 11
68.4685936219
 21
38.6225531577
  0
LINE
  5
230
100
AcDbEntity
  8
0
100
AcDbLine
 62
7
  6
CONTINUOUS
 10
69.4966794222
 20
40.3536246349
 11
69.3546986581
 21
40.1573335607
  0
LINE
  5
231
100
AcDbEntity
  8
0
100
AcDbLine
 62
7
  6
CONTINUOUS
 10
48.736538164
 20
105.1225531577
 11
54.736538164
 21
105.1225531577
  0
LINE
  5
232
100
AcDbEntity
  8
0
100
AcDbLine
 62
7
  6
CONTINUOUS
 10
90.2365474647
 20
67.1225530888
 11
90.236538164
 21
72.9725531577
  0
ARC
  5
233
100
AcDbEntity
  8
0
100
AcDbCircle
 62
7
  6
CONTINUOUS
 10
-108.0935076357
 20
67.8574460466
 40
186.8206497658
100
AcDbArc
 50
1.5689415448
 51
6.6909689177
  0
ARC
  5
234
100
AcDbEntity
  8
0
100
AcDbCircle
 62
7
  6
CONTINUOUS
 10
-88.1981096946
 20
68.1225531577
 40
180.0
100
AcDbArc
 50
1.5439898655
 51
6.5127003917
  0
ARC
  5
235
100
AcDbEntity
  8
0
100
AcDbCircle
 62
7
  6
CONTINUOUS
 10
23.7576071883
 20
52.954682345
 40
11.0
100
AcDbArc
 50
186.5123604392
 51
260.4704801756
  0
ARC
  5
236
100
AcDbEntity
  8
0
100
AcDbCircle
 62
7
  6
CONTINUOUS
 10
38.6892738665
 20
31.0034703073
 40
9.0809778099
100
AcDbArc
 50
84.779967929
 51
85.6040207254
  0
ARC
  5
237
100
AcDbEntity
  8
0
100
AcDbCircle
 62
7
  6
CONTINUOUS
 10
38.8965828853
 20
33.2933382924
 40
6.7817458377
100
AcDbArc
 50
84.3241942858
 51
84.7640450124
  0
ARC
  5
238
100
AcDbEntity
  8
0
100
AcDbCircle
 62
7
  6
CONTINUOUS
 10
36.7365428143
 20
39.6225531577
 40
2.0
100
AcDbArc
 50
210.0
 51
352.0739781958
  0
ARC
  5
239
100
AcDbEntity
  8
0
100
AcDbCircle
 62
7
  6
CONTINUOUS
 10
32.7648005635
 20
39.3015110933
 40
1.6046572808
100
AcDbArc
 50
40.7961046496
 51
51.1501131512
  0
ARC
  5
23A
100
AcDbEntity
  8
0
100
AcDbCircle
 62
7
  6
CONTINUOUS
 10
33.1409986601
 20
39.5644708508
 40
1.2367613664
100
AcDbArc
 50
67.2539283425
 51
69.414189389
  0
ARC
  5
23B
100
AcDbEntity
  8
0
100
AcDbCircle
 62
7
  6
CONTINUOUS
 10
39.581322656
 20
38.9320524256
 40
1.1820301822
100
AcDbArc
 50
153.2728501397
 51
156.2195949945
  0
ARC
  5
23C
100
AcDbEntity
  8
0
100
AcDbCircle
 62
7
  6
CONTINUOUS
 10
39.51073718
 20
38.9905293845
 40
1.073992406
100
AcDbArc
 50
102.6957591841
 51
104.5905162945
  0
ARC
  5
23D
100
AcDbEntity
  8
0
100
AcDbCircle
 62
7
  6
CONTINUOUS
 10
39.5097942419
 20
39.2364488721
 40
0.8
100
AcDbArc
 50
86.1223664231
 51
172.0739781958
  0
ARC
  5
23E
100
AcDbEntity
  8
0
100
AcDbCircle
 62
7
  6
CONTINUOUS
 10
33.4287218493
 20
39.7518671315
 40
0.8
100
AcDbArc
 50
30.0
 51
84.1882550287
  0
ARC
  5
23F
100
AcDbEntity
  8
0
100
AcDbCircle
 62
7
  6
CONTINUOUS
 10
39.5125828946
 20
39.3300103808
 40
0.7135398766
100
AcDbArc
 50
95.1581332009
 51
100.9418077426
  0
ARC
  5
240
100
AcDbEntity
  8
0
100
AcDbCircle
 62
7
  6
CONTINUOUS
 10
-108.8365113279
 20
72.1434680706
 40
187.5693770574
100
AcDbArc
 50
353.3548733804
 51
358.4661054793
  0
ARC
  5
241
100
AcDbEntity
  8
0
100
AcDbCircle
 62
7
  6
CONTINUOUS
 10
-88.1939993402
 20
72.1225531577
 40
180.0
100
AcDbArc
 50
353.4875419578
 51
358.4082457394
  0
ARC
  5
242
100
AcDbEntity
  8
0
100
AcDbCircle
 62
7
  6
CONTINUOUS
 10
23.7617884548
 20
87.2911266163
 40
11.0
100
AcDbArc
 50
99.5280710091
 51
173.4872960422
  0
ARC
  5
243
100
AcDbEntity
  8
0
100
AcDbCircle
 62
7
  6
CONTINUOUS
 10
51.736538164
 20
-79.3774468423
 40
180.0
100
AcDbArc
 50
80.4719145405
 51
99.5280854595
  0
ARC
  5
244
100
AcDbEntity
  8
0
100
AcDbCircle
 62
7
  6
CONTINUOUS
 10
51.736538164
 20
-79.0524468423
 40
162.5
100
AcDbArc
 50
81.0787424351
 51
98.9212575649
  0
ARC
  5
245
100
AcDbEntity
  8
0
100
AcDbCircle
 62
7
  6
CONTINUOUS
 10
79.7154784403
 20
52.954682345
 40
11.0
100
AcDbArc
 50
279.5295253989
 51
353.4876364686
  0
ARC
  5
246
100
AcDbEntity
  8
0
100
AcDbCircle
 62
7
  6
CONTINUOUS
 10
64.7567521766
 20
31.3376603161
 40
8.7456993658
100
AcDbArc
 50
94.3871587975
 51
95.2421504726
  0
ARC
  5
247
100
AcDbEntity
  8
0
100
AcDbCircle
 62
7
  6
CONTINUOUS
 10
64.5962479726
 20
33.0668852437
 40
7.0090427456
100
AcDbArc
 50
95.2270936068
 51
95.6535222664
  0
ARC
  5
248
100
AcDbEntity
  8
0
100
AcDbCircle
 62
7
  6
CONTINUOUS
 10
51.736538164
 20
43.1225531577
 40
5.0
100
AcDbArc
 50
224.4164797846
 51
315.5835202155
  0
ARC
  5
249
100
AcDbEntity
  8
0
100
AcDbCircle
 62
7
  6
CONTINUOUS
 10
70.8521881564
 20
38.8764191984
 40
2.0998770736
100
AcDbArc
 50
132.205273423
 51
132.6907948847
  0
ARC
  5
24A
100
AcDbEntity
  8
0
100
AcDbCircle
 62
7
  6
CONTINUOUS
 10
66.7365428143
 20
39.6225531577
 40
2.0
100
AcDbArc
 50
187.9260218042
 51
330.0
  0
ARC
  5
24B
100
AcDbEntity
  8
0
100
AcDbCircle
 62
7
  6
CONTINUOUS
 10
70.3936832343
 20
39.4669985036
 40
1.3499255981
100
AcDbArc
 50
111.5831091241
 51
113.5452580804
  0
ARC
  5
24C
100
AcDbEntity
  8
0
100
AcDbCircle
 62
7
  6
CONTINUOUS
 10
63.9220556079
 20
39.1705168503
 40
0.8776472812
100
AcDbArc
 50
72.2755537327
 51
75.3870830233
  0
ARC
  5
24D
100
AcDbEntity
  8
0
100
AcDbCircle
 62
7
  6
CONTINUOUS
 10
70.0443637793
 20
39.7518671315
 40
0.8
100
AcDbArc
 50
95.8117449715
 51
150.0
  0
ARC
  5
24E
100
AcDbEntity
  8
0
100
AcDbCircle
 62
7
  6
CONTINUOUS
 10
63.9632913867
 20
39.2364488721
 40
0.8
100
AcDbArc
 50
7.9260218042
 51
93.8776335769
  0
ARC
  5
24F
100
AcDbEntity
  8
0
100
AcDbCircle
 62
7
  6
CONTINUOUS
 10
63.950482723
 20
39.280491577
 40
0.7640582126
100
AcDbArc
 50
75.3692591922
 51
78.9476957472
  0
ARC
  5
250
100
AcDbEntity
  8
0
100
AcDbCircle
 62
7
  6
CONTINUOUS
 10
63.9605507574
 20
39.3303112559
 40
0.7132325437
100
AcDbArc
 50
78.9742549401
 51
84.922492086
  0
ARC
  5
251
100
AcDbEntity
  8
0
100
AcDbCircle
 62
7
  6
CONTINUOUS
 10
211.5913768037
 20
67.8569162567
 40
186.8452985771
100
AcDbArc
 50
173.3097563238
 51
178.4311029632
  0
ARC
  5
252
100
AcDbEntity
  8
0
100
AcDbCircle
 62
7
  6
CONTINUOUS
 10
191.6711860226
 20
68.1225531577
 40
180.0
100
AcDbArc
 50
173.4872996083
 51
178.4560101345
  0
ARC
  5
253
100
AcDbEntity
  8
0
100
AcDbCircle
 62
7
  6
CONTINUOUS
 10
191.6670849688
 20
72.1225531577
 40
180.0
100
AcDbArc
 50
181.5917542606
 51
186.5124580422
  0
ARC
  5
254
100
AcDbEntity
  8
0
100
AcDbCircle
 62
7
  6
CONTINUOUS
 10
51.7365428143
 20
219.6225531577
 40
180.0
100
AcDbArc
 50
266.1223666055
 51
273.8776333968
  0
ARC
  5
255
100
AcDbEntity
  8
0
100
AcDbCircle
 62
7
  6
CONTINUOUS
 10
51.7365428143
 20
219.6225531577
 40
180.0
100
AcDbArc
 50
260.4704749416
 51
264.1882644217
  0
ARC
  5
256
100
AcDbEntity
  8
0
100
AcDbCircle
 62
7
  6
CONTINUOUS
 10
51.7365428143
 20
219.6225531577
 40
180.0
100
AcDbArc
 50
275.8117355783
 51
279.5295250584
  0
ARC
  5
257
100
AcDbEntity
  8
0
100
AcDbCircle
 62
7
  6
CONTINUOUS
 10
62.5332242337
 20
85.0871115236
 40
44.9719409576
100
AcDbArc
 50
278.6400818413
 51
278.8546192861
  0
ARC
  5
258
100
AcDbEntity
  8
0
100
AcDbCircle
 62
7
  6
CONTINUOUS
 10
62.9415655624
 20
82.4838874584
 40
42.3368868695
100
AcDbArc
 50
278.8508758129
 51
279.4560187925
  0
ARC
  5
259
100
AcDbEntity
  8
0
100
AcDbCircle
 62
7
  6
CONTINUOUS
 10
79.7112878731
 20
87.2911266163
 40
11.0
100
AcDbArc
 50
6.5127039578
 51
80.4719289909
  0
SPLINE
  5
25A
100
AcDbEntity
  8
0
100
AcDbSpline
 62
7
  6
CONTINUOUS
 70
0
 71
3
 72
11
 73
7
 74
0
 42
0.0000001
 43
0.0000001
 44
0.0000000001
 40
0.0
 40
0.0
 40
0.0
 40
0.0
 40
0.2489979395
 40
0.500000003
 40
0.7510020662
 40
1.0
 40
1.0
 40
1.0
 40
1.0
 10
26.0184009455
 20
89.6246959196
 30
0.0
 10
30.2589151392
 20
90.2211224888
 30
0.0
 10
38.8183476355
 20
91.1274211108
 30
0.0
 10
51.7365562232
 20
91.5724083216
 30
0.0
 10
64.6547645861
 20
91.1274218505
 30
0.0
 10
73.2141974869
 20
90.2211281247
 30
0.0
 10
77.4547117455
 20
89.6247027267
 30
0.0
  0
SPLINE
  5
25B
100
AcDbEntity
  8
0
100
AcDbSpline
 62
7
  6
CONTINUOUS
 70
0
 71
3
 72
19
 73
15
 74
0
 42
0.0000001
 43
0.0000001
 44
0.0000000001
 40
0.0
 40
0.0
 40
0.0
 40
0.0
 40
0.0171164559
 40
0.0378385721
 40
0.0643665929
 40
0.0980820227
 40
0.1397918148
 40
0.1895450717
 40
0.2471167782
 40
0.3122109085
 40
0.4626612481
 40
0.6332944745
 40
0.8153264147
 40
1.0
 40
1.0
 40
1.0
 40
1.0
 10
26.6616742911
 20
98.8674442095
 30
0.0
 10
26.6079025179
 20
98.8598859539
 30
0.0
 10
26.4927059116
 20
98.8124182715
 30
0.0
 10
26.3460085233
 20
98.6658562335
 30
0.0
 10
26.2129500388
 20
98.4443375312
 30
0.0
 10
26.0931155296
 20
98.1428890134
 30
0.0
 10
25.9879861765
 20
97.7593903725
 30
0.0
 10
25.8980254605
 20
97.2948945828
 30
0.0
 10
25.8249700271
 20
96.752572417
 30
0.0
 10
25.7489752037
 20
95.8892297145
 30
0.0
 10
25.712764922
 20
94.6637344499
 30
0.0
 10
25.7437604636
 20
93.0675257331
 30
0.0
 10
25.8466781457
 20
91.3655741537
 30
0.0
 10
25.9546895096
 20
90.2070565645
 30
0.0
 10
26.0178201293
 20
89.624607989
 30
0.0
  0
SPLINE
  5
25C
100
AcDbEntity
  8
0
100
AcDbSpline
 62
7
  6
CONTINUOUS
 70
0
 71
3
 72
19
 73
15
 74
0
 42
0.0000001
 43
0.0000001
 44
0.0000000001
 40
0.0
 40
0.0
 40
0.0
 40
0.0
 40
0.0171556766
 40
0.0379323336
 40
0.0645340295
 40
0.098339139
 40
0.1401488183
 40
0.1900032995
 40
0.2476676555
 40
0.3128357395
 40
0.4633463225
 40
0.6338976827
 40
0.8156905642
 40
1.0
 40
1.0
 40
1.0
 40
1.0
 10
76.8114377924
 20
98.8674657622
 30
0.0
 10
76.8653297606
 20
98.8598836115
 30
0.0
 10
76.9807853953
 20
98.812202341
 30
0.0
 10
77.1276821
 20
98.6650888194
 30
0.0
 10
77.2608673234
 20
98.4428516616
 30
0.0
 10
77.3807547382
 20
98.1405382722
 30
0.0
 10
77.4858604053
 20
97.7560929877
 30
0.0
 10
77.5757358617
 20
97.2906504192
 30
0.0
 10
77.648658439
 20
96.7474747086
 30
0.0
 10
77.724404316
 20
95.8834216024
 30
0.0
 10
77.7603157667
 20
94.6578012644
 30
0.0
 10
77.7290734032
 20
93.0624869682
 30
0.0
 10
77.6261491931
 20
91.3627801488
 30
0.0
 10
77.5182868853
 20
90.2062161406
 30
0.0
 10
77.4552862771
 20
89.6249378659
 30
0.0
  0
SPLINE
  5
25D
100
AcDbEntity
  8
0
100
AcDbSpline
 62
7
  6
CONTINUOUS
 70
0
 71
3
 72
21
 73
17
 74
0
 42
0.0000001
 43
0.0000001
 44
0.0000000001
 40
0.0
 40
0.0
 40
0.0
 40
0.0
 40
0.0099464142
 40
0.0172450611
 40
0.0264331386
 40
0.0376209351
 40
0.050856084
 40
0.0834901793
 40
0.1242846862
 40
0.17303053
 40
0.2294120786
 40
0.2930610529
 40
0.4402961136
 40
0.6105166394
 40
0.7989003956
 40
1.0
 40
1.0
 40
1.0
 40
1.0
 10
12.8328211902
 20
88.5387511499
 30
0.0
 10
12.8379191777
 20
88.5826686977
 30
0.0
 10
12.8941383985
 20
88.6481256622
 30
0.0
 10
12.991688007
 20
88.7102057612
 30
0.0
 10
13.1034917742
 20
88.7636872101
 30
0.0
 10
13.2434445975
 20
88.8156593664
 30
0.0
 10
13.4862694862
 20
88.8896084554
 30
0.0
 10
13.8620166081
 20
88.9759364622
 30
0.0
 10
14.3969390524
 20
89.0704136645
 30
0.0
 10
15.0394390323
 20
89.1601854072
 30
0.0
 10
15.7849631937
 20
89.2445581513
 30
0.0
 10
16.9680036339
 20
89.3538435022
 30
0.0
 10
18.6585253305
 20
89.4668160105
 30
0.0
 10
20.9051194251
 20
89.5629018916
 30
0.0
 10
23.3925175387
 20
89.6196041446
 30
0.0
 10
25.123894709
 20
89.6297479051
 30
0.0
 10
26.0177824542
 20
89.6249539775
 30
0.0
  0
SPLINE
  5
25E
100
AcDbEntity
  8
0
100
AcDbSpline
 62
7
  6
CONTINUOUS
 70
0
 71
3
 72
21
 73
17
 74
0
 42
0.0000001
 43
0.0000001
 44
0.0000000001
 40
0.0
 40
0.0
 40
0.0
 40
0.0
 40
0.2010995465
 40
0.389483398
 40
0.5597036546
 40
0.7069384274
 40
0.7705871785
 40
0.8269685056
 40
0.8757140404
 40
0.9165083489
 40
0.9491421493
 40
0.9623771445
 40
0.9735647802
 40
0.9827526832
 40
0.9900513537
 40
1.0
 40
1.0
 40
1.0
 40
1.0
 10
77.4552862771
 20
89.6249378659
 30
0.0
 10
78.3491748843
 20
89.6297343647
 30
0.0
 10
80.080554415
 20
89.619592196
 30
0.0
 10
82.567954912
 20
89.5629060654
 30
0.0
 10
84.8145507918
 20
89.4668426307
 30
0.0
 10
86.50507189
 20
89.35388053
 30
0.0
 10
87.6881113517
 20
89.244603736
 30
0.0
 10
88.4336338064
 20
89.1602372928
 30
0.0
 10
89.0761320567
 20
89.0704704854
 30
0.0
 10
89.6110520594
 20
88.9759960171
 30
0.0
 10
89.9867970408
 20
88.8896689957
 30
0.0
 10
90.2296199975
 20
88.8157224831
 30
0.0
 10
90.3695724556
 20
88.7637541422
 30
0.0
 10
90.4813752774
 20
88.7102757034
 30
0.0
 10
90.5789359605
 20
88.6481901203
 30
0.0
 10
90.6351450594
 20
88.5827129775
 30
0.0
 10
90.6402441403
 20
88.5387855119
 30
0.0
  0
SPLINE
  5
25F
100
AcDbEntity
  8
0
100
AcDbSpline
 62
7
  6
CONTINUOUS
 70
0
 71
3
 72
10
 73
6
 74
0
 42
0.0000001
 43
0.0000001
 44
0.0000000001
 40
0.0
 40
0.0
 40
0.0
 40
0.0
 40
0.5692189443
 40
0.7962446223
 40
1.0
 40
1.0
 40
1.0
 40
1.0
 10
64.4882563665
 20
39.9286000657
 30
0.0
 10
64.6061807828
 20
39.8591692804
 30
0.0
 10
64.7623044449
 20
39.7405023951
 30
0.0
 10
64.9058722137
 20
39.5463489451
 30
0.0
 10
64.9534298927
 20
39.4539090075
 30
0.0
 10
64.9732399663
 20
39.4091086295
 30
0.0
  0
SPLINE
  5
260
100
AcDbEntity
  8
0
100
AcDbSpline
 62
7
  6
CONTINUOUS
 70
0
 71
3
 72
9
 73
5
 74
0
 42
0.0000001
 43
0.0000001
 44
0.0000000001
 40
0.0
 40
0.0
 40
0.0
 40
0.0
 40
0.2656946568
 40
1.0
 40
1.0
 40
1.0
 40
1.0
 10
64.9732399663
 20
39.4091086295
 30
0.0
 10
64.9847414301
 20
39.3830981291
 30
0.0
 10
65.0247816831
 20
39.2838158881
 30
0.0
 10
65.051259055
 20
39.1789284197
 30
0.0
 10
65.0614954953
 20
39.1009978591
 30
0.0
  0
SPLINE
  5
261
100
AcDbEntity
  8
0
100
AcDbSpline
 62
7
  6
CONTINUOUS
 70
0
 71
3
 72
14
 73
10
 74
0
 42
0.0000001
 43
0.0000001
 44
0.0000000001
 40
0.0
 40
0.0
 40
0.0
 40
0.0
 40
0.2859506119
 40
0.4147774565
 40
0.5382833925
 40
0.6574804014
 40
0.7725221331
 40
0.8856568395
 40
1.0
 40
1.0
 40
1.0
 40
1.0
 10
65.0614954953
 20
39.1009978591
 30
0.0
 10
65.1024396328
 20
38.8728787362
 30
0.0
 10
65.2100335518
 20
38.5443540351
 30
0.0
 10
65.4660397811
 20
38.1879584535
 30
0.0
 10
65.6867522947
 20
37.9805007966
 30
0.0
 10
65.9303799788
 20
37.8209100708
 30
0.0
 10
66.1887599264
 20
37.705884848
 30
0.0
 10
66.4590843272
 20
37.637159443
 30
0.0
 10
66.6438670945
 20
37.6225531577
 30
0.0
 10
66.7365428143
 20
37.6225531577
 30
0.0
  0
SPLINE
  5
262
100
AcDbEntity
  8
0
100
AcDbSpline
 62
7
  6
CONTINUOUS
 70
0
 71
3
 72
11
 73
7
 74
0
 42
0.0000001
 43
0.0000001
 44
0.0000000001
 40
0.0
 40
0.0
 40
0.0
 40
0.0
 40
0.2400348786
 40
0.4823935072
 40
0.7339629767
 40
1.0
 40
1.0
 40
1.0
 40
1.0
 10
66.7365428143
 20
37.6225531577
 30
0.0
 10
66.8795197226
 20
37.6225531577
 30
0.0
 10
67.1683037598
 20
37.6585488617
 30
0.0
 10
67.5780720748
 20
37.8234592789
 30
0.0
 10
67.9462082205
 20
38.0957915121
 30
0.0
 10
68.136859256
 20
38.3437427
 30
0.0
 10
68.217358034
 20
38.4802386147
 30
0.0
  0
SPLINE
  5
263
100
AcDbEntity
  8
0
100
AcDbSpline
 62
7
  6
CONTINUOUS
 70
0
 71
3
 72
9
 73
5
 74
0
 42
0.0000001
 43
0.0000001
 44
0.0000000001
 40
0.0
 40
0.0
 40
0.0
 40
0.0
 40
0.3165790739
 40
1.0
 40
1.0
 40
1.0
 40
1.0
 10
33.40419507
 20
40.744072147
 30
0.0
 10
33.4473292813
 20
40.7350868864
 30
0.0
 10
33.580312859
 20
40.6903399404
 30
0.0
 10
33.6972380628
 20
40.6107951892
 30
0.0
 10
33.7713734091
 20
40.551205494
 30
0.0
  0
SPLINE
  5
264
100
AcDbEntity
  8
0
100
AcDbSpline
 62
7
  6
CONTINUOUS
 70
0
 71
3
 72
9
 73
5
 74
0
 42
0.0000001
 43
0.0000001
 44
0.0000000001
 40
0.0
 40
0.0
 40
0.0
 40
0.0
 40
0.2701256621
 40
1.0
 40
1.0
 40
1.0
 40
1.0
 10
33.9795894734
 20
40.3499446358
 30
0.0
 10
33.993561314
 20
40.3337430584
 30
0.0
 10
34.044010016
 20
40.2726970582
 30
0.0
 10
34.0894792396
 20
40.2073925129
 30
0.0
 10
34.1183869696
 20
40.1573335613
 30
0.0
  0
SPLINE
  5
265
100
AcDbEntity
  8
0
100
AcDbSpline
 62
7
  6
CONTINUOUS
 70
0
 71
3
 72
10
 73
6
 74
0
 42
0.0000001
 43
0.0000001
 44
0.0000000001
 40
0.0
 40
0.0
 40
0.0
 40
0.0
 40
0.3217234455
 40
0.5779819749
 40
1.0
 40
1.0
 40
1.0
 40
1.0
 10
70.0689271256
 20
40.7440409388
 30
0.0
 10
69.9950362877
 20
40.7295531086
 30
0.0
 10
69.8687083573
 20
40.6730375391
 30
0.0
 10
69.6768114098
 20
40.539217593
 30
0.0
 10
69.5614207946
 20
40.4282044135
 30
0.0
 10
69.4966642738
 20
40.3536232863
 30
0.0
  0
SPLINE
  5
266
100
AcDbEntity
  8
0
100
AcDbSpline
 62
7
  6
CONTINUOUS
 70
0
 71
3
 72
10
 73
6
 74
0
 42
0.0000001
 43
0.0000001
 44
0.0000000001
 40
0.0
 40
0.0
 40
0.0
 40
0.0
 40
0.2500905493
 40
0.5110328406
 40
1.0
 40
1.0
 40
1.0
 40
1.0
 10
38.4115901333
 20
39.1009978591
 30
0.0
 10
38.4468850446
 20
39.0996085819
 30
0.0
 10
38.5198688289
 20
39.1106904351
 30
0.0
 10
38.6481242758
 20
39.1749414628
 30
0.0
 10
38.7079136146
 20
39.2783634692
 30
0.0
 10
38.7174366911
 20
39.3467643822
 30
0.0
  0
SPLINE
  5
267
100
AcDbEntity
  8
0
100
AcDbSpline
 62
7
  6
CONTINUOUS
 70
0
 71
3
 72
9
 73
5
 74
0
 42
0.0000001
 43
0.0000001
 44
0.0000000001
 40
0.0
 40
0.0
 40
0.0
 40
0.0
 40
0.2580697412
 40
1.0
 40
1.0
 40
1.0
 40
1.0
 10
69.10902875
 20
40.0282467123
 30
0.0
 10
69.1334823972
 20
40.0273954759
 30
0.0
 10
69.2278811152
 20
40.0379001756
 30
0.0
 10
69.3195268414
 20
40.0964127271
 30
0.0
 10
69.3546992905
 20
40.1573331967
 30
0.0
  0
SPLINE
  5
268
100
AcDbEntity
  8
0
100
AcDbSpline
 62
7
  6
CONTINUOUS
 70
0
 71
3
 72
9
 73
5
 74
0
 42
0.0000001
 43
0.0000001
 44
0.0000000001
 40
0.0
 40
0.0
 40
0.0
 40
0.0
 40
0.252335335
 40
1.0
 40
1.0
 40
1.0
 40
1.0
 10
68.2171935736
 20
38.4800040825
 30
0.0
 10
68.2420779734
 20
38.479978949
 30
0.0
 10
68.3399662419
 20
38.4948518008
 30
0.0
 10
68.4317466279
 20
38.5587162676
 30
0.0
 10
68.4686057017
 20
38.6225740832
 30
0.0
  0
SPLINE
  5
269
100
AcDbEntity
  8
0
100
AcDbSpline
 62
7
  6
CONTINUOUS
 70
0
 71
3
 72
9
 73
5
 74
0
 42
0.0000001
 43
0.0000001
 44
0.0000000001
 40
0.0
 40
0.0
 40
0.0
 40
0.0
 40
0.4873562996
 40
1.0
 40
1.0
 40
1.0
 40
1.0
 10
39.1355044989
 20
39.9434900227
 30
0.0
 10
39.1134039743
 20
39.9317895966
 30
0.0
 10
39.0626937624
 20
39.9169159158
 30
0.0
 10
39.0104479359
 20
39.9221038566
 30
0.0
 10
38.9849763625
 20
39.928669589
 30
0.0
  0
SPLINE
  5
26A
100
AcDbEntity
  8
0
100
AcDbSpline
 62
7
  6
CONTINUOUS
 70
0
 71
3
 72
9
 73
5
 74
0
 42
0.0000001
 43
0.0000001
 44
0.0000000001
 40
0.0
 40
0.0
 40
0.0
 40
0.0
 40
0.2449752502
 40
1.0
 40
1.0
 40
1.0
 40
1.0
 10
64.0236741792
 20
40.0407449931
 30
0.0
 10
64.0140785604
 20
40.0416020217
 30
0.0
 10
63.9748478157
 20
40.0443350367
 30
0.0
 10
63.9353794022
 20
40.044077787
 30
0.0
 10
63.9057724452
 20
40.0418340817
 30
0.0
  0
SPLINE
  5
26B
100
AcDbEntity
  8
0
100
AcDbSpline
 62
7
  6
CONTINUOUS
 70
0
 71
3
 72
19
 73
15
 74
0
 42
0.0000001
 43
0.0000001
 44
0.0000000001
 40
0.0
 40
0.0
 40
0.0
 40
0.0
 40
0.0171554369
 40
0.0379145436
 40
0.0644726373
 40
0.0981972931
 40
0.1398819047
 40
0.1895747619
 40
0.2470534643
 40
0.3120244106
 40
0.4621788979
 40
0.6326161415
 40
0.8147551191
 40
1.0
 40
1.0
 40
1.0
 40
1.0
 10
26.6447055714
 20
41.3800225883
 30
0.0
 10
26.5918929434
 20
41.3874572168
 30
0.0
 10
26.4787959673
 20
41.4341334179
 30
0.0
 10
26.3348960221
 20
41.5780807894
 30
0.0
 10
26.2044315807
 20
41.7953864094
 30
0.0
 10
26.086935128
 20
42.0908110322
 30
0.0
 10
25.9838021331
 20
42.4663444994
 30
0.0
 10
25.895458013
 20
42.9209279526
 30
0.0
 10
25.8235439464
 20
43.4514682576
 30
0.0
 10
25.7483428251
 20
44.2958436652
 30
0.0
 10
25.7112943287
 20
45.4948079796
 30
0.0
 10
25.7390914438
 20
47.0578722059
 30
0.0
 10
25.836627031
 20
48.7274074242
 30
0.0
 10
25.9399074895
 20
49.8650564026
 30
0.0
 10
26.0004225977
 20
50.4377632121
 30
0.0
  0
SPLINE
  5
26C
100
AcDbEntity
  8
0
100
AcDbSpline
 62
7
  6
CONTINUOUS
 70
0
 71
3
 72
16
 73
12
 74
0
 42
0.0000001
 43
0.0000001
 44
0.0000000001
 40
0.0
 40
0.0
 40
0.0
 40
0.0
 40
0.0400358355
 40
0.0668935085
 40
0.099537711
 40
0.183741696
 40
0.2944084846
 40
0.4319720097
 40
0.5960681961
 40
0.7857598062
 40
1.0
 40
1.0
 40
1.0
 40
1.0
 10
12.8285895527
 20
51.7070892427
 30
0.0
 10
12.8334469317
 20
51.6646004484
 30
0.0
 10
12.8761505727
 20
51.5994191802
 30
0.0
 10
12.9581539642
 20
51.5328819597
 30
0.0
 10
13.0900141103
 20
51.4527718483
 30
0.0
 10
13.3155666837
 20
51.3601658983
 30
0.0
 10
13.6558432593
 20
51.2577462764
 30
0.0
 10
14.0852449824
 20
51.1586737406
 30
0.0
 10
14.6014388602
 20
51.0631693409
 30
0.0
 10
15.2014042561
 20
50.9720858897
 30
0.0
 10
15.6295076321
 20
50.9179542693
 30
0.0
 10
15.8568103169
 20
50.8914092014
 30
0.0
  0
SPLINE
  5
26D
100
AcDbEntity
  8
0
100
AcDbSpline
 62
7
  6
CONTINUOUS
 70
0
 71
3
 72
11
 73
7
 74
0
 42
0.0000001
 43
0.0000001
 44
0.0000000001
 40
0.0
 40
0.0
 40
0.0
 40
0.0
 40
0.2004376591
 40
0.4398234945
 40
0.7095665448
 40
1.0
 40
1.0
 40
1.0
 40
1.0
 10
15.8568103169
 20
50.8914092014
 30
0.0
 10
16.530939877
 20
50.812682393
 30
0.0
 10
18.0148169145
 20
50.6798484723
 30
0.0
 10
20.4137740225
 20
50.541727008
 30
0.0
 10
23.120102908
 20
50.4555094945
 30
0.0
 10
25.0170183647
 20
50.4370505144
 30
0.0
 10
26.0004678811
 20
50.4377632449
 30
0.0
  0
SPLINE
  5
26E
100
AcDbEntity
  8
0
100
AcDbSpline
 62
7
  6
CONTINUOUS
 70
0
 71
3
 72
9
 73
5
 74
0
 42
0.0000001
 43
0.0000001
 44
0.0000000001
 40
0.0
 40
0.0
 40
0.0
 40
0.0
 40
0.7551596227
 40
1.0
 40
1.0
 40
1.0
 40
1.0
 10
39.5672915844
 20
40.0418359472
 30
0.0
 10
39.5374383551
 20
40.044098375
 30
0.0
 10
39.4976463326
 20
40.044336857
 30
0.0
 10
39.4580994384
 20
40.0415369174
 30
0.0
 10
39.4484321991
 20
40.0406606772
 30
0.0
  0
SPLINE
  5
26F
100
AcDbEntity
  8
0
100
AcDbSpline
 62
7
  6
CONTINUOUS
 70
0
 71
3
 72
9
 73
5
 74
0
 42
0.0000001
 43
0.0000001
 44
0.0000000001
 40
0.0
 40
0.0
 40
0.0
 40
0.0
 40
0.2650469346
 40
1.0
 40
1.0
 40
1.0
 40
1.0
 10
39.3771445271
 20
40.030578439
 30
0.0
 10
39.3687193075
 20
40.028950403
 30
0.0
 10
39.3370420322
 20
40.0222393887
 30
0.0
 10
39.3058026475
 20
40.0135377107
 30
0.0
 10
39.2831420698
 20
40.0062795213
 30
0.0
  0
SPLINE
  5
270
100
AcDbEntity
  8
0
100
AcDbSpline
 62
7
  6
CONTINUOUS
 70
0
 71
3
 72
14
 73
10
 74
0
 42
0.0000001
 43
0.0000001
 44
0.0000000001
 40
0.0
 40
0.0
 40
0.0
 40
0.0
 40
0.1143320358
 40
0.2274794308
 40
0.3425188832
 40
0.4616978745
 40
0.585205407
 40
0.7140658564
 40
1.0
 40
1.0
 40
1.0
 40
1.0
 10
36.7365428143
 20
37.6225531577
 30
0.0
 10
36.8292102248
 20
37.6225531577
 30
0.0
 10
37.0139946643
 20
37.6371657355
 30
0.0
 10
37.2843236025
 20
37.705877258
 30
0.0
 10
37.542702155
 20
37.820900827
 30
0.0
 10
37.7862963598
 20
37.9805216897
 30
0.0
 10
38.0070028715
 20
38.1880007354
 30
0.0
 10
38.2631990398
 20
38.5442521377
 30
0.0
 10
38.3709879329
 20
38.8728293884
 30
0.0
 10
38.4115901333
 20
39.1009978591
 30
0.0
  0
SPLINE
  5
271
100
AcDbEntity
  8
0
100
AcDbSpline
 62
7
  6
CONTINUOUS
 70
0
 71
3
 72
9
 73
5
 74
0
 42
0.0000001
 43
0.0000001
 44
0.0000000001
 40
0.0
 40
0.0
 40
0.0
 40
0.0
 40
0.2362776835
 40
1.0
 40
1.0
 40
1.0
 40
1.0
 10
38.4115901333
 20
39.1009978591
 30
0.0
 10
38.4148617289
 20
39.1260399158
 30
0.0
 10
38.4326748778
 20
39.231493663
 30
0.0
 10
38.4666822724
 20
39.3340069135
 30
0.0
 10
38.4996496427
 20
39.4086852445
 30
0.0
  0
SPLINE
  5
272
100
AcDbEntity
  8
0
100
AcDbSpline
 62
7
  6
CONTINUOUS
 70
0
 71
3
 72
9
 73
5
 74
0
 42
0.0000001
 43
0.0000001
 44
0.0000000001
 40
0.0
 40
0.0
 40
0.0
 40
0.0
 40
0.2322951963
 40
1.0
 40
1.0
 40
1.0
 40
1.0
 10
38.5255824978
 20
39.4636613702
 30
0.0
 10
38.5351621166
 20
39.4826532174
 30
0.0
 10
38.5787303347
 20
39.5632086933
 30
0.0
 10
38.6337975147
 20
39.6375960703
 30
0.0
 10
38.6813946384
 20
39.6893294433
 30
0.0
  0
SPLINE
  5
273
100
AcDbEntity
  8
0
100
AcDbSpline
 62
7
  6
CONTINUOUS
 70
0
 71
3
 72
9
 73
5
 74
0
 42
0.0000001
 43
0.0000001
 44
0.0000000001
 40
0.0
 40
0.0
 40
0.0
 40
0.0
 40
0.2231875079
 40
1.0
 40
1.0
 40
1.0
 40
1.0
 10
38.6813946384
 20
39.6893294433
 30
0.0
 10
38.7009069461
 20
39.7105373948
 30
0.0
 10
38.7923346598
 20
39.8018737496
 30
0.0
 10
38.8986139037
 20
39.877655769
 30
0.0
 10
38.9849763623
 20
39.9286695837
 30
0.0
  0
SPLINE
  5
274
100
AcDbEntity
  8
0
100
AcDbSpline
 62
7
  6
CONTINUOUS
 70
0
 71
3
 72
9
 73
5
 74
0
 42
0.0000001
 43
0.0000001
 44
0.0000000001
 40
0.0
 40
0.0
 40
0.0
 40
0.0
 40
0.2248019996
 40
1.0
 40
1.0
 40
1.0
 40
1.0
 10
38.9849763623
 20
39.9286695837
 30
0.0
 10
39.0030862218
 20
39.9384821358
 30
0.0
 10
39.0849685851
 20
39.9795953792
 30
0.0
 10
39.1714558669
 20
40.0119790128
 30
0.0
 10
39.2401886361
 20
40.0298864808
 30
0.0
  0
SPLINE
  5
275
100
AcDbEntity
  8
0
100
AcDbSpline
 62
7
  6
CONTINUOUS
 70
0
 71
3
 72
9
 73
5
 74
0
 42
0.0000001
 43
0.0000001
 44
0.0000000001
 40
0.0
 40
0.0
 40
0.0
 40
0.0
 40
0.2411991564
 40
1.0
 40
1.0
 40
1.0
 40
1.0
 10
39.2747015747
 20
40.0382635499
 30
0.0
 10
39.283512669
 20
40.0402505369
 30
0.0
 10
39.3201421707
 20
40.0480442041
 30
0.0
 10
39.3571416306
 20
40.054085079
 30
0.0
 10
39.3853220903
 20
40.0577312392
 30
0.0
  0
SPLINE
  5
276
100
AcDbEntity
  8
0
100
AcDbSpline
 62
7
  6
CONTINUOUS
 70
0
 71
3
 72
9
 73
5
 74
0
 42
0.0000001
 43
0.0000001
 44
0.0000000001
 40
0.0
 40
0.0
 40
0.0
 40
0.0
 40
0.5023846954
 40
1.0
 40
1.0
 40
1.0
 40
1.0
 10
39.1468327596
 20
40.076370664
 30
0.0
 10
38.2104024379
 20
40.1506447949
 30
0.0
 10
36.3483846569
 20
40.3238344542
 30
0.0
 10
34.493690026
 20
40.5693419656
 30
0.0
 10
33.5758914016
 20
40.7222769995
 30
0.0
  0
SPLINE
  5
277
100
AcDbEntity
  8
0
100
AcDbSpline
 62
7
  6
CONTINUOUS
 70
0
 71
3
 72
10
 73
6
 74
0
 42
0.0000001
 43
0.0000001
 44
0.0000000001
 40
0.0
 40
0.0
 40
0.0
 40
0.0
 40
0.2906979416
 40
0.6651787816
 40
1.0
 40
1.0
 40
1.0
 40
1.0
 10
33.6191896379
 20
40.7050461733
 30
0.0
 10
33.6649695364
 20
40.6858430181
 30
0.0
 10
33.7670872754
 20
40.6351508589
 30
0.0
 10
33.907498827
 20
40.5371169909
 30
0.0
 10
34.0007974296
 20
40.4596859579
 30
0.0
 10
34.0430425699
 20
40.4211522176
 30
0.0
  0
SPLINE
  5
278
100
AcDbEntity
  8
0
100
AcDbSpline
 62
7
  6
CONTINUOUS
 70
0
 71
3
 72
9
 73
5
 74
0
 42
0.0000001
 43
0.0000001
 44
0.0000000001
 40
0.0
 40
0.0
 40
0.0
 40
0.0
 40
0.2642795644
 40
1.0
 40
1.0
 40
1.0
 40
1.0
 10
34.0430425699
 20
40.4211522176
 30
0.0
 10
34.0606722844
 20
40.4050713421
 30
0.0
 10
34.1262354631
 20
40.3429853466
 30
0.0
 10
34.1873633438
 20
40.2761710818
 30
0.0
 10
34.2291051627
 20
40.2244946992
 30
0.0
  0
SPLINE
  5
279
100
AcDbEntity
  8
0
100
AcDbSpline
 62
7
  6
CONTINUOUS
 70
0
 71
3
 72
9
 73
5
 74
0
 42
0.0000001
 43
0.0000001
 44
0.0000000001
 40
0.0
 40
0.0
 40
0.0
 40
0.0
 40
0.2627459716
 40
1.0
 40
1.0
 40
1.0
 40
1.0
 10
34.2291051627
 20
40.2244946992
 30
0.0
 10
34.2422247021
 20
40.2082527061
 30
0.0
 10
34.2909616344
 20
40.145482049
 30
0.0
 10
34.3348789633
 20
40.0789553787
 30
0.0
 10
34.3640934653
 20
40.0281742705
 30
0.0
  0
SPLINE
  5
27A
100
AcDbEntity
  8
0
100
AcDbSpline
 62
7
  6
CONTINUOUS
 70
0
 71
3
 72
11
 73
7
 74
0
 42
0.0000001
 43
0.0000001
 44
0.0000000001
 40
0.0
 40
0.0
 40
0.0
 40
0.0
 40
0.2659863869
 40
0.517556006
 40
0.7599398044
 40
1.0
 40
1.0
 40
1.0
 40
1.0
 10
35.2564913512
 20
38.479150085
 30
0.0
 10
35.3369792341
 20
38.3428198626
 30
0.0
 10
35.5275683535
 20
38.0951549424
 30
0.0
 10
35.8955336742
 20
37.8231941582
 30
0.0
 10
36.3050603638
 20
37.6585040003
 30
0.0
 10
36.5936573933
 20
37.6225531577
 30
0.0
 10
36.7365428143
 20
37.6225531577
 30
0.0
  0
SPLINE
  5
27B
100
AcDbEntity
  8
0
100
AcDbSpline
 62
7
  6
CONTINUOUS
 70
0
 71
3
 72
11
 73
7
 74
0
 42
0.0000001
 43
0.0000001
 44
0.0000000001
 40
0.0
 40
0.0
 40
0.0
 40
0.0
 40
0.2913381841
 40
0.5612298423
 40
0.800230635
 40
1.0
 40
1.0
 40
1.0
 40
1.0
 10
77.4725341971
 20
50.4377657103
 30
0.0
 10
78.4591563498
 20
50.4385165778
 30
0.0
 10
80.3598494074
 20
50.454990771
 30
0.0
 10
83.0687338039
 20
50.5422532929
 30
0.0
 10
85.4648855341
 20
50.6802805519
 30
0.0
 10
86.9453523162
 20
50.8130311441
 30
0.0
 10
87.6173093264
 20
50.8914973152
 30
0.0
  0
SPLINE
  5
27C
100
AcDbEntity
  8
0
100
AcDbSpline
 62
7
  6
CONTINUOUS
 70
0
 71
3
 72
16
 73
12
 74
0
 42
0.0000001
 43
0.0000001
 44
0.0000000001
 40
0.0
 40
0.0
 40
0.0
 40
0.0
 40
0.2144898166
 40
0.404180476
 40
0.5681419632
 40
0.7056375575
 40
0.8163982237
 40
0.9006436082
 40
0.9332694609
 40
0.9600939378
 40
1.0
 40
1.0
 40
1.0
 40
1.0
 10
87.6173093264
 20
50.8914973152
 30
0.0
 10
87.8448084947
 20
50.9180629859
 30
0.0
 10
88.2730458108
 20
50.9722176821
 30
0.0
 10
88.8729422081
 20
51.0633486964
 30
0.0
 10
89.3887545745
 20
51.158852492
 30
0.0
 10
89.8179083517
 20
51.2578768521
 30
0.0
 10
90.1581967133
 20
51.360124753
 30
0.0
 10
90.38378063
 20
51.4528449392
 30
0.0
 10
90.5154518257
 20
51.5331672035
 30
0.0
 10
90.5971269559
 20
51.5997483955
 30
0.0
 10
90.6396618359
 20
51.6647477699
 30
0.0
 10
90.6444957958
 20
51.7070867776
 30
0.0
  0
SPLINE
  5
27D
100
AcDbEntity
  8
0
100
AcDbSpline
 62
7
  6
CONTINUOUS
 70
0
 71
3
 72
11
 73
7
 74
0
 42
0.0000001
 43
0.0000001
 44
0.0000000001
 40
0.0
 40
0.0
 40
0.0
 40
0.0
 40
0.2512226461
 40
0.5019649295
 40
0.7517215585
 40
1.0
 40
1.0
 40
1.0
 40
1.0
 10
51.7365428143
 20
48.6361902119
 30
0.0
 10
53.898645166
 20
48.636190212
 30
0.0
 10
58.2190765509
 20
48.7118208946
 30
0.0
 10
64.6811124308
 20
49.0489652692
 30
0.0
 10
71.1019436565
 20
49.6130898061
 30
0.0
 10
75.3566637702
 20
50.1401967344
 30
0.0
 10
77.472565129
 20
50.4380558693
 30
0.0
  0
SPLINE
  5
27E
100
AcDbEntity
  8
0
100
AcDbSpline
 62
7
  6
CONTINUOUS
 70
0
 71
3
 72
11
 73
7
 74
0
 42
0.0000001
 43
0.0000001
 44
0.0000000001
 40
0.0
 40
0.0
 40
0.0
 40
0.0
 40
0.2482788724
 40
0.4980352832
 40
0.7487778501
 40
1.0
 40
1.0
 40
1.0
 40
1.0
 10
26.0004033332
 20
50.4381066261
 30
0.0
 10
28.1163224484
 20
50.140259262
 30
0.0
 10
32.3710514636
 20
49.6129896964
 30
0.0
 10
38.791964667
 20
49.0492934018
 30
0.0
 10
45.2539815376
 20
48.7116335027
 30
0.0
 10
49.5744323731
 20
48.6348761891
 30
0.0
 10
51.7365428143
 20
48.6351581997
 30
0.0
  0
SPLINE
  5
27F
100
AcDbEntity
  8
0
100
AcDbSpline
 62
7
  6
CONTINUOUS
 70
0
 71
3
 72
10
 73
6
 74
0
 42
0.0000001
 43
0.0000001
 44
0.0000000001
 40
0.0
 40
0.0
 40
0.0
 40
0.0
 40
0.2508648003
 40
0.6262630136
 40
1.0
 40
1.0
 40
1.0
 40
1.0
 10
24.8073709306
 20
67.1225392912
 30
0.0
 10
24.8447222576
 20
65.7238873444
 30
0.0
 10
24.9783009871
 20
62.233271821
 30
0.0
 10
25.3432060162
 20
56.6668804981
 30
0.0
 10
25.7590408451
 20
52.5085323223
 30
0.0
 10
26.0004033332
 20
50.4381066261
 30
0.0
  0
SPLINE
  5
280
100
AcDbEntity
  8
0
100
AcDbSpline
 62
7
  6
CONTINUOUS
 70
0
 71
3
 72
9
 73
5
 74
0
 42
0.0000001
 43
0.0000001
 44
0.0000000001
 40
0.0
 40
0.0
 40
0.0
 40
0.0
 40
0.2523330497
 40
1.0
 40
1.0
 40
1.0
 40
1.0
 10
35.2558920535
 20
38.4800040825
 30
0.0
 10
35.2310097753
 20
38.4799789513
 30
0.0
 10
35.1331286985
 20
38.4948495715
 30
0.0
 10
35.0413553246
 20
38.5587040188
 30
0.0
 10
35.0044920072
 20
38.6225531569
 30
0.0
  0
SPLINE
  5
281
100
AcDbEntity
  8
0
100
AcDbSpline
 62
7
  6
CONTINUOUS
 70
0
 71
3
 72
9
 73
5
 74
0
 42
0.0000001
 43
0.0000001
 44
0.0000000001
 40
0.0
 40
0.0
 40
0.0
 40
0.0
 40
0.7177822809
 40
1.0
 40
1.0
 40
1.0
 40
1.0
 10
39.5672929823
 20
40.0418366386
 30
0.0
 10
39.5667405604
 20
40.0399907093
 30
0.0
 10
39.5659495986
 20
40.0379882478
 30
0.0
 10
39.5646785075
 20
40.0345761208
 30
0.0
 10
39.563922657
 20
40.0346273749
 30
0.0
  0
SPLINE
  5
282
100
AcDbEntity
  8
0
100
AcDbSpline
 62
7
  6
CONTINUOUS
 70
0
 71
3
 72
13
 73
9
 74
0
 42
0.0000001
 43
0.0000001
 44
0.0000000001
 40
0.0
 40
0.0
 40
0.0
 40
0.0
 40
0.0123226698
 40
0.055625259
 40
0.1315120694
 40
0.2401046671
 40
0.5552087094
 40
1.0
 40
1.0
 40
1.0
 40
1.0
 10
33.5097412126
 20
40.5478360113
 30
0.0
 10
33.5106451445
 20
40.5476776654
 30
0.0
 10
33.5092734165
 20
40.5547244544
 30
0.0
 10
33.5056582778
 20
40.560503377
 30
0.0
 10
33.4979220628
 20
40.5776235974
 30
0.0
 10
33.4806019064
 20
40.6092730873
 30
0.0
 10
33.4489287635
 20
40.666665461
 30
0.0
 10
33.4207836032
 20
40.7154005861
 30
0.0
 10
33.40419507
 20
40.744072147
 30
0.0
  0
SPLINE
  5
283
100
AcDbEntity
  8
0
100
AcDbSpline
 62
7
  6
CONTINUOUS
 70
0
 71
3
 72
19
 73
15
 74
0
 42
0.0000001
 43
0.0000001
 44
0.0000000001
 40
0.0
 40
0.0
 40
0.0
 40
0.0
 40
0.0171175221
 40
0.0378244512
 40
0.0643120138
 40
0.0979505956
 40
0.1395390938
 40
0.1891343015
 40
0.2465233445
 40
0.3114223598
 40
0.4615168149
 40
0.6320312479
 40
0.8144006856
 40
1.0
 40
1.0
 40
1.0
 40
1.0
 10
76.8283799474
 20
41.3800225729
 30
0.0
 10
76.8810776536
 20
41.3874409891
 30
0.0
 10
76.9939244191
 20
41.4339284611
 30
0.0
 10
77.1376272595
 20
41.5773647944
 30
0.0
 10
77.2679657649
 20
41.7939986936
 30
0.0
 10
77.3854067693
 20
42.0886105608
 30
0.0
 10
77.4885571166
 20
42.4632511834
 30
0.0
 10
77.5769771741
 20
42.9169386947
 30
0.0
 10
77.6490127528
 20
43.446668053
 30
0.0
 10
77.7244448987
 20
44.2903607282
 30
0.0
 10
77.7617736681
 20
45.4891896956
 30
0.0
 10
77.734210284
 20
47.0530827935
 30
0.0
 10
77.6366850158
 20
48.7247394525
 30
0.0
 10
77.5332672638
 20
49.8642419262
 30
0.0
 10
77.4726313743
 20
50.4380637265
 30
0.0
  0
SPLINE
  5
284
100
AcDbEntity
  8
0
100
AcDbSpline
 62
7
  6
CONTINUOUS
 70
0
 71
3
 72
13
 73
9
 74
0
 42
0.0000001
 43
0.0000001
 44
0.0000000001
 40
0.0
 40
0.0
 40
0.0
 40
0.0
 40
0.4449125847
 40
0.7600367798
 40
0.8686022397
 40
0.9444388405
 40
0.9876763724
 40
1.0
 40
1.0
 40
1.0
 40
1.0
 10
70.0689266408
 20
40.7440759677
 30
0.0
 10
70.0523133063
 20
40.715403703
 30
0.0
 10
70.0241222951
 20
40.6666669406
 30
0.0
 10
69.9924474629
 20
40.6092783289
 30
0.0
 10
69.9750972878
 20
40.5776168367
 30
0.0
 10
69.9674288158
 20
40.5605154953
 30
0.0
 10
69.9637440872
 20
40.5547062887
 30
0.0
 10
69.9624788793
 20
40.5476828924
 30
0.0
 10
69.9633832322
 20
40.5478398845
 30
0.0
  0
SPLINE
  5
285
100
AcDbEntity
  8
0
100
AcDbSpline
 62
7
  6
CONTINUOUS
 70
0
 71
3
 72
8
 73
4
 74
0
 42
0.0000001
 43
0.0000001
 44
0.0000000001
 40
0.0
 40
0.0
 40
0.0
 40
0.0
 40
1.0
 40
1.0
 40
1.0
 40
1.0
 10
69.8971130636
 20
40.7222674617
 30
0.0
 10
69.954067459
 20
40.7317260342
 30
0.0
 10
70.0113766083
 20
40.7396313502
 30
0.0
 10
70.0689424435
 20
40.7440407001
 30
0.0
  0
SPLINE
  5
286
100
AcDbEntity
  8
0
100
AcDbSpline
 62
7
  6
CONTINUOUS
 70
0
 71
3
 72
9
 73
5
 74
0
 42
0.0000001
 43
0.0000001
 44
0.0000000001
 40
0.0
 40
0.0
 40
0.0
 40
0.0
 40
0.2825670245
 40
1.0
 40
1.0
 40
1.0
 40
1.0
 10
63.9091881699
 20
40.0346287629
 30
0.0
 10
63.9084297746
 20
40.0345767858
 30
0.0
 10
63.9071399826
 20
40.0379828909
 30
0.0
 10
63.9063306489
 20
40.039988008
 30
0.0
 10
63.9057694023
 20
40.0418346732
 30
0.0
  0
SPLINE
  5
287
100
AcDbEntity
  8
0
100
AcDbSpline
 62
7
  6
CONTINUOUS
 70
0
 71
3
 72
9
 73
5
 74
0
 42
0.0000001
 43
0.0000001
 44
0.0000000001
 40
0.0
 40
0.0
 40
0.0
 40
0.0
 40
0.258068686
 40
1.0
 40
1.0
 40
1.0
 40
1.0
 10
34.3640568854
 20
40.0282467134
 30
0.0
 10
34.3396050818
 20
40.0273955403
 30
0.0
 10
34.2452128351
 20
40.0378986017
 30
0.0
 10
34.1535742058
 20
40.0964018957
 30
0.0
 10
34.1183973421
 20
40.1573141397
 30
0.0
  0
SPLINE
  5
288
100
AcDbEntity
  8
0
100
AcDbSpline
 62
7
  6
CONTINUOUS
 70
0
 71
3
 72
8
 73
4
 74
0
 42
0.0000001
 43
0.0000001
 44
0.0000000001
 40
0.0
 40
0.0
 40
0.0
 40
0.0
 40
1.0
 40
1.0
 40
1.0
 40
1.0
 10
33.5758914304
 20
40.7222774768
 30
0.0
 10
33.5189730214
 20
40.7317633385
 30
0.0
 10
33.4617061197
 20
40.7398572892
 30
0.0
 10
33.4041544459
 20
40.7440395967
 30
0.0
  0
SPLINE
  5
289
100
AcDbEntity
  8
0
100
AcDbSpline
 62
7
  6
CONTINUOUS
 70
0
 71
3
 72
9
 73
5
 74
0
 42
0.0000001
 43
0.0000001
 44
0.0000000001
 40
0.0
 40
0.0
 40
0.0
 40
0.0
 40
0.4874652566
 40
1.0
 40
1.0
 40
1.0
 40
1.0
 10
64.3377137763
 20
39.9434302082
 30
0.0
 10
64.3598199884
 20
39.9317217263
 30
0.0
 10
64.4105346043
 20
39.9168308044
 30
0.0
 10
64.4627878425
 20
39.9220313993
 30
0.0
 10
64.4882563665
 20
39.9286000654
 30
0.0
  0
SPLINE
  5
28A
100
AcDbEntity
  8
0
100
AcDbSpline
 62
7
  6
CONTINUOUS
 70
0
 71
3
 72
10
 73
6
 74
0
 42
0.0000001
 43
0.0000001
 44
0.0000000001
 40
0.0
 40
0.0
 40
0.0
 40
0.0
 40
0.2500906138
 40
0.5110329308
 40
1.0
 40
1.0
 40
1.0
 40
1.0
 10
65.0614954953
 20
39.1009978591
 30
0.0
 10
65.0262005748
 20
39.0996085815
 30
0.0
 10
64.9532167774
 20
39.1106904426
 30
0.0
 10
64.8249613352
 20
39.1749414823
 30
0.0
 10
64.7651720123
 20
39.2783634816
 30
0.0
 10
64.7556489375
 20
39.3467643822
 30
0.0
  0
SPLINE
  5
28B
100
AcDbEntity
  8
0
100
AcDbSpline
 62
7
  6
CONTINUOUS
 70
0
 71
3
 72
9
 73
5
 74
0
 42
0.0000001
 43
0.0000001
 44
0.0000000001
 40
0.0
 40
0.0
 40
0.0
 40
0.0
 40
0.2410279666
 40
1.0
 40
1.0
 40
1.0
 40
1.0
 10
69.1092226652
 20
40.0285159893
 30
0.0
 10
69.1190920246
 20
40.0443417486
 30
0.0
 10
69.1604107733
 20
40.1097551158
 30
0.0
 10
69.2046491764
 20
40.1734347479
 30
0.0
 10
69.2409926974
 20
40.2195688982
 30
0.0
  0
SPLINE
  5
28C
100
AcDbEntity
  8
0
100
AcDbSpline
 62
7
  6
CONTINUOUS
 70
0
 71
3
 72
9
 73
5
 74
0
 42
0.0000001
 43
0.0000001
 44
0.0000000001
 40
0.0
 40
0.0
 40
0.0
 40
0.0
 40
0.2356614663
 40
1.0
 40
1.0
 40
1.0
 40
1.0
 10
69.2409926974
 20
40.2195688982
 30
0.0
 10
69.2543347844
 20
40.2365052278
 30
0.0
 10
69.3125365328
 20
40.3071235357
 30
0.0
 10
69.3769831115
 20
40.3724660561
 30
0.0
 10
69.4283841665
 20
40.4198782754
 30
0.0
  0
SPLINE
  5
28D
100
AcDbEntity
  8
0
100
AcDbSpline
 62
7
  6
CONTINUOUS
 70
0
 71
3
 72
9
 73
5
 74
0
 42
0.0000001
 43
0.0000001
 44
0.0000000001
 40
0.0
 40
0.0
 40
0.0
 40
0.0
 40
0.2203060261
 40
1.0
 40
1.0
 40
1.0
 40
1.0
 10
69.4415143219
 20
40.4318879562
 30
0.0
 10
69.4684891959
 20
40.4563497229
 30
0.0
 10
69.593866097
 20
40.5639616344
 30
0.0
 10
69.7362795172
 20
40.6530479504
 30
0.0
 10
69.854423957
 20
40.7045357968
 30
0.0
  0
SPLINE
  5
28E
100
AcDbEntity
  8
0
100
AcDbSpline
 62
7
  6
CONTINUOUS
 70
0
 71
3
 72
9
 73
5
 74
0
 42
0.0000001
 43
0.0000001
 44
0.0000000001
 40
0.0
 40
0.0
 40
0.0
 40
0.0
 40
0.498116153
 40
1.0
 40
1.0
 40
1.0
 40
1.0
 10
69.2892240669
 20
40.6255332819
 30
0.0
 10
68.4694552712
 20
40.500959482
 30
0.0
 10
66.817097673
 20
40.2942064243
 30
0.0
 10
65.1592171412
 20
40.1424396216
 30
0.0
 10
64.3263810019
 20
40.0763809161
 30
0.0
  0
SPLINE
  5
28F
100
AcDbEntity
  8
0
100
AcDbSpline
 62
7
  6
CONTINUOUS
 70
0
 71
3
 72
9
 73
5
 74
0
 42
0.0000001
 43
0.0000001
 44
0.0000000001
 40
0.0
 40
0.0
 40
0.0
 40
0.0
 40
0.279029537
 40
1.0
 40
1.0
 40
1.0
 40
1.0
 10
64.0877451099
 20
40.057729874
 30
0.0
 10
64.1142779199
 20
40.0543095174
 30
0.0
 10
64.2089939088
 20
40.0391904431
 30
0.0
 10
64.301576382
 20
40.0114942474
 30
0.0
 10
64.3657311951
 20
39.985759066
 30
0.0
  0
SPLINE
  5
290
100
AcDbEntity
  8
0
100
AcDbSpline
 62
7
  6
CONTINUOUS
 70
0
 71
3
 72
9
 73
5
 74
0
 42
0.0000001
 43
0.0000001
 44
0.0000000001
 40
0.0
 40
0.0
 40
0.0
 40
0.0
 40
0.2633074262
 40
1.0
 40
1.0
 40
1.0
 40
1.0
 10
64.3657311951
 20
39.985759066
 30
0.0
 10
64.3767480551
 20
39.9813397422
 30
0.0
 10
64.4183616502
 20
39.9640007862
 30
0.0
 10
64.4590561543
 20
39.9444213882
 30
0.0
 10
64.4882563665
 20
39.9286000657
 30
0.0
  0
ENDSEC
  0
SECTION
  2
OBJECTS
  0
DICTIONARY
  5
C
100
AcDbDictionary
280
0
281
1
  3
ACAD_GROUP
350
D
  3
ACAD_MLINESTYLE
350
17
  3
ACAD_LAYOUT
350
1A
  3
ACAD_PLOTSETTINGS
350
19
  3
ACAD_PLOTSTYLENAME
350
E
  0
DICTIONARY
  5
D
102
{ACAD_REACTORS
330
C
102
}
100
AcDbDictionary
280
0
281
1
  0
ACDBDICTIONARYWDFLT
  5
E
102
{ACAD_REACTORS
330
C
102
}
100
AcDbDictionary
281
1
  3
Normal
350
F
100
AcDbDictionaryWithDefault
340
F
  0
DICTIONARY
  5
17
102
{ACAD_REACTORS
330
C
102
}
100
AcDbDictionary
280
0
281
1
  3
Standard
350
18
  0
DICTIONARY
  5
19
102
{ACAD_REACTORS
330
C
102
}
100
AcDbDictionary
281
1
  0
DICTIONARY
  5
1A
102
{ACAD_REACTORS
330
C
102
}
100
AcDbDictionary
281
1
  3
Model
350
291
  3
Layout1
350
292
  0
ACDBPLACEHOLDER
  5
F
102
{ACAD_REACTORS
330
E
102
}
  0
MLINESTYLE
  5
18
102
{ACAD_REACTORS
330
17
102
}
100
AcDbMlineStyle
  2
STANDARD
 70
0
  3

 62
256
 51
90.0
 52
90.0
 71
2
 49
0.5
 62
256
  6
BYLAYER
 49
-0.5
 62
256
  6
BYLAYER
  0
LAYOUT
  5
291
102
{ACAD_REACTORS
330
1A
102
}
100
AcDbPlotSettings
  1

  2
none_device
  4

  6

 40
0.0
 41
0.0
 42
0.0
 43
0.0
 44
210.0
 45
297.0
 46
0.0
 47
0.0
 48
0.0
 49
0.0
140
0.0
141
0.0
142
1.0
143
1.0
 70
1024
 72
1
 73
0
 74
0
  7

 75
0
147
1.0
148
0.0
149
0.0
100
AcDbLayout
  1
Model
 70
0
 71
0
 10
0.0
 20
0.0
 11
210.0
 21
297.0
 12
0.0
 22
0.0
 32
0.0
 14
0.0
 24
0.0
 34
0.0
 15
0.0
 25
0.0
 35
0.0
146
0.0
 13
0.0
 23
0.0
 33
0.0
 16
1.0
 26
0.0
 36
0.0
 17
0.0
 27
1.0
 37
0.0
 76
0
330
210
345
0
346
0
  0
LAYOUT
  5
292
102
{ACAD_REACTORS
330
1A
102
}
100
AcDbPlotSettings
  1

  2
none_device
  4

  6

 40
0.0
 41
0.0
 42
0.0
 43
0.0
 44
210.0
 45
297.0
 46
0.0
 47
0.0
 48
0.0
 49
0.0
140
0.0
141
0.0
142
1.0
143
1.0
 70
0
 72
1
 73
0
 74
0
  7

 75
0
147
1.0
148
0.0
149
0.0
100
AcDbLayout
  1
Layout1
 70
0
 71
1
 10
0.0
 20
0.0
 11
210.0
 21
297.0
 12
0.0
 22
0.0
 32
0.0
 14
0.0
 24
0.0
 34
0.0
 15
0.0
 25
0.0
 35
0.0
146
0.0
 13
0.0
 23
0.0
 33
0.0
 16
1.0
 26
0.0
 36
0.0
 17
0.0
 27
1.0
 37
0.0
 76
0
330
211
345
0
346
0
  0
ENDSEC
  0
EOF
