999
DXF file: C:\Users\sesa63760\Dev\_Creo\CAD\MCADID0003925_3D-CAD\drw0001_3.dxf
999
Pro/ENGINEER 2019471 by Parametric Technology Corporation
  0
SECTION
  2
HEADER
  9
$ACADVER
  1
AC1024
  9
$DWGCODEPAGE
  3
ANSI_1252
  9
$EXTMAX
 10
62.2049041136
 20
87.9755072464
 30
0.0
  9
$EXTMIN
 10
0.0
 20
0.0
 30
0.0
  9
$LIMMIN
 10
0.0
 20
0.0
  9
$LIMMAX
 10
62.2049041136
 20
87.9755072464
  9
$VIEWCTR
 10
31.1024520568
 20
43.9877536232
  9
$VIEWSIZE
 40
87.9755072464
  9
$CLAYER
  8
0
  9
$LTSCALE
 40
5.7346997316
  9
$CELTYPE
  6
BYLAYER
  9
$DIMSCALE
 40
1.0
  9
$DIMASZ
 40
0.7405345728
  9
$DIMEXO
 40
1.0
  9
$DIMDLI
 40
3.9621561782
  9
$DIMEXE
 40
1.0
  9
$DIMCEN
 40
0.9384054106
  9
$DIMLFAC
 40
1.0
  9
$DIMBLK
  1
_FILLED
  9
$DIMALT
 70
0
  9
$DIMALTF
 40
0.0393700787
  9
$DIMTXT
 40
1.0367484019
  9
$DIMTOL
 70
1
  9
$DIMLIM
 70
0
  9
$DIMTFAC
 40
1.0
  9
$DIMTP
 40
0.01
  9
$DIMTM
 40
0.01
  9
$DIMGAP
 40
0.625
  9
$DIMDSEP
 70
46
  9
$AUNITS
 70
0
  9
$PDMODE
 70
3
  9
$PDSIZE
 40
0.3125
  9
$HANDSEED
  5
39F
  9
$TILEMODE
 70
1
  9
$MEASUREMENT
 70
1
  9
$INSUNITS
 70
4
  0
ENDSEC
  0
SECTION
  2
CLASSES
  0
CLASS
  1
ACDBDICTIONARYWDFLT
  2
AcDbDictionaryWithDefault
  3
AutoCAD 2000
 90
0
 91
1
280
0
281
0
  0
CLASS
  1
ACDBPLACEHOLDER
  2
AcDbPlaceHolder
  3
AutoCAD 2000
 90
0
 91
1
280
0
281
0
  0
CLASS
  1
LAYOUT
  2
AcDbLayout
  3
AutoCAD 2000
 90
0
 91
0
280
0
281
0
  0
ENDSEC
  0
SECTION
  2
TABLES
  0
TABLE
  2
VPORT
  5
8
100
AcDbSymbolTable
 70
2
  0
VPORT
  5
1F4
100
AcDbSymbolTableRecord
100
AcDbViewportTableRecord
  2
*ACTIVE
 70
0
 10
0.0
 20
0.0
 11
1.0
 21
1.0
 12
31.1024520568
 22
43.9877536232
 13
0.0
 23
0.0
 14
1.0
 24
1.0
 15
0.0
 25
0.0
 16
0.0
 26
0.0
 36
1.0
 17
0.0
 27
0.0
 37
0.0
 40
87.9755072464
 41
0.7070707071
 42
50.0
 43
0.0
 44
0.0
 50
0.0
 51
0.0
 71
0
 72
100
 73
1
 74
1
 75
0
 76
0
 77
0
 78
0
  0
ENDTAB
  0
TABLE
  2
LTYPE
  5
5
100
AcDbSymbolTable
 70
6
  0
LTYPE
  5
14
100
AcDbSymbolTableRecord
100
AcDbLinetypeTableRecord
  2
BYBLOCK
 70
0
  3

 72
65
 73
0
 40
0.0
  0
LTYPE
  5
15
100
AcDbSymbolTableRecord
100
AcDbLinetypeTableRecord
  2
BYLAYER
 70
0
  3

 72
65
 73
0
 40
0.0
  0
LTYPE
  5
16
100
AcDbSymbolTableRecord
100
AcDbLinetypeTableRecord
  2
CONTINUOUS
 70
64
  3
Solid line
 72
65
 73
0
 40
0.0
  0
LTYPE
  5
1F5
100
AcDbSymbolTableRecord
100
AcDbLinetypeTableRecord
  2
CENTER
 70
64
  3
____ _ ____ _ ____ _ ____ _ ____ _ ____ _ ____
 72
65
 73
4
 40
0.6
 49
0.375
 74
0
 49
-0.075
 74
0
 49
0.075
 74
0
 49
-0.075
 74
0
  0
LTYPE
  5
1F6
100
AcDbSymbolTableRecord
100
AcDbLinetypeTableRecord
  2
HIDDEN
 70
64
  3
- - - - - - - - - - - - - - - - - - - -
 72
65
 73
2
 40
0.2
 49
0.1
 74
0
 49
-0.1
 74
0
  0
LTYPE
  5
1F7
100
AcDbSymbolTableRecord
100
AcDbLinetypeTableRecord
  2
PHANTOM
 70
64
  3
_____ _ _ _____ _ _ _____ _ _ _____
 72
65
 73
6
 40
0.8
 49
0.45
 74
0
 49
-0.05
 74
0
 49
0.1
 74
0
 49
-0.05
 74
0
 49
0.1
 74
0
 49
-0.05
 74
0
  0
LTYPE
  5
1F8
100
AcDbSymbolTableRecord
100
AcDbLinetypeTableRecord
  2
DOT
 70
64
  3
. . . . . . . . . . . . . . . . . . . .
 72
65
 73
2
 40
0.2
 49
0.1
 74
0
 49
-0.1
 74
0
  0
LTYPE
  5
1F9
100
AcDbSymbolTableRecord
100
AcDbLinetypeTableRecord
  2
DASHED
 70
64
  3
- - - - - - - - - - - - - - - - - - - -
 72
65
 73
2
 40
0.2
 49
0.1
 74
0
 49
-0.1
 74
0
  0
ENDTAB
  0
TABLE
  2
LAYER
  5
2
100
AcDbSymbolTable
 70
36
  0
LAYER
  5
10
100
AcDbSymbolTableRecord
100
AcDbLayerTableRecord
  2
0
 70
0
 62
7
  6
CONTINUOUS
370
-3
390
F
  0
LAYER
  5
1FA
100
AcDbSymbolTableRecord
100
AcDbLayerTableRecord
  2
DEFAULT_1
 70
0
 62
7
  6
CENTER
370
-3
390
F
  0
LAYER
  5
1FB
100
AcDbSymbolTableRecord
100
AcDbLayerTableRecord
  2
DEFAULT_2
 70
0
 62
7
  6
HIDDEN
370
-3
390
F
  0
LAYER
  5
1FC
100
AcDbSymbolTableRecord
100
AcDbLayerTableRecord
  2
DEFAULT_3
 70
0
 62
7
  6
PHANTOM
370
-3
390
F
  0
LAYER
  5
1FD
100
AcDbSymbolTableRecord
100
AcDbLayerTableRecord
  2
00_COMPONENTS
 70
0
 62
7
  6
CONTINUOUS
370
-3
390
F
  0
LAYER
  5
1FE
100
AcDbSymbolTableRecord
100
AcDbLayerTableRecord
  2
01_1_DEFAULT_DATUMS
 70
0
 62
7
  6
CONTINUOUS
370
-3
390
F
  0
LAYER
  5
1FF
100
AcDbSymbolTableRecord
100
AcDbLayerTableRecord
  2
01_PLANES
 70
0
 62
7
  6
CONTINUOUS
370
-3
390
F
  0
LAYER
  5
200
100
AcDbSymbolTableRecord
100
AcDbLayerTableRecord
  2
02_COORD_SYS
 70
0
 62
7
  6
CONTINUOUS
370
-3
390
F
  0
LAYER
  5
201
100
AcDbSymbolTableRecord
100
AcDbLayerTableRecord
  2
03_AXES
 70
0
 62
7
  6
CONTINUOUS
370
-3
390
F
  0
LAYER
  5
202
100
AcDbSymbolTableRecord
100
AcDbLayerTableRecord
  2
04_POINTS
 70
0
 62
7
  6
CONTINUOUS
370
-3
390
F
  0
LAYER
  5
203
100
AcDbSymbolTableRecord
100
AcDbLayerTableRecord
  2
05_CURVES
 70
0
 62
7
  6
CONTINUOUS
370
-3
390
F
  0
LAYER
  5
204
100
AcDbSymbolTableRecord
100
AcDbLayerTableRecord
  2
06_SURFS
 70
0
 62
7
  6
CONTINUOUS
370
-3
390
F
  0
LAYER
  5
205
100
AcDbSymbolTableRecord
100
AcDbLayerTableRecord
  2
07_COSMETICS
 70
0
 62
7
  6
CONTINUOUS
370
-3
390
F
  0
LAYER
  5
206
100
AcDbSymbolTableRecord
100
AcDbLayerTableRecord
  2
10_NOTES
 70
0
 62
7
  6
CONTINUOUS
370
-3
390
F
  0
LAYER
  5
207
100
AcDbSymbolTableRecord
100
AcDbLayerTableRecord
  2
11_NOTES_PUB
 70
0
 62
7
  6
CONTINUOUS
370
-3
390
F
  0
LAYER
  5
208
100
AcDbSymbolTableRecord
100
AcDbLayerTableRecord
  2
13_REF_GTOL
 70
0
 62
7
  6
CONTINUOUS
370
-3
390
F
  0
LAYER
  5
209
100
AcDbSymbolTableRecord
100
AcDbLayerTableRecord
  2
16_MISC
 70
0
 62
7
  6
CONTINUOUS
370
-3
390
F
  0
LAYER
  5
20A
100
AcDbSymbolTableRecord
100
AcDbLayerTableRecord
  2
17_NO_PRINT
 70
0
 62
7
  6
CONTINUOUS
370
-3
390
F
  0
LAYER
  5
20B
100
AcDbSymbolTableRecord
100
AcDbLayerTableRecord
  2
18_DATUM_CAMS_JOINTS
 70
0
 62
7
  6
CONTINUOUS
370
-3
390
F
  0
LAYER
  5
20C
100
AcDbSymbolTableRecord
100
AcDbLayerTableRecord
  2
19_DATUM_FUNCTIONAL
 70
0
 62
7
  6
CONTINUOUS
370
-3
390
F
  0
LAYER
  5
20D
100
AcDbSymbolTableRecord
100
AcDbLayerTableRecord
  2
20_DATUM_KINEMATIC_SCHEME
 70
0
 62
7
  6
CONTINUOUS
370
-3
390
F
  0
ENDTAB
  0
TABLE
  2
STYLE
  5
3
100
AcDbSymbolTable
 70
1
  0
STYLE
  5
11
100
AcDbSymbolTableRecord
100
AcDbTextStyleTableRecord
  2
STANDARD
 70
0
 40
0.0
 41
1.0
 50
0.0
 71
0
 42
0.2
  3
ARIAL.TTF
  4

  0
STYLE
  5
20E
100
AcDbSymbolTableRecord
100
AcDbTextStyleTableRecord
  2
TEXTSTYLE_1
 70
0
 40
0.0
 41
0.8
 50
0.0
 71
0
 42
0.2
  3
gdt
  4

  0
ENDTAB
  0
TABLE
  2
VIEW
  5
6
100
AcDbSymbolTable
 70
0
  0
ENDTAB
  0
TABLE
  2
UCS
  5
7
100
AcDbSymbolTable
 70
0
  0
ENDTAB
  0
TABLE
  2
APPID
  5
9
100
AcDbSymbolTable
 70
1
  0
APPID
  5
20F
100
AcDbSymbolTableRecord
100
AcDbRegAppTableRecord
  2
ACAD
 70
0
  0
ENDTAB
  0
TABLE
  2
BLOCK_RECORD
  5
1
100
AcDbSymbolTable
 70
0
  0
BLOCK_RECORD
  5
210
100
AcDbSymbolTableRecord
100
AcDbBlockTableRecord
  2
*Model_Space
  0
BLOCK_RECORD
  5
211
100
AcDbSymbolTableRecord
100
AcDbBlockTableRecord
  2
*Paper_Space
  0
BLOCK_RECORD
  5
212
100
AcDbSymbolTableRecord
100
AcDbBlockTableRecord
  2
_FILLED
  0
ENDTAB
  0
TABLE
  2
DIMSTYLE
  5
A
100
AcDbSymbolTable
 70
1
100
AcDbDimStyleTable
 71
0
  0
DIMSTYLE
105
213
100
AcDbSymbolTableRecord
100
AcDbDimStyleTableRecord
  2
STANDARD
 70
0
  3

  4

 40
1.0
 41
0.7405345728
 42
1.0
 43
0.38
 44
1.0
 45
0.0
 46
0.0
 47
0.01
 48
0.01
140
1.0367484019
141
0.09
142
0.0
143
25.4
144
1.0
145
0.0
146
1.0
147
0.625
 71
1
 72
0
 73
0
 74
0
 75
0
 76
0
 77
1
 78
8
 79
2
170
0
171
1
172
0
173
0
174
0
175
0
176
0
177
0
178
0
270
2
179
2
271
2
272
2
273
2
274
2
275
0
280
0
281
0
282
0
283
1
284
8
285
0
286
0
287
3
288
0
340
11
278
46
341
212
342
212
343
212
344
212
  0
ENDTAB
  0
ENDSEC
  0
SECTION
  2
BLOCKS
  0
BLOCK
  5
20
100
AcDbEntity
  8
0
100
AcDbBlockBegin
  2
*Model_Space
 70
0
 10
0.0
 20
0.0
 30
0.0
  3
*Model_Space
  1

  0
ENDBLK
  5
21
100
AcDbEntity
  8
0
100
AcDbBlockEnd
  0
BLOCK
  5
1C
100
AcDbEntity
  8
0
100
AcDbBlockBegin
  2
*Paper_Space
 70
0
 10
0.0
 20
0.0
 30
0.0
  3
*Paper_Space
  1

  0
ENDBLK
  5
1D
100
AcDbEntity
  8
0
100
AcDbBlockEnd
  0
BLOCK
  5
214
100
AcDbEntity
  8
0
100
AcDbBlockBegin
  2
_FILLED
 70
64
 10
0.0
 20
0.0
  3
_FILLED
  1

  0
SOLID
  5
215
100
AcDbEntity
  8
0
  6
BYBLOCK
 62
0
100
AcDbTrace
 10
0.0
 20
0.0
 11
-1.0
 21
0.25
 12
-1.0
 22
-0.25
 13
-1.0
 23
-0.25
  0
ENDBLK
  5
216
100
AcDbEntity
  8
0
  6
BYBLOCK
 62
0
100
AcDbBlockEnd
  0
ENDSEC
  0
SECTION
  2
ENTITIES
  0
LINE
  5
217
100
AcDbEntity
  8
0
100
AcDbLine
 62
7
  6
BYLAYER
 10
46.0138981511
 20
7.053115942
 11
17.9139226283
 21
7.053115942
  0
LINE
  5
218
100
AcDbEntity
  8
0
100
AcDbLine
 62
7
  6
BYLAYER
 10
46.2139226283
 20
7.253115942
 11
33.1566086725
 21
7.253115942
  0
LINE
  5
219
100
AcDbEntity
  8
0
100
AcDbLine
 62
7
  6
BYLAYER
 10
30.7712365841
 20
7.253115942
 11
17.7139226283
 21
7.253115942
  0
LINE
  5
21A
100
AcDbEntity
  8
0
100
AcDbLine
 62
7
  6
BYLAYER
 10
33.1566086725
 20
13.553115942
 11
30.7712365841
 21
13.553115942
  0
LINE
  5
21B
100
AcDbEntity
  8
0
100
AcDbLine
 62
7
  6
BYLAYER
 10
26.6139226283
 20
79.753115942
 11
25.6139226283
 21
78.753115942
  0
LINE
  5
21C
100
AcDbEntity
  8
0
100
AcDbLine
 62
7
  6
BYLAYER
 10
17.1639226283
 20
20.053115942
 11
16.9639226283
 21
20.253115942
  0
LINE
  5
21D
100
AcDbEntity
  8
0
100
AcDbLine
 62
7
  6
BYLAYER
 10
18.4639226283
 20
67.653115942
 11
18.2639226283
 21
67.453115942
  0
LINE
  5
21E
100
AcDbEntity
  8
0
100
AcDbLine
 62
7
  6
BYLAYER
 10
18.2639226283
 20
61.153115942
 11
16.9639226283
 21
59.853115942
  0
LINE
  5
21F
100
AcDbEntity
  8
0
100
AcDbLine
 62
7
  6
BYLAYER
 10
46.7638870817
 20
20.053115942
 11
17.1639226283
 21
20.053115942
  0
LINE
  5
220
100
AcDbEntity
  8
0
100
AcDbLine
 62
7
  6
BYLAYER
 10
46.9639226283
 20
20.253115942
 11
16.9639226283
 21
20.253115942
  0
LINE
  5
221
100
AcDbEntity
  8
0
100
AcDbLine
 62
7
  6
BYLAYER
 10
49.9639226283
 20
25.053115942
 11
13.9639226283
 21
25.053115942
  0
LINE
  5
222
100
AcDbEntity
  8
0
100
AcDbLine
 62
7
  6
BYLAYER
 10
13.9639226283
 20
29.053115942
 11
13.9639226283
 21
25.053115942
  0
LINE
  5
223
100
AcDbEntity
  8
0
100
AcDbLine
 62
7
  6
BYLAYER
 10
13.9639226283
 20
33.053115942
 11
13.9639226283
 21
37.053115942
  0
LINE
  5
224
100
AcDbEntity
  8
0
100
AcDbLine
 62
7
  6
BYLAYER
 10
14.3969353302
 20
28.372746152
 11
14.3969353302
 21
25.7334857175
  0
LINE
  5
225
100
AcDbEntity
  8
0
100
AcDbLine
 62
7
  6
BYLAYER
 10
14.3969353302
 20
33.7334857211
 11
14.3969353302
 21
36.3727461629
  0
LINE
  5
226
100
AcDbEntity
  8
0
100
AcDbLine
 62
7
  6
BYLAYER
 10
37.3139226283
 20
72.603115942
 11
38.3139226283
 21
73.603115942
  0
LINE
  5
227
100
AcDbEntity
  8
0
100
AcDbLine
 62
7
  6
BYLAYER
 10
15.7125124668
 20
32.853115942
 11
15.6589226283
 21
33.053115942
  0
LINE
  5
228
100
AcDbEntity
  8
0
100
AcDbLine
 62
7
  6
BYLAYER
 10
16.9639226283
 20
20.253115942
 11
16.9639226283
 21
25.053115942
  0
LINE
  5
229
100
AcDbEntity
  8
0
100
AcDbLine
 62
7
  6
BYLAYER
 10
16.9639226283
 20
29.6999530847
 11
16.9639226283
 21
32.4062804408
  0
LINE
  5
22A
100
AcDbEntity
  8
0
100
AcDbLine
 62
7
  6
BYLAYER
 10
16.9639226283
 20
37.053115942
 11
16.9639226283
 21
59.853115942
  0
LINE
  5
22B
100
AcDbEntity
  8
0
100
AcDbLine
 62
7
  6
BYLAYER
 10
17.7139226283
 20
7.253115942
 11
17.7139226283
 21
20.053115942
  0
LINE
  5
22C
100
AcDbEntity
  8
0
100
AcDbLine
 62
7
  6
BYLAYER
 10
18.2639226283
 20
61.153115942
 11
18.2639226283
 21
64.553115942
  0
LINE
  5
22D
100
AcDbEntity
  8
0
100
AcDbLine
 62
7
  6
BYLAYER
 10
18.2639226283
 20
64.653115942
 11
18.2639226283
 21
67.453115942
  0
LINE
  5
22E
100
AcDbEntity
  8
0
100
AcDbLine
 62
7
  6
BYLAYER
 10
18.3139226283
 20
64.553115942
 11
18.3139226283
 21
64.653115942
  0
LINE
  5
22F
100
AcDbEntity
  8
0
100
AcDbLine
 62
7
  6
BYLAYER
 10
13.9639226283
 20
29.053115942
 11
49.9639226283
 21
29.053115942
  0
LINE
  5
230
100
AcDbEntity
  8
0
100
AcDbLine
 62
7
  6
BYLAYER
 10
15.8542445061
 20
29.753115942
 11
16.177352293
 21
29.753115942
  0
LINE
  5
231
100
AcDbEntity
  8
0
100
AcDbLine
 62
7
  6
BYLAYER
 10
16.1858108038
 20
29.753115942
 11
16.4357814048
 21
29.753115942
  0
LINE
  5
232
100
AcDbEntity
  8
0
100
AcDbLine
 62
7
  6
BYLAYER
 10
16.5325779994
 20
29.753115942
 11
16.8123890474
 21
29.753115942
  0
LINE
  5
233
100
AcDbEntity
  8
0
100
AcDbLine
 62
7
  6
BYLAYER
 10
16.9967870453
 20
29.753115942
 11
17.3043090094
 21
29.753115942
  0
LINE
  5
234
100
AcDbEntity
  8
0
100
AcDbLine
 62
7
  6
BYLAYER
 10
17.5749050304
 20
29.753115942
 11
17.9077974827
 21
29.753115942
  0
LINE
  5
235
100
AcDbEntity
  8
0
100
AcDbLine
 62
7
  6
BYLAYER
 10
18.2625321277
 20
29.753115942
 11
18.6182615557
 21
29.753115942
  0
LINE
  5
236
100
AcDbEntity
  8
0
100
AcDbLine
 62
7
  6
BYLAYER
 10
19.0544350798
 20
29.753115942
 11
19.4302941678
 21
29.753115942
  0
LINE
  5
237
100
AcDbEntity
  8
0
100
AcDbLine
 62
7
  6
BYLAYER
 10
19.9445870272
 20
29.753115942
 11
20.3377152605
 21
29.753115942
  0
LINE
  5
238
100
AcDbEntity
  8
0
100
AcDbLine
 62
7
  6
BYLAYER
 10
20.9262133759
 20
29.753115942
 11
21.3336188113
 21
29.753115942
  0
LINE
  5
239
100
AcDbEntity
  8
0
100
AcDbLine
 62
7
  6
BYLAYER
 10
21.9918433568
 20
29.753115942
 11
22.410425393
 21
29.753115942
  0
LINE
  5
23A
100
AcDbEntity
  8
0
100
AcDbLine
 62
7
  6
BYLAYER
 10
23.1333668823
 20
29.753115942
 11
23.5599398571
 21
29.753115942
  0
LINE
  5
23B
100
AcDbEntity
  8
0
100
AcDbLine
 62
7
  6
BYLAYER
 10
24.3420962691
 20
29.753115942
 11
24.7734137046
 21
29.753115942
  0
LINE
  5
23C
100
AcDbEntity
  8
0
100
AcDbLine
 62
7
  6
BYLAYER
 10
25.6088323566
 20
29.753115942
 11
26.0416116668
 21
29.753115942
  0
LINE
  5
23D
100
AcDbEntity
  8
0
100
AcDbLine
 62
7
  6
BYLAYER
 10
26.9239345184
 20
29.753115942
 11
27.3548819914
 21
29.753115942
  0
LINE
  5
23E
100
AcDbEntity
  8
0
100
AcDbLine
 62
7
  6
BYLAYER
 10
28.277394033
 20
29.753115942
 11
28.7032298983
 21
29.753115942
  0
LINE
  5
23F
100
AcDbEntity
  8
0
100
AcDbLine
 62
7
  6
BYLAYER
 10
29.6589102561
 20
29.753115942
 11
30.0763936456
 21
29.753115942
  0
LINE
  5
240
100
AcDbEntity
  8
0
100
AcDbLine
 62
7
  6
BYLAYER
 10
31.0579690152
 20
29.753115942
 11
31.4639226283
 21
29.753115942
  0
LINE
  5
241
100
AcDbEntity
  8
0
100
AcDbLine
 62
7
  6
BYLAYER
 10
32.4639226283
 20
29.753115942
 11
32.8698762414
 21
29.753115942
  0
LINE
  5
242
100
AcDbEntity
  8
0
100
AcDbLine
 62
7
  6
BYLAYER
 10
33.851451611
 20
29.753115942
 11
34.2689350005
 21
29.753115942
  0
LINE
  5
243
100
AcDbEntity
  8
0
100
AcDbLine
 62
7
  6
BYLAYER
 10
35.2246153583
 20
29.753115942
 11
35.6504512236
 21
29.753115942
  0
LINE
  5
244
100
AcDbEntity
  8
0
100
AcDbLine
 62
7
  6
BYLAYER
 10
36.5729632652
 20
29.753115942
 11
37.0039107382
 21
29.753115942
  0
LINE
  5
245
100
AcDbEntity
  8
0
100
AcDbLine
 62
7
  6
BYLAYER
 10
37.8862335897
 20
29.753115942
 11
38.3190129
 21
29.753115942
  0
LINE
  5
246
100
AcDbEntity
  8
0
100
AcDbLine
 62
7
  6
BYLAYER
 10
39.1544315519
 20
29.753115942
 11
39.5857489875
 21
29.753115942
  0
LINE
  5
247
100
AcDbEntity
  8
0
100
AcDbLine
 62
7
  6
BYLAYER
 10
40.3679053995
 20
29.753115942
 11
40.7944783743
 21
29.753115942
  0
LINE
  5
248
100
AcDbEntity
  8
0
100
AcDbLine
 62
7
  6
BYLAYER
 10
41.5174198636
 20
29.753115942
 11
41.9360018998
 21
29.753115942
  0
LINE
  5
249
100
AcDbEntity
  8
0
100
AcDbLine
 62
7
  6
BYLAYER
 10
42.5942264453
 20
29.753115942
 11
43.0016318807
 21
29.753115942
  0
LINE
  5
24A
100
AcDbEntity
  8
0
100
AcDbLine
 62
7
  6
BYLAYER
 10
43.5901299961
 20
29.753115942
 11
43.9832582294
 21
29.753115942
  0
LINE
  5
24B
100
AcDbEntity
  8
0
100
AcDbLine
 62
7
  6
BYLAYER
 10
44.4975510888
 20
29.753115942
 11
44.8734101768
 21
29.753115942
  0
LINE
  5
24C
100
AcDbEntity
  8
0
100
AcDbLine
 62
7
  6
BYLAYER
 10
45.3095837009
 20
29.753115942
 11
45.6653131289
 21
29.753115942
  0
LINE
  5
24D
100
AcDbEntity
  8
0
100
AcDbLine
 62
7
  6
BYLAYER
 10
46.0200477739
 20
29.753115942
 11
46.3529392917
 21
29.753115942
  0
LINE
  5
24E
100
AcDbEntity
  8
0
100
AcDbLine
 62
7
  6
BYLAYER
 10
46.6235362472
 20
29.753115942
 11
46.9310582113
 21
29.753115942
  0
LINE
  5
24F
100
AcDbEntity
  8
0
100
AcDbLine
 62
7
  6
BYLAYER
 10
47.1154562091
 20
29.753115942
 11
47.3952672572
 21
29.753115942
  0
LINE
  5
250
100
AcDbEntity
  8
0
100
AcDbLine
 62
7
  6
BYLAYER
 10
47.4920638518
 20
29.753115942
 11
47.7420344528
 21
29.753115942
  0
LINE
  5
251
100
AcDbEntity
  8
0
100
AcDbLine
 62
7
  6
BYLAYER
 10
47.7504929636
 20
29.753115942
 11
48.0736007505
 21
29.753115942
  0
LINE
  5
252
100
AcDbEntity
  8
0
100
AcDbLine
 62
7
  6
BYLAYER
 10
26.7931477032
 20
81.353115942
 11
26.5639226283
 21
80.053115942
  0
LINE
  5
253
100
AcDbEntity
  8
0
100
AcDbLine
 62
7
  6
BYLAYER
 10
15.7125124668
 20
29.253115942
 11
15.6589226283
 21
29.053115942
  0
LINE
  5
254
100
AcDbEntity
  8
0
100
AcDbLine
 62
7
  6
BYLAYER
 10
48.0736007505
 20
32.353115942
 11
47.7504929636
 21
32.353115942
  0
LINE
  5
255
100
AcDbEntity
  8
0
100
AcDbLine
 62
7
  6
BYLAYER
 10
47.7420344528
 20
32.353115942
 11
47.4920638518
 21
32.353115942
  0
LINE
  5
256
100
AcDbEntity
  8
0
100
AcDbLine
 62
7
  6
BYLAYER
 10
47.3952672572
 20
32.353115942
 11
47.1154562091
 21
32.353115942
  0
LINE
  5
257
100
AcDbEntity
  8
0
100
AcDbLine
 62
7
  6
BYLAYER
 10
46.9310582113
 20
32.353115942
 11
46.6235362472
 21
32.353115942
  0
LINE
  5
258
100
AcDbEntity
  8
0
100
AcDbLine
 62
7
  6
BYLAYER
 10
46.3529392917
 20
32.353115942
 11
46.0200477739
 21
32.353115942
  0
LINE
  5
259
100
AcDbEntity
  8
0
100
AcDbLine
 62
7
  6
BYLAYER
 10
45.6653131289
 20
32.353115942
 11
45.3095837009
 21
32.353115942
  0
LINE
  5
25A
100
AcDbEntity
  8
0
100
AcDbLine
 62
7
  6
BYLAYER
 10
44.8734101768
 20
32.353115942
 11
44.4975510888
 21
32.353115942
  0
LINE
  5
25B
100
AcDbEntity
  8
0
100
AcDbLine
 62
7
  6
BYLAYER
 10
43.9832582294
 20
32.353115942
 11
43.5901299961
 21
32.353115942
  0
LINE
  5
25C
100
AcDbEntity
  8
0
100
AcDbLine
 62
7
  6
BYLAYER
 10
43.0016318807
 20
32.353115942
 11
42.5942264453
 21
32.353115942
  0
LINE
  5
25D
100
AcDbEntity
  8
0
100
AcDbLine
 62
7
  6
BYLAYER
 10
41.9360018998
 20
32.353115942
 11
41.5174198636
 21
32.353115942
  0
LINE
  5
25E
100
AcDbEntity
  8
0
100
AcDbLine
 62
7
  6
BYLAYER
 10
40.7944783743
 20
32.353115942
 11
40.3679053995
 21
32.353115942
  0
LINE
  5
25F
100
AcDbEntity
  8
0
100
AcDbLine
 62
7
  6
BYLAYER
 10
39.5857489875
 20
32.353115942
 11
39.1544315519
 21
32.353115942
  0
LINE
  5
260
100
AcDbEntity
  8
0
100
AcDbLine
 62
7
  6
BYLAYER
 10
38.3190129
 20
32.353115942
 11
37.8862335897
 21
32.353115942
  0
LINE
  5
261
100
AcDbEntity
  8
0
100
AcDbLine
 62
7
  6
BYLAYER
 10
37.0039107382
 20
32.353115942
 11
36.5729632652
 21
32.353115942
  0
LINE
  5
262
100
AcDbEntity
  8
0
100
AcDbLine
 62
7
  6
BYLAYER
 10
35.6504512236
 20
32.353115942
 11
35.2246153583
 21
32.353115942
  0
LINE
  5
263
100
AcDbEntity
  8
0
100
AcDbLine
 62
7
  6
BYLAYER
 10
34.2689350005
 20
32.353115942
 11
33.851451611
 21
32.353115942
  0
LINE
  5
264
100
AcDbEntity
  8
0
100
AcDbLine
 62
7
  6
BYLAYER
 10
32.8698762414
 20
32.353115942
 11
32.4639226283
 21
32.353115942
  0
LINE
  5
265
100
AcDbEntity
  8
0
100
AcDbLine
 62
7
  6
BYLAYER
 10
31.4639226283
 20
32.353115942
 11
31.0579690152
 21
32.353115942
  0
LINE
  5
266
100
AcDbEntity
  8
0
100
AcDbLine
 62
7
  6
BYLAYER
 10
30.0763936456
 20
32.353115942
 11
29.6589102561
 21
32.353115942
  0
LINE
  5
267
100
AcDbEntity
  8
0
100
AcDbLine
 62
7
  6
BYLAYER
 10
28.7032298983
 20
32.353115942
 11
28.277394033
 21
32.353115942
  0
LINE
  5
268
100
AcDbEntity
  8
0
100
AcDbLine
 62
7
  6
BYLAYER
 10
27.3548819914
 20
32.353115942
 11
26.9239345184
 21
32.353115942
  0
LINE
  5
269
100
AcDbEntity
  8
0
100
AcDbLine
 62
7
  6
BYLAYER
 10
26.0416116668
 20
32.353115942
 11
25.6088323566
 21
32.353115942
  0
LINE
  5
26A
100
AcDbEntity
  8
0
100
AcDbLine
 62
7
  6
BYLAYER
 10
24.7734137046
 20
32.353115942
 11
24.3420962691
 21
32.353115942
  0
LINE
  5
26B
100
AcDbEntity
  8
0
100
AcDbLine
 62
7
  6
BYLAYER
 10
23.5599398571
 20
32.353115942
 11
23.1333668823
 21
32.353115942
  0
LINE
  5
26C
100
AcDbEntity
  8
0
100
AcDbLine
 62
7
  6
BYLAYER
 10
22.410425393
 20
32.353115942
 11
21.9918433568
 21
32.353115942
  0
LINE
  5
26D
100
AcDbEntity
  8
0
100
AcDbLine
 62
7
  6
BYLAYER
 10
21.3336188113
 20
32.353115942
 11
20.9262133759
 21
32.353115942
  0
LINE
  5
26E
100
AcDbEntity
  8
0
100
AcDbLine
 62
7
  6
BYLAYER
 10
20.3377152605
 20
32.353115942
 11
19.9445870272
 21
32.353115942
  0
LINE
  5
26F
100
AcDbEntity
  8
0
100
AcDbLine
 62
7
  6
BYLAYER
 10
19.4302941678
 20
32.353115942
 11
19.0544350798
 21
32.353115942
  0
LINE
  5
270
100
AcDbEntity
  8
0
100
AcDbLine
 62
7
  6
BYLAYER
 10
18.6182615557
 20
32.353115942
 11
18.2625321277
 21
32.353115942
  0
LINE
  5
271
100
AcDbEntity
  8
0
100
AcDbLine
 62
7
  6
BYLAYER
 10
17.9077974827
 20
32.353115942
 11
17.5749050304
 21
32.353115942
  0
LINE
  5
272
100
AcDbEntity
  8
0
100
AcDbLine
 62
7
  6
BYLAYER
 10
17.3043090094
 20
32.353115942
 11
16.9967870453
 21
32.353115942
  0
LINE
  5
273
100
AcDbEntity
  8
0
100
AcDbLine
 62
7
  6
BYLAYER
 10
16.8123890474
 20
32.353115942
 11
16.5325779994
 21
32.353115942
  0
LINE
  5
274
100
AcDbEntity
  8
0
100
AcDbLine
 62
7
  6
BYLAYER
 10
16.4357814048
 20
32.353115942
 11
16.1858108038
 21
32.353115942
  0
LINE
  5
275
100
AcDbEntity
  8
0
100
AcDbLine
 62
7
  6
BYLAYER
 10
16.177352293
 20
32.353115942
 11
15.8542445061
 21
32.353115942
  0
LINE
  5
276
100
AcDbEntity
  8
0
100
AcDbLine
 62
7
  6
BYLAYER
 10
49.9639226283
 20
33.053115942
 11
13.9639226283
 21
33.053115942
  0
LINE
  5
277
100
AcDbEntity
  8
0
100
AcDbLine
 62
7
  6
BYLAYER
 10
31.4639226283
 20
29.753115942
 11
31.9639226283
 21
29.253115942
  0
LINE
  5
278
100
AcDbEntity
  8
0
100
AcDbLine
 62
7
  6
BYLAYER
 10
32.4639226283
 20
32.353115942
 11
31.9639226283
 21
32.853115942
  0
LINE
  5
279
100
AcDbEntity
  8
0
100
AcDbLine
 62
7
  6
BYLAYER
 10
25.6139226283
 20
73.603115942
 11
25.6139226283
 21
78.753115942
  0
LINE
  5
27A
100
AcDbEntity
  8
0
100
AcDbLine
 62
7
  6
BYLAYER
 10
26.4639226283
 20
69.3532057524
 11
26.4639226283
 21
70.3530260448
  0
LINE
  5
27B
100
AcDbEntity
  8
0
100
AcDbLine
 62
7
  6
BYLAYER
 10
26.5639226283
 20
79.853115942
 11
26.5639226283
 21
80.053115942
  0
LINE
  5
27C
100
AcDbEntity
  8
0
100
AcDbLine
 62
7
  6
BYLAYER
 10
26.6139226283
 20
67.653115942
 11
26.6139226283
 21
69.353115942
  0
LINE
  5
27D
100
AcDbEntity
  8
0
100
AcDbLine
 62
7
  6
BYLAYER
 10
26.6139226283
 20
70.353115942
 11
26.6139226283
 21
72.603115942
  0
LINE
  5
27E
100
AcDbEntity
  8
0
100
AcDbLine
 62
7
  6
BYLAYER
 10
26.6139226283
 20
79.753115942
 11
26.6139226283
 21
79.853115942
  0
LINE
  5
27F
100
AcDbEntity
  8
0
100
AcDbLine
 62
7
  6
BYLAYER
 10
13.9639226283
 20
37.053115942
 11
49.9639226283
 21
37.053115942
  0
LINE
  5
280
100
AcDbEntity
  8
0
100
AcDbLine
 62
7
  6
BYLAYER
 10
30.7712365841
 20
7.253115942
 11
30.7712365841
 21
13.553115942
  0
LINE
  5
281
100
AcDbEntity
  8
0
100
AcDbLine
 62
7
  6
BYLAYER
 10
31.5309099264
 20
28.3727461514
 11
31.5309099264
 21
25.7334857326
  0
LINE
  5
282
100
AcDbEntity
  8
0
100
AcDbLine
 62
7
  6
BYLAYER
 10
31.5309099264
 20
33.7334857357
 11
31.5309099264
 21
36.3727461524
  0
LINE
  5
283
100
AcDbEntity
  8
0
100
AcDbLine
 62
7
  6
BYLAYER
 10
32.2237302494
 20
28.3467361633
 11
32.2237302494
 21
25.7594957168
  0
LINE
  5
284
100
AcDbEntity
  8
0
100
AcDbLine
 62
7
  6
BYLAYER
 10
32.2237302494
 20
33.7594957159
 11
32.2237302494
 21
36.3467361681
  0
LINE
  5
285
100
AcDbEntity
  8
0
100
AcDbLine
 62
7
  6
BYLAYER
 10
33.1566086725
 20
13.553115942
 11
33.1566086725
 21
7.253115942
  0
LINE
  5
286
100
AcDbEntity
  8
0
100
AcDbLine
 62
7
  6
BYLAYER
 10
37.3139226283
 20
67.653115942
 11
37.3139226283
 21
72.603115942
  0
LINE
  5
287
100
AcDbEntity
  8
0
100
AcDbLine
 62
7
  6
BYLAYER
 10
37.3139226283
 20
79.753115942
 11
37.3139226283
 21
79.853115942
  0
LINE
  5
288
100
AcDbEntity
  8
0
100
AcDbLine
 62
7
  6
BYLAYER
 10
37.3639226283
 20
79.853115942
 11
37.3639226283
 21
80.053115942
  0
LINE
  5
289
100
AcDbEntity
  8
0
100
AcDbLine
 62
7
  6
BYLAYER
 10
38.3139226283
 20
73.603115942
 11
38.3139226283
 21
78.753115942
  0
LINE
  5
28A
100
AcDbEntity
  8
0
100
AcDbLine
 62
7
  6
BYLAYER
 10
31.4639226283
 20
32.353115942
 11
31.9639226283
 21
32.853115942
  0
LINE
  5
28B
100
AcDbEntity
  8
0
100
AcDbLine
 62
7
  6
BYLAYER
 10
32.4639226283
 20
29.753115942
 11
31.9639226283
 21
29.253115942
  0
LINE
  5
28C
100
AcDbEntity
  8
0
100
AcDbLine
 62
7
  6
BYLAYER
 10
45.6139226283
 20
64.553115942
 11
45.6139226283
 21
64.653115942
  0
LINE
  5
28D
100
AcDbEntity
  8
0
100
AcDbLine
 62
7
  6
BYLAYER
 10
45.6639226283
 20
61.153115942
 11
45.6639226283
 21
64.553115942
  0
LINE
  5
28E
100
AcDbEntity
  8
0
100
AcDbLine
 62
7
  6
BYLAYER
 10
45.6639226283
 20
64.653115942
 11
45.6639226283
 21
67.453115942
  0
LINE
  5
28F
100
AcDbEntity
  8
0
100
AcDbLine
 62
7
  6
BYLAYER
 10
48.2153327898
 20
29.253115942
 11
48.2689226283
 21
29.053115942
  0
LINE
  5
290
100
AcDbEntity
  8
0
100
AcDbLine
 62
7
  6
BYLAYER
 10
37.1346975534
 20
81.353115942
 11
37.3639226283
 21
80.053115942
  0
LINE
  5
291
100
AcDbEntity
  8
0
100
AcDbLine
 62
7
  6
BYLAYER
 10
46.2139226283
 20
7.253115942
 11
46.2139226283
 21
20.053115942
  0
LINE
  5
292
100
AcDbEntity
  8
0
100
AcDbLine
 62
7
  6
BYLAYER
 10
46.9639226283
 20
20.253115942
 11
46.9639226283
 21
25.053115942
  0
LINE
  5
293
100
AcDbEntity
  8
0
100
AcDbLine
 62
7
  6
BYLAYER
 10
46.9639226283
 20
29.6999514433
 11
46.9639226283
 21
32.4062787993
  0
LINE
  5
294
100
AcDbEntity
  8
0
100
AcDbLine
 62
7
  6
BYLAYER
 10
46.9639226283
 20
37.053115942
 11
46.9639226283
 21
59.853115942
  0
LINE
  5
295
100
AcDbEntity
  8
0
100
AcDbLine
 62
7
  6
BYLAYER
 10
16.9639226283
 20
59.853115942
 11
46.9639226283
 21
59.853115942
  0
LINE
  5
296
100
AcDbEntity
  8
0
100
AcDbLine
 62
7
  6
BYLAYER
 10
26.6139226283
 20
72.603115942
 11
25.6139226283
 21
73.603115942
  0
LINE
  5
297
100
AcDbEntity
  8
0
100
AcDbLine
 62
7
  6
BYLAYER
 10
49.7041150072
 20
28.3467361642
 11
49.7041150072
 21
25.7594957199
  0
LINE
  5
298
100
AcDbEntity
  8
0
100
AcDbLine
 62
7
  6
BYLAYER
 10
49.7041150072
 20
33.7594957213
 11
49.7041150072
 21
36.3467361639
  0
LINE
  5
299
100
AcDbEntity
  8
0
100
AcDbLine
 62
7
  6
BYLAYER
 10
49.9639226283
 20
25.053115942
 11
49.9639226283
 21
29.053115942
  0
LINE
  5
29A
100
AcDbEntity
  8
0
100
AcDbLine
 62
7
  6
BYLAYER
 10
49.9639226283
 20
33.053115942
 11
49.9639226283
 21
37.053115942
  0
LINE
  5
29B
100
AcDbEntity
  8
0
100
AcDbLine
 62
7
  6
BYLAYER
 10
48.2153327898
 20
32.853115942
 11
48.2689226283
 21
33.053115942
  0
LINE
  5
29C
100
AcDbEntity
  8
0
100
AcDbLine
 62
7
  6
BYLAYER
 10
45.6639226283
 20
61.153115942
 11
18.2639226283
 21
61.153115942
  0
LINE
  5
29D
100
AcDbEntity
  8
0
100
AcDbLine
 62
7
  6
BYLAYER
 10
18.263995171
 20
64.553115942
 11
45.6638500856
 21
64.553115942
  0
LINE
  5
29E
100
AcDbEntity
  8
0
100
AcDbLine
 62
7
  6
BYLAYER
 10
45.6638027822
 20
64.653115942
 11
18.2639226283
 21
64.653115942
  0
LINE
  5
29F
100
AcDbEntity
  8
0
100
AcDbLine
 62
7
  6
BYLAYER
 10
45.6639226283
 20
61.153115942
 11
46.9639226283
 21
59.853115942
  0
LINE
  5
2A0
100
AcDbEntity
  8
0
100
AcDbLine
 62
7
  6
BYLAYER
 10
18.2639226283
 20
67.453115942
 11
45.6639226283
 21
67.453115942
  0
LINE
  5
2A1
100
AcDbEntity
  8
0
100
AcDbLine
 62
7
  6
BYLAYER
 10
18.463988796
 20
67.653115942
 11
45.4638501804
 21
67.653115942
  0
LINE
  5
2A2
100
AcDbEntity
  8
0
100
AcDbLine
 62
7
  6
BYLAYER
 10
46.7639226283
 20
20.053115942
 11
46.9639226283
 21
20.253115942
  0
LINE
  5
2A3
100
AcDbEntity
  8
0
100
AcDbLine
 62
7
  6
BYLAYER
 10
26.6139226283
 20
69.353115942
 11
26.4639226283
 21
69.353115942
  0
LINE
  5
2A4
100
AcDbEntity
  8
0
100
AcDbLine
 62
7
  6
BYLAYER
 10
26.6139226283
 20
70.353115942
 11
26.4639226283
 21
70.353115942
  0
LINE
  5
2A5
100
AcDbEntity
  8
0
100
AcDbLine
 62
7
  6
BYLAYER
 10
45.4639226283
 20
67.653115942
 11
45.6639226283
 21
67.453115942
  0
LINE
  5
2A6
100
AcDbEntity
  8
0
100
AcDbLine
 62
7
  6
BYLAYER
 10
26.6139226283
 20
72.603115942
 11
37.3139226283
 21
72.603115942
  0
LINE
  5
2A7
100
AcDbEntity
  8
0
100
AcDbLine
 62
7
  6
BYLAYER
 10
38.3139226283
 20
73.603115942
 11
25.6139226283
 21
73.603115942
  0
LINE
  5
2A8
100
AcDbEntity
  8
0
100
AcDbLine
 62
7
  6
BYLAYER
 10
37.3139226283
 20
79.753115942
 11
38.3139226283
 21
78.753115942
  0
LINE
  5
2A9
100
AcDbEntity
  8
0
100
AcDbLine
 62
7
  6
BYLAYER
 10
25.6139226283
 20
78.753115942
 11
38.3139226283
 21
78.753115942
  0
LINE
  5
2AA
100
AcDbEntity
  8
0
100
AcDbLine
 62
7
  6
BYLAYER
 10
37.3139226283
 20
79.753115942
 11
26.6139226283
 21
79.753115942
  0
LINE
  5
2AB
100
AcDbEntity
  8
0
100
AcDbLine
 62
7
  6
BYLAYER
 10
37.3638793906
 20
79.853115942
 11
26.5639226283
 21
79.853115942
  0
LINE
  5
2AC
100
AcDbEntity
  8
0
100
AcDbLine
 62
7
  6
BYLAYER
 10
26.5639226283
 20
80.053115942
 11
37.3639226283
 21
80.053115942
  0
LINE
  5
2AD
100
AcDbEntity
  8
0
100
AcDbLine
 62
7
  6
BYLAYER
 10
26.7931657813
 20
81.353115942
 11
37.1346794753
 21
81.353115942
  0
ARC
  5
2AE
100
AcDbEntity
  8
0
100
AcDbCircle
 62
7
  6
BYLAYER
 10
28.9921986659
 20
-48.4903949097
 40
76.9050551566
100
AcDbArc
 50
87.5917363261
 51
88.1082664671
  0
ARC
  5
2AF
100
AcDbEntity
  8
0
100
AcDbCircle
 62
7
  6
BYLAYER
 10
28.9921986659
 20
110.5966267932
 40
76.9050551561
100
AcDbArc
 50
271.8917335329
 51
272.4082636739
  0
ARC
  5
2B0
100
AcDbEntity
  8
0
100
AcDbCircle
 62
7
  6
BYLAYER
 10
28.9921988062
 20
-40.4903911742
 40
76.9050514186
100
AcDbArc
 50
87.5917363135
 51
88.1082664797
  0
ARC
  5
2B1
100
AcDbEntity
  8
0
100
AcDbCircle
 62
7
  6
BYLAYER
 10
28.9921988124
 20
102.596622893
 40
76.9050512532
100
AcDbArc
 50
271.8917335198
 51
272.408263687
  0
ARC
  5
2B2
100
AcDbEntity
  8
0
100
AcDbCircle
 62
7
  6
BYLAYER
 10
15.9876012509
 20
63.8321772786
 40
30.1406942777
100
AcDbArc
 50
266.1502036217
 51
266.9748273837
  0
ARC
  5
2B3
100
AcDbEntity
  8
0
100
AcDbCircle
 62
7
  6
BYLAYER
 10
15.9876012509
 20
-1.7259453943
 40
30.1406942775
100
AcDbArc
 50
93.0251726163
 51
93.8497963783
  0
ARC
  5
2B4
100
AcDbEntity
  8
0
100
AcDbCircle
 62
7
  6
BYLAYER
 10
15.987601047
 20
55.8321738838
 40
30.1406908769
100
AcDbArc
 50
266.1502035752
 51
266.9748274302
  0
ARC
  5
2B5
100
AcDbEntity
  8
0
100
AcDbCircle
 62
7
  6
BYLAYER
 10
15.987601043
 20
6.274058066
 40
30.140690811
100
AcDbArc
 50
93.0251725689
 51
93.8497964257
  0
ARC
  5
2B6
100
AcDbEntity
  8
0
100
AcDbCircle
 62
7
  6
BYLAYER
 10
50.9252719043
 20
44.646755192
 40
10.9555302464
100
AcDbArc
 50
263.6002334574
 51
264.9658127554
  0
ARC
  5
2B7
100
AcDbEntity
  8
0
100
AcDbCircle
 62
7
  6
BYLAYER
 10
50.9252719043
 20
17.4594766922
 40
10.9555302463
100
AcDbArc
 50
95.0341872446
 51
96.3997665426
  0
ARC
  5
2B8
100
AcDbEntity
  8
0
100
AcDbCircle
 62
7
  6
BYLAYER
 10
50.9252718999
 20
36.6467551477
 40
10.9555302019
100
AcDbArc
 50
263.6002334546
 51
264.9658127582
  0
ARC
  5
2B9
100
AcDbEntity
  8
0
100
AcDbCircle
 62
7
  6
BYLAYER
 10
50.9252718991
 20
25.4594767441
 40
10.9555301942
100
AcDbArc
 50
95.0341872413
 51
96.3997665459
  0
ARC
  5
2BA
100
AcDbEntity
  8
0
100
AcDbCircle
 62
7
  6
BYLAYER
 10
17.9139226283
 20
7.253115942
 40
0.2
100
AcDbArc
 50
180.0
 51
270.0
  0
ARC
  5
2BB
100
AcDbEntity
  8
0
100
AcDbCircle
 62
7
  6
BYLAYER
 10
46.0139226283
 20
7.253115942
 40
0.2
100
AcDbArc
 50
270.0
 51
360.0
  0
SPLINE
  5
2BC
100
AcDbEntity
  8
0
100
AcDbSpline
 62
7
  6
BYLAYER
 70
0
 71
3
 72
32
 73
28
 74
0
 42
0.0000001
 43
0.0000001
 44
0.0000000001
 40
0.0
 40
0.0
 40
0.0
 40
0.0
 40
0.0000757653
 40
0.000303316
 40
0.0006824317
 40
0.0012128637
 40
0.0027266693
 40
0.0048427124
 40
0.0075589692
 40
0.0108734149
 40
0.0147840245
 40
0.0192887731
 40
0.0300725867
 40
0.0432070283
 40
0.0586561406
 40
0.0763726472
 40
0.0963091342
 40
0.1184182307
 40
0.1689545307
 40
0.2274753743
 40
0.2934016878
 40
0.3661242508
 40
0.444913612
 40
0.5290111567
 40
0.6176338802
 40
0.8051491496
 40
1.0
 40
1.0
 40
1.0
 40
1.0
 10
26.6139693366
 20
69.3531159421
 30
0.0
 10
26.613956691
 20
69.3531158879
 30
0.0
 10
26.6139914328
 20
69.3531973678
 30
0.0
 10
26.6139704686
 20
69.353280976
 30
0.0
 10
26.6140034762
 20
69.3534870334
 30
0.0
 10
26.6140278963
 20
69.3538797119
 30
0.0
 10
26.6140964478
 20
69.3545790675
 30
0.0
 10
26.6141863442
 20
69.3556304419
 30
0.0
 10
26.6143085191
 20
69.3569862464
 30
0.0
 10
26.6144556447
 20
69.3586384121
 30
0.0
 10
26.6146301985
 20
69.3605885825
 30
0.0
 10
26.6149155932
 20
69.3637802238
 30
0.0
 10
26.6153379369
 20
69.3685054076
 30
0.0
 10
26.6159219741
 20
69.3750500309
 30
0.0
 10
26.6166033016
 20
69.3827477054
 30
0.0
 10
26.6173734844
 20
69.3915772413
 30
0.0
 10
26.6182243846
 20
69.4015155417
 30
0.0
 10
26.6195138689
 20
69.4169141276
 30
0.0
 10
26.621271659
 20
69.4387359654
 30
0.0
 10
26.6234657433
 20
69.4678593876
 30
0.0
 10
26.625733682
 20
69.5006902137
 30
0.0
 10
26.6279799778
 20
69.5369126951
 30
0.0
 10
26.6301337273
 20
69.5761786598
 30
0.0
 10
26.6321191266
 20
69.6181105875
 30
0.0
 10
26.6344960883
 20
69.6781896061
 30
0.0
 10
26.6366681771
 20
69.7567738582
 30
0.0
 10
26.6373382995
 20
69.8205941579
 30
0.0
 10
26.6373382995
 20
69.853115942
 30
0.0
  0
SPLINE
  5
2BD
100
AcDbEntity
  8
0
100
AcDbSpline
 62
7
  6
BYLAYER
 70
0
 71
3
 72
21
 73
17
 74
0
 42
0.0000001
 43
0.0000001
 44
0.0000000001
 40
0.0
 40
0.0
 40
0.0
 40
0.0
 40
0.0012557498
 40
0.0049154291
 40
0.0109711199
 40
0.0194149077
 40
0.0434292144
 40
0.0767262146
 40
0.1188947447
 40
0.1695022037
 40
0.2280256959
 40
0.2939038966
 40
0.4452198497
 40
0.6177908029
 40
0.8052226087
 40
1.0
 40
1.0
 40
1.0
 40
1.0
 10
26.4639226343
 20
69.3532134822
 30
0.0
 10
26.4639244025
 20
69.353423012
 30
0.0
 10
26.464036783
 20
69.3542380751
 30
0.0
 10
26.4641646943
 20
69.356063051
 30
0.0
 10
26.4644560239
 20
69.3590800419
 30
0.0
 10
26.4650128306
 20
69.3654818655
 30
0.0
 10
26.4659795995
 20
69.3764116208
 30
0.0
 10
26.4673826874
 20
69.3929515095
 30
0.0
 10
26.4690955537
 20
69.4139185957
 30
0.0
 10
26.4710512414
 20
69.4390889689
 30
0.0
 10
26.4731755436
 20
69.4682141774
 30
0.0
 10
26.4762681116
 20
69.5141171989
 30
0.0
 10
26.4800168983
 20
69.5790483282
 30
0.0
 10
26.48367095
 20
69.6642934443
 30
0.0
 10
26.4861189364
 20
69.7568371999
 30
0.0
 10
26.4866970532
 20
69.8206149388
 30
0.0
 10
26.4866970532
 20
69.853115942
 30
0.0
  0
SPLINE
  5
2BE
100
AcDbEntity
  8
0
100
AcDbSpline
 62
7
  6
BYLAYER
 70
0
 71
3
 72
32
 73
28
 74
0
 42
0.0000001
 43
0.0000001
 44
0.0000000001
 40
0.0
 40
0.0
 40
0.0
 40
0.0
 40
0.1948495463
 40
0.3823608754
 40
0.4709826447
 40
0.5550802313
 40
0.6338704586
 40
0.7065938162
 40
0.7725201251
 40
0.8310402775
 40
0.881575542
 40
0.9036843287
 40
0.9236207412
 40
0.9413374294
 40
0.9567869973
 40
0.9699221855
 40
0.9807070336
 40
0.98521237
 40
0.9891235897
 40
0.9924386486
 40
0.9951555028
 40
0.9972721078
 40
0.9987864194
 40
0.9993170765
 40
0.9996963939
 40
0.9999241175
 40
1.0
 40
1.0
 40
1.0
 40
1.0
 10
26.637338303
 20
69.853115942
 30
0.0
 10
26.637338303
 20
69.8856378675
 30
0.0
 10
26.6367412595
 20
69.9494583355
 30
0.0
 10
26.6346032817
 20
70.02804405
 30
0.0
 10
26.6321981628
 20
70.088121846
 30
0.0
 10
26.6301813498
 20
70.1300527543
 30
0.0
 10
26.6279943799
 20
70.1693176
 30
0.0
 10
26.6257245409
 20
70.2055392547
 30
0.0
 10
26.623454325
 20
70.2383702643
 30
0.0
 10
26.6212699505
 20
70.2674944359
 30
0.0
 10
26.6195216941
 20
70.2893169449
 30
0.0
 10
26.6182360914
 20
70.3047157903
 30
0.0
 10
26.617386381
 20
70.3146542698
 30
0.0
 10
26.6166156719
 20
70.3234839532
 30
0.0
 10
26.615932061
 20
70.3311817437
 30
0.0
 10
26.6153438612
 20
70.3377264424
 30
0.0
 10
26.6149163425
 20
70.3424516104
 30
0.0
 10
26.6146261884
 20
70.3456432326
 30
0.0
 10
26.6144481756
 20
70.3475934149
 30
0.0
 10
26.614297634
 20
70.3492455979
 30
0.0
 10
26.6141720963
 20
70.3506014038
 30
0.0
 10
26.6140792811
 20
70.3516528232
 30
0.0
 10
26.6140079768
 20
70.3523521205
 30
0.0
 10
26.6139821455
 20
70.3527448817
 30
0.0
 10
26.6139473789
 20
70.3529508132
 30
0.0
 10
26.6139687237
 20
70.353034663
 30
0.0
 10
26.6139320498
 20
70.353115918
 30
0.0
 10
26.6139447152
 20
70.353115942
 30
0.0
  0
SPLINE
  5
2BF
100
AcDbEntity
  8
0
100
AcDbSpline
 62
7
  6
BYLAYER
 70
0
 71
3
 72
19
 73
15
 74
0
 42
0.0000001
 43
0.0000001
 44
0.0000000001
 40
0.0
 40
0.0
 40
0.0
 40
0.0
 40
0.1948046042
 40
0.3823524271
 40
0.7064941135
 40
0.8307283511
 40
0.881328865
 40
0.9235842209
 40
0.9569520941
 40
0.9809180122
 40
0.9893000304
 40
0.9952764863
 40
0.998844202
 40
1.0
 40
1.0
 40
1.0
 40
1.0
 10
26.4866970532
 20
69.853115942
 30
0.0
 10
26.4866970532
 20
69.8856212327
 30
0.0
 10
26.4861073064
 20
69.9494220758
 30
0.0
 10
26.4830080526
 20
70.0672737775
 30
0.0
 10
26.4777497222
 20
70.1732628074
 30
0.0
 10
26.471906838
 20
70.2563358196
 30
0.0
 10
26.4690969072
 20
70.2924305379
 30
0.0
 10
26.4673839987
 20
70.3134667752
 30
0.0
 10
26.4659845197
 20
70.3299090022
 30
0.0
 10
26.4650144181
 20
70.341074723
 30
0.0
 10
26.4644609505
 20
70.347118235
 30
0.0
 10
26.4641606225
 20
70.3506308429
 30
0.0
 10
26.4640470719
 20
70.3514731448
 30
0.0
 10
26.4639210041
 20
70.3532111613
 30
0.0
 10
26.4639226344
 20
70.3530183105
 30
0.0
  0
SPLINE
  5
2C0
100
AcDbEntity
  8
0
100
AcDbSpline
 62
7
  6
BYLAYER
 70
0
 71
3
 72
11
 73
7
 74
0
 42
0.0000001
 43
0.0000001
 44
0.0000000001
 40
0.0
 40
0.0
 40
0.0
 40
0.0
 40
0.2497549229
 40
0.4996214883
 40
0.7496870718
 40
1.0
 40
1.0
 40
1.0
 40
1.0
 10
40.963928314
 20
33.0531159756
 30
0.0
 10
40.2332615751
 20
33.0531158648
 30
0.0
 10
38.7714105541
 20
33.0851139881
 30
0.0
 10
36.5821171804
 20
33.2258792299
 30
0.0
 10
34.3983692928
 20
33.4511693539
 30
0.0
 10
32.947787294
 20
33.6499351505
 30
0.0
 10
32.2237302494
 20
33.7594957206
 30
0.0
  0
SPLINE
  5
2C1
100
AcDbEntity
  8
0
100
AcDbSpline
 62
7
  6
BYLAYER
 70
0
 71
3
 72
10
 73
6
 74
0
 42
0.0000001
 43
0.0000001
 44
0.0000000001
 40
0.0
 40
0.0
 40
0.0
 40
0.0
 40
0.5003306234
 40
0.7502191514
 40
1.0
 40
1.0
 40
1.0
 40
1.0
 10
31.5309099264
 20
33.7334857357
 30
0.0
 10
30.1121470239
 20
33.5220656974
 30
0.0
 10
27.9746610805
 20
33.2642901334
 30
0.0
 10
25.1127745063
 20
33.0838343294
 30
0.0
 10
23.6800406285
 20
33.053116034
 30
0.0
 10
22.963928361
 20
33.0531159742
 30
0.0
  0
SPLINE
  5
2C2
100
AcDbEntity
  8
0
100
AcDbSpline
 62
7
  6
BYLAYER
 70
0
 71
3
 72
10
 73
6
 74
0
 42
0.0000001
 43
0.0000001
 44
0.0000000001
 40
0.0
 40
0.0
 40
0.0
 40
0.0
 40
0.5003455877
 40
0.7502292341
 40
1.0
 40
1.0
 40
1.0
 40
1.0
 10
32.2237302494
 20
36.3467361672
 30
0.0
 10
33.6709330901
 20
36.5657194218
 30
0.0
 10
35.851450574
 20
36.833395033
 30
0.0
 10
38.7713993911
 20
37.0211272001
 30
0.0
 10
40.2332662025
 20
37.0531159955
 30
0.0
 10
40.9639285293
 20
37.0531159063
 30
0.0
  0
SPLINE
  5
2C3
100
AcDbEntity
  8
0
100
AcDbSpline
 62
7
  6
BYLAYER
 70
0
 71
3
 72
10
 73
6
 74
0
 42
0.0000001
 43
0.0000001
 44
0.0000000001
 40
0.0
 40
0.0
 40
0.0
 40
0.0
 40
0.2497808308
 40
0.4996693435
 40
1.0
 40
1.0
 40
1.0
 40
1.0
 10
22.9639285293
 20
37.0531159063
 30
0.0
 10
23.6800407475
 20
37.0531158241
 30
0.0
 10
25.112774281
 20
37.0223917215
 30
0.0
 10
27.9746620282
 20
36.8419543639
 30
0.0
 10
30.1121469265
 20
36.5841662048
 30
0.0
 10
31.5309099264
 20
36.3727461524
 30
0.0
  0
SPLINE
  5
2C4
100
AcDbEntity
  8
0
100
AcDbSpline
 62
7
  6
BYLAYER
 70
0
 71
3
 72
10
 73
6
 74
0
 42
0.0000001
 43
0.0000001
 44
0.0000000001
 40
0.0
 40
0.0
 40
0.0
 40
0.0
 40
0.5003306227
 40
0.750219137
 40
1.0
 40
1.0
 40
1.0
 40
1.0
 10
14.3969353302
 20
36.3727461665
 30
0.0
 10
15.815700075
 20
36.5841664767
 30
0.0
 10
17.9531883864
 20
36.8419511483
 30
0.0
 10
20.8150800382
 20
37.0223805964
 30
0.0
 10
22.2478152898
 20
37.0531159918
 30
0.0
 10
22.9639285293
 20
37.0531159063
 30
0.0
  0
SPLINE
  5
2C5
100
AcDbEntity
  8
0
100
AcDbSpline
 62
7
  6
BYLAYER
 70
0
 71
3
 72
10
 73
6
 74
0
 42
0.0000001
 43
0.0000001
 44
0.0000000001
 40
0.0
 40
0.0
 40
0.0
 40
0.0
 40
0.24978085
 40
0.4996693784
 40
1.0
 40
1.0
 40
1.0
 40
1.0
 10
22.963928361
 20
33.0531159742
 30
0.0
 10
22.2478151409
 20
33.053115871
 30
0.0
 10
20.8150794072
 20
33.0838359555
 30
0.0
 10
17.9531888891
 20
33.264288945
 30
0.0
 10
15.8157001073
 20
33.5220654157
 30
0.0
 10
14.3969353302
 20
33.733485732
 30
0.0
  0
SPLINE
  5
2C6
100
AcDbEntity
  8
0
100
AcDbSpline
 62
7
  6
BYLAYER
 70
0
 71
3
 72
10
 73
6
 74
0
 42
0.0000001
 43
0.0000001
 44
0.0000000001
 40
0.0
 40
0.0
 40
0.0
 40
0.0
 40
0.2497722834
 40
0.4996562696
 40
1.0
 40
1.0
 40
1.0
 40
1.0
 10
40.9639285293
 20
37.0531159063
 30
0.0
 10
41.6945942779
 20
37.0531158228
 30
0.0
 10
43.1564645416
 20
37.0211250985
 30
0.0
 10
46.0764084814
 20
36.8333829898
 30
0.0
 10
48.2569195541
 20
36.565718301
 30
0.0
 10
49.7041150072
 20
36.3467361639
 30
0.0
  0
SPLINE
  5
2C7
100
AcDbEntity
  8
0
100
AcDbSpline
 62
7
  6
BYLAYER
 70
0
 71
3
 72
10
 73
6
 74
0
 42
0.0000001
 43
0.0000001
 44
0.0000000001
 40
0.0
 40
0.0
 40
0.0
 40
0.0
 40
0.5003455877
 40
0.7502292343
 40
1.0
 40
1.0
 40
1.0
 40
1.0
 10
49.7041150072
 20
33.7594957213
 30
0.0
 10
48.2569140763
 20
33.5405127553
 30
0.0
 10
46.0763994869
 20
33.2728373986
 30
0.0
 10
43.1564545503
 20
33.0851051242
 30
0.0
 10
41.6945896762
 20
33.0531160076
 30
0.0
 10
40.963928314
 20
33.0531159756
 30
0.0
  0
SPLINE
  5
2C8
100
AcDbEntity
  8
0
100
AcDbSpline
 62
7
  6
BYLAYER
 70
0
 71
3
 72
10
 73
6
 74
0
 42
0.0000001
 43
0.0000001
 44
0.0000000001
 40
0.0
 40
0.0
 40
0.0
 40
0.0
 40
0.5003455877
 40
0.7502292343
 40
1.0
 40
1.0
 40
1.0
 40
1.0
 10
49.7041150072
 20
25.7594957201
 30
0.0
 10
48.2569141117
 20
25.5405127595
 30
0.0
 10
46.0763995759
 20
25.2728374219
 30
0.0
 10
43.1564547115
 20
25.0851051111
 30
0.0
 10
41.6945898735
 20
25.0531160597
 30
0.0
 10
40.9639285293
 20
25.0531159777
 30
0.0
  0
SPLINE
  5
2C9
100
AcDbEntity
  8
0
100
AcDbSpline
 62
7
  6
BYLAYER
 70
0
 71
3
 72
10
 73
6
 74
0
 42
0.0000001
 43
0.0000001
 44
0.0000000001
 40
0.0
 40
0.0
 40
0.0
 40
0.0
 40
0.2497808651
 40
0.4996693803
 40
1.0
 40
1.0
 40
1.0
 40
1.0
 10
22.9639285293
 20
25.0531159777
 30
0.0
 10
22.2478152838
 20
25.0531158922
 30
0.0
 10
20.8150800234
 20
25.0838512839
 30
0.0
 10
17.9531883714
 20
25.2642807346
 30
0.0
 10
15.8157000665
 20
25.5220654086
 30
0.0
 10
14.3969353302
 20
25.7334857175
 30
0.0
  0
SPLINE
  5
2CA
100
AcDbEntity
  8
0
100
AcDbSpline
 62
7
  6
BYLAYER
 70
0
 71
3
 72
10
 73
6
 74
0
 42
0.0000001
 43
0.0000001
 44
0.0000000001
 40
0.0
 40
0.0
 40
0.0
 40
0.0
 40
0.5003455877
 40
0.7502292341
 40
1.0
 40
1.0
 40
1.0
 40
1.0
 10
32.2237302494
 20
28.3467361633
 30
0.0
 10
33.6709330702
 20
28.565719415
 30
0.0
 10
35.8514505234
 20
28.8333950406
 30
0.0
 10
38.7713993
 20
29.0211271746
 30
0.0
 10
40.2332660912
 20
29.0531160427
 30
0.0
 10
40.9639284079
 20
29.0531159084
 30
0.0
  0
SPLINE
  5
2CB
100
AcDbEntity
  8
0
100
AcDbSpline
 62
7
  6
BYLAYER
 70
0
 71
3
 72
10
 73
6
 74
0
 42
0.0000001
 43
0.0000001
 44
0.0000000001
 40
0.0
 40
0.0
 40
0.0
 40
0.0
 40
0.2497808507
 40
0.4996693796
 40
1.0
 40
1.0
 40
1.0
 40
1.0
 10
22.963928361
 20
29.0531159099
 30
0.0
 10
23.6800406345
 20
29.05311585
 30
0.0
 10
25.112774521
 20
29.0223975582
 30
0.0
 10
27.9746610953
 20
28.8419417512
 30
0.0
 10
30.1121470324
 20
28.5841661854
 30
0.0
 10
31.5309099264
 20
28.3727461483
 30
0.0
  0
SPLINE
  5
2CC
100
AcDbEntity
  8
0
100
AcDbSpline
 62
7
  6
BYLAYER
 70
0
 71
3
 72
10
 73
6
 74
0
 42
0.0000001
 43
0.0000001
 44
0.0000000001
 40
0.0
 40
0.0
 40
0.0
 40
0.0
 40
0.2497723115
 40
0.4996562631
 40
1.0
 40
1.0
 40
1.0
 40
1.0
 10
40.9639285293
 20
25.0531159777
 30
0.0
 10
40.2332617751
 20
25.0531158901
 30
0.0
 10
38.7713904983
 20
25.0851342882
 30
0.0
 10
35.851440591
 20
25.2728332213
 30
0.0
 10
33.6709275509
 20
25.5405133005
 30
0.0
 10
32.2237302494
 20
25.7594957168
 30
0.0
  0
SPLINE
  5
2CD
100
AcDbEntity
  8
0
100
AcDbSpline
 62
7
  6
BYLAYER
 70
0
 71
3
 72
10
 73
6
 74
0
 42
0.0000001
 43
0.0000001
 44
0.0000000001
 40
0.0
 40
0.0
 40
0.0
 40
0.0
 40
0.50033066
 40
0.7502191717
 40
1.0
 40
1.0
 40
1.0
 40
1.0
 10
31.5309099264
 20
25.7334857316
 30
0.0
 10
30.1121469165
 20
25.5220656778
 30
0.0
 10
27.9746620111
 20
25.2642775203
 30
0.0
 10
25.112774264
 20
25.0838401609
 30
0.0
 10
23.6800407406
 20
25.05311606
 30
0.0
 10
22.9639285293
 20
25.0531159777
 30
0.0
  0
SPLINE
  5
2CE
100
AcDbEntity
  8
0
100
AcDbSpline
 62
7
  6
BYLAYER
 70
0
 71
3
 72
11
 73
7
 74
0
 42
0.0000001
 43
0.0000001
 44
0.0000000001
 40
0.0
 40
0.0
 40
0.0
 40
0.0
 40
0.2497549235
 40
0.4996214901
 40
0.7496870759
 40
1.0
 40
1.0
 40
1.0
 40
1.0
 10
40.9639284079
 20
29.0531159084
 30
0.0
 10
41.6945941979
 20
29.053115853
 30
0.0
 10
43.1564433862
 20
29.0211201735
 30
0.0
 10
45.3457337777
 20
28.8803518969
 30
0.0
 10
47.5294786492
 20
28.6550609859
 30
0.0
 10
48.9800589163
 20
28.4562965887
 30
0.0
 10
49.7041150072
 20
28.3467361628
 30
0.0
  0
SPLINE
  5
2CF
100
AcDbEntity
  8
0
100
AcDbSpline
 62
7
  6
BYLAYER
 70
0
 71
3
 72
10
 73
6
 74
0
 42
0.0000001
 43
0.0000001
 44
0.0000000001
 40
0.0
 40
0.0
 40
0.0
 40
0.0
 40
0.5003306246
 40
0.7502191521
 40
1.0
 40
1.0
 40
1.0
 40
1.0
 10
14.3969353302
 20
28.372746152
 30
0.0
 10
15.8157001159
 20
28.5841664696
 30
0.0
 10
17.953188904
 20
28.8419429393
 30
0.0
 10
20.8150794221
 20
29.0223959245
 30
0.0
 10
22.2478151469
 20
29.053116013
 30
0.0
 10
22.963928361
 20
29.0531159099
 30
0.0
  0
SPLINE
  5
2D0
100
AcDbEntity
  8
0
100
AcDbSpline
 62
7
  6
BYLAYER
 70
0
 71
3
 72
45
 73
41
 74
0
 42
0.0000001
 43
0.0000001
 44
0.0000000001
 40
0.0
 40
0.0
 40
0.0
 40
0.0
 40
0.0038861776
 40
0.0077901222
 40
0.0116961748
 40
0.0156030127
 40
0.023413343
 40
0.0312256036
 40
0.0468483823
 40
0.0624734248
 40
0.0780990979
 40
0.0937250011
 40
0.1249759669
 40
0.1562276246
 40
0.1874795613
 40
0.2187316281
 40
0.249983769
 40
0.3124874373
 40
0.3749914402
 40
0.4374956022
 40
0.4999998454
 40
0.5625041368
 40
0.6250083644
 40
0.6875124092
 40
0.7500161102
 40
0.7812682617
 40
0.8125203373
 40
0.8437722801
 40
0.8750239418
 40
0.9062749089
 40
0.9219008122
 40
0.9375264852
 40
0.953151528
 40
0.9687743076
 40
0.9765865676
 40
0.984396901
 40
0.9883037431
 40
0.9922097998
 40
0.9961138171
 40
1.0
 40
1.0
 40
1.0
 40
1.0
 10
30.7712365841
 20
7.253115942
 30
0.0
 10
30.7712365841
 20
7.2499632146
 30
0.0
 10
30.773197165
 20
7.243616252
 30
0.0
 10
30.779340175
 20
7.236256983
 30
0.0
 10
30.7867229479
 20
7.2302200367
 30
0.0
 10
30.7974401255
 20
7.2234183964
 30
0.0
 10
30.8117270125
 20
7.2164796763
 30
0.0
 10
30.8353646792
 20
7.2072934412
 30
0.0
 10
30.8657455792
 20
7.1981463235
 30
0.0
 10
30.9027159893
 20
7.1892145314
 30
0.0
 10
30.9399965994
 20
7.181667159
 30
0.0
 10
30.9899510488
 20
7.1729454109
 30
0.0
 10
31.0527095386
 20
7.163969554
 30
0.0
 10
31.1282742021
 20
7.1552542446
 30
0.0
 10
31.2039996988
 20
7.1480743325
 30
0.0
 10
31.2798283637
 20
7.1420983209
 30
0.0
 10
31.3810271372
 20
7.135449118
 30
0.0
 10
31.5076506766
 20
7.1292102547
 30
0.0
 10
31.6596976384
 20
7.1242632621
 30
0.0
 10
31.8117985057
 20
7.1214407053
 30
0.0
 10
31.9639222968
 20
7.1205220984
 30
0.0
 10
32.1160461413
 20
7.1214406583
 30
0.0
 10
32.2681471358
 20
7.124263214
 30
0.0
 10
32.420194207
 20
7.1292103133
 30
0.0
 10
32.5468178219
 20
7.1354490507
 30
0.0
 10
32.6480166348
 20
7.1420983011
 30
0.0
 10
32.7238453209
 20
7.1480743067
 30
0.0
 10
32.799570832
 20
7.1552542283
 30
0.0
 10
32.8751355059
 20
7.1639695275
 30
0.0
 10
32.9378940011
 20
7.1729453782
 30
0.0
 10
32.9878484524
 20
7.1816671209
 30
0.0
 10
33.0251290642
 20
7.1892144876
 30
0.0
 10
33.0620994747
 20
7.1981462781
 30
0.0
 10
33.0924803865
 20
7.2072933621
 30
0.0
 10
33.1161180514
 20
7.2164796077
 30
0.0
 10
33.1304049587
 20
7.2234182976
 30
0.0
 10
33.141122154
 20
7.2302199267
 30
0.0
 10
33.1485050094
 20
7.2362568719
 30
0.0
 10
33.154648092
 20
7.2436161802
 30
0.0
 10
33.1566086725
 20
7.2499632103
 30
0.0
 10
33.1566086725
 20
7.253115942
 30
0.0
  0
ELLIPSE
  5
2D1
100
AcDbEntity
  8
0
100
AcDbEllipse
 62
7
  6
BYLAYER
 10
25.3737210431
 20
26.2377408574
 30
0.0
 11
18.1514209571
 21
18.1605909673
 31
0.0
 40
0.0406765142
 41
1.2401461389
 42
1.2682738639
  0
ELLIPSE
  5
2D2
100
AcDbEntity
  8
0
100
AcDbEllipse
 62
7
  6
BYLAYER
 10
30.8151748003
 20
26.2377408574
 30
0.0
 11
10.9958379272
 21
15.791979517
 31
0.0
 40
0.818317629
 41
-4.5381463488
 42
-4.5376361753
  0
ELLIPSE
  5
2D3
100
AcDbEntity
  8
0
100
AcDbEllipse
 62
7
  6
BYLAYER
 10
30.2517375659
 20
26.2377408574
 30
0.0
 11
12.3580633753
 21
15.6563003942
 31
0.0
 40
0.7470541823
 41
1.755413405
 42
1.7604339261
  0
ELLIPSE
  5
2D4
100
AcDbEntity
  8
0
100
AcDbEllipse
 62
7
  6
BYLAYER
 10
29.7013310937
 20
26.2377408574
 30
0.0
 11
13.3023954138
 21
15.7703479229
 31
0.0
 40
0.6792721423
 41
1.7395026584
 42
1.7479481052
  0
ELLIPSE
  5
2D5
100
AcDbEntity
  8
0
100
AcDbEllipse
 62
7
  6
BYLAYER
 10
29.1681443093
 20
26.2377408574
 30
0.0
 11
14.0585338956
 21
15.9844133441
 31
0.0
 40
0.6154007239
 41
-4.5706155829
 42
-4.5594411901
  0
ELLIPSE
  5
2D6
100
AcDbEntity
  8
0
100
AcDbEllipse
 62
7
  6
BYLAYER
 10
28.656235086
 20
26.2377408574
 30
0.0
 11
14.7051040421
 21
16.2385436118
 31
0.0
 40
0.5552272381
 41
-4.6030939231
 42
-4.5896631569
  0
ELLIPSE
  5
2D7
100
AcDbEntity
  8
0
100
AcDbEllipse
 62
7
  6
BYLAYER
 10
28.1694993621
 20
26.2377408574
 30
0.0
 11
15.274965845
 21
16.5043969512
 31
0.0
 40
0.4983942514
 41
-4.63871335
 42
-4.6233600039
  0
ELLIPSE
  5
2D8
100
AcDbEntity
  8
0
100
AcDbEllipse
 62
7
  6
BYLAYER
 10
27.7116414905
 20
26.2377408574
 30
0.0
 11
15.7835371161
 21
16.766803626
 31
0.0
 40
0.4445239339
 41
-4.6762656208
 42
-4.6592307362
  0
ELLIPSE
  5
2D9
100
AcDbEntity
  8
0
100
AcDbEllipse
 62
7
  6
BYLAYER
 10
27.2861460459
 20
26.2377408574
 30
0.0
 11
16.2384907108
 21
17.0168501026
 31
0.0
 40
0.3932536107
 41
1.5681045669
 42
1.5866441138
  0
ELLIPSE
  5
2DA
100
AcDbEntity
  8
0
100
AcDbEllipse
 62
7
  6
BYLAYER
 10
26.8962513056
 20
26.2377408574
 30
0.0
 11
16.6436838349
 21
17.2489119491
 31
0.0
 40
0.3442450777
 41
1.5284256265
 42
1.5483400703
  0
ELLIPSE
  5
2DB
100
AcDbEntity
  8
0
100
AcDbEllipse
 62
7
  6
BYLAYER
 10
26.544924604
 20
26.2377408574
 30
0.0
 11
17.0009614673
 21
17.4592414022
 31
0.0
 40
0.2971852239
 41
1.4881351505
 42
1.5093298802
  0
ELLIPSE
  5
2DC
100
AcDbEntity
  8
0
100
AcDbEllipse
 62
7
  6
BYLAYER
 10
26.2348397495
 20
26.2377408574
 30
0.0
 11
17.311068251
 21
17.6452378715
 31
0.0
 40
0.2517837063
 41
1.447560264
 42
1.4698078979
  0
ELLIPSE
  5
2DD
100
AcDbEntity
  8
0
100
AcDbEllipse
 62
7
  6
BYLAYER
 10
25.968356675
 20
26.2377408574
 30
0.0
 11
17.5741469284
 21
17.8050458869
 31
0.0
 40
0.2077697388
 41
1.4065581876
 42
1.4299111685
  0
ELLIPSE
  5
2DE
100
AcDbEntity
  8
0
100
AcDbEllipse
 62
7
  6
BYLAYER
 10
25.7475034776
 20
26.2377408574
 30
0.0
 11
17.7900285404
 21
17.9373217495
 31
0.0
 40
0.1648887629
 41
1.3652388603
 42
1.3897401552
  0
ELLIPSE
  5
2DF
100
AcDbEntity
  8
0
100
AcDbEllipse
 62
7
  6
BYLAYER
 10
25.5739609835
 20
26.2377408574
 30
0.0
 11
17.9584099181
 21
18.0410926156
 31
0.0
 40
0.1228992729
 41
1.3236867023
 42
1.3493714145
  0
ELLIPSE
  5
2E0
100
AcDbEntity
  8
0
100
AcDbEllipse
 62
7
  6
BYLAYER
 10
25.4490499559
 20
26.2377408574
 30
0.0
 11
18.0789658936
 21
18.1156691418
 31
0.0
 40
0.0815698667
 41
1.2819697374
 42
1.3088657657
  0
ELLIPSE
  5
2E1
100
AcDbEntity
  8
0
100
AcDbEllipse
 62
7
  6
BYLAYER
 10
27.3438171861
 20
37.5444939577
 30
0.0
 11
-17.4274961419
 21
17.4466624083
 31
0.0
 40
0.0843354388
 41
-4.5251695758
 42
-4.4954004319
  0
ELLIPSE
  5
2E2
100
AcDbEntity
  8
0
100
AcDbEllipse
 62
7
  6
BYLAYER
 10
27.432399442
 20
37.5444939577
 30
0.0
 11
-17.326459176
 21
17.3696482286
 31
0.0
 40
0.1269935126
 41
-4.5671318146
 42
-4.5373626707
  0
ELLIPSE
  5
2E3
100
AcDbEntity
  8
0
100
AcDbEllipse
 62
7
  6
BYLAYER
 10
27.5554693256
 20
37.5444939578
 30
0.0
 11
-17.185307668
 21
17.2622772411
 31
0.0
 40
0.1702469903
 41
-4.6090176139
 42
-4.57924847
  0
ELLIPSE
  5
2E4
100
AcDbEntity
  8
0
100
AcDbEllipse
 62
7
  6
BYLAYER
 10
27.7120902007
 20
37.5444939578
 30
0.0
 11
-17.0043043001
 21
17.1250267564
 31
0.0
 40
0.2143062114
 41
-4.650793302
 42
-4.6210241581
  0
ELLIPSE
  5
2E5
100
AcDbEntity
  8
0
100
AcDbEllipse
 62
7
  6
BYLAYER
 10
27.9010700879
 20
37.5444939578
 30
0.0
 11
-16.7837266909
 21
16.9585571531
 31
0.0
 40
0.2593921815
 41
-4.6924166842
 42
-4.6626475403
  0
ELLIPSE
  5
2E6
100
AcDbEntity
  8
0
100
AcDbEllipse
 62
7
  6
BYLAYER
 10
28.1209707362
 20
37.5444939578
 30
0.0
 11
-16.523808647
 21
16.7637596114
 31
0.0
 40
0.3057398728
 41
1.5493527354
 42
1.5791218793
  0
ELLIPSE
  5
2E7
100
AcDbEntity
  8
0
100
AcDbEllipse
 62
7
  6
BYLAYER
 10
28.3701185688
 20
37.5444939578
 30
0.0
 11
-16.2246471729
 21
16.5418339295
 31
0.0
 40
0.3536019736
 41
1.5082194939
 42
1.5379886378
  0
ELLIPSE
  5
2E8
100
AcDbEntity
  8
0
100
AcDbEllipse
 62
7
  6
BYLAYER
 10
28.6466174203
 20
37.5444939577
 30
0.0
 11
-15.8860502942
 21
16.2944188981
 31
0.0
 40
0.4032531911
 41
1.4674754626
 42
1.4972446065
  0
ELLIPSE
  5
2E9
100
AcDbEntity
  8
0
100
AcDbEllipse
 62
7
  6
BYLAYER
 10
28.9483629674
 20
37.5444939578
 30
0.0
 11
-15.507275323
 21
16.023819938
 31
0.0
 40
0.4549951859
 41
1.4272784908
 42
1.4570476347
  0
ELLIPSE
  5
2EA
100
AcDbEntity
  8
0
100
AcDbEllipse
 62
7
  6
BYLAYER
 10
29.2730587445
 20
37.5444939578
 30
0.0
 11
-15.0865489373
 21
15.7334287619
 31
0.0
 40
0.5091621171
 41
1.3878744092
 42
1.4176435531
  0
ELLIPSE
  5
2EB
100
AcDbEntity
  8
0
100
AcDbEllipse
 62
7
  6
BYLAYER
 10
29.6182336204
 20
37.5444939578
 30
0.0
 11
-14.6201143459
 21
15.4285527016
 31
0.0
 40
0.5661264515
 41
1.349670045
 42
1.3794391888
  0
ELLIPSE
  5
2EC
100
AcDbEntity
  8
0
100
AcDbEllipse
 62
7
  6
BYLAYER
 10
29.9812606061
 20
37.5444939578
 30
0.0
 11
-14.1001405585
 21
15.1182070608
 31
0.0
 40
0.6263036642
 41
1.3133928442
 42
1.3431619881
  0
ELLIPSE
  5
2ED
100
AcDbEntity
  8
0
100
AcDbEllipse
 62
7
  6
BYLAYER
 10
30.359376847
 20
37.5444939578
 30
0.0
 11
-13.5094930283
 21
14.8194770471
 31
0.0
 40
0.6901509118
 41
1.2804861718
 42
1.3102553157
  0
ELLIPSE
  5
2EE
100
AcDbEntity
  8
0
100
AcDbEllipse
 62
7
  6
BYLAYER
 10
30.7497046501
 20
37.5444939577
 30
0.0
 11
-12.8060309747
 21
14.5700382847
 31
0.0
 40
0.7581403628
 41
1.2542756011
 42
1.2840447449
  0
ELLIPSE
  5
2EF
100
AcDbEntity
  8
0
100
AcDbEllipse
 62
7
  6
BYLAYER
 10
31.1492733851
 20
37.5444939577
 30
0.0
 11
-11.8601695234
 21
14.4741311195
 31
0.0
 40
0.8306103506
 41
1.2444691952
 42
1.2742383391
  0
ELLIPSE
  5
2F0
100
AcDbEntity
  8
0
100
AcDbEllipse
 62
7
  6
BYLAYER
 10
31.5550420928
 20
37.5444939578
 30
0.0
 11
-10.0427045149
 21
14.9543464083
 31
0.0
 40
0.9066977799
 41
1.2951223273
 42
1.3248914712
  0
ELLIPSE
  5
2F1
100
AcDbEntity
  8
0
100
AcDbEllipse
 62
7
  6
BYLAYER
 10
31.9639226283
 20
37.5444939578
 30
0.0
 11
-0.0
 21
17.5084611122
 31
0.0
 40
0.963433044
 41
-4.4411252267
 42
-4.4113560828
  0
ELLIPSE
  5
2F2
100
AcDbEntity
  8
0
100
AcDbEllipse
 62
7
  6
BYLAYER
 10
36.6374485343
 20
37.5444939578
 30
0.0
 11
17.4882083164
 21
17.4929960222
 31
0.0
 40
0.0420701413
 41
-1.8297953707
 42
-1.8000262268
  0
ELLIPSE
  5
2F3
100
AcDbEntity
  8
0
100
AcDbEllipse
 62
7
  6
BYLAYER
 10
31.9639226283
 20
37.5444939578
 30
0.0
 11
0.0
 21
17.5084611122
 31
0.0
 40
0.963433044
 41
4.4113560828
 42
4.4411252267
  0
ELLIPSE
  5
2F4
100
AcDbEntity
  8
0
100
AcDbEllipse
 62
7
  6
BYLAYER
 10
32.3728031638
 20
37.5444939578
 30
0.0
 11
10.0427045149
 21
14.9543464083
 31
0.0
 40
0.9066977799
 41
-1.3248914712
 42
-1.2951223273
  0
ELLIPSE
  5
2F5
100
AcDbEntity
  8
0
100
AcDbEllipse
 62
7
  6
BYLAYER
 10
32.7785718715
 20
37.5444939577
 30
0.0
 11
11.8601695234
 21
14.4741311195
 31
0.0
 40
0.8306103506
 41
-1.2742383391
 42
-1.2444691952
  0
ELLIPSE
  5
2F6
100
AcDbEntity
  8
0
100
AcDbEllipse
 62
7
  6
BYLAYER
 10
33.1781406065
 20
37.5444939577
 30
0.0
 11
12.8060309747
 21
14.5700382847
 31
0.0
 40
0.7581403628
 41
-1.2840447449
 42
-1.2542756011
  0
ELLIPSE
  5
2F7
100
AcDbEntity
  8
0
100
AcDbEllipse
 62
7
  6
BYLAYER
 10
33.5684684096
 20
37.5444939578
 30
0.0
 11
13.5094930283
 21
14.8194770471
 31
0.0
 40
0.6901509118
 41
-1.3102553157
 42
-1.2804861718
  0
ELLIPSE
  5
2F8
100
AcDbEntity
  8
0
100
AcDbEllipse
 62
7
  6
BYLAYER
 10
33.9465846505
 20
37.5444939578
 30
0.0
 11
14.1001405585
 21
15.1182070608
 31
0.0
 40
0.6263036642
 41
-1.3431619881
 42
-1.3133928442
  0
ELLIPSE
  5
2F9
100
AcDbEntity
  8
0
100
AcDbEllipse
 62
7
  6
BYLAYER
 10
34.3096116362
 20
37.5444939578
 30
0.0
 11
14.6201143459
 21
15.4285527016
 31
0.0
 40
0.5661264515
 41
-1.3794391888
 42
-1.349670045
  0
ELLIPSE
  5
2FA
100
AcDbEntity
  8
0
100
AcDbEllipse
 62
7
  6
BYLAYER
 10
34.6547865121
 20
37.5444939578
 30
0.0
 11
15.0865489373
 21
15.7334287619
 31
0.0
 40
0.5091621171
 41
-1.4176435531
 42
-1.3878744092
  0
ELLIPSE
  5
2FB
100
AcDbEntity
  8
0
100
AcDbEllipse
 62
7
  6
BYLAYER
 10
34.9794822892
 20
37.5444939578
 30
0.0
 11
15.507275323
 21
16.023819938
 31
0.0
 40
0.4549951859
 41
-1.4570476347
 42
-1.4272784908
  0
ELLIPSE
  5
2FC
100
AcDbEntity
  8
0
100
AcDbEllipse
 62
7
  6
BYLAYER
 10
35.2812278363
 20
37.5444939577
 30
0.0
 11
15.8860502942
 21
16.2944188981
 31
0.0
 40
0.4032531911
 41
-1.4972446065
 42
-1.4674754626
  0
ELLIPSE
  5
2FD
100
AcDbEntity
  8
0
100
AcDbEllipse
 62
7
  6
BYLAYER
 10
35.5577266878
 20
37.5444939578
 30
0.0
 11
16.2246471729
 21
16.5418339295
 31
0.0
 40
0.3536019736
 41
-1.5379886378
 42
-1.5082194939
  0
ELLIPSE
  5
2FE
100
AcDbEntity
  8
0
100
AcDbEllipse
 62
7
  6
BYLAYER
 10
35.8068745204
 20
37.5444939578
 30
0.0
 11
16.523808647
 21
16.7637596114
 31
0.0
 40
0.3057398728
 41
-1.5791218793
 42
-1.5493527354
  0
ELLIPSE
  5
2FF
100
AcDbEntity
  8
0
100
AcDbEllipse
 62
7
  6
BYLAYER
 10
36.0267751687
 20
37.5444939578
 30
0.0
 11
16.7837266909
 21
16.9585571531
 31
0.0
 40
0.2593921815
 41
-1.6205377669
 42
-1.590768623
  0
ELLIPSE
  5
300
100
AcDbEntity
  8
0
100
AcDbEllipse
 62
7
  6
BYLAYER
 10
36.2157550559
 20
37.5444939578
 30
0.0
 11
17.0043043001
 21
17.1250267564
 31
0.0
 40
0.2143062114
 41
-1.6621611491
 42
-1.6323920052
  0
ELLIPSE
  5
301
100
AcDbEntity
  8
0
100
AcDbEllipse
 62
7
  6
BYLAYER
 10
36.372375931
 20
37.5444939578
 30
0.0
 11
17.185307668
 21
17.2622772411
 31
0.0
 40
0.1702469903
 41
-1.7039368372
 42
-1.6741676933
  0
ELLIPSE
  5
302
100
AcDbEntity
  8
0
100
AcDbEllipse
 62
7
  6
BYLAYER
 10
36.4954458146
 20
37.5444939577
 30
0.0
 11
17.326459176
 21
17.3696482286
 31
0.0
 40
0.1269935126
 41
-1.7458226364
 42
-1.7160534926
  0
ELLIPSE
  5
303
100
AcDbEntity
  8
0
100
AcDbEllipse
 62
7
  6
BYLAYER
 10
36.5840280705
 20
37.5444939577
 30
0.0
 11
17.4274961419
 21
17.4466624083
 31
0.0
 40
0.0843354388
 41
-1.7877848753
 42
-1.7580157314
  0
ELLIPSE
  5
304
100
AcDbEntity
  8
0
100
AcDbEllipse
 62
7
  6
BYLAYER
 10
38.4787953007
 20
26.2377408574
 30
0.0
 11
-18.0789658936
 21
18.1156691418
 31
0.0
 40
0.0815698667
 41
-1.3088657657
 42
-1.2819697269
  0
ELLIPSE
  5
305
100
AcDbEntity
  8
0
100
AcDbEllipse
 62
7
  6
BYLAYER
 10
38.3538842731
 20
26.2377408574
 30
0.0
 11
-17.9584099181
 21
18.0410926156
 31
0.0
 40
0.1228992729
 41
-1.3493714145
 42
-1.3236866873
  0
ELLIPSE
  5
306
100
AcDbEntity
  8
0
100
AcDbEllipse
 62
7
  6
BYLAYER
 10
38.180341779
 20
26.2377408574
 30
0.0
 11
-17.7900285404
 21
17.9373217495
 31
0.0
 40
0.1648887629
 41
-1.3897401552
 42
-1.3652388413
  0
ELLIPSE
  5
307
100
AcDbEntity
  8
0
100
AcDbEllipse
 62
7
  6
BYLAYER
 10
37.9594885816
 20
26.2377408574
 30
0.0
 11
-17.5741469284
 21
17.8050458869
 31
0.0
 40
0.2077697388
 41
-1.4299111685
 42
-1.4065581646
  0
ELLIPSE
  5
308
100
AcDbEntity
  8
0
100
AcDbEllipse
 62
7
  6
BYLAYER
 10
37.6930055071
 20
26.2377408574
 30
0.0
 11
-17.311068251
 21
17.6452378715
 31
0.0
 40
0.2517837063
 41
-1.4698078979
 42
-1.4475602366
  0
ELLIPSE
  5
309
100
AcDbEntity
  8
0
100
AcDbEllipse
 62
7
  6
BYLAYER
 10
37.3829206526
 20
26.2377408574
 30
0.0
 11
-17.0009614673
 21
17.4592414022
 31
0.0
 40
0.2971852239
 41
-1.5093298802
 42
-1.4881351175
  0
ELLIPSE
  5
30A
100
AcDbEntity
  8
0
100
AcDbEllipse
 62
7
  6
BYLAYER
 10
37.031593951
 20
26.2377408574
 30
0.0
 11
-16.6436838349
 21
17.2489119491
 31
0.0
 40
0.3442450777
 41
-1.5483400703
 42
-1.5284256044
  0
ELLIPSE
  5
30B
100
AcDbEntity
  8
0
100
AcDbEllipse
 62
7
  6
BYLAYER
 10
36.6416992107
 20
26.2377408574
 30
0.0
 11
-16.2384907108
 21
17.0168501026
 31
0.0
 40
0.3932536107
 41
-1.5866441138
 42
-1.5681045703
  0
ELLIPSE
  5
30C
100
AcDbEntity
  8
0
100
AcDbEllipse
 62
7
  6
BYLAYER
 10
36.2162037661
 20
26.2377408574
 30
0.0
 11
-15.7835371161
 21
16.766803626
 31
0.0
 40
0.4445239339
 41
-1.623954571
 42
-1.6069196881
  0
ELLIPSE
  5
30D
100
AcDbEntity
  8
0
100
AcDbEllipse
 62
7
  6
BYLAYER
 10
35.7583458944
 20
26.2377408574
 30
0.0
 11
-15.274965845
 21
16.5043969512
 31
0.0
 40
0.4983942514
 41
-1.6598253033
 42
-1.6444719578
  0
ELLIPSE
  5
30E
100
AcDbEntity
  8
0
100
AcDbEllipse
 62
7
  6
BYLAYER
 10
35.2716101706
 20
26.2377408574
 30
0.0
 11
-14.7051040421
 21
16.2385436118
 31
0.0
 40
0.5552272381
 41
-1.6935221503
 42
-1.6800913845
  0
ELLIPSE
  5
30F
100
AcDbEntity
  8
0
100
AcDbEllipse
 62
7
  6
BYLAYER
 10
34.7597009473
 20
26.2377408574
 30
0.0
 11
-14.0585338956
 21
15.9844133441
 31
0.0
 40
0.6154007239
 41
-1.7237441171
 42
-1.7125697259
  0
ELLIPSE
  5
310
100
AcDbEntity
  8
0
100
AcDbEllipse
 62
7
  6
BYLAYER
 10
34.2265141629
 20
26.2377408574
 30
0.0
 11
-13.3023954138
 21
15.7703479229
 31
0.0
 40
0.6792721423
 41
-1.7479481052
 42
-1.7395026589
  0
ELLIPSE
  5
311
100
AcDbEntity
  8
0
100
AcDbEllipse
 62
7
  6
BYLAYER
 10
33.6761076907
 20
26.2377408574
 30
0.0
 11
-12.3580633753
 21
15.6563003942
 31
0.0
 40
0.7470541823
 41
-1.7604339261
 42
-1.7554134017
  0
ELLIPSE
  5
312
100
AcDbEntity
  8
0
100
AcDbEllipse
 62
7
  6
BYLAYER
 10
27.2903967223
 20
37.5444939578
 30
0.0
 11
-17.4882083164
 21
17.4929960222
 31
0.0
 40
0.0420701413
 41
-4.4831590804
 42
-4.4533899365
  0
ELLIPSE
  5
313
100
AcDbEntity
  8
0
100
AcDbEllipse
 62
7
  6
BYLAYER
 10
33.1126704563
 20
26.2377408574
 30
0.0
 11
-10.9958379272
 21
15.791979517
 31
0.0
 40
0.818317629
 41
-1.7455491319
 42
-1.7450389575
  0
ELLIPSE
  5
314
100
AcDbEntity
  8
0
100
AcDbEllipse
 62
7
  6
BYLAYER
 10
38.5541242135
 20
26.2377408574
 30
0.0
 11
-18.1514209571
 21
18.1605909673
 31
0.0
 40
0.0406765142
 41
-1.2682738639
 42
-1.2401461334
  0
ELLIPSE
  5
315
100
AcDbEntity
  8
0
100
AcDbEllipse
 62
7
  6
BYLAYER
 10
27.5554693256
 20
37.5444939578
 30
0.0
 11
-17.185307668
 21
17.2622772411
 31
0.0
 40
0.1702469903
 41
-2.0397216116
 42
-2.0099524677
  0
ELLIPSE
  5
316
100
AcDbEntity
  8
0
100
AcDbEllipse
 62
7
  6
BYLAYER
 10
27.7120902007
 20
37.5444939578
 30
0.0
 11
-17.0043043001
 21
17.1250267564
 31
0.0
 40
0.2143062114
 41
-2.0814972997
 42
-2.0517281558
  0
ELLIPSE
  5
317
100
AcDbEntity
  8
0
100
AcDbEllipse
 62
7
  6
BYLAYER
 10
27.9010700879
 20
37.5444939578
 30
0.0
 11
-16.7837266909
 21
16.9585571531
 31
0.0
 40
0.2593921815
 41
-2.1231206819
 42
-2.093351538
  0
ELLIPSE
  5
318
100
AcDbEntity
  8
0
100
AcDbEllipse
 62
7
  6
BYLAYER
 10
28.1209707362
 20
37.5444939578
 30
0.0
 11
-16.523808647
 21
16.7637596114
 31
0.0
 40
0.3057398728
 41
-2.1645365695
 42
-2.1347674256
  0
ELLIPSE
  5
319
100
AcDbEntity
  8
0
100
AcDbEllipse
 62
7
  6
BYLAYER
 10
36.6374485343
 20
37.5444939578
 30
0.0
 11
17.4882083164
 21
17.4929960222
 31
0.0
 40
0.0420701413
 41
-4.3990913729
 42
-4.369322229
  0
ELLIPSE
  5
31A
100
AcDbEntity
  8
0
100
AcDbEllipse
 62
7
  6
BYLAYER
 10
36.5840280705
 20
37.5444939577
 30
0.0
 11
17.4274961419
 21
17.4466624083
 31
0.0
 40
0.0843354388
 41
-4.3570808775
 42
-4.3273117336
  0
ELLIPSE
  5
31B
100
AcDbEntity
  8
0
100
AcDbEllipse
 62
7
  6
BYLAYER
 10
36.4954458146
 20
37.5444939577
 30
0.0
 11
17.326459176
 21
17.3696482286
 31
0.0
 40
0.1269935126
 41
-4.3151186387
 42
-4.2853494948
  0
ELLIPSE
  5
31C
100
AcDbEntity
  8
0
100
AcDbEllipse
 62
7
  6
BYLAYER
 10
36.372375931
 20
37.5444939578
 30
0.0
 11
17.185307668
 21
17.2622772411
 31
0.0
 40
0.1702469903
 41
-4.2732328395
 42
-4.2434636956
  0
ELLIPSE
  5
31D
100
AcDbEntity
  8
0
100
AcDbEllipse
 62
7
  6
BYLAYER
 10
28.3701185688
 20
37.5444939578
 30
0.0
 11
-16.2246471729
 21
16.5418339295
 31
0.0
 40
0.3536019736
 41
-2.205669811
 42
-2.1759006671
  0
ELLIPSE
  5
31E
100
AcDbEntity
  8
0
100
AcDbEllipse
 62
7
  6
BYLAYER
 10
36.2157550559
 20
37.5444939578
 30
0.0
 11
17.0043043001
 21
17.1250267564
 31
0.0
 40
0.2143062114
 41
-4.2314571513
 42
-4.2016880075
  0
ELLIPSE
  5
31F
100
AcDbEntity
  8
0
100
AcDbEllipse
 62
7
  6
BYLAYER
 10
36.0267751687
 20
37.5444939578
 30
0.0
 11
16.7837266909
 21
16.9585571531
 31
0.0
 40
0.2593921815
 41
-4.1898337691
 42
-4.1600646253
  0
ELLIPSE
  5
320
100
AcDbEntity
  8
0
100
AcDbEllipse
 62
7
  6
BYLAYER
 10
35.8068745204
 20
37.5444939578
 30
0.0
 11
16.523808647
 21
16.7637596114
 31
0.0
 40
0.3057398728
 41
-4.1484178816
 42
-4.1186487377
  0
ELLIPSE
  5
321
100
AcDbEntity
  8
0
100
AcDbEllipse
 62
7
  6
BYLAYER
 10
35.5577266878
 20
37.5444939578
 30
0.0
 11
16.2246471729
 21
16.5418339295
 31
0.0
 40
0.3536019736
 41
-4.1072846401
 42
-4.0775154962
  0
ELLIPSE
  5
322
100
AcDbEntity
  8
0
100
AcDbEllipse
 62
7
  6
BYLAYER
 10
28.6466174203
 20
37.5444939577
 30
0.0
 11
-15.8860502942
 21
16.2944188981
 31
0.0
 40
0.4032531911
 41
-2.2464138423
 42
-2.2166446984
  0
ELLIPSE
  5
323
100
AcDbEntity
  8
0
100
AcDbEllipse
 62
7
  6
BYLAYER
 10
35.2812278363
 20
37.5444939577
 30
0.0
 11
15.8860502942
 21
16.2944188981
 31
0.0
 40
0.4032531911
 41
-4.0665406088
 42
-4.0367714649
  0
ELLIPSE
  5
324
100
AcDbEntity
  8
0
100
AcDbEllipse
 62
7
  6
BYLAYER
 10
34.9794822892
 20
37.5444939578
 30
0.0
 11
15.507275323
 21
16.023819938
 31
0.0
 40
0.4549951859
 41
-4.0263436369
 42
-3.9965744931
  0
ELLIPSE
  5
325
100
AcDbEntity
  8
0
100
AcDbEllipse
 62
7
  6
BYLAYER
 10
34.6547865121
 20
37.5444939578
 30
0.0
 11
15.0865489373
 21
15.7334287619
 31
0.0
 40
0.5091621171
 41
-3.9869395554
 42
-3.9571704115
  0
ELLIPSE
  5
326
100
AcDbEntity
  8
0
100
AcDbEllipse
 62
7
  6
BYLAYER
 10
28.9483629674
 20
37.5444939578
 30
0.0
 11
-15.507275323
 21
16.023819938
 31
0.0
 40
0.4549951859
 41
-2.2866108141
 42
-2.2568416702
  0
ELLIPSE
  5
327
100
AcDbEntity
  8
0
100
AcDbEllipse
 62
7
  6
BYLAYER
 10
34.3096116362
 20
37.5444939578
 30
0.0
 11
14.6201143459
 21
15.4285527016
 31
0.0
 40
0.5661264515
 41
-3.9487351911
 42
-3.9189660472
  0
ELLIPSE
  5
328
100
AcDbEntity
  8
0
100
AcDbEllipse
 62
7
  6
BYLAYER
 10
33.9465846505
 20
37.5444939578
 30
0.0
 11
14.1001405585
 21
15.1182070608
 31
0.0
 40
0.6263036642
 41
-3.9124579904
 42
-3.8826888465
  0
ELLIPSE
  5
329
100
AcDbEntity
  8
0
100
AcDbEllipse
 62
7
  6
BYLAYER
 10
33.5684684096
 20
37.5444939578
 30
0.0
 11
13.5094930283
 21
14.8194770471
 31
0.0
 40
0.6901509118
 41
-3.879551318
 42
-3.8497821741
  0
ELLIPSE
  5
32A
100
AcDbEntity
  8
0
100
AcDbEllipse
 62
7
  6
BYLAYER
 10
33.1781406065
 20
37.5444939577
 30
0.0
 11
12.8060309747
 21
14.5700382847
 31
0.0
 40
0.7581403628
 41
-3.8533407472
 42
-3.8235716033
  0
ELLIPSE
  5
32B
100
AcDbEntity
  8
0
100
AcDbEllipse
 62
7
  6
BYLAYER
 10
32.7785718715
 20
37.5444939577
 30
0.0
 11
11.8601695234
 21
14.4741311195
 31
0.0
 40
0.8306103506
 41
-3.8435343414
 42
-3.8137651975
  0
ELLIPSE
  5
32C
100
AcDbEntity
  8
0
100
AcDbEllipse
 62
7
  6
BYLAYER
 10
32.3728031638
 20
37.5444939578
 30
0.0
 11
10.0427045149
 21
14.9543464083
 31
0.0
 40
0.9066977799
 41
-3.8941874735
 42
-3.8644183296
  0
ELLIPSE
  5
32D
100
AcDbEntity
  8
0
100
AcDbEllipse
 62
7
  6
BYLAYER
 10
29.2730587445
 20
37.5444939578
 30
0.0
 11
-15.0865489373
 21
15.7334287619
 31
0.0
 40
0.5091621171
 41
-2.3260148957
 42
-2.2962457518
  0
ELLIPSE
  5
32E
100
AcDbEntity
  8
0
100
AcDbEllipse
 62
7
  6
BYLAYER
 10
29.6182336204
 20
37.5444939578
 30
0.0
 11
-14.6201143459
 21
15.4285527016
 31
0.0
 40
0.5661264515
 41
-2.36421926
 42
-2.3344501161
  0
ELLIPSE
  5
32F
100
AcDbEntity
  8
0
100
AcDbEllipse
 62
7
  6
BYLAYER
 10
29.9812606061
 20
37.5444939578
 30
0.0
 11
-14.1001405585
 21
15.1182070608
 31
0.0
 40
0.6263036642
 41
-2.4004964607
 42
-2.3707273168
  0
ELLIPSE
  5
330
100
AcDbEntity
  8
0
100
AcDbEllipse
 62
7
  6
BYLAYER
 10
30.359376847
 20
37.5444939578
 30
0.0
 11
-13.5094930283
 21
14.8194770471
 31
0.0
 40
0.6901509118
 41
-2.4334031331
 42
-2.4036339892
  0
ELLIPSE
  5
331
100
AcDbEntity
  8
0
100
AcDbEllipse
 62
7
  6
BYLAYER
 10
30.7497046501
 20
37.5444939577
 30
0.0
 11
-12.8060309747
 21
14.5700382847
 31
0.0
 40
0.7581403628
 41
-2.4596137039
 42
-2.42984456
  0
ELLIPSE
  5
332
100
AcDbEntity
  8
0
100
AcDbEllipse
 62
7
  6
BYLAYER
 10
27.3438171861
 20
37.5444939577
 30
0.0
 11
-17.4274961419
 21
17.4466624083
 31
0.0
 40
0.0843354388
 41
-1.9558735735
 42
-1.9261044297
  0
ELLIPSE
  5
333
100
AcDbEntity
  8
0
100
AcDbEllipse
 62
7
  6
BYLAYER
 10
31.1492733851
 20
37.5444939577
 30
0.0
 11
-11.8601695234
 21
14.4741311195
 31
0.0
 40
0.8306103506
 41
-2.4694201097
 42
-2.4396509658
  0
ELLIPSE
  5
334
100
AcDbEntity
  8
0
100
AcDbEllipse
 62
7
  6
BYLAYER
 10
27.2903967223
 20
37.5444939578
 30
0.0
 11
-17.4882083164
 21
17.4929960222
 31
0.0
 40
0.0420701413
 41
-1.9138630781
 42
-1.8840939343
  0
ELLIPSE
  5
335
100
AcDbEntity
  8
0
100
AcDbEllipse
 62
7
  6
BYLAYER
 10
31.5550420928
 20
37.5444939578
 30
0.0
 11
-10.0427045149
 21
14.9543464083
 31
0.0
 40
0.9066977799
 41
-2.4187669776
 42
-2.3889978337
  0
ELLIPSE
  5
336
100
AcDbEntity
  8
0
100
AcDbEllipse
 62
7
  6
BYLAYER
 10
27.432399442
 20
37.5444939577
 30
0.0
 11
-17.326459176
 21
17.3696482286
 31
0.0
 40
0.1269935126
 41
-1.9978358124
 42
-1.9680666685
  0
ELLIPSE
  5
337
100
AcDbEntity
  8
0
100
AcDbEllipse
 62
7
  6
BYLAYER
 10
36.6374485343
 20
24.5617379263
 30
0.0
 11
-17.4882083164
 21
17.4929960222
 31
0.0
 40
0.0420701413
 41
-1.3415664268
 42
-1.3117972829
  0
ELLIPSE
  5
338
100
AcDbEntity
  8
0
100
AcDbEllipse
 62
7
  6
BYLAYER
 10
33.1126704563
 20
35.8684910266
 30
0.0
 11
10.9958379272
 21
15.791979517
 31
0.0
 40
0.818317629
 41
-1.3965536952
 42
-1.3960435217
  0
ELLIPSE
  5
339
100
AcDbEntity
  8
0
100
AcDbEllipse
 62
7
  6
BYLAYER
 10
33.6761076907
 20
35.8684910266
 30
0.0
 11
12.3580633753
 21
15.6563003942
 31
0.0
 40
0.7470541823
 41
4.8970060586
 42
4.9020265797
  0
ELLIPSE
  5
33A
100
AcDbEntity
  8
0
100
AcDbEllipse
 62
7
  6
BYLAYER
 10
34.2265141629
 20
35.8684910266
 30
0.0
 11
13.3023954138
 21
15.7703479229
 31
0.0
 40
0.6792721423
 41
4.881095312
 42
4.8895407588
  0
ELLIPSE
  5
33B
100
AcDbEntity
  8
0
100
AcDbEllipse
 62
7
  6
BYLAYER
 10
34.7597009473
 20
35.8684910266
 30
0.0
 11
14.0585338956
 21
15.9844133441
 31
0.0
 40
0.6154007239
 41
-1.4290229293
 42
-1.4178485365
  0
ELLIPSE
  5
33C
100
AcDbEntity
  8
0
100
AcDbEllipse
 62
7
  6
BYLAYER
 10
35.2716101706
 20
35.8684910266
 30
0.0
 11
14.7051040421
 21
16.2385436118
 31
0.0
 40
0.5552272381
 41
-1.4615012695
 42
-1.4480705033
  0
ELLIPSE
  5
33D
100
AcDbEntity
  8
0
100
AcDbEllipse
 62
7
  6
BYLAYER
 10
35.7583458944
 20
35.8684910266
 30
0.0
 11
15.274965845
 21
16.5043969512
 31
0.0
 40
0.4983942514
 41
-1.4971206964
 42
-1.4817673503
  0
ELLIPSE
  5
33E
100
AcDbEntity
  8
0
100
AcDbEllipse
 62
7
  6
BYLAYER
 10
36.2162037661
 20
35.8684910266
 30
0.0
 11
15.7835371161
 21
16.766803626
 31
0.0
 40
0.4445239339
 41
-1.5346729672
 42
-1.5176380826
  0
ELLIPSE
  5
33F
100
AcDbEntity
  8
0
100
AcDbEllipse
 62
7
  6
BYLAYER
 10
36.6416992107
 20
35.8684910266
 30
0.0
 11
16.2384907108
 21
17.0168501026
 31
0.0
 40
0.3932536107
 41
-1.5734880867
 42
-1.5549485398
  0
ELLIPSE
  5
340
100
AcDbEntity
  8
0
100
AcDbEllipse
 62
7
  6
BYLAYER
 10
37.031593951
 20
35.8684910266
 30
0.0
 11
16.6436838349
 21
17.2489119491
 31
0.0
 40
0.3442450777
 41
-1.6131670271
 42
-1.5932525833
  0
ELLIPSE
  5
341
100
AcDbEntity
  8
0
100
AcDbEllipse
 62
7
  6
BYLAYER
 10
37.3829206526
 20
35.8684910266
 30
0.0
 11
17.0009614673
 21
17.4592414022
 31
0.0
 40
0.2971852239
 41
-1.6534575031
 42
-1.6322627734
  0
ELLIPSE
  5
342
100
AcDbEntity
  8
0
100
AcDbEllipse
 62
7
  6
BYLAYER
 10
37.6930055071
 20
35.8684910266
 30
0.0
 11
17.311068251
 21
17.6452378715
 31
0.0
 40
0.2517837063
 41
-1.6940323896
 42
-1.6717847557
  0
ELLIPSE
  5
343
100
AcDbEntity
  8
0
100
AcDbEllipse
 62
7
  6
BYLAYER
 10
37.9594885816
 20
35.8684910266
 30
0.0
 11
17.5741469284
 21
17.8050458869
 31
0.0
 40
0.2077697388
 41
-1.735034466
 42
-1.7116814851
  0
ELLIPSE
  5
344
100
AcDbEntity
  8
0
100
AcDbEllipse
 62
7
  6
BYLAYER
 10
38.180341779
 20
35.8684910266
 30
0.0
 11
17.7900285404
 21
17.9373217495
 31
0.0
 40
0.1648887629
 41
-1.7763537932
 42
-1.7518524984
  0
ELLIPSE
  5
345
100
AcDbEntity
  8
0
100
AcDbEllipse
 62
7
  6
BYLAYER
 10
38.3538842731
 20
35.8684910266
 30
0.0
 11
17.9584099181
 21
18.0410926156
 31
0.0
 40
0.1228992729
 41
-1.8179059513
 42
-1.7922212391
  0
ELLIPSE
  5
346
100
AcDbEntity
  8
0
100
AcDbEllipse
 62
7
  6
BYLAYER
 10
38.4787953007
 20
35.8684910266
 30
0.0
 11
18.0789658936
 21
18.1156691418
 31
0.0
 40
0.0815698667
 41
-1.8596229162
 42
-1.8327268879
  0
ELLIPSE
  5
347
100
AcDbEntity
  8
0
100
AcDbEllipse
 62
7
  6
BYLAYER
 10
38.5541242135
 20
35.8684910266
 30
0.0
 11
18.1514209571
 21
18.1605909673
 31
0.0
 40
0.0406765142
 41
-1.9014465147
 42
-1.8733187897
  0
ELLIPSE
  5
348
100
AcDbEntity
  8
0
100
AcDbEllipse
 62
7
  6
BYLAYER
 10
25.3737210431
 20
35.8684910266
 30
0.0
 11
-18.1514209571
 21
18.1605909673
 31
0.0
 40
0.0406765142
 41
-4.4098665175
 42
-4.381738787
  0
ELLIPSE
  5
349
100
AcDbEntity
  8
0
100
AcDbEllipse
 62
7
  6
BYLAYER
 10
31.5550420928
 20
24.5617379263
 30
0.0
 11
10.0427045149
 21
14.9543464083
 31
0.0
 40
0.9066977799
 41
-4.4664841248
 42
-4.4367149809
  0
ELLIPSE
  5
34A
100
AcDbEntity
  8
0
100
AcDbEllipse
 62
7
  6
BYLAYER
 10
31.1492733851
 20
24.5617379263
 30
0.0
 11
11.8601695234
 21
14.4741311195
 31
0.0
 40
0.8306103506
 41
-4.4158309927
 42
-4.3860618488
  0
ELLIPSE
  5
34B
100
AcDbEntity
  8
0
100
AcDbEllipse
 62
7
  6
BYLAYER
 10
30.7497046501
 20
24.5617379263
 30
0.0
 11
12.8060309747
 21
14.5700382847
 31
0.0
 40
0.7581403628
 41
-4.4256373985
 42
-4.3958682546
  0
ELLIPSE
  5
34C
100
AcDbEntity
  8
0
100
AcDbEllipse
 62
7
  6
BYLAYER
 10
30.359376847
 20
24.5617379263
 30
0.0
 11
13.5094930283
 21
14.8194770471
 31
0.0
 40
0.6901509118
 41
-4.4518479693
 42
-4.4220788254
  0
ELLIPSE
  5
34D
100
AcDbEntity
  8
0
100
AcDbEllipse
 62
7
  6
BYLAYER
 10
29.9812606061
 20
24.5617379263
 30
0.0
 11
14.1001405585
 21
15.1182070608
 31
0.0
 40
0.6263036642
 41
-4.4847546417
 42
-4.4549854978
  0
ELLIPSE
  5
34E
100
AcDbEntity
  8
0
100
AcDbEllipse
 62
7
  6
BYLAYER
 10
29.6182336204
 20
24.5617379263
 30
0.0
 11
14.6201143459
 21
15.4285527016
 31
0.0
 40
0.5661264515
 41
-4.5210318424
 42
-4.4912626986
  0
ELLIPSE
  5
34F
100
AcDbEntity
  8
0
100
AcDbEllipse
 62
7
  6
BYLAYER
 10
29.2730587445
 20
24.5617379263
 30
0.0
 11
15.0865489373
 21
15.7334287619
 31
0.0
 40
0.5091621171
 41
-4.5592362067
 42
-4.5294670628
  0
ELLIPSE
  5
350
100
AcDbEntity
  8
0
100
AcDbEllipse
 62
7
  6
BYLAYER
 10
28.9483629674
 20
24.5617379263
 30
0.0
 11
15.507275323
 21
16.023819938
 31
0.0
 40
0.4549951859
 41
-4.5986402883
 42
-4.5688711444
  0
ELLIPSE
  5
351
100
AcDbEntity
  8
0
100
AcDbEllipse
 62
7
  6
BYLAYER
 10
28.6466174203
 20
24.5617379263
 30
0.0
 11
15.8860502942
 21
16.2944188981
 31
0.0
 40
0.4032531911
 41
-4.6388372601
 42
-4.6090681162
  0
ELLIPSE
  5
352
100
AcDbEntity
  8
0
100
AcDbEllipse
 62
7
  6
BYLAYER
 10
28.3701185688
 20
24.5617379263
 30
0.0
 11
16.2246471729
 21
16.5418339295
 31
0.0
 40
0.3536019736
 41
-4.6795812914
 42
-4.6498121475
  0
ELLIPSE
  5
353
100
AcDbEntity
  8
0
100
AcDbEllipse
 62
7
  6
BYLAYER
 10
28.1209707362
 20
24.5617379263
 30
0.0
 11
16.523808647
 21
16.7637596114
 31
0.0
 40
0.3057398728
 41
1.5624707743
 42
1.5922399181
  0
ELLIPSE
  5
354
100
AcDbEntity
  8
0
100
AcDbEllipse
 62
7
  6
BYLAYER
 10
27.9010700879
 20
24.5617379263
 30
0.0
 11
16.7837266909
 21
16.9585571531
 31
0.0
 40
0.2593921815
 41
1.5210548867
 42
1.5508240306
  0
ELLIPSE
  5
355
100
AcDbEntity
  8
0
100
AcDbEllipse
 62
7
  6
BYLAYER
 10
27.7120902007
 20
24.5617379263
 30
0.0
 11
17.0043043001
 21
17.1250267564
 31
0.0
 40
0.2143062114
 41
1.4794315045
 42
1.5092006484
  0
ELLIPSE
  5
356
100
AcDbEntity
  8
0
100
AcDbEllipse
 62
7
  6
BYLAYER
 10
27.5554693256
 20
24.5617379263
 30
0.0
 11
17.185307668
 21
17.2622772411
 31
0.0
 40
0.1702469903
 41
1.4376558164
 42
1.4674249603
  0
ELLIPSE
  5
357
100
AcDbEntity
  8
0
100
AcDbEllipse
 62
7
  6
BYLAYER
 10
27.432399442
 20
24.5617379263
 30
0.0
 11
17.326459176
 21
17.3696482286
 31
0.0
 40
0.1269935126
 41
1.3957700171
 42
1.425539161
  0
ELLIPSE
  5
358
100
AcDbEntity
  8
0
100
AcDbEllipse
 62
7
  6
BYLAYER
 10
27.3438171861
 20
24.5617379263
 30
0.0
 11
17.4274961419
 21
17.4466624083
 31
0.0
 40
0.0843354388
 41
1.3538077783
 42
1.3835769222
  0
ELLIPSE
  5
359
100
AcDbEntity
  8
0
100
AcDbEllipse
 62
7
  6
BYLAYER
 10
27.2903967223
 20
24.5617379263
 30
0.0
 11
17.4882083164
 21
17.4929960222
 31
0.0
 40
0.0420701413
 41
1.3117972829
 42
1.3415664268
  0
ELLIPSE
  5
35A
100
AcDbEntity
  8
0
100
AcDbEllipse
 62
7
  6
BYLAYER
 10
36.5840280705
 20
24.5617379263
 30
0.0
 11
-17.4274961419
 21
17.4466624083
 31
0.0
 40
0.0843354388
 41
-1.3835769222
 42
-1.3538077783
  0
ELLIPSE
  5
35B
100
AcDbEntity
  8
0
100
AcDbEllipse
 62
7
  6
BYLAYER
 10
36.4954458146
 20
24.5617379263
 30
0.0
 11
-17.326459176
 21
17.3696482286
 31
0.0
 40
0.1269935126
 41
-1.425539161
 42
-1.3957700171
  0
ELLIPSE
  5
35C
100
AcDbEntity
  8
0
100
AcDbEllipse
 62
7
  6
BYLAYER
 10
36.372375931
 20
24.5617379263
 30
0.0
 11
-17.185307668
 21
17.2622772411
 31
0.0
 40
0.1702469903
 41
-1.4674249603
 42
-1.4376558164
  0
ELLIPSE
  5
35D
100
AcDbEntity
  8
0
100
AcDbEllipse
 62
7
  6
BYLAYER
 10
36.2157550559
 20
24.5617379263
 30
0.0
 11
-17.0043043001
 21
17.1250267564
 31
0.0
 40
0.2143062114
 41
-1.5092006484
 42
-1.4794315045
  0
ELLIPSE
  5
35E
100
AcDbEntity
  8
0
100
AcDbEllipse
 62
7
  6
BYLAYER
 10
36.0267751687
 20
24.5617379263
 30
0.0
 11
-16.7837266909
 21
16.9585571531
 31
0.0
 40
0.2593921815
 41
-1.5508240306
 42
-1.5210548867
  0
ELLIPSE
  5
35F
100
AcDbEntity
  8
0
100
AcDbEllipse
 62
7
  6
BYLAYER
 10
35.8068745204
 20
24.5617379263
 30
0.0
 11
-16.523808647
 21
16.7637596114
 31
0.0
 40
0.3057398728
 41
-1.5922399181
 42
-1.5624707743
  0
ELLIPSE
  5
360
100
AcDbEntity
  8
0
100
AcDbEllipse
 62
7
  6
BYLAYER
 10
35.5577266878
 20
24.5617379263
 30
0.0
 11
-16.2246471729
 21
16.5418339295
 31
0.0
 40
0.3536019736
 41
-1.6333731597
 42
-1.6036040158
  0
ELLIPSE
  5
361
100
AcDbEntity
  8
0
100
AcDbEllipse
 62
7
  6
BYLAYER
 10
35.2812278363
 20
24.5617379263
 30
0.0
 11
-15.8860502942
 21
16.2944188981
 31
0.0
 40
0.4032531911
 41
-1.674117191
 42
-1.6443480471
  0
ELLIPSE
  5
362
100
AcDbEntity
  8
0
100
AcDbEllipse
 62
7
  6
BYLAYER
 10
25.4490499559
 20
35.8684910266
 30
0.0
 11
-18.0789658936
 21
18.1156691418
 31
0.0
 40
0.0815698667
 41
-4.4504584193
 42
-4.4235623805
  0
ELLIPSE
  5
363
100
AcDbEntity
  8
0
100
AcDbEllipse
 62
7
  6
BYLAYER
 10
34.9794822892
 20
24.5617379263
 30
0.0
 11
-15.507275323
 21
16.023819938
 31
0.0
 40
0.4549951859
 41
-1.7143141628
 42
-1.6845450189
  0
ELLIPSE
  5
364
100
AcDbEntity
  8
0
100
AcDbEllipse
 62
7
  6
BYLAYER
 10
25.5739609835
 20
35.8684910266
 30
0.0
 11
-17.9584099181
 21
18.0410926156
 31
0.0
 40
0.1228992729
 41
-4.490964068
 42
-4.4652793409
  0
ELLIPSE
  5
365
100
AcDbEntity
  8
0
100
AcDbEllipse
 62
7
  6
BYLAYER
 10
34.6547865121
 20
24.5617379263
 30
0.0
 11
-15.0865489373
 21
15.7334287619
 31
0.0
 40
0.5091621171
 41
-1.7537182443
 42
-1.7239491005
  0
ELLIPSE
  5
366
100
AcDbEntity
  8
0
100
AcDbEllipse
 62
7
  6
BYLAYER
 10
25.7475034776
 20
35.8684910266
 30
0.0
 11
-17.7900285404
 21
17.9373217495
 31
0.0
 40
0.1648887629
 41
-4.5313328088
 42
-4.5068314949
  0
ELLIPSE
  5
367
100
AcDbEntity
  8
0
100
AcDbEllipse
 62
7
  6
BYLAYER
 10
34.3096116362
 20
24.5617379263
 30
0.0
 11
-14.6201143459
 21
15.4285527016
 31
0.0
 40
0.5661264515
 41
-1.7919226086
 42
-1.7621534647
  0
ELLIPSE
  5
368
100
AcDbEntity
  8
0
100
AcDbEllipse
 62
7
  6
BYLAYER
 10
25.968356675
 20
35.8684910266
 30
0.0
 11
-17.5741469284
 21
17.8050458869
 31
0.0
 40
0.2077697388
 41
-4.5715038221
 42
-4.5481508182
  0
ELLIPSE
  5
369
100
AcDbEntity
  8
0
100
AcDbEllipse
 62
7
  6
BYLAYER
 10
33.9465846505
 20
24.5617379263
 30
0.0
 11
-14.1001405585
 21
15.1182070608
 31
0.0
 40
0.6263036642
 41
-1.8281998094
 42
-1.7984306655
  0
ELLIPSE
  5
36A
100
AcDbEntity
  8
0
100
AcDbEllipse
 62
7
  6
BYLAYER
 10
26.2348397495
 20
35.8684910266
 30
0.0
 11
-17.311068251
 21
17.6452378715
 31
0.0
 40
0.2517837063
 41
-4.6114005514
 42
-4.5891528902
  0
ELLIPSE
  5
36B
100
AcDbEntity
  8
0
100
AcDbEllipse
 62
7
  6
BYLAYER
 10
33.5684684096
 20
24.5617379263
 30
0.0
 11
-13.5094930283
 21
14.8194770471
 31
0.0
 40
0.6901509118
 41
-1.8611064818
 42
-1.8313373379
  0
ELLIPSE
  5
36C
100
AcDbEntity
  8
0
100
AcDbEllipse
 62
7
  6
BYLAYER
 10
26.544924604
 20
35.8684910266
 30
0.0
 11
-17.0009614673
 21
17.4592414022
 31
0.0
 40
0.2971852239
 41
-4.6509225338
 42
-4.6297277711
  0
ELLIPSE
  5
36D
100
AcDbEntity
  8
0
100
AcDbEllipse
 62
7
  6
BYLAYER
 10
33.1781406065
 20
24.5617379263
 30
0.0
 11
-12.8060309747
 21
14.5700382847
 31
0.0
 40
0.7581403628
 41
-1.8873170525
 42
-1.8575479087
  0
ELLIPSE
  5
36E
100
AcDbEntity
  8
0
100
AcDbEllipse
 62
7
  6
BYLAYER
 10
26.8962513056
 20
35.8684910266
 30
0.0
 11
-16.6436838349
 21
17.2489119491
 31
0.0
 40
0.3442450777
 41
-4.6899327238
 42
-4.670018258
  0
ELLIPSE
  5
36F
100
AcDbEntity
  8
0
100
AcDbEllipse
 62
7
  6
BYLAYER
 10
32.7785718715
 20
24.5617379263
 30
0.0
 11
-11.8601695234
 21
14.4741311195
 31
0.0
 40
0.8306103506
 41
-1.8971234584
 42
-1.8673543145
  0
ELLIPSE
  5
370
100
AcDbEntity
  8
0
100
AcDbEllipse
 62
7
  6
BYLAYER
 10
27.2861460459
 20
35.8684910266
 30
0.0
 11
-16.2384907108
 21
17.0168501026
 31
0.0
 40
0.3932536107
 41
1.5549485398
 42
1.5734880833
  0
ELLIPSE
  5
371
100
AcDbEntity
  8
0
100
AcDbEllipse
 62
7
  6
BYLAYER
 10
32.3728031638
 20
24.5617379263
 30
0.0
 11
-10.0427045149
 21
14.9543464083
 31
0.0
 40
0.9066977799
 41
-1.8464703263
 42
-1.8167011824
  0
ELLIPSE
  5
372
100
AcDbEntity
  8
0
100
AcDbEllipse
 62
7
  6
BYLAYER
 10
27.7116414905
 20
35.8684910266
 30
0.0
 11
-15.7835371161
 21
16.766803626
 31
0.0
 40
0.4445239339
 41
1.5176380826
 42
1.5346729655
  0
ELLIPSE
  5
373
100
AcDbEntity
  8
0
100
AcDbEllipse
 62
7
  6
BYLAYER
 10
31.9639226283
 20
24.5617379263
 30
0.0
 11
-0.0
 21
17.5084611122
 31
0.0
 40
0.963433044
 41
-1.2995325731
 42
-1.2697634292
  0
ELLIPSE
  5
374
100
AcDbEntity
  8
0
100
AcDbEllipse
 62
7
  6
BYLAYER
 10
28.1694993621
 20
35.8684910266
 30
0.0
 11
-15.274965845
 21
16.5043969512
 31
0.0
 40
0.4983942514
 41
1.4817673503
 42
1.4971206958
  0
ELLIPSE
  5
375
100
AcDbEntity
  8
0
100
AcDbEllipse
 62
7
  6
BYLAYER
 10
28.656235086
 20
35.8684910266
 30
0.0
 11
-14.7051040421
 21
16.2385436118
 31
0.0
 40
0.5552272381
 41
1.4480705033
 42
1.4615012691
  0
ELLIPSE
  5
376
100
AcDbEntity
  8
0
100
AcDbEllipse
 62
7
  6
BYLAYER
 10
29.1681443093
 20
35.8684910266
 30
0.0
 11
-14.0585338956
 21
15.9844133441
 31
0.0
 40
0.6154007239
 41
1.4178485365
 42
1.4290229277
  0
ELLIPSE
  5
377
100
AcDbEntity
  8
0
100
AcDbEllipse
 62
7
  6
BYLAYER
 10
29.7013310937
 20
35.8684910266
 30
0.0
 11
-13.3023954138
 21
15.7703479229
 31
0.0
 40
0.6792721423
 41
1.3936445484
 42
1.4020899947
  0
ELLIPSE
  5
378
100
AcDbEntity
  8
0
100
AcDbEllipse
 62
7
  6
BYLAYER
 10
30.2517375659
 20
35.8684910266
 30
0.0
 11
-12.3580633753
 21
15.6563003942
 31
0.0
 40
0.7470541823
 41
1.3811587275
 42
1.3861792519
  0
ELLIPSE
  5
379
100
AcDbEntity
  8
0
100
AcDbEllipse
 62
7
  6
BYLAYER
 10
30.8151748003
 20
35.8684910266
 30
0.0
 11
-10.9958379272
 21
15.791979517
 31
0.0
 40
0.818317629
 41
1.3960435217
 42
1.3965536961
  0
ELLIPSE
  5
37A
100
AcDbEntity
  8
0
100
AcDbEllipse
 62
7
  6
BYLAYER
 10
31.9639226283
 20
24.5617379263
 30
0.0
 11
0.0
 21
17.5084611122
 31
0.0
 40
0.963433044
 41
7.5529487364
 42
7.5827178802
  0
ELLIPSE
  5
37B
100
AcDbEntity
  8
0
100
AcDbEllipse
 62
7
  6
BYLAYER
 10
35.8068745204
 20
24.5617379263
 30
0.0
 11
-16.523808647
 21
16.7637596114
 31
0.0
 40
0.3057398728
 41
0.9770560841
 42
1.006825228
  0
ELLIPSE
  5
37C
100
AcDbEntity
  8
0
100
AcDbEllipse
 62
7
  6
BYLAYER
 10
36.6374485343
 20
24.5617379263
 30
0.0
 11
-17.4882083164
 21
17.4929960222
 31
0.0
 40
0.0420701413
 41
1.2277295755
 42
1.2574987193
  0
ELLIPSE
  5
37D
100
AcDbEntity
  8
0
100
AcDbEllipse
 62
7
  6
BYLAYER
 10
35.5577266878
 20
24.5617379263
 30
0.0
 11
-16.2246471729
 21
16.5418339295
 31
0.0
 40
0.3536019736
 41
0.9359228426
 42
0.9656919865
  0
ELLIPSE
  5
37E
100
AcDbEntity
  8
0
100
AcDbEllipse
 62
7
  6
BYLAYER
 10
27.2903967223
 20
24.5617379263
 30
0.0
 11
17.4882083164
 21
17.4929960222
 31
0.0
 40
0.0420701413
 41
-1.2574987193
 42
-1.2277295755
  0
ELLIPSE
  5
37F
100
AcDbEntity
  8
0
100
AcDbEllipse
 62
7
  6
BYLAYER
 10
27.3438171861
 20
24.5617379263
 30
0.0
 11
17.4274961419
 21
17.4466624083
 31
0.0
 40
0.0843354388
 41
-1.2154882239
 42
-1.18571908
  0
ELLIPSE
  5
380
100
AcDbEntity
  8
0
100
AcDbEllipse
 62
7
  6
BYLAYER
 10
27.432399442
 20
24.5617379263
 30
0.0
 11
17.326459176
 21
17.3696482286
 31
0.0
 40
0.1269935126
 41
-1.1735259851
 42
-1.1437568412
  0
ELLIPSE
  5
381
100
AcDbEntity
  8
0
100
AcDbEllipse
 62
7
  6
BYLAYER
 10
27.5554693256
 20
24.5617379263
 30
0.0
 11
17.185307668
 21
17.2622772411
 31
0.0
 40
0.1702469903
 41
-1.1316401859
 42
-1.101871042
  0
ELLIPSE
  5
382
100
AcDbEntity
  8
0
100
AcDbEllipse
 62
7
  6
BYLAYER
 10
27.7120902007
 20
24.5617379263
 30
0.0
 11
17.0043043001
 21
17.1250267564
 31
0.0
 40
0.2143062114
 41
-1.0898644977
 42
-1.0600953539
  0
ELLIPSE
  5
383
100
AcDbEntity
  8
0
100
AcDbEllipse
 62
7
  6
BYLAYER
 10
35.2812278363
 20
24.5617379263
 30
0.0
 11
-15.8860502942
 21
16.2944188981
 31
0.0
 40
0.4032531911
 41
0.8951788113
 42
0.9249479552
  0
ELLIPSE
  5
384
100
AcDbEntity
  8
0
100
AcDbEllipse
 62
7
  6
BYLAYER
 10
27.9010700879
 20
24.5617379263
 30
0.0
 11
16.7837266909
 21
16.9585571531
 31
0.0
 40
0.2593921815
 41
-1.0482411156
 42
-1.0184719717
  0
ELLIPSE
  5
385
100
AcDbEntity
  8
0
100
AcDbEllipse
 62
7
  6
BYLAYER
 10
28.1209707362
 20
24.5617379263
 30
0.0
 11
16.523808647
 21
16.7637596114
 31
0.0
 40
0.3057398728
 41
-1.006825228
 42
-0.9770560841
  0
ELLIPSE
  5
386
100
AcDbEntity
  8
0
100
AcDbEllipse
 62
7
  6
BYLAYER
 10
28.3701185688
 20
24.5617379263
 30
0.0
 11
16.2246471729
 21
16.5418339295
 31
0.0
 40
0.3536019736
 41
-0.9656919865
 42
-0.9359228426
  0
ELLIPSE
  5
387
100
AcDbEntity
  8
0
100
AcDbEllipse
 62
7
  6
BYLAYER
 10
28.6466174203
 20
24.5617379263
 30
0.0
 11
15.8860502942
 21
16.2944188981
 31
0.0
 40
0.4032531911
 41
-0.9249479552
 42
-0.8951788113
  0
ELLIPSE
  5
388
100
AcDbEntity
  8
0
100
AcDbEllipse
 62
7
  6
BYLAYER
 10
34.9794822892
 20
24.5617379263
 30
0.0
 11
-15.507275323
 21
16.023819938
 31
0.0
 40
0.4549951859
 41
0.8549818395
 42
0.8847509834
  0
ELLIPSE
  5
389
100
AcDbEntity
  8
0
100
AcDbEllipse
 62
7
  6
BYLAYER
 10
28.9483629674
 20
24.5617379263
 30
0.0
 11
15.507275323
 21
16.023819938
 31
0.0
 40
0.4549951859
 41
-0.8847509834
 42
-0.8549818395
  0
ELLIPSE
  5
38A
100
AcDbEntity
  8
0
100
AcDbEllipse
 62
7
  6
BYLAYER
 10
29.2730587445
 20
24.5617379263
 30
0.0
 11
15.0865489373
 21
15.7334287619
 31
0.0
 40
0.5091621171
 41
-0.8453469018
 42
-0.8155777579
  0
ELLIPSE
  5
38B
100
AcDbEntity
  8
0
100
AcDbEllipse
 62
7
  6
BYLAYER
 10
29.6182336204
 20
24.5617379263
 30
0.0
 11
14.6201143459
 21
15.4285527016
 31
0.0
 40
0.5661264515
 41
-0.8071425375
 42
-0.7773733936
  0
ELLIPSE
  5
38C
100
AcDbEntity
  8
0
100
AcDbEllipse
 62
7
  6
BYLAYER
 10
29.9812606061
 20
24.5617379263
 30
0.0
 11
14.1001405585
 21
15.1182070608
 31
0.0
 40
0.6263036642
 41
-0.7708653368
 42
-0.7410961929
  0
ELLIPSE
  5
38D
100
AcDbEntity
  8
0
100
AcDbEllipse
 62
7
  6
BYLAYER
 10
30.359376847
 20
24.5617379263
 30
0.0
 11
13.5094930283
 21
14.8194770471
 31
0.0
 40
0.6901509118
 41
-0.7379586644
 42
-0.7081895205
  0
ELLIPSE
  5
38E
100
AcDbEntity
  8
0
100
AcDbEllipse
 62
7
  6
BYLAYER
 10
30.7497046501
 20
24.5617379263
 30
0.0
 11
12.8060309747
 21
14.5700382847
 31
0.0
 40
0.7581403628
 41
-0.7117480936
 42
-0.6819789497
  0
ELLIPSE
  5
38F
100
AcDbEntity
  8
0
100
AcDbEllipse
 62
7
  6
BYLAYER
 10
31.1492733851
 20
24.5617379263
 30
0.0
 11
11.8601695234
 21
14.4741311195
 31
0.0
 40
0.8306103506
 41
-0.7019416878
 42
-0.6721725439
  0
ELLIPSE
  5
390
100
AcDbEntity
  8
0
100
AcDbEllipse
 62
7
  6
BYLAYER
 10
34.6547865121
 20
24.5617379263
 30
0.0
 11
-15.0865489373
 21
15.7334287619
 31
0.0
 40
0.5091621171
 41
0.8155777579
 42
0.8453469018
  0
ELLIPSE
  5
391
100
AcDbEntity
  8
0
100
AcDbEllipse
 62
7
  6
BYLAYER
 10
31.5550420928
 20
24.5617379263
 30
0.0
 11
10.0427045149
 21
14.9543464083
 31
0.0
 40
0.9066977799
 41
-0.7525948199
 42
-0.722825676
  0
ELLIPSE
  5
392
100
AcDbEntity
  8
0
100
AcDbEllipse
 62
7
  6
BYLAYER
 10
34.3096116362
 20
24.5617379263
 30
0.0
 11
-14.6201143459
 21
15.4285527016
 31
0.0
 40
0.5661264515
 41
0.7773733936
 42
0.8071425375
  0
ELLIPSE
  5
393
100
AcDbEntity
  8
0
100
AcDbEllipse
 62
7
  6
BYLAYER
 10
33.9465846505
 20
24.5617379263
 30
0.0
 11
-14.1001405585
 21
15.1182070608
 31
0.0
 40
0.6263036642
 41
0.7410961929
 42
0.7708653368
  0
ELLIPSE
  5
394
100
AcDbEntity
  8
0
100
AcDbEllipse
 62
7
  6
BYLAYER
 10
36.5840280705
 20
24.5617379263
 30
0.0
 11
-17.4274961419
 21
17.4466624083
 31
0.0
 40
0.0843354388
 41
1.18571908
 42
1.2154882239
  0
ELLIPSE
  5
395
100
AcDbEntity
  8
0
100
AcDbEllipse
 62
7
  6
BYLAYER
 10
33.5684684096
 20
24.5617379263
 30
0.0
 11
-13.5094930283
 21
14.8194770471
 31
0.0
 40
0.6901509118
 41
0.7081895205
 42
0.7379586644
  0
ELLIPSE
  5
396
100
AcDbEntity
  8
0
100
AcDbEllipse
 62
7
  6
BYLAYER
 10
36.4954458146
 20
24.5617379263
 30
0.0
 11
-17.326459176
 21
17.3696482286
 31
0.0
 40
0.1269935126
 41
1.1437568412
 42
1.1735259851
  0
ELLIPSE
  5
397
100
AcDbEntity
  8
0
100
AcDbEllipse
 62
7
  6
BYLAYER
 10
33.1781406065
 20
24.5617379263
 30
0.0
 11
-12.8060309747
 21
14.5700382847
 31
0.0
 40
0.7581403628
 41
0.6819789497
 42
0.7117480936
  0
ELLIPSE
  5
398
100
AcDbEntity
  8
0
100
AcDbEllipse
 62
7
  6
BYLAYER
 10
36.372375931
 20
24.5617379263
 30
0.0
 11
-17.185307668
 21
17.2622772411
 31
0.0
 40
0.1702469903
 41
1.101871042
 42
1.1316401859
  0
ELLIPSE
  5
399
100
AcDbEntity
  8
0
100
AcDbEllipse
 62
7
  6
BYLAYER
 10
32.7785718715
 20
24.5617379263
 30
0.0
 11
-11.8601695234
 21
14.4741311195
 31
0.0
 40
0.8306103506
 41
0.6721725439
 42
0.7019416878
  0
ELLIPSE
  5
39A
100
AcDbEntity
  8
0
100
AcDbEllipse
 62
7
  6
BYLAYER
 10
36.2157550559
 20
24.5617379263
 30
0.0
 11
-17.0043043001
 21
17.1250267564
 31
0.0
 40
0.2143062114
 41
1.0600953539
 42
1.0898644977
  0
ELLIPSE
  5
39B
100
AcDbEntity
  8
0
100
AcDbEllipse
 62
7
  6
BYLAYER
 10
32.3728031638
 20
24.5617379263
 30
0.0
 11
-10.0427045149
 21
14.9543464083
 31
0.0
 40
0.9066977799
 41
0.722825676
 42
0.7525948199
  0
ELLIPSE
  5
39C
100
AcDbEntity
  8
0
100
AcDbEllipse
 62
7
  6
BYLAYER
 10
36.0267751687
 20
24.5617379263
 30
0.0
 11
-16.7837266909
 21
16.9585571531
 31
0.0
 40
0.2593921815
 41
1.0184719717
 42
1.0482411156
  0
ENDSEC
  0
SECTION
  2
OBJECTS
  0
DICTIONARY
  5
C
100
AcDbDictionary
280
0
281
1
  3
ACAD_GROUP
350
D
  3
ACAD_MLINESTYLE
350
17
  3
ACAD_LAYOUT
350
1A
  3
ACAD_PLOTSETTINGS
350
19
  3
ACAD_PLOTSTYLENAME
350
E
  0
DICTIONARY
  5
D
102
{ACAD_REACTORS
330
C
102
}
100
AcDbDictionary
280
0
281
1
  0
ACDBDICTIONARYWDFLT
  5
E
102
{ACAD_REACTORS
330
C
102
}
100
AcDbDictionary
281
1
  3
Normal
350
F
100
AcDbDictionaryWithDefault
340
F
  0
DICTIONARY
  5
17
102
{ACAD_REACTORS
330
C
102
}
100
AcDbDictionary
280
0
281
1
  3
Standard
350
18
  0
DICTIONARY
  5
19
102
{ACAD_REACTORS
330
C
102
}
100
AcDbDictionary
281
1
  0
DICTIONARY
  5
1A
102
{ACAD_REACTORS
330
C
102
}
100
AcDbDictionary
281
1
  3
Model
350
39D
  3
Layout1
350
39E
  0
ACDBPLACEHOLDER
  5
F
102
{ACAD_REACTORS
330
E
102
}
  0
MLINESTYLE
  5
18
102
{ACAD_REACTORS
330
17
102
}
100
AcDbMlineStyle
  2
STANDARD
 70
0
  3

 62
256
 51
90.0
 52
90.0
 71
2
 49
0.5
 62
256
  6
BYLAYER
 49
-0.5
 62
256
  6
BYLAYER
  0
LAYOUT
  5
39D
102
{ACAD_REACTORS
330
1A
102
}
100
AcDbPlotSettings
  1

  2
none_device
  4

  6

 40
0.0
 41
0.0
 42
0.0
 43
0.0
 44
210.0
 45
297.0
 46
0.0
 47
0.0
 48
0.0
 49
0.0
140
0.0
141
0.0
142
1.0
143
1.0
 70
1024
 72
1
 73
0
 74
0
  7

 75
0
147
1.0
148
0.0
149
0.0
100
AcDbLayout
  1
Model
 70
0
 71
0
 10
0.0
 20
0.0
 11
210.0
 21
297.0
 12
0.0
 22
0.0
 32
0.0
 14
0.0
 24
0.0
 34
0.0
 15
0.0
 25
0.0
 35
0.0
146
0.0
 13
0.0
 23
0.0
 33
0.0
 16
1.0
 26
0.0
 36
0.0
 17
0.0
 27
1.0
 37
0.0
 76
0
330
210
345
0
346
0
  0
LAYOUT
  5
39E
102
{ACAD_REACTORS
330
1A
102
}
100
AcDbPlotSettings
  1

  2
none_device
  4

  6

 40
0.0
 41
0.0
 42
0.0
 43
0.0
 44
210.0
 45
297.0
 46
0.0
 47
0.0
 48
0.0
 49
0.0
140
0.0
141
0.0
142
1.0
143
1.0
 70
0
 72
1
 73
0
 74
0
  7

 75
0
147
1.0
148
0.0
149
0.0
100
AcDbLayout
  1
Layout1
 70
0
 71
1
 10
0.0
 20
0.0
 11
210.0
 21
297.0
 12
0.0
 22
0.0
 32
0.0
 14
0.0
 24
0.0
 34
0.0
 15
0.0
 25
0.0
 35
0.0
146
0.0
 13
0.0
 23
0.0
 33
0.0
 16
1.0
 26
0.0
 36
0.0
 17
0.0
 27
1.0
 37
0.0
 76
0
330
211
345
0
346
0
  0
ENDSEC
  0
EOF
