999
DXF file: C:\Users\sesa63760\Dev\_Creo\CAD\MCADID0005853_3D-CAD\mcadid0005853_3d-simplified_5.dxf
999
Pro/ENGINEER 2019471 by Parametric Technology Corporation
  0
SECTION
  2
HEADER
  9
$ACADVER
  1
AC1024
  9
$DWGCODEPAGE
  3
ANSI_1252
  9
$EXTMAX
 10
80.5475231619
 20
113.917211329
 30
0.0
  9
$EXTMIN
 10
0.0
 20
0.0
 30
0.0
  9
$LIMMIN
 10
0.0
 20
0.0
  9
$LIMMAX
 10
80.5475231619
 20
113.917211329
  9
$VIEWCTR
 10
40.273761581
 20
56.9586056645
  9
$VIEWSIZE
 40
113.917211329
  9
$CLAYER
  8
0
  9
$LTSCALE
 40
7.4257145163
  9
$CELTYPE
  6
BYLAYER
  9
$DIMSCALE
 40
1.0
  9
$DIMASZ
 40
0.9588990853
  9
$DIMEXO
 40
1.0
  9
$DIMDLI
 40
5.1304936658
  9
$DIMEXE
 40
1.0
  9
$DIMCEN
 40
1.2151169208
  9
$DIMLFAC
 40
1.0
  9
$DIMBLK
  1
_FILLED
  9
$DIMALT
 70
0
  9
$DIMALTF
 40
0.0393700787
  9
$DIMTXT
 40
1.3424587194
  9
$DIMTOL
 70
1
  9
$DIMLIM
 70
0
  9
$DIMTFAC
 40
1.0
  9
$DIMTP
 40
0.01
  9
$DIMTM
 40
0.01
  9
$DIMGAP
 40
0.625
  9
$DIMDSEP
 70
46
  9
$AUNITS
 70
0
  9
$PDMODE
 70
3
  9
$PDSIZE
 40
0.3125
  9
$HANDSEED
  5
28E
  9
$TILEMODE
 70
1
  9
$MEASUREMENT
 70
1
  9
$INSUNITS
 70
4
  0
ENDSEC
  0
SECTION
  2
CLASSES
  0
CLASS
  1
ACDBDICTIONARYWDFLT
  2
AcDbDictionaryWithDefault
  3
AutoCAD 2000
 90
0
 91
1
280
0
281
0
  0
CLASS
  1
ACDBPLACEHOLDER
  2
AcDbPlaceHolder
  3
AutoCAD 2000
 90
0
 91
1
280
0
281
0
  0
CLASS
  1
LAYOUT
  2
AcDbLayout
  3
AutoCAD 2000
 90
0
 91
0
280
0
281
0
  0
ENDSEC
  0
SECTION
  2
TABLES
  0
TABLE
  2
VPORT
  5
8
100
AcDbSymbolTable
 70
2
  0
VPORT
  5
1F4
100
AcDbSymbolTableRecord
100
AcDbViewportTableRecord
  2
*ACTIVE
 70
0
 10
0.0
 20
0.0
 11
1.0
 21
1.0
 12
40.273761581
 22
56.9586056645
 13
0.0
 23
0.0
 14
1.0
 24
1.0
 15
0.0
 25
0.0
 16
0.0
 26
0.0
 36
1.0
 17
0.0
 27
0.0
 37
0.0
 40
113.917211329
 41
0.7070707071
 42
50.0
 43
0.0
 44
0.0
 50
0.0
 51
0.0
 71
0
 72
100
 73
1
 74
1
 75
0
 76
0
 77
0
 78
0
  0
ENDTAB
  0
TABLE
  2
LTYPE
  5
5
100
AcDbSymbolTable
 70
6
  0
LTYPE
  5
14
100
AcDbSymbolTableRecord
100
AcDbLinetypeTableRecord
  2
BYBLOCK
 70
0
  3

 72
65
 73
0
 40
0.0
  0
LTYPE
  5
15
100
AcDbSymbolTableRecord
100
AcDbLinetypeTableRecord
  2
BYLAYER
 70
0
  3

 72
65
 73
0
 40
0.0
  0
LTYPE
  5
16
100
AcDbSymbolTableRecord
100
AcDbLinetypeTableRecord
  2
CONTINUOUS
 70
64
  3
Solid line
 72
65
 73
0
 40
0.0
  0
LTYPE
  5
1F5
100
AcDbSymbolTableRecord
100
AcDbLinetypeTableRecord
  2
CENTER
 70
64
  3
____ _ ____ _ ____ _ ____ _ ____ _ ____ _ ____
 72
65
 73
4
 40
0.6
 49
0.375
 74
0
 49
-0.075
 74
0
 49
0.075
 74
0
 49
-0.075
 74
0
  0
LTYPE
  5
1F6
100
AcDbSymbolTableRecord
100
AcDbLinetypeTableRecord
  2
HIDDEN
 70
64
  3
- - - - - - - - - - - - - - - - - - - -
 72
65
 73
2
 40
0.2
 49
0.1
 74
0
 49
-0.1
 74
0
  0
LTYPE
  5
1F7
100
AcDbSymbolTableRecord
100
AcDbLinetypeTableRecord
  2
PHANTOM
 70
64
  3
_____ _ _ _____ _ _ _____ _ _ _____
 72
65
 73
6
 40
0.8
 49
0.45
 74
0
 49
-0.05
 74
0
 49
0.1
 74
0
 49
-0.05
 74
0
 49
0.1
 74
0
 49
-0.05
 74
0
  0
LTYPE
  5
1F8
100
AcDbSymbolTableRecord
100
AcDbLinetypeTableRecord
  2
DOT
 70
64
  3
. . . . . . . . . . . . . . . . . . . .
 72
65
 73
2
 40
0.2
 49
0.1
 74
0
 49
-0.1
 74
0
  0
LTYPE
  5
1F9
100
AcDbSymbolTableRecord
100
AcDbLinetypeTableRecord
  2
DASHED
 70
64
  3
- - - - - - - - - - - - - - - - - - - -
 72
65
 73
2
 40
0.2
 49
0.1
 74
0
 49
-0.1
 74
0
  0
ENDTAB
  0
TABLE
  2
LAYER
  5
2
100
AcDbSymbolTable
 70
36
  0
LAYER
  5
10
100
AcDbSymbolTableRecord
100
AcDbLayerTableRecord
  2
0
 70
0
 62
7
  6
CONTINUOUS
370
-3
390
F
  0
LAYER
  5
1FA
100
AcDbSymbolTableRecord
100
AcDbLayerTableRecord
  2
DEFAULT_1
 70
0
 62
7
  6
CENTER
370
-3
390
F
  0
LAYER
  5
1FB
100
AcDbSymbolTableRecord
100
AcDbLayerTableRecord
  2
DEFAULT_2
 70
0
 62
7
  6
HIDDEN
370
-3
390
F
  0
LAYER
  5
1FC
100
AcDbSymbolTableRecord
100
AcDbLayerTableRecord
  2
DEFAULT_3
 70
0
 62
7
  6
PHANTOM
370
-3
390
F
  0
LAYER
  5
1FD
100
AcDbSymbolTableRecord
100
AcDbLayerTableRecord
  2
00_COMPONENTS
 70
0
 62
7
  6
CONTINUOUS
370
-3
390
F
  0
LAYER
  5
1FE
100
AcDbSymbolTableRecord
100
AcDbLayerTableRecord
  2
01_1_DEFAULT_DATUMS
 70
0
 62
7
  6
CONTINUOUS
370
-3
390
F
  0
LAYER
  5
1FF
100
AcDbSymbolTableRecord
100
AcDbLayerTableRecord
  2
01_PLANES
 70
0
 62
7
  6
CONTINUOUS
370
-3
390
F
  0
LAYER
  5
200
100
AcDbSymbolTableRecord
100
AcDbLayerTableRecord
  2
02_COORD_SYS
 70
0
 62
7
  6
CONTINUOUS
370
-3
390
F
  0
LAYER
  5
201
100
AcDbSymbolTableRecord
100
AcDbLayerTableRecord
  2
03_AXES
 70
0
 62
7
  6
CONTINUOUS
370
-3
390
F
  0
LAYER
  5
202
100
AcDbSymbolTableRecord
100
AcDbLayerTableRecord
  2
04_POINTS
 70
0
 62
7
  6
CONTINUOUS
370
-3
390
F
  0
LAYER
  5
203
100
AcDbSymbolTableRecord
100
AcDbLayerTableRecord
  2
05_CURVES
 70
0
 62
7
  6
CONTINUOUS
370
-3
390
F
  0
LAYER
  5
204
100
AcDbSymbolTableRecord
100
AcDbLayerTableRecord
  2
06_SURFS
 70
0
 62
7
  6
CONTINUOUS
370
-3
390
F
  0
LAYER
  5
205
100
AcDbSymbolTableRecord
100
AcDbLayerTableRecord
  2
07_COSMETICS
 70
0
 62
7
  6
CONTINUOUS
370
-3
390
F
  0
LAYER
  5
206
100
AcDbSymbolTableRecord
100
AcDbLayerTableRecord
  2
10_NOTES
 70
0
 62
7
  6
CONTINUOUS
370
-3
390
F
  0
LAYER
  5
207
100
AcDbSymbolTableRecord
100
AcDbLayerTableRecord
  2
11_NOTES_PUB
 70
0
 62
7
  6
CONTINUOUS
370
-3
390
F
  0
LAYER
  5
208
100
AcDbSymbolTableRecord
100
AcDbLayerTableRecord
  2
13_REF_GTOL
 70
0
 62
7
  6
CONTINUOUS
370
-3
390
F
  0
LAYER
  5
209
100
AcDbSymbolTableRecord
100
AcDbLayerTableRecord
  2
16_MISC
 70
0
 62
7
  6
CONTINUOUS
370
-3
390
F
  0
LAYER
  5
20A
100
AcDbSymbolTableRecord
100
AcDbLayerTableRecord
  2
17_NO_PRINT
 70
0
 62
7
  6
CONTINUOUS
370
-3
390
F
  0
LAYER
  5
20B
100
AcDbSymbolTableRecord
100
AcDbLayerTableRecord
  2
18_DATUM_CAMS_JOINTS
 70
0
 62
7
  6
CONTINUOUS
370
-3
390
F
  0
LAYER
  5
20C
100
AcDbSymbolTableRecord
100
AcDbLayerTableRecord
  2
19_DATUM_FUNCTIONAL
 70
0
 62
7
  6
CONTINUOUS
370
-3
390
F
  0
LAYER
  5
20D
100
AcDbSymbolTableRecord
100
AcDbLayerTableRecord
  2
20_DATUM_KINEMATIC_SCHEME
 70
0
 62
7
  6
CONTINUOUS
370
-3
390
F
  0
ENDTAB
  0
TABLE
  2
STYLE
  5
3
100
AcDbSymbolTable
 70
1
  0
STYLE
  5
11
100
AcDbSymbolTableRecord
100
AcDbTextStyleTableRecord
  2
STANDARD
 70
0
 40
0.0
 41
1.0
 50
0.0
 71
0
 42
0.2
  3
ARIAL.TTF
  4

  0
STYLE
  5
20E
100
AcDbSymbolTableRecord
100
AcDbTextStyleTableRecord
  2
TEXTSTYLE_1
 70
0
 40
0.0
 41
0.8
 50
0.0
 71
0
 42
0.2
  3
gdt
  4

  0
ENDTAB
  0
TABLE
  2
VIEW
  5
6
100
AcDbSymbolTable
 70
0
  0
ENDTAB
  0
TABLE
  2
UCS
  5
7
100
AcDbSymbolTable
 70
0
  0
ENDTAB
  0
TABLE
  2
APPID
  5
9
100
AcDbSymbolTable
 70
1
  0
APPID
  5
20F
100
AcDbSymbolTableRecord
100
AcDbRegAppTableRecord
  2
ACAD
 70
0
  0
ENDTAB
  0
TABLE
  2
BLOCK_RECORD
  5
1
100
AcDbSymbolTable
 70
0
  0
BLOCK_RECORD
  5
210
100
AcDbSymbolTableRecord
100
AcDbBlockTableRecord
  2
*Model_Space
  0
BLOCK_RECORD
  5
211
100
AcDbSymbolTableRecord
100
AcDbBlockTableRecord
  2
*Paper_Space
  0
BLOCK_RECORD
  5
212
100
AcDbSymbolTableRecord
100
AcDbBlockTableRecord
  2
_FILLED
  0
ENDTAB
  0
TABLE
  2
DIMSTYLE
  5
A
100
AcDbSymbolTable
 70
1
100
AcDbDimStyleTable
 71
0
  0
DIMSTYLE
105
213
100
AcDbSymbolTableRecord
100
AcDbDimStyleTableRecord
  2
STANDARD
 70
0
  3

  4

 40
1.0
 41
0.9588990853
 42
1.0
 43
0.38
 44
1.0
 45
0.0
 46
0.0
 47
0.01
 48
0.01
140
1.3424587194
141
0.09
142
0.0
143
25.4
144
1.0
145
0.0
146
1.0
147
0.625
 71
1
 72
0
 73
0
 74
0
 75
0
 76
0
 77
1
 78
8
 79
2
170
0
171
1
172
0
173
0
174
0
175
0
176
0
177
0
178
0
270
2
179
2
271
2
272
2
273
2
274
2
275
0
280
0
281
0
282
0
283
1
284
8
285
0
286
0
287
3
288
0
340
11
278
46
341
212
342
212
343
212
344
212
  0
ENDTAB
  0
ENDSEC
  0
SECTION
  2
BLOCKS
  0
BLOCK
  5
20
100
AcDbEntity
  8
0
100
AcDbBlockBegin
  2
*Model_Space
 70
0
 10
0.0
 20
0.0
 30
0.0
  3
*Model_Space
  1

  0
ENDBLK
  5
21
100
AcDbEntity
  8
0
100
AcDbBlockEnd
  0
BLOCK
  5
1C
100
AcDbEntity
  8
0
100
AcDbBlockBegin
  2
*Paper_Space
 70
0
 10
0.0
 20
0.0
 30
0.0
  3
*Paper_Space
  1

  0
ENDBLK
  5
1D
100
AcDbEntity
  8
0
100
AcDbBlockEnd
  0
BLOCK
  5
214
100
AcDbEntity
  8
0
100
AcDbBlockBegin
  2
_FILLED
 70
64
 10
0.0
 20
0.0
  3
_FILLED
  1

  0
SOLID
  5
215
100
AcDbEntity
  8
0
  6
BYBLOCK
 62
0
100
AcDbTrace
 10
0.0
 20
0.0
 11
-1.0
 21
0.25
 12
-1.0
 22
-0.25
 13
-1.0
 23
-0.25
  0
ENDBLK
  5
216
100
AcDbEntity
  8
0
  6
BYBLOCK
 62
0
100
AcDbBlockEnd
  0
ENDSEC
  0
SECTION
  2
ENTITIES
  0
LINE
  5
217
100
AcDbEntity
  8
0
100
AcDbLine
 62
7
  6
BYLAYER
 10
9.3892299905
 20
52.0480393908
 11
9.3892299905
 21
62.1480444084
  0
LINE
  5
218
100
AcDbEntity
  8
0
100
AcDbLine
 62
7
  6
BYLAYER
 10
9.5892299905
 20
51.8980392157
 11
9.5892299905
 21
62.2980392157
  0
LINE
  5
219
100
AcDbEntity
  8
0
100
AcDbLine
 62
7
  6
BYLAYER
 10
9.7892299905
 20
51.298290105
 11
9.7892299905
 21
62.8980058158
  0
LINE
  5
21A
100
AcDbEntity
  8
0
100
AcDbLine
 62
7
  6
BYLAYER
 10
9.9892299905
 20
51.0980392157
 11
9.9892299905
 21
63.0980392157
  0
LINE
  5
21B
100
AcDbEntity
  8
0
100
AcDbLine
 62
7
  6
BYLAYER
 10
12.3892299905
 20
48.5980420832
 11
12.3892299905
 21
65.5980363481
  0
LINE
  5
21C
100
AcDbEntity
  8
0
100
AcDbLine
 62
7
  6
BYLAYER
 10
12.3892299905
 20
65.5980392157
 11
13.0401661936
 21
66.7254937919
  0
LINE
  5
21D
100
AcDbEntity
  8
0
100
AcDbLine
 62
7
  6
BYLAYER
 10
12.3892299905
 20
48.5980392157
 11
13.0401661936
 21
47.4705846395
  0
LINE
  5
21E
100
AcDbEntity
  8
0
100
AcDbLine
 62
7
  6
BYLAYER
 10
9.7892299905
 20
62.8980392157
 11
9.9892299905
 21
63.0980392157
  0
LINE
  5
21F
100
AcDbEntity
  8
0
100
AcDbLine
 62
7
  6
BYLAYER
 10
9.7892299905
 20
51.2980392157
 11
9.9892299905
 21
51.0980392157
  0
LINE
  5
220
100
AcDbEntity
  8
0
100
AcDbLine
 62
7
  6
BYLAYER
 10
16.3892299905
 20
65.5980363481
 11
16.3892299905
 21
48.5980420832
  0
LINE
  5
221
100
AcDbEntity
  8
0
100
AcDbLine
 62
7
  6
BYLAYER
 10
20.3892299905
 20
65.5980392157
 11
21.0401661936
 21
66.7254937919
  0
LINE
  5
222
100
AcDbEntity
  8
0
100
AcDbLine
 62
7
  6
BYLAYER
 10
20.3892299905
 20
48.5980392157
 11
21.0401661936
 21
47.4705846395
  0
LINE
  5
223
100
AcDbEntity
  8
0
100
AcDbLine
 62
7
  6
BYLAYER
 10
20.3892299905
 20
48.5980420832
 11
20.3892299905
 21
65.5980363481
  0
LINE
  5
224
100
AcDbEntity
  8
0
100
AcDbLine
 62
7
  6
BYLAYER
 10
24.3892299905
 20
65.5980363481
 11
24.3892299905
 21
48.5980420832
  0
LINE
  5
225
100
AcDbEntity
  8
0
100
AcDbLine
 62
7
  6
BYLAYER
 10
16.3892299905
 20
48.5980392157
 11
15.7382937875
 21
47.4705846395
  0
LINE
  5
226
100
AcDbEntity
  8
0
100
AcDbLine
 62
7
  6
BYLAYER
 10
16.3892299905
 20
65.5980392157
 11
15.7382937875
 21
66.7254937919
  0
LINE
  5
227
100
AcDbEntity
  8
0
100
AcDbLine
 62
7
  6
BYLAYER
 10
24.3892299905
 20
48.5980392157
 11
23.7382937875
 21
47.4705846395
  0
LINE
  5
228
100
AcDbEntity
  8
0
100
AcDbLine
 62
7
  6
BYLAYER
 10
15.7146274242
 20
47.4330846395
 11
13.0638325569
 21
47.4330846395
  0
LINE
  5
229
100
AcDbEntity
  8
0
100
AcDbLine
 62
7
  6
BYLAYER
 10
21.0638325175
 20
47.4330846395
 11
23.7146274635
 21
47.4330846395
  0
LINE
  5
22A
100
AcDbEntity
  8
0
100
AcDbLine
 62
7
  6
BYLAYER
 10
15.7687223592
 20
47.5330846395
 11
13.0097376219
 21
47.5330846395
  0
LINE
  5
22B
100
AcDbEntity
  8
0
100
AcDbLine
 62
7
  6
BYLAYER
 10
21.0097376978
 20
47.5330846395
 11
23.768722281
 21
47.5330846395
  0
LINE
  5
22C
100
AcDbEntity
  8
0
100
AcDbLine
 62
7
  6
BYLAYER
 10
24.3892299905
 20
65.5980392157
 11
23.7382937875
 21
66.7254937919
  0
LINE
  5
22D
100
AcDbEntity
  8
0
100
AcDbLine
 62
7
  6
BYLAYER
 10
63.1996971817
 20
53.9251548277
 11
61.3892299905
 21
53.8302722627
  0
LINE
  5
22E
100
AcDbEntity
  8
0
100
AcDbLine
 62
7
  6
BYLAYER
 10
9.9892299905
 20
51.0980392157
 11
12.3892299905
 21
51.0980392157
  0
LINE
  5
22F
100
AcDbEntity
  8
0
100
AcDbLine
 62
7
  6
BYLAYER
 10
16.3892299905
 20
51.0980392157
 11
20.3892299905
 21
51.0980392157
  0
LINE
  5
230
100
AcDbEntity
  8
0
100
AcDbLine
 62
7
  6
BYLAYER
 10
24.3892299905
 20
51.0980392157
 11
50.3892299905
 21
51.0980392157
  0
LINE
  5
231
100
AcDbEntity
  8
0
100
AcDbLine
 62
7
  6
BYLAYER
 10
9.4569426305
 20
51.8980392157
 11
9.7892299905
 21
51.8980392157
  0
LINE
  5
232
100
AcDbEntity
  8
0
100
AcDbLine
 62
7
  6
BYLAYER
 10
15.7687222812
 20
51.9405619276
 11
13.0097377021
 21
51.9405619276
  0
LINE
  5
233
100
AcDbEntity
  8
0
100
AcDbLine
 62
7
  6
BYLAYER
 10
21.0097376252
 20
51.9405619276
 11
23.7687223559
 21
51.9405619276
  0
LINE
  5
234
100
AcDbEntity
  8
0
100
AcDbLine
 62
7
  6
BYLAYER
 10
51.3892299905
 20
52.0980392157
 11
59.0892299905
 21
52.0980392157
  0
LINE
  5
235
100
AcDbEntity
  8
0
100
AcDbLine
 62
7
  6
BYLAYER
 10
59.1892299905
 20
52.0980392157
 11
61.1892299905
 21
52.0980392157
  0
LINE
  5
236
100
AcDbEntity
  8
0
100
AcDbLine
 62
7
  6
BYLAYER
 10
59.0892299905
 20
52.1480392157
 11
59.1892299905
 21
52.1480392157
  0
LINE
  5
237
100
AcDbEntity
  8
0
100
AcDbLine
 62
7
  6
BYLAYER
 10
15.7146274647
 20
52.4905619276
 11
13.0638325164
 21
52.4905619276
  0
LINE
  5
238
100
AcDbEntity
  8
0
100
AcDbLine
 62
7
  6
BYLAYER
 10
21.0638325563
 20
52.4905619276
 11
23.7146274248
 21
52.4905619276
  0
LINE
  5
239
100
AcDbEntity
  8
0
100
AcDbLine
 62
7
  6
BYLAYER
 10
73.3892299905
 20
54.3302722627
 11
63.3892299905
 21
54.3302722627
  0
LINE
  5
23A
100
AcDbEntity
  8
0
100
AcDbLine
 62
7
  6
BYLAYER
 10
73.3892299905
 20
56.3302722627
 11
63.3892299905
 21
56.3302722627
  0
LINE
  5
23B
100
AcDbEntity
  8
0
100
AcDbLine
 62
7
  6
BYLAYER
 10
63.1996971817
 20
56.7353896978
 11
61.3892299905
 21
56.8302722627
  0
LINE
  5
23C
100
AcDbEntity
  8
0
100
AcDbLine
 62
7
  6
BYLAYER
 10
15.7146274248
 20
61.7055165038
 11
13.0638325563
 21
61.7055165038
  0
LINE
  5
23D
100
AcDbEntity
  8
0
100
AcDbLine
 62
7
  6
BYLAYER
 10
21.0638325164
 20
61.7055165038
 11
23.7146274647
 21
61.7055165038
  0
LINE
  5
23E
100
AcDbEntity
  8
0
100
AcDbLine
 62
7
  6
BYLAYER
 10
59.0892299905
 20
62.0480392157
 11
59.1892299905
 21
62.0480392157
  0
LINE
  5
23F
100
AcDbEntity
  8
0
100
AcDbLine
 62
7
  6
BYLAYER
 10
51.3892299905
 20
62.0980392157
 11
59.0892299905
 21
62.0980392157
  0
LINE
  5
240
100
AcDbEntity
  8
0
100
AcDbLine
 62
7
  6
BYLAYER
 10
59.1892299905
 20
62.0980392157
 11
61.1892299905
 21
62.0980392157
  0
LINE
  5
241
100
AcDbEntity
  8
0
100
AcDbLine
 62
7
  6
BYLAYER
 10
15.7687223592
 20
62.2555165038
 11
13.0097376219
 21
62.2555165038
  0
LINE
  5
242
100
AcDbEntity
  8
0
100
AcDbLine
 62
7
  6
BYLAYER
 10
21.0097376978
 20
62.2555165038
 11
23.768722281
 21
62.2555165038
  0
LINE
  5
243
100
AcDbEntity
  8
0
100
AcDbLine
 62
7
  6
BYLAYER
 10
9.4569426305
 20
62.2980392157
 11
9.7892299905
 21
62.2980392157
  0
LINE
  5
244
100
AcDbEntity
  8
0
100
AcDbLine
 62
7
  6
BYLAYER
 10
9.9892299905
 20
63.0980392157
 11
12.3892299905
 21
63.0980392157
  0
LINE
  5
245
100
AcDbEntity
  8
0
100
AcDbLine
 62
7
  6
BYLAYER
 10
16.3892299905
 20
63.0980392157
 11
20.3892299905
 21
63.0980392157
  0
LINE
  5
246
100
AcDbEntity
  8
0
100
AcDbLine
 62
7
  6
BYLAYER
 10
24.3892299905
 20
63.0980392157
 11
50.3892299905
 21
63.0980392157
  0
LINE
  5
247
100
AcDbEntity
  8
0
100
AcDbLine
 62
7
  6
BYLAYER
 10
50.3892299905
 20
63.0980392157
 11
50.3892299905
 21
51.0980392157
  0
LINE
  5
248
100
AcDbEntity
  8
0
100
AcDbLine
 62
7
  6
BYLAYER
 10
51.3892299905
 20
52.0980392157
 11
51.3892299905
 21
62.0980392157
  0
LINE
  5
249
100
AcDbEntity
  8
0
100
AcDbLine
 62
7
  6
BYLAYER
 10
51.3892299905
 20
52.0980392157
 11
50.3892299905
 21
51.0980392157
  0
LINE
  5
24A
100
AcDbEntity
  8
0
100
AcDbLine
 62
7
  6
BYLAYER
 10
15.7687222812
 20
66.6629937919
 11
13.0097377021
 21
66.6629937919
  0
LINE
  5
24B
100
AcDbEntity
  8
0
100
AcDbLine
 62
7
  6
BYLAYER
 10
21.0097376252
 20
66.6629937919
 11
23.7687223559
 21
66.6629937919
  0
LINE
  5
24C
100
AcDbEntity
  8
0
100
AcDbLine
 62
7
  6
BYLAYER
 10
15.7146274647
 20
66.7629937919
 11
13.0638325164
 21
66.7629937919
  0
LINE
  5
24D
100
AcDbEntity
  8
0
100
AcDbLine
 62
7
  6
BYLAYER
 10
21.0638325563
 20
66.7629937919
 11
23.7146274248
 21
66.7629937919
  0
LINE
  5
24E
100
AcDbEntity
  8
0
100
AcDbLine
 62
7
  6
BYLAYER
 10
51.3892299905
 20
62.0980392157
 11
50.3892299905
 21
63.0980392157
  0
LINE
  5
24F
100
AcDbEntity
  8
0
100
AcDbLine
 62
7
  6
BYLAYER
 10
59.0892299905
 20
62.0977693159
 11
59.0892299905
 21
52.0983091155
  0
LINE
  5
250
100
AcDbEntity
  8
0
100
AcDbLine
 62
7
  6
BYLAYER
 10
59.1892299905
 20
52.0983313451
 11
59.1892299905
 21
62.0979135367
  0
LINE
  5
251
100
AcDbEntity
  8
0
100
AcDbLine
 62
7
  6
BYLAYER
 10
61.1892299905
 20
62.0980392157
 11
61.1892299905
 21
52.0980392157
  0
LINE
  5
252
100
AcDbEntity
  8
0
100
AcDbLine
 62
7
  6
BYLAYER
 10
61.3892299905
 20
61.8979185072
 11
61.3892299905
 21
52.2983067409
  0
LINE
  5
253
100
AcDbEntity
  8
0
100
AcDbLine
 62
7
  6
BYLAYER
 10
63.1996971817
 20
56.7353896978
 11
63.1996971817
 21
53.9251548277
  0
LINE
  5
254
100
AcDbEntity
  8
0
100
AcDbLine
 62
7
  6
BYLAYER
 10
63.3892299905
 20
56.5355108787
 11
63.3892299905
 21
54.1250296612
  0
LINE
  5
255
100
AcDbEntity
  8
0
100
AcDbLine
 62
7
  6
BYLAYER
 10
73.3892299905
 20
56.3301386363
 11
73.3892299905
 21
54.3304058891
  0
ARC
  5
256
100
AcDbEntity
  8
0
100
AcDbCircle
 62
7
  6
BYLAYER
 10
23.6440865367
 20
63.0237907828
 40
10.6620646316
100
AcDbArc
 50
184.1321317055
 51
187.1023142191
  0
ARC
  5
257
100
AcDbEntity
  8
0
100
AcDbCircle
 62
7
  6
BYLAYER
 10
5.1343737969
 20
51.1722877473
 40
10.6620642696
100
AcDbArc
 50
4.1321313143
 51
7.102313927
  0
ARC
  5
258
100
AcDbEntity
  8
0
100
AcDbCircle
 62
7
  6
BYLAYER
 10
13.1509489752
 20
63.0221605068
 40
10.6454147247
100
AcDbArc
 50
352.8953625119
 51
355.8701915675
  0
ARC
  5
259
100
AcDbEntity
  8
0
100
AcDbCircle
 62
7
  6
BYLAYER
 10
31.6275106814
 20
51.1739180193
 40
10.645414391
100
AcDbArc
 50
172.8953628017
 51
175.8701919488
  0
ARC
  5
25A
100
AcDbEntity
  8
0
100
AcDbCircle
 62
7
  6
BYLAYER
 10
13.1794556929
 20
51.176721747
 40
10.6167801278
100
AcDbArc
 50
4.1257954759
 51
7.1086497736
  0
ARC
  5
25B
100
AcDbEntity
  8
0
100
AcDbCircle
 62
7
  6
BYLAYER
 10
31.5990039601
 20
63.0193567147
 40
10.616779806
100
AcDbArc
 50
184.1257957654
 51
187.1086501552
  0
ARC
  5
25C
100
AcDbEntity
  8
0
100
AcDbCircle
 62
7
  6
BYLAYER
 10
23.5777163629
 20
51.1788155078
 40
10.5953967462
100
AcDbArc
 50
172.8883395851
 51
175.8772151736
  0
ARC
  5
25D
100
AcDbEntity
  8
0
100
AcDbCircle
 62
7
  6
BYLAYER
 10
5.2007439313
 20
63.0172629564
 40
10.5953964395
100
AcDbArc
 50
352.8883391993
 51
355.877214876
  0
ARC
  5
25E
100
AcDbEntity
  8
0
100
AcDbCircle
 62
7
  6
BYLAYER
 10
9.5892299905
 20
52.0480392157
 40
0.2
100
AcDbArc
 50
180.0
 51
228.5903778907
  0
ARC
  5
25F
100
AcDbEntity
  8
0
100
AcDbCircle
 62
7
  6
BYLAYER
 10
9.5892299905
 20
62.1480392157
 40
0.2
100
AcDbArc
 50
131.4096221093
 51
180.0
  0
ARC
  5
260
100
AcDbEntity
  8
0
100
AcDbCircle
 62
7
  6
BYLAYER
 10
61.1892299905
 20
61.8980392157
 40
0.2
100
AcDbArc
 50
0.0
 51
90.0
  0
ARC
  5
261
100
AcDbEntity
  8
0
100
AcDbCircle
 62
7
  6
BYLAYER
 10
61.1892299905
 20
52.2980392157
 40
0.2
100
AcDbArc
 50
270.0
 51
360.0
  0
ARC
  5
262
100
AcDbEntity
  8
0
100
AcDbCircle
 62
7
  6
BYLAYER
 10
63.1892299905
 20
54.1248807346
 40
0.2
100
AcDbArc
 50
273.0
 51
360.0
  0
ARC
  5
263
100
AcDbEntity
  8
0
100
AcDbCircle
 62
7
  6
BYLAYER
 10
63.1892299905
 20
56.5356637908
 40
0.2
100
AcDbArc
 50
0.0
 51
87.0
  0
SPLINE
  5
264
100
AcDbEntity
  8
0
100
AcDbSpline
 62
7
  6
BYLAYER
 70
0
 71
3
 72
9
 73
5
 74
0
 42
0.0000001
 43
0.0000001
 44
0.0000000001
 40
0.0
 40
0.0
 40
0.0
 40
0.0
 40
0.2456458
 40
1.0
 40
1.0
 40
1.0
 40
1.0
 10
13.0401650019
 20
66.7254938059
 30
0.0
 10
13.0419805481
 20
66.728638885
 30
0.0
 10
13.049502307
 20
66.7413664115
 30
0.0
 10
13.0575325665
 20
66.7537917962
 30
0.0
 10
13.0638325164
 20
66.7629937919
 30
0.0
  0
SPLINE
  5
265
100
AcDbEntity
  8
0
100
AcDbSpline
 62
7
  6
BYLAYER
 70
0
 71
3
 72
9
 73
5
 74
0
 42
0.0000001
 43
0.0000001
 44
0.0000000001
 40
0.0
 40
0.0
 40
0.0
 40
0.0
 40
0.2456458007
 40
1.0
 40
1.0
 40
1.0
 40
1.0
 10
15.7382949797
 20
47.4705846254
 30
0.0
 10
15.7364794334
 20
47.4674395464
 30
0.0
 10
15.7289576738
 20
47.4547120199
 30
0.0
 10
15.7209274135
 20
47.4422866353
 30
0.0
 10
15.7146274636
 20
47.4330846395
 30
0.0
  0
SPLINE
  5
266
100
AcDbEntity
  8
0
100
AcDbSpline
 62
7
  6
BYLAYER
 70
0
 71
3
 72
9
 73
5
 74
0
 42
0.0000001
 43
0.0000001
 44
0.0000000001
 40
0.0
 40
0.0
 40
0.0
 40
0.0
 40
0.2544692698
 40
1.0
 40
1.0
 40
1.0
 40
1.0
 10
15.7146274647
 20
66.7629937919
 30
0.0
 10
15.7167526421
 20
66.7598896602
 30
0.0
 10
15.7249942651
 20
66.7476166174
 30
0.0
 10
15.7327848524
 20
66.7350390237
 30
0.0
 10
15.7382949792
 20
66.7254938059
 30
0.0
  0
SPLINE
  5
267
100
AcDbEntity
  8
0
100
AcDbSpline
 62
7
  6
BYLAYER
 70
0
 71
3
 72
9
 73
5
 74
0
 42
0.0000001
 43
0.0000001
 44
0.0000000001
 40
0.0
 40
0.0
 40
0.0
 40
0.0
 40
0.2544692671
 40
1.0
 40
1.0
 40
1.0
 40
1.0
 10
13.0638325175
 20
47.4330846395
 30
0.0
 10
13.06170734
 20
47.4361887712
 30
0.0
 10
13.0534657168
 20
47.4484618141
 30
0.0
 10
13.0456751286
 20
47.4610394076
 30
0.0
 10
13.0401650013
 20
47.4705846254
 30
0.0
  0
SPLINE
  5
268
100
AcDbEntity
  8
0
100
AcDbSpline
 62
7
  6
BYLAYER
 70
0
 71
3
 72
11
 73
7
 74
0
 42
0.0000001
 43
0.0000001
 44
0.0000000001
 40
0.0
 40
0.0
 40
0.0
 40
0.0
 40
0.2601204618
 40
0.5124282095
 40
0.7581430563
 40
1.0
 40
1.0
 40
1.0
 40
1.0
 10
15.7687222812
 20
66.6629937919
 30
0.0
 10
15.8627912252
 20
66.486017809
 30
0.0
 10
16.0345801877
 20
66.1298537873
 30
0.0
 10
16.2341690914
 20
65.5795354803
 30
0.0
 10
16.3602624002
 20
65.0218515787
 30
0.0
 10
16.3892299901
 20
64.6456063014
 30
0.0
 10
16.3892299905
 20
64.459255156
 30
0.0
  0
SPLINE
  5
269
100
AcDbEntity
  8
0
100
AcDbSpline
 62
7
  6
BYLAYER
 70
0
 71
3
 72
11
 73
7
 74
0
 42
0.0000001
 43
0.0000001
 44
0.0000000001
 40
0.0
 40
0.0
 40
0.0
 40
0.0
 40
0.2418538603
 40
0.487564387
 40
0.7398751911
 40
1.0
 40
1.0
 40
1.0
 40
1.0
 10
16.3892299905
 20
64.459255156
 30
0.0
 10
16.3892299909
 20
64.2729064909
 30
0.0
 10
16.3602532668
 20
63.8966688728
 30
0.0
 10
16.2341858691
 20
63.3389819961
 30
0.0
 10
16.0345607176
 20
62.7886744972
 30
0.0
 10
15.8627927442
 20
62.432495345
 30
0.0
 10
15.768722281
 20
62.2555165038
 30
0.0
  0
SPLINE
  5
26A
100
AcDbEntity
  8
0
100
AcDbSpline
 62
7
  6
BYLAYER
 70
0
 71
3
 72
11
 73
7
 74
0
 42
0.0000001
 43
0.0000001
 44
0.0000000001
 40
0.0
 40
0.0
 40
0.0
 40
0.0
 40
0.2500090903
 40
0.5000114244
 40
0.7500068075
 40
1.0
 40
1.0
 40
1.0
 40
1.0
 10
15.7146274248
 20
61.7055165038
 30
0.0
 10
15.8178696028
 20
61.3302746576
 30
0.0
 10
16.006242702
 20
60.5746202445
 30
0.0
 10
16.2220384701
 20
59.4264109195
 30
0.0
 10
16.3580877792
 20
58.265858515
 30
0.0
 10
16.3892299905
 20
57.4872000154
 30
0.0
 10
16.3892299905
 20
57.0980392157
 30
0.0
  0
SPLINE
  5
26B
100
AcDbEntity
  8
0
100
AcDbSpline
 62
7
  6
BYLAYER
 70
0
 71
3
 72
11
 73
7
 74
0
 42
0.0000001
 43
0.0000001
 44
0.0000000001
 40
0.0
 40
0.0
 40
0.0
 40
0.0
 40
0.2499932257
 40
0.4999886114
 40
0.7499909325
 40
1.0
 40
1.0
 40
1.0
 40
1.0
 10
16.3892299905
 20
57.0980392157
 30
0.0
 10
16.3892299905
 20
56.7088783644
 30
0.0
 10
16.3580877871
 20
55.9302198088
 30
0.0
 10
16.222038452
 20
54.7696673701
 30
0.0
 10
16.0062426413
 20
53.6214581073
 30
0.0
 10
15.8178695934
 20
52.8658037394
 30
0.0
 10
15.7146274248
 20
52.4905619276
 30
0.0
  0
SPLINE
  5
26C
100
AcDbEntity
  8
0
100
AcDbSpline
 62
7
  6
BYLAYER
 70
0
 71
3
 72
11
 73
7
 74
0
 42
0.0000001
 43
0.0000001
 44
0.0000000001
 40
0.0
 40
0.0
 40
0.0
 40
0.0
 40
0.2601204618
 40
0.5124282095
 40
0.7581430563
 40
1.0
 40
1.0
 40
1.0
 40
1.0
 10
15.7687222812
 20
51.9405619276
 30
0.0
 10
15.8627912247
 20
51.7635859456
 30
0.0
 10
16.0345801864
 20
51.4074219257
 30
0.0
 10
16.2341690895
 20
50.8571036218
 30
0.0
 10
16.3602623987
 20
50.2994197232
 30
0.0
 10
16.3892299895
 20
49.923174448
 30
0.0
 10
16.3892299905
 20
49.7368233035
 30
0.0
  0
SPLINE
  5
26D
100
AcDbEntity
  8
0
100
AcDbSpline
 62
7
  6
BYLAYER
 70
0
 71
3
 72
11
 73
7
 74
0
 42
0.0000001
 43
0.0000001
 44
0.0000000001
 40
0.0
 40
0.0
 40
0.0
 40
0.0
 40
0.2500090903
 40
0.5000114244
 40
0.7500068075
 40
1.0
 40
1.0
 40
1.0
 40
1.0
 10
13.0638325563
 20
52.4905619276
 30
0.0
 10
12.9605903782
 20
52.8658037737
 30
0.0
 10
12.7722172791
 20
53.6214581869
 30
0.0
 10
12.556421511
 20
54.7696675118
 30
0.0
 10
12.4203722019
 20
55.9302199164
 30
0.0
 10
12.3892299905
 20
56.708878416
 30
0.0
 10
12.3892299905
 20
57.0980392157
 30
0.0
  0
SPLINE
  5
26E
100
AcDbEntity
  8
0
100
AcDbSpline
 62
7
  6
BYLAYER
 70
0
 71
3
 72
11
 73
7
 74
0
 42
0.0000001
 43
0.0000001
 44
0.0000000001
 40
0.0
 40
0.0
 40
0.0
 40
0.0
 40
0.2418538605
 40
0.4875643873
 40
0.7398751913
 40
1.0
 40
1.0
 40
1.0
 40
1.0
 10
12.3892299905
 20
49.7368232909
 30
0.0
 10
12.3892299909
 20
49.9231719548
 30
0.0
 10
12.4182067262
 20
50.2994095695
 30
0.0
 10
12.5442741188
 20
50.8570964427
 30
0.0
 10
12.7438992703
 20
51.4074039372
 30
0.0
 10
12.9156672396
 20
51.7635830878
 30
0.0
 10
13.0097377021
 20
51.9405619276
 30
0.0
  0
SPLINE
  5
26F
100
AcDbEntity
  8
0
100
AcDbSpline
 62
7
  6
BYLAYER
 70
0
 71
3
 72
9
 73
5
 74
0
 42
0.0000001
 43
0.0000001
 44
0.0000000001
 40
0.0
 40
0.0
 40
0.0
 40
0.0
 40
0.2567408467
 40
1.0
 40
1.0
 40
1.0
 40
1.0
 10
13.0401650013
 20
47.4705846254
 30
0.0
 10
13.037189386
 20
47.475739297
 30
0.0
 10
13.0259371797
 20
47.4960081026
 30
0.0
 10
13.0160797009
 20
47.5170636923
 30
0.0
 10
13.0097376219
 20
47.5330846395
 30
0.0
  0
SPLINE
  5
270
100
AcDbEntity
  8
0
100
AcDbSpline
 62
7
  6
BYLAYER
 70
0
 71
3
 72
11
 73
7
 74
0
 42
0.0000001
 43
0.0000001
 44
0.0000000001
 40
0.0
 40
0.0
 40
0.0
 40
0.0
 40
0.2499932257
 40
0.4999886114
 40
0.7499909325
 40
1.0
 40
1.0
 40
1.0
 40
1.0
 10
12.3892299905
 20
57.0980392157
 30
0.0
 10
12.3892299905
 20
57.4872000669
 30
0.0
 10
12.420372194
 20
58.2658586226
 30
0.0
 10
12.556421529
 20
59.4264110613
 30
0.0
 10
12.7722173398
 20
60.574620324
 30
0.0
 10
12.9605903877
 20
61.3302746919
 30
0.0
 10
13.0638325563
 20
61.7055165038
 30
0.0
  0
SPLINE
  5
271
100
AcDbEntity
  8
0
100
AcDbSpline
 62
7
  6
BYLAYER
 70
0
 71
3
 72
9
 73
5
 74
0
 42
0.0000001
 43
0.0000001
 44
0.0000000001
 40
0.0
 40
0.0
 40
0.0
 40
0.0
 40
0.2567408466
 40
1.0
 40
1.0
 40
1.0
 40
1.0
 10
15.7382949792
 20
66.7254938059
 30
0.0
 10
15.7412705943
 20
66.7203391344
 30
0.0
 10
15.7525227999
 20
66.7000703288
 30
0.0
 10
15.762380277
 20
66.6790147387
 30
0.0
 10
15.7687223559
 20
66.6629937919
 30
0.0
  0
SPLINE
  5
272
100
AcDbEntity
  8
0
100
AcDbSpline
 62
7
  6
BYLAYER
 70
0
 71
3
 72
11
 73
7
 74
0
 42
0.0000001
 43
0.0000001
 44
0.0000000001
 40
0.0
 40
0.0
 40
0.0
 40
0.0
 40
0.260120462
 40
0.5124282098
 40
0.7581430565
 40
1.0
 40
1.0
 40
1.0
 40
1.0
 10
13.0097376978
 20
62.2555165038
 30
0.0
 10
12.9156687534
 20
62.4324924875
 30
0.0
 10
12.7438797881
 20
62.7886565097
 30
0.0
 10
12.5442908835
 20
63.3389748184
 30
0.0
 10
12.4181975708
 20
63.8966587217
 30
0.0
 10
12.3892299906
 20
64.2729040009
 30
0.0
 10
12.3892299905
 20
64.4592551468
 30
0.0
  0
SPLINE
  5
273
100
AcDbEntity
  8
0
100
AcDbSpline
 62
7
  6
BYLAYER
 70
0
 71
3
 72
11
 73
7
 74
0
 42
0.0000001
 43
0.0000001
 44
0.0000000001
 40
0.0
 40
0.0
 40
0.0
 40
0.0
 40
0.2418538605
 40
0.4875643873
 40
0.7398751913
 40
1.0
 40
1.0
 40
1.0
 40
1.0
 10
12.3892299905
 20
64.4592551468
 30
0.0
 10
12.3892299905
 20
64.6456038114
 30
0.0
 10
12.4182067251
 20
65.0218414275
 30
0.0
 10
12.5442741175
 20
65.5795283029
 30
0.0
 10
12.7438992694
 20
66.1298357995
 30
0.0
 10
12.9156672393
 20
66.4860149515
 30
0.0
 10
13.0097377021
 20
66.6629937919
 30
0.0
  0
SPLINE
  5
274
100
AcDbEntity
  8
0
100
AcDbSpline
 62
7
  6
BYLAYER
 70
0
 71
3
 72
9
 73
5
 74
0
 42
0.0000001
 43
0.0000001
 44
0.0000000001
 40
0.0
 40
0.0
 40
0.0
 40
0.0
 40
0.2437250685
 40
1.0
 40
1.0
 40
1.0
 40
1.0
 10
13.0097376252
 20
66.6629937919
 30
0.0
 10
13.0118173262
 20
66.6682473972
 30
0.0
 10
13.020781782
 20
66.6896309897
 30
0.0
 10
13.0313996205
 20
66.7103094959
 30
0.0
 10
13.0401650019
 20
66.7254938059
 30
0.0
  0
SPLINE
  5
275
100
AcDbEntity
  8
0
100
AcDbSpline
 62
7
  6
BYLAYER
 70
0
 71
3
 72
11
 73
7
 74
0
 42
0.0000001
 43
0.0000001
 44
0.0000000001
 40
0.0
 40
0.0
 40
0.0
 40
0.0
 40
0.2418538603
 40
0.487564387
 40
0.7398751911
 40
1.0
 40
1.0
 40
1.0
 40
1.0
 10
16.3892299905
 20
49.7368233035
 30
0.0
 10
16.3892299915
 20
49.5504746375
 30
0.0
 10
16.3602532683
 20
49.1742370173
 30
0.0
 10
16.2341858709
 20
48.6165501376
 30
0.0
 10
16.0345607189
 20
48.0662426357
 30
0.0
 10
15.8627927447
 20
47.7100634816
 30
0.0
 10
15.768722281
 20
47.5330846395
 30
0.0
  0
SPLINE
  5
276
100
AcDbEntity
  8
0
100
AcDbSpline
 62
7
  6
BYLAYER
 70
0
 71
3
 72
9
 73
5
 74
0
 42
0.0000001
 43
0.0000001
 44
0.0000000001
 40
0.0
 40
0.0
 40
0.0
 40
0.0
 40
0.2437250668
 40
1.0
 40
1.0
 40
1.0
 40
1.0
 10
15.7687223592
 20
47.5330846395
 30
0.0
 10
15.7666426581
 20
47.5278310341
 30
0.0
 10
15.7576782014
 20
47.5064474415
 30
0.0
 10
15.7470603618
 20
47.4857689355
 30
0.0
 10
15.7382949797
 20
47.4705846254
 30
0.0
  0
SPLINE
  5
277
100
AcDbEntity
  8
0
100
AcDbSpline
 62
7
  6
BYLAYER
 70
0
 71
3
 72
11
 73
7
 74
0
 42
0.0000001
 43
0.0000001
 44
0.0000000001
 40
0.0
 40
0.0
 40
0.0
 40
0.0
 40
0.260120462
 40
0.5124282098
 40
0.7581430565
 40
1.0
 40
1.0
 40
1.0
 40
1.0
 10
13.0097376978
 20
47.5330846395
 30
0.0
 10
12.9156687531
 20
47.7100606238
 30
0.0
 10
12.7438797872
 20
48.0662246474
 30
0.0
 10
12.5442908822
 20
48.6165429582
 30
0.0
 10
12.4181975698
 20
49.1742268637
 30
0.0
 10
12.3892299902
 20
49.5504721443
 30
0.0
 10
12.3892299905
 20
49.7368232909
 30
0.0
  0
SPLINE
  5
278
100
AcDbEntity
  8
0
100
AcDbSpline
 62
7
  6
BYLAYER
 70
0
 71
3
 72
9
 73
5
 74
0
 42
0.0000001
 43
0.0000001
 44
0.0000000001
 40
0.0
 40
0.0
 40
0.0
 40
0.0
 40
0.2456243696
 40
1.0
 40
1.0
 40
1.0
 40
1.0
 10
23.7382984872
 20
66.7254938472
 30
0.0
 10
23.7364836324
 20
66.728639139
 30
0.0
 10
23.7289623474
 20
66.7413677296
 30
0.0
 10
23.7209278632
 20
66.7537911409
 30
0.0
 10
23.7146274647
 20
66.7629937919
 30
0.0
  0
SPLINE
  5
279
100
AcDbEntity
  8
0
100
AcDbSpline
 62
7
  6
BYLAYER
 70
0
 71
3
 72
9
 73
5
 74
0
 42
0.0000001
 43
0.0000001
 44
0.0000000001
 40
0.0
 40
0.0
 40
0.0
 40
0.0
 40
0.2456243703
 40
1.0
 40
1.0
 40
1.0
 40
1.0
 10
21.0401614934
 20
47.4705845841
 30
0.0
 10
21.0419763483
 20
47.4674392923
 30
0.0
 10
21.0494976339
 20
47.4547107018
 30
0.0
 10
21.0575321189
 20
47.4422872907
 30
0.0
 10
21.0638325175
 20
47.4330846395
 30
0.0
  0
SPLINE
  5
27A
100
AcDbEntity
  8
0
100
AcDbSpline
 62
7
  6
BYLAYER
 70
0
 71
3
 72
9
 73
5
 74
0
 42
0.0000001
 43
0.0000001
 44
0.0000000001
 40
0.0
 40
0.0
 40
0.0
 40
0.0
 40
0.2544718215
 40
1.0
 40
1.0
 40
1.0
 40
1.0
 10
23.7146274635
 20
47.4330846395
 30
0.0
 10
23.7167527506
 20
47.4361889313
 30
0.0
 10
23.7249959114
 20
47.4484616356
 30
0.0
 10
23.7327900043
 20
47.4610379324
 30
0.0
 10
23.7382984877
 20
47.4705845841
 30
0.0
  0
SPLINE
  5
27B
100
AcDbEntity
  8
0
100
AcDbSpline
 62
7
  6
BYLAYER
 70
0
 71
3
 72
9
 73
5
 74
0
 42
0.0000001
 43
0.0000001
 44
0.0000000001
 40
0.0
 40
0.0
 40
0.0
 40
0.0
 40
0.2544718243
 40
1.0
 40
1.0
 40
1.0
 40
1.0
 10
21.0638325164
 20
66.7629937919
 30
0.0
 10
21.0617072293
 20
66.7598895001
 30
0.0
 10
21.0534640689
 20
66.7476167959
 30
0.0
 10
21.0456699768
 20
66.7350404989
 30
0.0
 10
21.0401614939
 20
66.7254938472
 30
0.0
  0
SPLINE
  5
27C
100
AcDbEntity
  8
0
100
AcDbSpline
 62
7
  6
BYLAYER
 70
0
 71
3
 72
9
 73
5
 74
0
 42
0.0000001
 43
0.0000001
 44
0.0000000001
 40
0.0
 40
0.0
 40
0.0
 40
0.0
 40
0.256707118
 40
1.0
 40
1.0
 40
1.0
 40
1.0
 10
23.7382984877
 20
47.4705845841
 30
0.0
 10
23.7412726333
 20
47.4757390214
 30
0.0
 10
23.7525155015
 20
47.4960122258
 30
0.0
 10
23.7623801583
 20
47.5170633844
 30
0.0
 10
23.7687223591
 20
47.5330846395
 30
0.0
  0
SPLINE
  5
27D
100
AcDbEntity
  8
0
100
AcDbSpline
 62
7
  6
BYLAYER
 70
0
 71
3
 72
11
 73
7
 74
0
 42
0.0000001
 43
0.0000001
 44
0.0000000001
 40
0.0
 40
0.0
 40
0.0
 40
0.0
 40
0.2601204618
 40
0.5124282095
 40
0.7581430563
 40
1.0
 40
1.0
 40
1.0
 40
1.0
 10
23.7687222813
 20
66.6629937919
 30
0.0
 10
23.8627912256
 20
66.4860178083
 30
0.0
 10
24.0345801887
 20
66.1298537851
 30
0.0
 10
24.2341690928
 20
65.5795354759
 30
0.0
 10
24.3602624014
 20
65.0218515718
 30
0.0
 10
24.3892299906
 20
64.645606293
 30
0.0
 10
24.3892299905
 20
64.4592551468
 30
0.0
  0
SPLINE
  5
27E
100
AcDbEntity
  8
0
100
AcDbSpline
 62
7
  6
BYLAYER
 70
0
 71
3
 72
11
 73
7
 74
0
 42
0.0000001
 43
0.0000001
 44
0.0000000001
 40
0.0
 40
0.0
 40
0.0
 40
0.0
 40
0.2500090903
 40
0.5000114244
 40
0.7500068075
 40
1.0
 40
1.0
 40
1.0
 40
1.0
 10
23.7146274248
 20
61.7055165038
 30
0.0
 10
23.8178696028
 20
61.3302746576
 30
0.0
 10
24.006242702
 20
60.5746202445
 30
0.0
 10
24.2220384701
 20
59.4264109195
 30
0.0
 10
24.3580877792
 20
58.265858515
 30
0.0
 10
24.3892299905
 20
57.4872000154
 30
0.0
 10
24.3892299905
 20
57.0980392157
 30
0.0
  0
SPLINE
  5
27F
100
AcDbEntity
  8
0
100
AcDbSpline
 62
7
  6
BYLAYER
 70
0
 71
3
 72
11
 73
7
 74
0
 42
0.0000001
 43
0.0000001
 44
0.0000000001
 40
0.0
 40
0.0
 40
0.0
 40
0.0
 40
0.2418538603
 40
0.4875643871
 40
0.7398751911
 40
1.0
 40
1.0
 40
1.0
 40
1.0
 10
24.3892299905
 20
64.4592551468
 30
0.0
 10
24.3892299905
 20
64.2729064825
 30
0.0
 10
24.3602532656
 20
63.8966688659
 30
0.0
 10
24.2341858676
 20
63.3389819916
 30
0.0
 10
24.0345607166
 20
62.788674495
 30
0.0
 10
23.8627927438
 20
62.4324953443
 30
0.0
 10
23.768722281
 20
62.2555165038
 30
0.0
  0
SPLINE
  5
280
100
AcDbEntity
  8
0
100
AcDbSpline
 62
7
  6
BYLAYER
 70
0
 71
3
 72
11
 73
7
 74
0
 42
0.0000001
 43
0.0000001
 44
0.0000000001
 40
0.0
 40
0.0
 40
0.0
 40
0.0
 40
0.2601204621
 40
0.5124282098
 40
0.7581430565
 40
1.0
 40
1.0
 40
1.0
 40
1.0
 10
21.0097376978
 20
47.5330846395
 30
0.0
 10
20.9156687526
 20
47.7100606248
 30
0.0
 10
20.7438797858
 20
48.0662246503
 30
0.0
 10
20.5442908802
 20
48.6165429644
 30
0.0
 10
20.4181975682
 20
49.1742268731
 30
0.0
 10
20.3892299895
 20
49.5504721559
 30
0.0
 10
20.3892299905
 20
49.7368233035
 30
0.0
  0
SPLINE
  5
281
100
AcDbEntity
  8
0
100
AcDbSpline
 62
7
  6
BYLAYER
 70
0
 71
3
 72
9
 73
5
 74
0
 42
0.0000001
 43
0.0000001
 44
0.0000000001
 40
0.0
 40
0.0
 40
0.0
 40
0.0
 40
0.2567071179
 40
1.0
 40
1.0
 40
1.0
 40
1.0
 10
21.0401614939
 20
66.7254938472
 30
0.0
 10
21.0371873486
 20
66.72033941
 30
0.0
 10
21.025944481
 20
66.7000662056
 30
0.0
 10
21.016079826
 20
66.6790150467
 30
0.0
 10
21.0097376252
 20
66.6629937919
 30
0.0
  0
SPLINE
  5
282
100
AcDbEntity
  8
0
100
AcDbSpline
 62
7
  6
BYLAYER
 70
0
 71
3
 72
9
 73
5
 74
0
 42
0.0000001
 43
0.0000001
 44
0.0000000001
 40
0.0
 40
0.0
 40
0.0
 40
0.0
 40
0.2437475327
 40
1.0
 40
1.0
 40
1.0
 40
1.0
 10
21.0097376219
 20
47.5330846395
 30
0.0
 10
21.011817462
 20
47.5278306828
 30
0.0
 10
21.0207885978
 20
47.5064505247
 30
0.0
 10
21.0313995425
 20
47.4857697608
 30
0.0
 10
21.0401614934
 20
47.4705845841
 30
0.0
  0
SPLINE
  5
283
100
AcDbEntity
  8
0
100
AcDbSpline
 62
7
  6
BYLAYER
 70
0
 71
3
 72
9
 73
5
 74
0
 42
0.0000001
 43
0.0000001
 44
0.0000000001
 40
0.0
 40
0.0
 40
0.0
 40
0.0
 40
0.2437475344
 40
1.0
 40
1.0
 40
1.0
 40
1.0
 10
23.7687223559
 20
66.6629937919
 30
0.0
 10
23.7666425158
 20
66.6682477485
 30
0.0
 10
23.757671381
 20
66.6896279065
 30
0.0
 10
23.7470604373
 20
66.7103086705
 30
0.0
 10
23.7382984872
 20
66.7254938472
 30
0.0
  0
SPLINE
  5
284
100
AcDbEntity
  8
0
100
AcDbSpline
 62
7
  6
BYLAYER
 70
0
 71
3
 72
11
 73
7
 74
0
 42
0.0000001
 43
0.0000001
 44
0.0000000001
 40
0.0
 40
0.0
 40
0.0
 40
0.0
 40
0.2418538603
 40
0.487564387
 40
0.7398751911
 40
1.0
 40
1.0
 40
1.0
 40
1.0
 10
24.3892299905
 20
49.7368232909
 30
0.0
 10
24.3892299909
 20
49.5504746259
 30
0.0
 10
24.3602532667
 20
49.1742370079
 30
0.0
 10
24.2341858689
 20
48.6165501314
 30
0.0
 10
24.0345607175
 20
48.0662426327
 30
0.0
 10
23.8627927442
 20
47.7100634806
 30
0.0
 10
23.768722281
 20
47.5330846395
 30
0.0
  0
SPLINE
  5
285
100
AcDbEntity
  8
0
100
AcDbSpline
 62
7
  6
BYLAYER
 70
0
 71
3
 72
11
 73
7
 74
0
 42
0.0000001
 43
0.0000001
 44
0.0000000001
 40
0.0
 40
0.0
 40
0.0
 40
0.0
 40
0.2418538605
 40
0.4875643873
 40
0.7398751913
 40
1.0
 40
1.0
 40
1.0
 40
1.0
 10
20.3892299905
 20
64.459255156
 30
0.0
 10
20.389229991
 20
64.6456038198
 30
0.0
 10
20.4182067263
 20
65.0218414344
 30
0.0
 10
20.5442741189
 20
65.5795283074
 30
0.0
 10
20.7438992704
 20
66.1298358017
 30
0.0
 10
20.9156672396
 20
66.4860149522
 30
0.0
 10
21.0097377021
 20
66.6629937919
 30
0.0
  0
SPLINE
  5
286
100
AcDbEntity
  8
0
100
AcDbSpline
 62
7
  6
BYLAYER
 70
0
 71
3
 72
11
 73
7
 74
0
 42
0.0000001
 43
0.0000001
 44
0.0000000001
 40
0.0
 40
0.0
 40
0.0
 40
0.0
 40
0.260120462
 40
0.5124282098
 40
0.7581430565
 40
1.0
 40
1.0
 40
1.0
 40
1.0
 10
21.0097376978
 20
62.2555165038
 30
0.0
 10
20.9156687531
 20
62.4324924882
 30
0.0
 10
20.7438797871
 20
62.7886565119
 30
0.0
 10
20.544290882
 20
63.3389748229
 30
0.0
 10
20.4181975697
 20
63.8966587286
 30
0.0
 10
20.3892299901
 20
64.2729040093
 30
0.0
 10
20.3892299905
 20
64.459255156
 30
0.0
  0
SPLINE
  5
287
100
AcDbEntity
  8
0
100
AcDbSpline
 62
7
  6
BYLAYER
 70
0
 71
3
 72
11
 73
7
 74
0
 42
0.0000001
 43
0.0000001
 44
0.0000000001
 40
0.0
 40
0.0
 40
0.0
 40
0.0
 40
0.2499932257
 40
0.4999886114
 40
0.7499909325
 40
1.0
 40
1.0
 40
1.0
 40
1.0
 10
20.3892299905
 20
57.0980392157
 30
0.0
 10
20.3892299905
 20
57.4872000669
 30
0.0
 10
20.420372194
 20
58.2658586226
 30
0.0
 10
20.556421529
 20
59.4264110613
 30
0.0
 10
20.7722173398
 20
60.574620324
 30
0.0
 10
20.9605903877
 20
61.3302746919
 30
0.0
 10
21.0638325563
 20
61.7055165038
 30
0.0
  0
SPLINE
  5
288
100
AcDbEntity
  8
0
100
AcDbSpline
 62
7
  6
BYLAYER
 70
0
 71
3
 72
11
 73
7
 74
0
 42
0.0000001
 43
0.0000001
 44
0.0000000001
 40
0.0
 40
0.0
 40
0.0
 40
0.0
 40
0.2500090903
 40
0.5000114244
 40
0.7500068075
 40
1.0
 40
1.0
 40
1.0
 40
1.0
 10
21.0638325563
 20
52.4905619276
 30
0.0
 10
20.9605903782
 20
52.8658037737
 30
0.0
 10
20.7722172791
 20
53.6214581869
 30
0.0
 10
20.556421511
 20
54.7696675118
 30
0.0
 10
20.4203722019
 20
55.9302199164
 30
0.0
 10
20.3892299905
 20
56.708878416
 30
0.0
 10
20.3892299905
 20
57.0980392157
 30
0.0
  0
SPLINE
  5
289
100
AcDbEntity
  8
0
100
AcDbSpline
 62
7
  6
BYLAYER
 70
0
 71
3
 72
11
 73
7
 74
0
 42
0.0000001
 43
0.0000001
 44
0.0000000001
 40
0.0
 40
0.0
 40
0.0
 40
0.0
 40
0.2418538605
 40
0.4875643873
 40
0.7398751914
 40
1.0
 40
1.0
 40
1.0
 40
1.0
 10
20.3892299905
 20
49.7368233035
 30
0.0
 10
20.3892299915
 20
49.9231719664
 30
0.0
 10
20.4182067278
 20
50.299409579
 30
0.0
 10
20.5442741208
 20
50.8570964488
 30
0.0
 10
20.7438992717
 20
51.4074039401
 30
0.0
 10
20.9156672401
 20
51.7635830888
 30
0.0
 10
21.0097377021
 20
51.9405619276
 30
0.0
  0
SPLINE
  5
28A
100
AcDbEntity
  8
0
100
AcDbSpline
 62
7
  6
BYLAYER
 70
0
 71
3
 72
11
 73
7
 74
0
 42
0.0000001
 43
0.0000001
 44
0.0000000001
 40
0.0
 40
0.0
 40
0.0
 40
0.0
 40
0.2499932257
 40
0.4999886114
 40
0.7499909325
 40
1.0
 40
1.0
 40
1.0
 40
1.0
 10
24.3892299905
 20
57.0980392157
 30
0.0
 10
24.3892299905
 20
56.7088783644
 30
0.0
 10
24.3580877871
 20
55.9302198088
 30
0.0
 10
24.222038452
 20
54.7696673701
 30
0.0
 10
24.0062426413
 20
53.6214581073
 30
0.0
 10
23.8178695934
 20
52.8658037394
 30
0.0
 10
23.7146274248
 20
52.4905619276
 30
0.0
  0
SPLINE
  5
28B
100
AcDbEntity
  8
0
100
AcDbSpline
 62
7
  6
BYLAYER
 70
0
 71
3
 72
11
 73
7
 74
0
 42
0.0000001
 43
0.0000001
 44
0.0000000001
 40
0.0
 40
0.0
 40
0.0
 40
0.0
 40
0.2601204618
 40
0.5124282095
 40
0.7581430563
 40
1.0
 40
1.0
 40
1.0
 40
1.0
 10
23.7687222813
 20
51.9405619276
 30
0.0
 10
23.8627912253
 20
51.7635859446
 30
0.0
 10
24.0345801878
 20
51.4074219227
 30
0.0
 10
24.2341690915
 20
50.8571036156
 30
0.0
 10
24.3602624003
 20
50.2994197138
 30
0.0
 10
24.3892299902
 20
49.9231744364
 30
0.0
 10
24.3892299905
 20
49.7368232909
 30
0.0
  0
ENDSEC
  0
SECTION
  2
OBJECTS
  0
DICTIONARY
  5
C
100
AcDbDictionary
280
0
281
1
  3
ACAD_GROUP
350
D
  3
ACAD_MLINESTYLE
350
17
  3
ACAD_LAYOUT
350
1A
  3
ACAD_PLOTSETTINGS
350
19
  3
ACAD_PLOTSTYLENAME
350
E
  0
DICTIONARY
  5
D
102
{ACAD_REACTORS
330
C
102
}
100
AcDbDictionary
280
0
281
1
  0
ACDBDICTIONARYWDFLT
  5
E
102
{ACAD_REACTORS
330
C
102
}
100
AcDbDictionary
281
1
  3
Normal
350
F
100
AcDbDictionaryWithDefault
340
F
  0
DICTIONARY
  5
17
102
{ACAD_REACTORS
330
C
102
}
100
AcDbDictionary
280
0
281
1
  3
Standard
350
18
  0
DICTIONARY
  5
19
102
{ACAD_REACTORS
330
C
102
}
100
AcDbDictionary
281
1
  0
DICTIONARY
  5
1A
102
{ACAD_REACTORS
330
C
102
}
100
AcDbDictionary
281
1
  3
Model
350
28C
  3
Layout1
350
28D
  0
ACDBPLACEHOLDER
  5
F
102
{ACAD_REACTORS
330
E
102
}
  0
MLINESTYLE
  5
18
102
{ACAD_REACTORS
330
17
102
}
100
AcDbMlineStyle
  2
STANDARD
 70
0
  3

 62
256
 51
90.0
 52
90.0
 71
2
 49
0.5
 62
256
  6
BYLAYER
 49
-0.5
 62
256
  6
BYLAYER
  0
LAYOUT
  5
28C
102
{ACAD_REACTORS
330
1A
102
}
100
AcDbPlotSettings
  1

  2
none_device
  4

  6

 40
0.0
 41
0.0
 42
0.0
 43
0.0
 44
210.0
 45
297.0
 46
0.0
 47
0.0
 48
0.0
 49
0.0
140
0.0
141
0.0
142
1.0
143
1.0
 70
1024
 72
1
 73
0
 74
0
  7

 75
0
147
1.0
148
0.0
149
0.0
100
AcDbLayout
  1
Model
 70
0
 71
0
 10
0.0
 20
0.0
 11
210.0
 21
297.0
 12
0.0
 22
0.0
 32
0.0
 14
0.0
 24
0.0
 34
0.0
 15
0.0
 25
0.0
 35
0.0
146
0.0
 13
0.0
 23
0.0
 33
0.0
 16
1.0
 26
0.0
 36
0.0
 17
0.0
 27
1.0
 37
0.0
 76
0
330
210
345
0
346
0
  0
LAYOUT
  5
28D
102
{ACAD_REACTORS
330
1A
102
}
100
AcDbPlotSettings
  1

  2
none_device
  4

  6

 40
0.0
 41
0.0
 42
0.0
 43
0.0
 44
210.0
 45
297.0
 46
0.0
 47
0.0
 48
0.0
 49
0.0
140
0.0
141
0.0
142
1.0
143
1.0
 70
0
 72
1
 73
0
 74
0
  7

 75
0
147
1.0
148
0.0
149
0.0
100
AcDbLayout
  1
Layout1
 70
0
 71
1
 10
0.0
 20
0.0
 11
210.0
 21
297.0
 12
0.0
 22
0.0
 32
0.0
 14
0.0
 24
0.0
 34
0.0
 15
0.0
 25
0.0
 35
0.0
146
0.0
 13
0.0
 23
0.0
 33
0.0
 16
1.0
 26
0.0
 36
0.0
 17
0.0
 27
1.0
 37
0.0
 76
0
330
211
345
0
346
0
  0
ENDSEC
  0
EOF
