999
DXF file: C:\Users\sesa63760\Dev\_Creo\CAD\MCADID0000524_3D-CAD\drw0001_4.dxf
999
Pro/ENGINEER 2019471 by Parametric Technology Corporation
  0
SECTION
  2
HEADER
  9
$ACADVER
  1
AC1024
  9
$DWGCODEPAGE
  3
ANSI_1252
  9
$EXTMAX
 10
74.4505834204
 20
105.2943965517
 30
0.0
  9
$EXTMIN
 10
0.0
 20
0.0
 30
0.0
  9
$LIMMIN
 10
0.0
 20
0.0
  9
$LIMMAX
 10
74.4505834204
 20
105.2943965517
  9
$VIEWCTR
 10
37.2252917102
 20
52.6471982759
  9
$VIEWSIZE
 40
105.2943965517
  9
$CLAYER
  8
0
  9
$LTSCALE
 40
6.8636347382
  9
$CELTYPE
  6
BYLAYER
  9
$DIMSCALE
 40
1.0
  9
$DIMASZ
 40
0.8863164693
  9
$DIMEXO
 40
1.0
  9
$DIMDLI
 40
4.7421476373
  9
$DIMEXE
 40
1.0
  9
$DIMCEN
 40
1.1231402299
  9
$DIMLFAC
 40
1.0
  9
$DIMBLK
  1
_FILLED
  9
$DIMALT
 70
0
  9
$DIMALTF
 40
0.0393700787
  9
$DIMTXT
 40
1.240843057
  9
$DIMTOL
 70
1
  9
$DIMLIM
 70
0
  9
$DIMTFAC
 40
1.0
  9
$DIMTP
 40
0.01
  9
$DIMTM
 40
0.01
  9
$DIMGAP
 40
0.625
  9
$DIMDSEP
 70
46
  9
$AUNITS
 70
0
  9
$PDMODE
 70
3
  9
$PDSIZE
 40
0.3125
  9
$HANDSEED
  5
4A7
  9
$TILEMODE
 70
1
  9
$MEASUREMENT
 70
1
  9
$INSUNITS
 70
4
  0
ENDSEC
  0
SECTION
  2
CLASSES
  0
CLASS
  1
ACDBDICTIONARYWDFLT
  2
AcDbDictionaryWithDefault
  3
AutoCAD 2000
 90
0
 91
1
280
0
281
0
  0
CLASS
  1
ACDBPLACEHOLDER
  2
AcDbPlaceHolder
  3
AutoCAD 2000
 90
0
 91
1
280
0
281
0
  0
CLASS
  1
LAYOUT
  2
AcDbLayout
  3
AutoCAD 2000
 90
0
 91
0
280
0
281
0
  0
ENDSEC
  0
SECTION
  2
TABLES
  0
TABLE
  2
VPORT
  5
8
100
AcDbSymbolTable
 70
2
  0
VPORT
  5
1F4
100
AcDbSymbolTableRecord
100
AcDbViewportTableRecord
  2
*ACTIVE
 70
0
 10
0.0
 20
0.0
 11
1.0
 21
1.0
 12
37.2252917102
 22
52.6471982759
 13
0.0
 23
0.0
 14
1.0
 24
1.0
 15
0.0
 25
0.0
 16
0.0
 26
0.0
 36
1.0
 17
0.0
 27
0.0
 37
0.0
 40
105.2943965517
 41
0.7070707071
 42
50.0
 43
0.0
 44
0.0
 50
0.0
 51
0.0
 71
0
 72
100
 73
1
 74
1
 75
0
 76
0
 77
0
 78
0
  0
ENDTAB
  0
TABLE
  2
LTYPE
  5
5
100
AcDbSymbolTable
 70
6
  0
LTYPE
  5
14
100
AcDbSymbolTableRecord
100
AcDbLinetypeTableRecord
  2
BYBLOCK
 70
0
  3

 72
65
 73
0
 40
0.0
  0
LTYPE
  5
15
100
AcDbSymbolTableRecord
100
AcDbLinetypeTableRecord
  2
BYLAYER
 70
0
  3

 72
65
 73
0
 40
0.0
  0
LTYPE
  5
16
100
AcDbSymbolTableRecord
100
AcDbLinetypeTableRecord
  2
CONTINUOUS
 70
64
  3
Solid line
 72
65
 73
0
 40
0.0
  0
LTYPE
  5
1F5
100
AcDbSymbolTableRecord
100
AcDbLinetypeTableRecord
  2
CENTER
 70
64
  3
____ _ ____ _ ____ _ ____ _ ____ _ ____ _ ____
 72
65
 73
4
 40
0.6
 49
0.375
 74
0
 49
-0.075
 74
0
 49
0.075
 74
0
 49
-0.075
 74
0
  0
LTYPE
  5
1F6
100
AcDbSymbolTableRecord
100
AcDbLinetypeTableRecord
  2
HIDDEN
 70
64
  3
- - - - - - - - - - - - - - - - - - - -
 72
65
 73
2
 40
0.2
 49
0.1
 74
0
 49
-0.1
 74
0
  0
LTYPE
  5
1F7
100
AcDbSymbolTableRecord
100
AcDbLinetypeTableRecord
  2
PHANTOM
 70
64
  3
_____ _ _ _____ _ _ _____ _ _ _____
 72
65
 73
6
 40
0.8
 49
0.45
 74
0
 49
-0.05
 74
0
 49
0.1
 74
0
 49
-0.05
 74
0
 49
0.1
 74
0
 49
-0.05
 74
0
  0
LTYPE
  5
1F8
100
AcDbSymbolTableRecord
100
AcDbLinetypeTableRecord
  2
DOT
 70
64
  3
. . . . . . . . . . . . . . . . . . . .
 72
65
 73
2
 40
0.2
 49
0.1
 74
0
 49
-0.1
 74
0
  0
LTYPE
  5
1F9
100
AcDbSymbolTableRecord
100
AcDbLinetypeTableRecord
  2
DASHED
 70
64
  3
- - - - - - - - - - - - - - - - - - - -
 72
65
 73
2
 40
0.2
 49
0.1
 74
0
 49
-0.1
 74
0
  0
ENDTAB
  0
TABLE
  2
LAYER
  5
2
100
AcDbSymbolTable
 70
36
  0
LAYER
  5
10
100
AcDbSymbolTableRecord
100
AcDbLayerTableRecord
  2
0
 70
0
 62
7
  6
CONTINUOUS
370
-3
390
F
  0
LAYER
  5
1FA
100
AcDbSymbolTableRecord
100
AcDbLayerTableRecord
  2
DEFAULT_1
 70
0
 62
7
  6
CENTER
370
-3
390
F
  0
LAYER
  5
1FB
100
AcDbSymbolTableRecord
100
AcDbLayerTableRecord
  2
DEFAULT_2
 70
0
 62
8
  6
HIDDEN
370
-3
390
F
  0
LAYER
  5
1FC
100
AcDbSymbolTableRecord
100
AcDbLayerTableRecord
  2
DEFAULT_3
 70
0
 62
7
  6
PHANTOM
370
-3
390
F
  0
LAYER
  5
1FD
100
AcDbSymbolTableRecord
100
AcDbLayerTableRecord
  2
00_COMPONENTS
 70
0
 62
7
  6
CONTINUOUS
370
-3
390
F
  0
LAYER
  5
1FE
100
AcDbSymbolTableRecord
100
AcDbLayerTableRecord
  2
01_1_DEFAULT_DATUMS
 70
0
 62
7
  6
CONTINUOUS
370
-3
390
F
  0
LAYER
  5
1FF
100
AcDbSymbolTableRecord
100
AcDbLayerTableRecord
  2
01_PLANES
 70
0
 62
7
  6
CONTINUOUS
370
-3
390
F
  0
LAYER
  5
200
100
AcDbSymbolTableRecord
100
AcDbLayerTableRecord
  2
02_COORD_SYS
 70
0
 62
7
  6
CONTINUOUS
370
-3
390
F
  0
LAYER
  5
201
100
AcDbSymbolTableRecord
100
AcDbLayerTableRecord
  2
03_AXES
 70
0
 62
7
  6
CONTINUOUS
370
-3
390
F
  0
LAYER
  5
202
100
AcDbSymbolTableRecord
100
AcDbLayerTableRecord
  2
04_POINTS
 70
0
 62
7
  6
CONTINUOUS
370
-3
390
F
  0
LAYER
  5
203
100
AcDbSymbolTableRecord
100
AcDbLayerTableRecord
  2
05_CURVES
 70
0
 62
7
  6
CONTINUOUS
370
-3
390
F
  0
LAYER
  5
204
100
AcDbSymbolTableRecord
100
AcDbLayerTableRecord
  2
06_SURFS
 70
0
 62
7
  6
CONTINUOUS
370
-3
390
F
  0
LAYER
  5
205
100
AcDbSymbolTableRecord
100
AcDbLayerTableRecord
  2
07_COSMETICS
 70
0
 62
7
  6
CONTINUOUS
370
-3
390
F
  0
LAYER
  5
206
100
AcDbSymbolTableRecord
100
AcDbLayerTableRecord
  2
10_NOTES
 70
0
 62
7
  6
CONTINUOUS
370
-3
390
F
  0
LAYER
  5
207
100
AcDbSymbolTableRecord
100
AcDbLayerTableRecord
  2
11_NOTES_PUB
 70
0
 62
7
  6
CONTINUOUS
370
-3
390
F
  0
LAYER
  5
208
100
AcDbSymbolTableRecord
100
AcDbLayerTableRecord
  2
13_REF_GTOL
 70
0
 62
7
  6
CONTINUOUS
370
-3
390
F
  0
LAYER
  5
209
100
AcDbSymbolTableRecord
100
AcDbLayerTableRecord
  2
16_MISC
 70
0
 62
7
  6
CONTINUOUS
370
-3
390
F
  0
LAYER
  5
20A
100
AcDbSymbolTableRecord
100
AcDbLayerTableRecord
  2
17_NO_PRINT
 70
0
 62
7
  6
CONTINUOUS
370
-3
390
F
  0
LAYER
  5
20B
100
AcDbSymbolTableRecord
100
AcDbLayerTableRecord
  2
18_DATUM_CAMS_JOINTS
 70
0
 62
7
  6
CONTINUOUS
370
-3
390
F
  0
LAYER
  5
20C
100
AcDbSymbolTableRecord
100
AcDbLayerTableRecord
  2
19_DATUM_FUNCTIONAL
 70
0
 62
7
  6
CONTINUOUS
370
-3
390
F
  0
LAYER
  5
20D
100
AcDbSymbolTableRecord
100
AcDbLayerTableRecord
  2
20_DATUM_KINEMATIC_SCHEME
 70
0
 62
7
  6
CONTINUOUS
370
-3
390
F
  0
ENDTAB
  0
TABLE
  2
STYLE
  5
3
100
AcDbSymbolTable
 70
1
  0
STYLE
  5
11
100
AcDbSymbolTableRecord
100
AcDbTextStyleTableRecord
  2
STANDARD
 70
0
 40
0.0
 41
0.8
 50
0.0
 71
0
 42
0.2
  3
txt
  4

  0
STYLE
  5
20E
100
AcDbSymbolTableRecord
100
AcDbTextStyleTableRecord
  2
TEXTSTYLE_1
 70
0
 40
0.0
 41
0.8
 50
0.0
 71
0
 42
0.2
  3
gdt
  4

  0
ENDTAB
  0
TABLE
  2
VIEW
  5
6
100
AcDbSymbolTable
 70
0
  0
ENDTAB
  0
TABLE
  2
UCS
  5
7
100
AcDbSymbolTable
 70
0
  0
ENDTAB
  0
TABLE
  2
APPID
  5
9
100
AcDbSymbolTable
 70
1
  0
APPID
  5
20F
100
AcDbSymbolTableRecord
100
AcDbRegAppTableRecord
  2
ACAD
 70
0
  0
ENDTAB
  0
TABLE
  2
BLOCK_RECORD
  5
1
100
AcDbSymbolTable
 70
0
  0
BLOCK_RECORD
  5
210
100
AcDbSymbolTableRecord
100
AcDbBlockTableRecord
  2
*Model_Space
  0
BLOCK_RECORD
  5
211
100
AcDbSymbolTableRecord
100
AcDbBlockTableRecord
  2
*Paper_Space
  0
BLOCK_RECORD
  5
212
100
AcDbSymbolTableRecord
100
AcDbBlockTableRecord
  2
_FILLED
  0
ENDTAB
  0
TABLE
  2
DIMSTYLE
  5
A
100
AcDbSymbolTable
 70
1
100
AcDbDimStyleTable
 71
0
  0
DIMSTYLE
105
213
100
AcDbSymbolTableRecord
100
AcDbDimStyleTableRecord
  2
STANDARD
 70
0
  3

  4

 40
1.0
 41
0.8863164693
 42
1.0
 43
0.38
 44
1.0
 45
0.0
 46
0.0
 47
0.01
 48
0.01
140
1.240843057
141
0.09
142
0.0
143
25.4
144
1.0
145
0.0
146
1.0
147
0.625
 71
1
 72
0
 73
0
 74
0
 75
0
 76
0
 77
1
 78
8
 79
2
170
0
171
1
172
0
173
0
174
0
175
0
176
0
177
0
178
0
270
2
179
2
271
2
272
2
273
2
274
2
275
0
280
0
281
0
282
0
283
1
284
8
285
0
286
0
287
3
288
0
340
11
278
46
341
212
342
212
343
212
344
212
  0
ENDTAB
  0
ENDSEC
  0
SECTION
  2
BLOCKS
  0
BLOCK
  5
20
100
AcDbEntity
  8
0
100
AcDbBlockBegin
  2
*Model_Space
 70
0
 10
0.0
 20
0.0
 30
0.0
  3
*Model_Space
  1

  0
ENDBLK
  5
21
100
AcDbEntity
  8
0
100
AcDbBlockEnd
  0
BLOCK
  5
1C
100
AcDbEntity
  8
0
100
AcDbBlockBegin
  2
*Paper_Space
 70
0
 10
0.0
 20
0.0
 30
0.0
  3
*Paper_Space
  1

  0
ENDBLK
  5
1D
100
AcDbEntity
  8
0
100
AcDbBlockEnd
  0
BLOCK
  5
214
100
AcDbEntity
  8
0
100
AcDbBlockBegin
  2
_FILLED
 70
64
 10
0.0
 20
0.0
  3
_FILLED
  1

  0
SOLID
  5
215
100
AcDbEntity
  8
0
  6
BYBLOCK
 62
0
100
AcDbTrace
 10
0.0
 20
0.0
 11
-1.0
 21
0.25
 12
-1.0
 22
-0.25
 13
-1.0
 23
-0.25
  0
ENDBLK
  5
216
100
AcDbEntity
  8
0
  6
BYBLOCK
 62
0
100
AcDbBlockEnd
  0
ENDSEC
  0
SECTION
  2
ENTITIES
  0
LINE
  5
217
100
AcDbEntity
  8
0
100
AcDbLine
 62
7
  6
CONTINUOUS
 10
8.2918865378
 20
42.425
 11
8.2918865378
 21
41.925
  0
LINE
  5
218
100
AcDbEntity
  8
0
100
AcDbLine
 62
7
  6
CONTINUOUS
 10
8.7918865378
 20
41.4503613982
 11
8.7918865378
 21
42.4162511336
  0
LINE
  5
219
100
AcDbEntity
  8
0
100
AcDbLine
 62
7
  6
CONTINUOUS
 10
10.9918865378
 20
50.925
 11
10.9918865378
 21
50.425
  0
LINE
  5
21A
100
AcDbEntity
  8
0
100
AcDbLine
 62
7
  6
CONTINUOUS
 10
10.4418865378
 20
50.925
 11
11.1624731066
 21
71.5598994967
  0
LINE
  5
21B
100
AcDbEntity
  8
0
100
AcDbLine
 62
7
  6
CONTINUOUS
 10
10.4468021607
 20
50.9248283427
 11
10.1455404525
 21
42.2978217618
  0
LINE
  5
21C
100
AcDbEntity
  8
0
100
AcDbLine
 62
7
  6
CONTINUOUS
 10
11.2773794516
 20
40.325
 11
11.392617991
 21
43.625
  0
LINE
  5
21D
100
AcDbEntity
  8
0
100
AcDbLine
 62
7
  6
CONTINUOUS
 10
8.2918865378
 20
41.925
 11
9.9773794516
 21
40.325
  0
LINE
  5
21E
100
AcDbEntity
  8
0
100
AcDbLine
 62
7
  6
CONTINUOUS
 10
12.3499816144
 20
42.425
 11
12.3918865378
 21
43.625
  0
LINE
  5
21F
100
AcDbEntity
  8
0
100
AcDbLine
 62
7
  6
CONTINUOUS
 10
14.9337914612
 20
42.425
 11
14.8918865378
 21
43.625
  0
LINE
  5
220
100
AcDbEntity
  8
0
100
AcDbLine
 62
7
  6
CONTINUOUS
 10
15.1918865378
 20
43.625
 11
15.1918865378
 21
50.925
  0
LINE
  5
221
100
AcDbEntity
  8
0
100
AcDbLine
 62
7
  6
CONTINUOUS
 10
15.4418865378
 20
50.925
 11
15.4418865378
 21
71.2342133582
  0
LINE
  5
222
100
AcDbEntity
  8
0
100
AcDbLine
 62
7
  6
CONTINUOUS
 10
16.6918865378
 20
50.425
 11
16.6918865378
 21
50.125
  0
LINE
  5
223
100
AcDbEntity
  8
0
100
AcDbLine
 62
7
  6
CONTINUOUS
 10
17.1918865378
 20
50.925
 11
16.8148571353
 21
72.525
  0
LINE
  5
224
100
AcDbEntity
  8
0
100
AcDbLine
 62
7
  6
CONTINUOUS
 10
17.3149332994
 20
72.525
 11
17.6273408796
 21
54.6271817169
  0
LINE
  5
225
100
AcDbEntity
  8
0
100
AcDbLine
 62
7
  6
CONTINUOUS
 10
17.6918865378
 20
58.325
 11
17.6918865378
 21
72.525
  0
LINE
  5
226
100
AcDbEntity
  8
0
100
AcDbLine
 62
7
  6
CONTINUOUS
 10
17.5627190573
 20
50.925
 11
17.6918865378
 21
58.325
  0
LINE
  5
227
100
AcDbEntity
  8
0
100
AcDbLine
 62
7
  6
CONTINUOUS
 10
19.2180691352
 20
72.525
 11
19.2049778365
 21
71.775
  0
LINE
  5
228
100
AcDbEntity
  8
0
100
AcDbLine
 62
7
  6
CONTINUOUS
 10
17.0499816144
 20
42.425
 11
17.0918865378
 21
43.625
  0
LINE
  5
229
100
AcDbEntity
  8
0
100
AcDbLine
 62
7
  6
CONTINUOUS
 10
33.5109357717
 20
31.625
 11
34.0013473169
 21
31.625
  0
LINE
  5
22A
100
AcDbEntity
  8
0
100
AcDbLine
 62
7
  6
CONTINUOUS
 10
42.3824257587
 20
31.625
 11
42.8728373039
 21
31.625
  0
LINE
  5
22B
100
AcDbEntity
  8
0
100
AcDbLine
 62
7
  6
CONTINUOUS
 10
43.0792200662
 20
31.9056601997
 11
42.3873247007
 21
31.9056601997
  0
LINE
  5
22C
100
AcDbEntity
  8
0
100
AcDbLine
 62
7
  6
CONTINUOUS
 10
33.9964483749
 20
31.9056601997
 11
33.3045530094
 21
31.9056601997
  0
LINE
  5
22D
100
AcDbEntity
  8
0
100
AcDbLine
 62
7
  6
CONTINUOUS
 10
37.3668865378
 20
32.075
 11
39.0168865378
 21
32.075
  0
LINE
  5
22E
100
AcDbEntity
  8
0
100
AcDbLine
 62
7
  6
CONTINUOUS
 10
39.2168865378
 20
32.275
 11
37.1668865378
 21
32.275
  0
LINE
  5
22F
100
AcDbEntity
  8
0
100
AcDbLine
 62
7
  6
CONTINUOUS
 10
34.2918865378
 20
32.375
 11
42.0918865378
 21
32.375
  0
LINE
  5
230
100
AcDbEntity
  8
0
100
AcDbLine
 62
7
  6
CONTINUOUS
 10
21.2337914612
 20
42.425
 11
21.2027418443
 21
43.3141446935
  0
LINE
  5
231
100
AcDbEntity
  8
0
100
AcDbLine
 62
7
  6
CONTINUOUS
 10
19.2634184643
 20
68.4269386745
 11
19.2355242001
 21
70.025
  0
LINE
  5
232
100
AcDbEntity
  8
0
100
AcDbLine
 62
7
  6
CONTINUOUS
 10
19.219780802
 20
70.9269386745
 11
19.1918865378
 21
72.525
  0
LINE
  5
233
100
AcDbEntity
  8
0
100
AcDbLine
 62
7
  6
CONTINUOUS
 10
20.5787952391
 20
71.775
 11
20.5657039404
 21
72.525
  0
LINE
  5
234
100
AcDbEntity
  8
0
100
AcDbLine
 62
7
  6
CONTINUOUS
 10
19.4218865378
 20
68.4269386745
 11
19.4218865378
 21
70.025
  0
LINE
  5
235
100
AcDbEntity
  8
0
100
AcDbLine
 62
7
  6
CONTINUOUS
 10
19.4218865378
 20
70.9269386745
 11
19.4218865378
 21
72.525
  0
LINE
  5
236
100
AcDbEntity
  8
0
100
AcDbLine
 62
7
  6
CONTINUOUS
 10
20.4218865378
 20
68.4269386745
 11
20.4218865378
 21
70.025
  0
LINE
  5
237
100
AcDbEntity
  8
0
100
AcDbLine
 62
7
  6
CONTINUOUS
 10
20.4218865378
 20
70.9269386745
 11
20.4218865378
 21
72.525
  0
LINE
  5
238
100
AcDbEntity
  8
0
100
AcDbLine
 62
7
  6
CONTINUOUS
 10
20.5918865378
 20
72.525
 11
20.5203546113
 21
68.4269386745
  0
LINE
  5
239
100
AcDbEntity
  8
0
100
AcDbLine
 62
7
  6
CONTINUOUS
 10
21.1998808236
 20
57.025
 11
21.4442517326
 21
71.025
  0
LINE
  5
23A
100
AcDbEntity
  8
0
100
AcDbLine
 62
7
  6
CONTINUOUS
 10
33.0555892816
 20
33.3431214544
 11
33.9713573954
 21
33.3431214544
  0
LINE
  5
23B
100
AcDbEntity
  8
0
100
AcDbLine
 62
7
  6
CONTINUOUS
 10
42.4124156802
 20
33.3431214544
 11
43.3281837939
 21
33.3431214544
  0
LINE
  5
23C
100
AcDbEntity
  8
0
100
AcDbLine
 62
7
  6
CONTINUOUS
 10
42.6573457822
 20
34.027561758
 11
42.4243626301
 21
34.027561758
  0
LINE
  5
23D
100
AcDbEntity
  8
0
100
AcDbLine
 62
7
  6
CONTINUOUS
 10
33.9594104454
 20
34.027561758
 11
33.7264272934
 21
34.027561758
  0
LINE
  5
23E
100
AcDbEntity
  8
0
100
AcDbLine
 62
7
  6
CONTINUOUS
 10
20.8918865378
 20
43.625
 11
21.3918865379
 21
43.1249999998
  0
LINE
  5
23F
100
AcDbEntity
  8
0
100
AcDbLine
 62
7
  6
CONTINUOUS
 10
22.5918865387
 20
43.1249999989
 11
22.5918865391
 21
43.625
  0
LINE
  5
240
100
AcDbEntity
  8
0
100
AcDbLine
 62
7
  6
CONTINUOUS
 10
22.6724865378
 20
57.025
 11
22.6724865378
 21
67.9978
  0
LINE
  5
241
100
AcDbEntity
  8
0
100
AcDbLine
 62
7
  6
CONTINUOUS
 10
22.6499816144
 20
42.425
 11
22.6743256218
 21
43.1221211627
  0
LINE
  5
242
100
AcDbEntity
  8
0
100
AcDbLine
 62
7
  6
CONTINUOUS
 10
32.7277115416
 20
66.227906382
 11
32.664211534
 21
66.1792680899
  0
LINE
  5
243
100
AcDbEntity
  8
0
100
AcDbLine
 62
7
  6
CONTINUOUS
 10
32.6324615359
 20
66.2603319101
 11
32.711836534
 21
66.3089702021
  0
LINE
  5
244
100
AcDbEntity
  8
0
100
AcDbLine
 62
7
  6
CONTINUOUS
 10
33.0452115227
 20
65.9036510618
 11
32.9658365529
 21
65.8550127654
  0
LINE
  5
245
100
AcDbEntity
  8
0
100
AcDbLine
 62
7
  6
CONTINUOUS
 10
42.0918865378
 20
37.225
 11
40.7418865378
 21
37.225
  0
LINE
  5
246
100
AcDbEntity
  8
0
100
AcDbLine
 62
7
  6
CONTINUOUS
 10
35.6418865378
 20
37.225
 11
34.2918865378
 21
37.225
  0
LINE
  5
247
100
AcDbEntity
  8
0
100
AcDbLine
 62
7
  6
CONTINUOUS
 10
32.9590171517
 20
32.3755548834
 11
33.5109357717
 21
31.625
  0
LINE
  5
248
100
AcDbEntity
  8
0
100
AcDbLine
 62
7
  6
CONTINUOUS
 10
19.3918865378
 20
56.825
 11
18.6918865378
 21
58.325
  0
LINE
  5
249
100
AcDbEntity
  8
0
100
AcDbLine
 62
7
  6
CONTINUOUS
 10
18.6918865378
 20
58.525
 11
19.3918865378
 21
57.025
  0
LINE
  5
24A
100
AcDbEntity
  8
0
100
AcDbLine
 62
7
  6
CONTINUOUS
 10
26.1918865378
 20
51.425
 11
26.196250304
 21
51.175
  0
LINE
  5
24B
100
AcDbEntity
  8
0
100
AcDbLine
 62
7
  6
CONTINUOUS
 10
23.9805865378
 20
58.18324
 11
23.9805865378
 21
58.5998
  0
LINE
  5
24C
100
AcDbEntity
  8
0
100
AcDbLine
 62
7
  6
CONTINUOUS
 10
24.1075865378
 20
65.9452801076
 11
24.1075865378
 21
65.0821893321
  0
LINE
  5
24D
100
AcDbEntity
  8
0
100
AcDbLine
 62
7
  6
CONTINUOUS
 10
24.1075865378
 20
61.5154106679
 11
24.1075865378
 21
60.6523198924
  0
LINE
  5
24E
100
AcDbEntity
  8
0
100
AcDbLine
 62
7
  6
CONTINUOUS
 10
24.7425865378
 20
60.3633686927
 11
24.7425865378
 21
61.6490216058
  0
LINE
  5
24F
100
AcDbEntity
  8
0
100
AcDbLine
 62
7
  6
CONTINUOUS
 10
24.7425865378
 20
64.9485783942
 11
24.7425865378
 21
66.2342313073
  0
LINE
  5
250
100
AcDbEntity
  8
0
100
AcDbLine
 62
7
  6
CONTINUOUS
 10
25.3775865378
 20
66.3685242482
 11
25.3775865378
 21
65.1771553311
  0
LINE
  5
251
100
AcDbEntity
  8
0
100
AcDbLine
 62
7
  6
CONTINUOUS
 10
25.3775865378
 20
61.4204446689
 11
25.3775865378
 21
60.2290757518
  0
LINE
  5
252
100
AcDbEntity
  8
0
100
AcDbLine
 62
7
  6
CONTINUOUS
 10
26.0125865378
 20
60.2290757518
 11
26.0125865378
 21
61.4204446689
  0
LINE
  5
253
100
AcDbEntity
  8
0
100
AcDbLine
 62
7
  6
CONTINUOUS
 10
26.0125865378
 20
65.1771553311
 11
26.0125865378
 21
66.3685242482
  0
LINE
  5
254
100
AcDbEntity
  8
0
100
AcDbLine
 62
7
  6
CONTINUOUS
 10
32.9975865227
 20
65.9685021235
 11
33.0293365378
 21
66.017140427
  0
LINE
  5
255
100
AcDbEntity
  8
0
100
AcDbLine
 62
7
  6
CONTINUOUS
 10
33.0928365227
 20
65.9685021236
 11
33.0452115227
 21
65.9036510618
  0
LINE
  5
256
100
AcDbEntity
  8
0
100
AcDbLine
 62
7
  6
CONTINUOUS
 10
32.9499615227
 20
65.9360765955
 11
32.9975865227
 21
65.9685021235
  0
LINE
  5
257
100
AcDbEntity
  8
0
100
AcDbLine
 62
7
  6
CONTINUOUS
 10
67.6918865378
 20
42.425
 11
66.2382326231
 21
42.2978217618
  0
LINE
  5
258
100
AcDbEntity
  8
0
100
AcDbLine
 62
7
  6
CONTINUOUS
 10
34.2918865378
 20
38.275
 11
42.0918865378
 21
38.275
  0
LINE
  5
259
100
AcDbEntity
  8
0
100
AcDbLine
 62
7
  6
CONTINUOUS
 10
34.2918865378
 20
38.375
 11
42.0918865378
 21
38.375
  0
LINE
  5
25A
100
AcDbEntity
  8
0
100
AcDbLine
 62
7
  6
CONTINUOUS
 10
66.406393624
 20
40.325
 11
65.106393624
 21
40.325
  0
LINE
  5
25B
100
AcDbEntity
  8
0
100
AcDbLine
 62
7
  6
CONTINUOUS
 10
11.2773794516
 20
40.325
 11
9.9773794516
 21
40.325
  0
LINE
  5
25C
100
AcDbEntity
  8
0
100
AcDbLine
 62
7
  6
CONTINUOUS
 10
10.1455404525
 20
42.2978217618
 11
8.6918865378
 21
42.425
  0
LINE
  5
25D
100
AcDbEntity
  8
0
100
AcDbLine
 62
7
  6
CONTINUOUS
 10
26.8337914612
 20
42.425
 11
26.8093469226
 21
43.1249999995
  0
LINE
  5
25E
100
AcDbEntity
  8
0
100
AcDbLine
 62
7
  6
CONTINUOUS
 10
28.1925698041
 20
51.1358556981
 11
28.1557987904
 21
53.2424656606
  0
LINE
  5
25F
100
AcDbEntity
  8
0
100
AcDbLine
 62
7
  6
CONTINUOUS
 10
28.6790237138
 20
54.4119106952
 11
28.6369030833
 21
56.825
  0
LINE
  5
260
100
AcDbEntity
  8
0
100
AcDbLine
 62
7
  6
CONTINUOUS
 10
26.6475865378
 20
66.2342313073
 11
26.6475865378
 21
64.9485783942
  0
LINE
  5
261
100
AcDbEntity
  8
0
100
AcDbLine
 62
7
  6
CONTINUOUS
 10
26.6475865378
 20
61.6490216058
 11
26.6475865378
 21
60.3633686927
  0
LINE
  5
262
100
AcDbEntity
  8
0
100
AcDbLine
 62
7
  6
CONTINUOUS
 10
27.2825865378
 20
60.6523198924
 11
27.2825865378
 21
61.5154106679
  0
LINE
  5
263
100
AcDbEntity
  8
0
100
AcDbLine
 62
7
  6
CONTINUOUS
 10
27.2825865378
 20
65.0821893321
 11
27.2825865378
 21
65.9452801076
  0
LINE
  5
264
100
AcDbEntity
  8
0
100
AcDbLine
 62
7
  6
CONTINUOUS
 10
27.4095865378
 20
58.5998
 11
27.4095865378
 21
58.18324
  0
LINE
  5
265
100
AcDbEntity
  8
0
100
AcDbLine
 62
7
  6
CONTINUOUS
 10
27.7524865378
 20
57.025
 11
27.7524865378
 21
58.5998
  0
LINE
  5
266
100
AcDbEntity
  8
0
100
AcDbLine
 62
7
  6
CONTINUOUS
 10
28.2499816144
 20
42.425
 11
28.274426153
 21
43.1249999997
  0
LINE
  5
267
100
AcDbEntity
  8
0
100
AcDbLine
 62
7
  6
CONTINUOUS
 10
33.1245865378
 20
66.049565955
 11
33.0928365227
 21
65.9685021236
  0
LINE
  5
268
100
AcDbEntity
  8
0
100
AcDbLine
 62
7
  6
CONTINUOUS
 10
33.7437115416
 20
60.7123234159
 11
33.6960865416
 21
60.6798978878
  0
LINE
  5
269
100
AcDbEntity
  8
0
100
AcDbLine
 62
7
  6
CONTINUOUS
 10
33.6484615359
 20
60.7447489439
 11
33.727836534
 21
60.793387236
  0
LINE
  5
26A
100
AcDbEntity
  8
0
100
AcDbLine
 62
7
  6
CONTINUOUS
 10
33.7913365302
 20
60.7285361799
 11
33.7437115416
 21
60.7123234159
  0
LINE
  5
26B
100
AcDbEntity
  8
0
100
AcDbLine
 62
7
  6
CONTINUOUS
 10
8.2918865378
 20
42.425
 11
8.6918865378
 21
42.425
  0
LINE
  5
26C
100
AcDbEntity
  8
0
100
AcDbLine
 62
7
  6
CONTINUOUS
 10
11.3507130676
 20
42.425
 11
12.3499816144
 21
42.425
  0
LINE
  5
26D
100
AcDbEntity
  8
0
100
AcDbLine
 62
7
  6
CONTINUOUS
 10
14.9337914612
 20
42.425
 11
17.0499816144
 21
42.425
  0
LINE
  5
26E
100
AcDbEntity
  8
0
100
AcDbLine
 62
7
  6
CONTINUOUS
 10
21.2337914612
 20
42.425
 11
22.6499816144
 21
42.425
  0
LINE
  5
26F
100
AcDbEntity
  8
0
100
AcDbLine
 62
7
  6
CONTINUOUS
 10
26.8337914612
 20
42.425
 11
28.2499816144
 21
42.425
  0
LINE
  5
270
100
AcDbEntity
  8
0
100
AcDbLine
 62
7
  6
CONTINUOUS
 10
67.6918865378
 20
42.425
 11
68.0918865378
 21
42.425
  0
LINE
  5
271
100
AcDbEntity
  8
0
100
AcDbLine
 62
7
  6
CONTINUOUS
 10
29.7918865391
 20
43.625
 11
29.7918865387
 21
43.1249999998
  0
LINE
  5
272
100
AcDbEntity
  8
0
100
AcDbLine
 62
7
  6
CONTINUOUS
 10
31.1918865378
 20
52.2001841985
 11
31.1918865378
 21
53.704121898
  0
LINE
  5
273
100
AcDbEntity
  8
0
100
AcDbLine
 62
7
  6
CONTINUOUS
 10
30.9418865378
 20
53.735
 11
30.9415739353
 21
53.6991793
  0
LINE
  5
274
100
AcDbEntity
  8
0
100
AcDbLine
 62
7
  6
CONTINUOUS
 10
30.2468699923
 20
56.825
 11
30.2047493618
 21
54.4119106952
  0
LINE
  5
275
100
AcDbEntity
  8
0
100
AcDbLine
 62
7
  6
CONTINUOUS
 10
33.0293365378
 20
66.017140427
 11
33.0452115227
 21
66.0657787191
  0
LINE
  5
276
100
AcDbEntity
  8
0
100
AcDbLine
 62
7
  6
CONTINUOUS
 10
33.5690865378
 20
60.5988340223
 11
33.6008365387
 21
60.6798978878
  0
LINE
  5
277
100
AcDbEntity
  8
0
100
AcDbLine
 62
7
  6
CONTINUOUS
 10
33.6960865416
 20
60.6798978878
 11
33.6643365378
 21
60.6312595957
  0
LINE
  5
278
100
AcDbEntity
  8
0
100
AcDbLine
 62
7
  6
CONTINUOUS
 10
33.9977115378
 20
60.452919146
 11
34.0294615529
 21
60.5015574381
  0
LINE
  5
279
100
AcDbEntity
  8
0
100
AcDbLine
 62
7
  6
CONTINUOUS
 10
33.9977115378
 20
60.1773021235
 11
34.0294615529
 21
60.225940427
  0
LINE
  5
27A
100
AcDbEntity
  8
0
100
AcDbLine
 62
7
  6
CONTINUOUS
 10
33.6008365387
 20
60.6798978878
 11
33.6484615359
 21
60.7447489439
  0
LINE
  5
27B
100
AcDbEntity
  8
0
100
AcDbLine
 62
7
  6
CONTINUOUS
 10
34.0929615378
 20
60.1773021235
 11
34.0453365378
 21
60.1124510618
  0
LINE
  5
27C
100
AcDbEntity
  8
0
100
AcDbLine
 62
7
  6
CONTINUOUS
 10
33.9500865378
 20
60.420493618
 11
33.9977115378
 21
60.452919146
  0
LINE
  5
27D
100
AcDbEntity
  8
0
100
AcDbLine
 62
7
  6
CONTINUOUS
 10
34.0612115227
 20
60.404280854
 11
33.9659615227
 21
60.3394297979
  0
LINE
  5
27E
100
AcDbEntity
  8
0
100
AcDbLine
 62
7
  6
CONTINUOUS
 10
33.9500865378
 20
60.1448765955
 11
33.9977115378
 21
60.1773021235
  0
LINE
  5
27F
100
AcDbEntity
  8
0
100
AcDbLine
 62
7
  6
CONTINUOUS
 10
34.0453365378
 20
60.1124510618
 11
33.9659615227
 21
60.0638127654
  0
LINE
  5
280
100
AcDbEntity
  8
0
100
AcDbLine
 62
7
  6
CONTINUOUS
 10
33.9024615378
 20
60.404280854
 11
33.9500865378
 21
60.420493618
  0
LINE
  5
281
100
AcDbEntity
  8
0
100
AcDbLine
 62
7
  6
CONTINUOUS
 10
33.9024615378
 20
60.1286638315
 11
33.9500865378
 21
60.1448765955
  0
LINE
  5
282
100
AcDbEntity
  8
0
100
AcDbLine
 62
7
  6
CONTINUOUS
 10
21.3918850794
 20
43.125
 11
30.9918879953
 21
43.125
  0
LINE
  5
283
100
AcDbEntity
  8
0
100
AcDbLine
 62
7
  6
CONTINUOUS
 10
45.3918850803
 20
43.125
 11
54.9918879962
 21
43.125
  0
LINE
  5
284
100
AcDbEntity
  8
0
100
AcDbLine
 62
7
  6
CONTINUOUS
 10
10.1918865378
 20
43.625
 11
66.1918865378
 21
43.625
  0
LINE
  5
285
100
AcDbEntity
  8
0
100
AcDbLine
 62
7
  6
CONTINUOUS
 10
32.7652568307
 20
32.9330737253
 11
32.3918865378
 21
43.625
  0
LINE
  5
286
100
AcDbEntity
  8
0
100
AcDbLine
 62
7
  6
CONTINUOUS
 10
33.3912773648
 20
43.625
 11
33.7264272934
 21
34.027561758
  0
LINE
  5
287
100
AcDbEntity
  8
0
100
AcDbLine
 62
7
  6
CONTINUOUS
 10
34.0013473169
 20
31.625
 11
33.7918865378
 21
43.625
  0
LINE
  5
288
100
AcDbEntity
  8
0
100
AcDbLine
 62
7
  6
CONTINUOUS
 10
31.4418865378
 20
53.735
 11
31.4421560069
 21
53.704121898
  0
LINE
  5
289
100
AcDbEntity
  8
0
100
AcDbLine
 62
7
  6
CONTINUOUS
 10
32.5149865378
 20
66.9945
 11
32.5149865378
 21
67.2993
  0
LINE
  5
28A
100
AcDbEntity
  8
0
100
AcDbLine
 62
7
  6
CONTINUOUS
 10
32.5530865378
 20
66.6008
 11
32.5530865378
 21
66.1792680899
  0
LINE
  5
28B
100
AcDbEntity
  8
0
100
AcDbLine
 62
7
  6
CONTINUOUS
 10
32.6324615359
 20
66.2603319101
 11
32.6324615359
 21
66.5197361799
  0
LINE
  5
28C
100
AcDbEntity
  8
0
100
AcDbLine
 62
7
  6
CONTINUOUS
 10
33.0300376484
 20
59.2983
 11
33.0300376484
 21
59.6031
  0
LINE
  5
28D
100
AcDbEntity
  8
0
100
AcDbLine
 62
7
  6
CONTINUOUS
 10
33.0452115227
 20
66.0982042471
 11
33.0452115227
 21
66.0657787191
  0
LINE
  5
28E
100
AcDbEntity
  8
0
100
AcDbLine
 62
7
  6
CONTINUOUS
 10
33.0928365227
 20
66.5197361799
 11
33.0928365227
 21
66.6008
  0
LINE
  5
28F
100
AcDbEntity
  8
0
100
AcDbLine
 62
7
  6
CONTINUOUS
 10
33.1245865378
 20
66.049565955
 11
33.1245865378
 21
66.1144170111
  0
LINE
  5
290
100
AcDbEntity
  8
0
100
AcDbLine
 62
7
  6
CONTINUOUS
 10
33.5690865378
 20
60.5988340223
 11
33.5690865378
 21
60.5339829662
  0
LINE
  5
291
100
AcDbEntity
  8
0
100
AcDbLine
 62
7
  6
CONTINUOUS
 10
33.6484615359
 20
60.5501957302
 11
33.6484615359
 21
60.5826212582
  0
LINE
  5
292
100
AcDbEntity
  8
0
100
AcDbLine
 62
7
  6
CONTINUOUS
 10
34.1405865378
 20
60.3718553259
 11
34.1247115529
 21
60.258365955
  0
LINE
  5
293
100
AcDbEntity
  8
0
100
AcDbLine
 62
7
  6
CONTINUOUS
 10
34.0453365378
 20
60.2745787191
 11
34.0612115227
 21
60.3718553259
  0
LINE
  5
294
100
AcDbEntity
  8
0
100
AcDbLine
 62
7
  6
CONTINUOUS
 10
33.6643365378
 20
60.6312595957
 11
33.6484615359
 21
60.5826212582
  0
LINE
  5
295
100
AcDbEntity
  8
0
100
AcDbLine
 62
7
  6
CONTINUOUS
 10
34.0294615529
 20
60.5015574381
 11
34.0453365378
 21
60.5501957302
  0
LINE
  5
296
100
AcDbEntity
  8
0
100
AcDbLine
 62
7
  6
CONTINUOUS
 10
34.0294615529
 20
60.225940427
 11
34.0453365378
 21
60.2745787191
  0
LINE
  5
297
100
AcDbEntity
  8
0
100
AcDbLine
 62
7
  6
CONTINUOUS
 10
34.1247115529
 20
60.258365955
 11
34.0929615378
 21
60.1773021235
  0
LINE
  5
298
100
AcDbEntity
  8
0
100
AcDbLine
 62
7
  6
CONTINUOUS
 10
43.4750865378
 20
66.4873106518
 11
43.5703365378
 21
66.6008
  0
LINE
  5
299
100
AcDbEntity
  8
0
100
AcDbLine
 62
7
  6
CONTINUOUS
 10
43.5703365378
 20
66.4710978878
 11
43.4750865378
 21
66.3576084942
  0
LINE
  5
29A
100
AcDbEntity
  8
0
100
AcDbLine
 62
7
  6
CONTINUOUS
 10
42.3955865378
 20
60.7123234159
 11
42.3479615378
 21
60.6798978878
  0
LINE
  5
29B
100
AcDbEntity
  8
0
100
AcDbLine
 62
7
  6
CONTINUOUS
 10
42.3003365378
 20
60.7447489439
 11
42.3797115416
 21
60.793387236
  0
LINE
  5
29C
100
AcDbEntity
  8
0
100
AcDbLine
 62
7
  6
CONTINUOUS
 10
42.4432115378
 20
60.7285361799
 11
42.3955865378
 21
60.7123234159
  0
LINE
  5
29D
100
AcDbEntity
  8
0
100
AcDbLine
 62
7
  6
CONTINUOUS
 10
42.4432115378
 20
60.452919146
 11
42.3955865378
 21
60.436706382
  0
LINE
  5
29E
100
AcDbEntity
  8
0
100
AcDbLine
 62
7
  6
CONTINUOUS
 10
42.5543365454
 20
60.1286638315
 11
42.6019615227
 21
60.1448765955
  0
LINE
  5
29F
100
AcDbEntity
  8
0
100
AcDbLine
 62
7
  6
CONTINUOUS
 10
30.0135748451
 20
64.3182336287
 11
30.5286259558
 21
61.3972336287
  0
LINE
  5
2A0
100
AcDbEntity
  8
0
100
AcDbLine
 62
7
  6
CONTINUOUS
 10
30.3137442483
 20
64.3711615933
 11
30.8287953589
 21
61.4501615933
  0
LINE
  5
2A1
100
AcDbEntity
  8
0
100
AcDbLine
 62
7
  6
CONTINUOUS
 10
31.0164012359
 20
61.4832415711
 11
30.5013501252
 21
64.4042415712
  0
LINE
  5
2A2
100
AcDbEntity
  8
0
100
AcDbLine
 62
7
  6
CONTINUOUS
 10
34.4506140703
 20
50.675
 11
34.4425698041
 21
51.1358556981
  0
LINE
  5
2A3
100
AcDbEntity
  8
0
100
AcDbLine
 62
7
  6
CONTINUOUS
 10
34.0453365378
 20
60.5826212582
 11
34.0453365378
 21
60.5501957302
  0
LINE
  5
2A4
100
AcDbEntity
  8
0
100
AcDbLine
 62
7
  6
CONTINUOUS
 10
34.0612115227
 20
60.404280854
 11
34.0612115227
 21
60.3718553259
  0
LINE
  5
2A5
100
AcDbEntity
  8
0
100
AcDbLine
 62
7
  6
CONTINUOUS
 10
34.1405865378
 20
60.3718553259
 11
34.1405865378
 21
60.4853446741
  0
LINE
  5
2A6
100
AcDbEntity
  8
0
100
AcDbLine
 62
7
  6
CONTINUOUS
 10
34.2918865378
 20
32.375
 11
34.2918865378
 21
43.625
  0
LINE
  5
2A7
100
AcDbEntity
  8
0
100
AcDbLine
 62
7
  6
CONTINUOUS
 10
34.9418865378
 20
32.375
 11
34.9418865378
 21
37.225
  0
LINE
  5
2A8
100
AcDbEntity
  8
0
100
AcDbLine
 62
7
  6
CONTINUOUS
 10
35.2418865378
 20
38.375
 11
35.2418865378
 21
38.275
  0
LINE
  5
2A9
100
AcDbEntity
  8
0
100
AcDbLine
 62
7
  6
CONTINUOUS
 10
35.4918865378
 20
43.625
 11
35.4918865378
 21
38.375
  0
LINE
  5
2AA
100
AcDbEntity
  8
0
100
AcDbLine
 62
7
  6
CONTINUOUS
 10
35.4918865378
 20
37.225
 11
35.4918865378
 21
38.275
  0
LINE
  5
2AB
100
AcDbEntity
  8
0
100
AcDbLine
 62
7
  6
CONTINUOUS
 10
35.6418865378
 20
37.225
 11
35.6418865378
 21
32.375
  0
LINE
  5
2AC
100
AcDbEntity
  8
0
100
AcDbLine
 62
7
  6
CONTINUOUS
 10
36.0418865378
 20
43.625
 11
36.0418865378
 21
38.375
  0
LINE
  5
2AD
100
AcDbEntity
  8
0
100
AcDbLine
 62
7
  6
CONTINUOUS
 10
36.0418865378
 20
32.375
 11
36.0418865378
 21
38.275
  0
LINE
  5
2AE
100
AcDbEntity
  8
0
100
AcDbLine
 62
7
  6
CONTINUOUS
 10
36.0252200301
 20
53.735
 11
36.025192791
 21
53.704121898
  0
LINE
  5
2AF
100
AcDbEntity
  8
0
100
AcDbLine
 62
7
  6
CONTINUOUS
 10
42.3479615378
 20
60.404280854
 11
42.316211534
 21
60.3718553259
  0
LINE
  5
2B0
100
AcDbEntity
  8
0
100
AcDbLine
 62
7
  6
CONTINUOUS
 10
42.2844615359
 20
60.452919146
 11
42.3797115416
 21
60.5177702021
  0
LINE
  5
2B1
100
AcDbEntity
  8
0
100
AcDbLine
 62
7
  6
CONTINUOUS
 10
42.3955865378
 20
60.436706382
 11
42.3479615378
 21
60.404280854
  0
LINE
  5
2B2
100
AcDbEntity
  8
0
100
AcDbLine
 62
7
  6
CONTINUOUS
 10
42.6019615227
 20
60.1448765955
 11
42.6495865227
 21
60.1773021235
  0
LINE
  5
2B3
100
AcDbEntity
  8
0
100
AcDbLine
 62
7
  6
CONTINUOUS
 10
42.6972115227
 20
60.1124510618
 11
42.6178365529
 21
60.0638127654
  0
LINE
  5
2B4
100
AcDbEntity
  8
0
100
AcDbLine
 62
7
  6
CONTINUOUS
 10
59.6918865378
 20
50.125
 11
16.6918865378
 21
50.125
  0
LINE
  5
2B5
100
AcDbEntity
  8
0
100
AcDbLine
 62
7
  6
CONTINUOUS
 10
34.1247115529
 20
60.5988340223
 11
34.1405865378
 21
60.4853446741
  0
LINE
  5
2B6
100
AcDbEntity
  8
0
100
AcDbLine
 62
7
  6
CONTINUOUS
 10
36.3585530455
 20
53.735
 11
36.3585802845
 21
53.704121898
  0
LINE
  5
2B7
100
AcDbEntity
  8
0
100
AcDbLine
 62
7
  6
CONTINUOUS
 10
36.1418865378
 20
43.625
 11
36.1418865378
 21
38.375
  0
LINE
  5
2B8
100
AcDbEntity
  8
0
100
AcDbLine
 62
7
  6
CONTINUOUS
 10
36.2418865378
 20
32.375
 11
36.2418865378
 21
38.275
  0
LINE
  5
2B9
100
AcDbEntity
  8
0
100
AcDbLine
 62
7
  6
CONTINUOUS
 10
37.1668865378
 20
32.375
 11
37.1668865378
 21
32.275
  0
LINE
  5
2BA
100
AcDbEntity
  8
0
100
AcDbLine
 62
7
  6
CONTINUOUS
 10
37.3668865378
 20
32.075
 11
37.3668865378
 21
32.375
  0
LINE
  5
2BB
100
AcDbEntity
  8
0
100
AcDbLine
 62
7
  6
CONTINUOUS
 10
42.3479615378
 20
60.6798978878
 11
42.316211534
 21
60.6312595957
  0
LINE
  5
2BC
100
AcDbEntity
  8
0
100
AcDbLine
 62
7
  6
CONTINUOUS
 10
42.6495865227
 20
60.1773021235
 11
42.6813365378
 21
60.225940427
  0
LINE
  5
2BD
100
AcDbEntity
  8
0
100
AcDbLine
 62
7
  6
CONTINUOUS
 10
42.2527115378
 20
60.6798978878
 11
42.3003365378
 21
60.7447489439
  0
LINE
  5
2BE
100
AcDbEntity
  8
0
100
AcDbLine
 62
7
  6
CONTINUOUS
 10
42.7448365227
 20
60.1773021236
 11
42.6972115227
 21
60.1124510618
  0
LINE
  5
2BF
100
AcDbEntity
  8
0
100
AcDbLine
 62
7
  6
CONTINUOUS
 10
10.4293477703
 20
50.425
 11
16.6918865378
 21
50.425
  0
LINE
  5
2C0
100
AcDbEntity
  8
0
100
AcDbLine
 62
7
  6
CONTINUOUS
 10
59.6918865378
 20
50.425
 11
65.9544253053
 21
50.425
  0
LINE
  5
2C1
100
AcDbEntity
  8
0
100
AcDbLine
 62
7
  6
CONTINUOUS
 10
34.4506140703
 20
50.675
 11
41.9331590053
 21
50.675
  0
LINE
  5
2C2
100
AcDbEntity
  8
0
100
AcDbLine
 62
7
  6
CONTINUOUS
 10
10.4418865378
 20
50.925
 11
34.446250304
 21
50.925
  0
LINE
  5
2C3
100
AcDbEntity
  8
0
100
AcDbLine
 62
7
  6
CONTINUOUS
 10
41.9375227716
 20
50.925
 11
65.9418865378
 21
50.925
  0
LINE
  5
2C4
100
AcDbEntity
  8
0
100
AcDbLine
 62
7
  6
CONTINUOUS
 10
48.1912032715
 20
51.1358556981
 11
47.6456000892
 21
51.1358556981
  0
LINE
  5
2C5
100
AcDbEntity
  8
0
100
AcDbLine
 62
7
  6
CONTINUOUS
 10
46.3512431358
 20
51.1358556981
 11
44.1456000892
 21
51.1358556981
  0
LINE
  5
2C6
100
AcDbEntity
  8
0
100
AcDbLine
 62
7
  6
CONTINUOUS
 10
42.8512431358
 20
51.1358556981
 11
41.9412032715
 21
51.1358556981
  0
LINE
  5
2C7
100
AcDbEntity
  8
0
100
AcDbLine
 62
7
  6
CONTINUOUS
 10
34.4425698041
 20
51.1358556981
 11
33.6456000892
 21
51.1358556981
  0
LINE
  5
2C8
100
AcDbEntity
  8
0
100
AcDbLine
 62
7
  6
CONTINUOUS
 10
32.3512431358
 20
51.1358556981
 11
30.1456000892
 21
51.1358556981
  0
LINE
  5
2C9
100
AcDbEntity
  8
0
100
AcDbLine
 62
7
  6
CONTINUOUS
 10
28.8512431358
 20
51.1358556981
 11
28.1925698041
 21
51.1358556981
  0
LINE
  5
2CA
100
AcDbEntity
  8
0
100
AcDbLine
 62
7
  6
CONTINUOUS
 10
26.196250304
 20
51.175
 11
28.1925698041
 21
51.175
  0
LINE
  5
2CB
100
AcDbEntity
  8
0
100
AcDbLine
 62
7
  6
CONTINUOUS
 10
48.1912032715
 20
51.175
 11
50.1875227716
 21
51.175
  0
LINE
  5
2CC
100
AcDbEntity
  8
0
100
AcDbLine
 62
7
  6
CONTINUOUS
 10
58.8123264858
 20
51.425
 11
50.1918865378
 21
51.425
  0
LINE
  5
2CD
100
AcDbEntity
  8
0
100
AcDbLine
 62
7
  6
CONTINUOUS
 10
26.1918865378
 20
51.425
 11
17.5714465898
 21
51.425
  0
LINE
  5
2CE
100
AcDbEntity
  8
0
100
AcDbLine
 62
7
  6
CONTINUOUS
 10
58.7992351871
 20
52.175
 11
48.2093416027
 21
52.175
  0
LINE
  5
2CF
100
AcDbEntity
  8
0
100
AcDbLine
 62
7
  6
CONTINUOUS
 10
28.1744314729
 20
52.175
 11
17.5845378885
 21
52.175
  0
LINE
  5
2D0
100
AcDbEntity
  8
0
100
AcDbLine
 62
7
  6
CONTINUOUS
 10
45.1918865378
 20
52.2001841985
 11
31.1918865378
 21
52.2001841985
  0
LINE
  5
2D1
100
AcDbEntity
  8
0
100
AcDbLine
 62
7
  6
CONTINUOUS
 10
44.8918865378
 20
43.625
 11
45.3918865389
 21
43.1249999989
  0
LINE
  5
2D2
100
AcDbEntity
  8
0
100
AcDbLine
 62
7
  6
CONTINUOUS
 10
33.6008365387
 20
60.452919146
 11
33.5690865378
 21
60.5339829662
  0
LINE
  5
2D3
100
AcDbEntity
  8
0
100
AcDbLine
 62
7
  6
CONTINUOUS
 10
34.0929615378
 20
60.6798978878
 11
34.1247115529
 21
60.5988340223
  0
LINE
  5
2D4
100
AcDbEntity
  8
0
100
AcDbLine
 62
7
  6
CONTINUOUS
 10
33.0928365227
 20
66.195480854
 11
33.1245865378
 21
66.1144170111
  0
LINE
  5
2D5
100
AcDbEntity
  8
0
100
AcDbLine
 62
7
  6
CONTINUOUS
 10
33.6167115378
 20
60.1773021236
 11
33.6008365387
 21
60.225940427
  0
LINE
  5
2D6
100
AcDbEntity
  8
0
100
AcDbLine
 62
7
  6
CONTINUOUS
 10
33.6484615359
 20
60.5501957302
 11
33.6643365378
 21
60.5015574381
  0
LINE
  5
2D7
100
AcDbEntity
  8
0
100
AcDbLine
 62
7
  6
CONTINUOUS
 10
34.0453365378
 20
60.5826212582
 11
34.0294615529
 21
60.6312595957
  0
LINE
  5
2D8
100
AcDbEntity
  8
0
100
AcDbLine
 62
7
  6
CONTINUOUS
 10
33.0452115227
 20
66.0982042471
 11
33.0293365378
 21
66.1468425619
  0
LINE
  5
2D9
100
AcDbEntity
  8
0
100
AcDbLine
 62
7
  6
CONTINUOUS
 10
40.1918865378
 20
53.735
 11
40.1919137768
 21
53.704121898
  0
LINE
  5
2DA
100
AcDbEntity
  8
0
100
AcDbLine
 62
7
  6
CONTINUOUS
 10
39.0168865378
 20
32.375
 11
39.0168865378
 21
32.075
  0
LINE
  5
2DB
100
AcDbEntity
  8
0
100
AcDbLine
 62
7
  6
CONTINUOUS
 10
39.2168865378
 20
32.275
 11
39.2168865378
 21
32.375
  0
LINE
  5
2DC
100
AcDbEntity
  8
0
100
AcDbLine
 62
7
  6
CONTINUOUS
 10
40.1418865378
 20
38.275
 11
40.1418865378
 21
32.375
  0
LINE
  5
2DD
100
AcDbEntity
  8
0
100
AcDbLine
 62
7
  6
CONTINUOUS
 10
40.2418865378
 20
43.625
 11
40.2418865378
 21
38.375
  0
LINE
  5
2DE
100
AcDbEntity
  8
0
100
AcDbLine
 62
7
  6
CONTINUOUS
 10
40.3418865378
 20
38.275
 11
40.3418865378
 21
32.375
  0
LINE
  5
2DF
100
AcDbEntity
  8
0
100
AcDbLine
 62
7
  6
CONTINUOUS
 10
40.3418865378
 20
38.375
 11
40.3418865378
 21
43.625
  0
LINE
  5
2E0
100
AcDbEntity
  8
0
100
AcDbLine
 62
7
  6
CONTINUOUS
 10
40.7418865378
 20
32.375
 11
40.7418865378
 21
37.225
  0
LINE
  5
2E1
100
AcDbEntity
  8
0
100
AcDbLine
 62
7
  6
CONTINUOUS
 10
39.5252195532
 20
53.735
 11
39.5251923141
 21
53.704121898
  0
LINE
  5
2E2
100
AcDbEntity
  8
0
100
AcDbLine
 62
7
  6
CONTINUOUS
 10
42.3003365378
 20
60.5826212582
 11
42.2844615359
 21
60.4853446741
  0
LINE
  5
2E3
100
AcDbEntity
  8
0
100
AcDbLine
 62
7
  6
CONTINUOUS
 10
42.316211534
 20
60.6312595957
 11
42.3003365378
 21
60.5826212582
  0
LINE
  5
2E4
100
AcDbEntity
  8
0
100
AcDbLine
 62
7
  6
CONTINUOUS
 10
42.316211534
 20
60.3718553259
 11
42.3003365378
 21
60.3232170111
  0
LINE
  5
2E5
100
AcDbEntity
  8
0
100
AcDbLine
 62
7
  6
CONTINUOUS
 10
42.6813365378
 20
60.225940427
 11
42.6972115227
 21
60.2745787191
  0
LINE
  5
2E6
100
AcDbEntity
  8
0
100
AcDbLine
 62
7
  6
CONTINUOUS
 10
42.2209615383
 20
60.5988340223
 11
42.2527115378
 21
60.6798978878
  0
LINE
  5
2E7
100
AcDbEntity
  8
0
100
AcDbLine
 62
7
  6
CONTINUOUS
 10
42.7765865378
 20
60.258365955
 11
42.7448365227
 21
60.1773021236
  0
LINE
  5
2E8
100
AcDbEntity
  8
0
100
AcDbLine
 62
7
  6
CONTINUOUS
 10
30.9918865367
 20
43.1249999989
 11
31.4918865378
 21
43.625
  0
LINE
  5
2E9
100
AcDbEntity
  8
0
100
AcDbLine
 62
7
  6
CONTINUOUS
 10
39.5252195532
 20
53.735
 11
39.1085120767
 21
53.7222498081
  0
LINE
  5
2EA
100
AcDbEntity
  8
0
100
AcDbLine
 62
7
  6
CONTINUOUS
 10
36.0252200301
 20
53.735
 11
35.6085159353
 21
53.7222499408
  0
LINE
  5
2EB
100
AcDbEntity
  8
0
100
AcDbLine
 62
7
  6
CONTINUOUS
 10
46.9548635905
 20
53.675
 11
46.9289094851
 21
53.675
  0
LINE
  5
2EC
100
AcDbEntity
  8
0
100
AcDbLine
 62
7
  6
CONTINUOUS
 10
29.4548635905
 20
53.675
 11
29.4289094851
 21
53.675
  0
LINE
  5
2ED
100
AcDbEntity
  8
0
100
AcDbLine
 62
7
  6
CONTINUOUS
 10
45.1918865378
 20
53.704121898
 11
31.1918865378
 21
53.704121898
  0
LINE
  5
2EE
100
AcDbEntity
  8
0
100
AcDbLine
 62
7
  6
CONTINUOUS
 10
45.4418865378
 20
53.735
 11
44.9418865378
 21
53.735
  0
LINE
  5
2EF
100
AcDbEntity
  8
0
100
AcDbLine
 62
7
  6
CONTINUOUS
 10
42.6085535223
 20
53.735
 11
42.1085535223
 21
53.735
  0
LINE
  5
2F0
100
AcDbEntity
  8
0
100
AcDbLine
 62
7
  6
CONTINUOUS
 10
40.1918865378
 20
53.735
 11
39.5252195532
 21
53.735
  0
LINE
  5
2F1
100
AcDbEntity
  8
0
100
AcDbLine
 62
7
  6
CONTINUOUS
 10
36.3585530455
 20
53.735
 11
36.0252200301
 21
53.735
  0
LINE
  5
2F2
100
AcDbEntity
  8
0
100
AcDbLine
 62
7
  6
CONTINUOUS
 10
31.4418865378
 20
53.735
 11
30.9418865378
 21
53.735
  0
LINE
  5
2F3
100
AcDbEntity
  8
0
100
AcDbLine
 62
7
  6
CONTINUOUS
 10
36.7752571402
 20
53.7222499408
 11
36.3585530455
 21
53.735
  0
LINE
  5
2F4
100
AcDbEntity
  8
0
100
AcDbLine
 62
7
  6
CONTINUOUS
 10
40.6085906325
 20
53.7222499408
 11
40.1918865378
 21
53.735
  0
LINE
  5
2F5
100
AcDbEntity
  8
0
100
AcDbLine
 62
7
  6
CONTINUOUS
 10
33.6643365378
 20
60.1124510618
 11
33.6167115378
 21
60.1773021236
  0
LINE
  5
2F6
100
AcDbEntity
  8
0
100
AcDbLine
 62
7
  6
CONTINUOUS
 10
33.6484615359
 20
60.3880680899
 11
33.6008365387
 21
60.452919146
  0
LINE
  5
2F7
100
AcDbEntity
  8
0
100
AcDbLine
 62
7
  6
CONTINUOUS
 10
34.0453365378
 20
60.7447489439
 11
34.0929615378
 21
60.6798978878
  0
LINE
  5
2F8
100
AcDbEntity
  8
0
100
AcDbLine
 62
7
  6
CONTINUOUS
 10
33.680211534
 20
60.225940427
 11
33.7119615378
 21
60.1773021236
  0
LINE
  5
2F9
100
AcDbEntity
  8
0
100
AcDbLine
 62
7
  6
CONTINUOUS
 10
33.6643365378
 20
60.5015574381
 11
33.6960865416
 21
60.452919146
  0
LINE
  5
2FA
100
AcDbEntity
  8
0
100
AcDbLine
 62
7
  6
CONTINUOUS
 10
34.0294615529
 20
60.6312595957
 11
33.9977115378
 21
60.6798978878
  0
LINE
  5
2FB
100
AcDbEntity
  8
0
100
AcDbLine
 62
7
  6
CONTINUOUS
 10
32.5848365387
 20
65.9685021236
 11
32.5530865378
 21
66.033353191
  0
LINE
  5
2FC
100
AcDbEntity
  8
0
100
AcDbLine
 62
7
  6
CONTINUOUS
 10
32.6483365378
 20
66.033353191
 11
32.6800865416
 21
65.9685021235
  0
LINE
  5
2FD
100
AcDbEntity
  8
0
100
AcDbLine
 62
7
  6
CONTINUOUS
 10
42.6085535223
 20
53.735
 11
42.6088229915
 21
53.704121898
  0
LINE
  5
2FE
100
AcDbEntity
  8
0
100
AcDbLine
 62
7
  6
CONTINUOUS
 10
41.1418865378
 20
38.275
 11
41.1418865378
 21
38.375
  0
LINE
  5
2FF
100
AcDbEntity
  8
0
100
AcDbLine
 62
7
  6
CONTINUOUS
 10
41.4418865378
 20
32.375
 11
41.4418865378
 21
37.225
  0
LINE
  5
300
100
AcDbEntity
  8
0
100
AcDbLine
 62
7
  6
CONTINUOUS
 10
42.0918865378
 20
32.375
 11
42.0918865378
 21
43.625
  0
LINE
  5
301
100
AcDbEntity
  8
0
100
AcDbLine
 62
7
  6
CONTINUOUS
 10
42.2050865378
 20
60.4853446741
 11
42.2050865378
 21
60.3718553259
  0
LINE
  5
302
100
AcDbEntity
  8
0
100
AcDbLine
 62
7
  6
CONTINUOUS
 10
42.2844615359
 20
60.452919146
 11
42.2844615359
 21
60.4853446741
  0
LINE
  5
303
100
AcDbEntity
  8
0
100
AcDbLine
 62
7
  6
CONTINUOUS
 10
42.3003365378
 20
60.2745787191
 11
42.3003365378
 21
60.3232170111
  0
LINE
  5
304
100
AcDbEntity
  8
0
100
AcDbLine
 62
7
  6
CONTINUOUS
 10
42.6972115227
 20
60.3232170111
 11
42.6972115227
 21
60.2745787191
  0
LINE
  5
305
100
AcDbEntity
  8
0
100
AcDbLine
 62
7
  6
CONTINUOUS
 10
42.7765865378
 20
60.258365955
 11
42.7765865378
 21
60.3394297979
  0
LINE
  5
306
100
AcDbEntity
  8
0
100
AcDbLine
 62
7
  6
CONTINUOUS
 10
43.3537354271
 20
59.6031
 11
43.3537354271
 21
59.2983
  0
LINE
  5
307
100
AcDbEntity
  8
0
100
AcDbLine
 62
7
  6
CONTINUOUS
 10
42.1085535223
 20
53.735
 11
42.1082840532
 21
53.704121898
  0
LINE
  5
308
100
AcDbEntity
  8
0
100
AcDbLine
 62
7
  6
CONTINUOUS
 10
41.9412032715
 20
51.1358556981
 11
41.9331590053
 21
50.675
  0
LINE
  5
309
100
AcDbEntity
  8
0
100
AcDbLine
 62
7
  6
CONTINUOUS
 10
42.3824257587
 20
31.625
 11
42.5918865378
 21
43.625
  0
LINE
  5
30A
100
AcDbEntity
  8
0
100
AcDbLine
 62
7
  6
CONTINUOUS
 10
42.6573457822
 20
34.027561758
 11
42.9924957108
 21
43.625
  0
LINE
  5
30B
100
AcDbEntity
  8
0
100
AcDbLine
 62
7
  6
CONTINUOUS
 10
42.2050865378
 20
60.4853446741
 11
42.2209615383
 21
60.5988340223
  0
LINE
  5
30C
100
AcDbEntity
  8
0
100
AcDbLine
 62
7
  6
CONTINUOUS
 10
19.3918865378
 20
56.825
 11
56.9918865378
 21
56.825
  0
LINE
  5
30D
100
AcDbEntity
  8
0
100
AcDbLine
 62
7
  6
CONTINUOUS
 10
56.9918865378
 20
57.025
 11
55.183892252
 21
57.025
  0
LINE
  5
30E
100
AcDbEntity
  8
0
100
AcDbLine
 62
7
  6
CONTINUOUS
 10
53.7112865378
 20
57.025
 11
48.6400470005
 21
57.025
  0
LINE
  5
30F
100
AcDbEntity
  8
0
100
AcDbLine
 62
7
  6
CONTINUOUS
 10
27.7437260751
 20
57.025
 11
22.6724865378
 21
57.025
  0
LINE
  5
310
100
AcDbEntity
  8
0
100
AcDbLine
 62
7
  6
CONTINUOUS
 10
21.1998808236
 20
57.025
 11
19.3918865378
 21
57.025
  0
LINE
  5
311
100
AcDbEntity
  8
0
100
AcDbLine
 62
7
  6
CONTINUOUS
 10
27.7524865378
 20
57.025
 11
48.6312865378
 21
57.025
  0
LINE
  5
312
100
AcDbEntity
  8
0
100
AcDbLine
 62
7
  6
CONTINUOUS
 10
33.7437115416
 20
60.0638127654
 11
33.6643365378
 21
60.1124510618
  0
LINE
  5
313
100
AcDbEntity
  8
0
100
AcDbLine
 62
7
  6
CONTINUOUS
 10
33.727836534
 20
60.3394297979
 11
33.6484615359
 21
60.3880680899
  0
LINE
  5
314
100
AcDbEntity
  8
0
100
AcDbLine
 62
7
  6
CONTINUOUS
 10
33.9659615227
 20
60.793387236
 11
34.0453365378
 21
60.7447489439
  0
LINE
  5
315
100
AcDbEntity
  8
0
100
AcDbLine
 62
7
  6
CONTINUOUS
 10
33.7119615378
 20
60.1773021236
 11
33.7595865378
 21
60.1448765955
  0
LINE
  5
316
100
AcDbEntity
  8
0
100
AcDbLine
 62
7
  6
CONTINUOUS
 10
33.6960865416
 20
60.452919146
 11
33.7437115416
 21
60.420493618
  0
LINE
  5
317
100
AcDbEntity
  8
0
100
AcDbLine
 62
7
  6
CONTINUOUS
 10
33.9977115378
 20
60.6798978878
 11
33.9500865378
 21
60.7123234159
  0
LINE
  5
318
100
AcDbEntity
  8
0
100
AcDbLine
 62
7
  6
CONTINUOUS
 10
32.6324615359
 20
65.9036510618
 11
32.5848365387
 21
65.9685021236
  0
LINE
  5
319
100
AcDbEntity
  8
0
100
AcDbLine
 62
7
  6
CONTINUOUS
 10
33.0452115227
 20
66.2603319101
 11
33.0928365227
 21
66.195480854
  0
LINE
  5
31A
100
AcDbEntity
  8
0
100
AcDbLine
 62
7
  6
CONTINUOUS
 10
33.0293365378
 20
66.1468425619
 11
32.9975865227
 21
66.195480854
  0
LINE
  5
31B
100
AcDbEntity
  8
0
100
AcDbLine
 62
7
  6
CONTINUOUS
 10
42.2209615383
 20
60.258365955
 11
42.2050865378
 21
60.3718553259
  0
LINE
  5
31C
100
AcDbEntity
  8
0
100
AcDbLine
 62
7
  6
CONTINUOUS
 10
45.4418865378
 20
53.735
 11
45.4421949753
 21
53.6996565662
  0
LINE
  5
31D
100
AcDbEntity
  8
0
100
AcDbLine
 62
7
  6
CONTINUOUS
 10
43.4750865378
 20
66.4873106518
 11
43.4750865378
 21
66.3576084942
  0
LINE
  5
31E
100
AcDbEntity
  8
0
100
AcDbLine
 62
7
  6
CONTINUOUS
 10
43.5703365378
 20
66.4710978878
 11
43.5703365378
 21
65.8388
  0
LINE
  5
31F
100
AcDbEntity
  8
0
100
AcDbLine
 62
7
  6
CONTINUOUS
 10
43.6655865378
 20
65.8388
 11
43.6655865378
 21
66.6008
  0
LINE
  5
320
100
AcDbEntity
  8
0
100
AcDbLine
 62
7
  6
CONTINUOUS
 10
43.8687865378
 20
67.2993
 11
43.8687865378
 21
66.9945
  0
LINE
  5
321
100
AcDbEntity
  8
0
100
AcDbLine
 62
7
  6
CONTINUOUS
 10
45.1918865378
 20
53.704121898
 11
45.1918865378
 21
52.2001841985
  0
LINE
  5
322
100
AcDbEntity
  8
0
100
AcDbLine
 62
7
  6
CONTINUOUS
 10
44.9418865378
 20
53.735
 11
44.9416170687
 21
53.704121898
  0
LINE
  5
323
100
AcDbEntity
  8
0
100
AcDbLine
 62
7
  6
CONTINUOUS
 10
43.9918865378
 20
43.625
 11
43.6185162449
 21
32.9330737253
  0
LINE
  5
324
100
AcDbEntity
  8
0
100
AcDbLine
 62
7
  6
CONTINUOUS
 10
45.8824229504
 20
64.4042415711
 11
45.3673718397
 21
61.4832415711
  0
LINE
  5
325
100
AcDbEntity
  8
0
100
AcDbLine
 62
7
  6
CONTINUOUS
 10
45.5549777167
 20
61.4501615933
 11
46.0700288273
 21
64.3711615933
  0
LINE
  5
326
100
AcDbEntity
  8
0
100
AcDbLine
 62
7
  6
CONTINUOUS
 10
45.8551471198
 20
61.3972336287
 11
46.3701982304
 21
64.3182336287
  0
LINE
  5
327
100
AcDbEntity
  8
0
100
AcDbLine
 62
7
  6
CONTINUOUS
 10
42.6178365529
 20
60.0638127654
 11
42.5384615378
 21
60.0476
  0
LINE
  5
328
100
AcDbEntity
  8
0
100
AcDbLine
 62
7
  6
CONTINUOUS
 10
42.3797115416
 20
60.5177702021
 11
42.4590865454
 21
60.5339829662
  0
LINE
  5
329
100
AcDbEntity
  8
0
100
AcDbLine
 62
7
  6
CONTINUOUS
 10
42.3797115416
 20
60.793387236
 11
42.4590865454
 21
60.8096
  0
LINE
  5
32A
100
AcDbEntity
  8
0
100
AcDbLine
 62
7
  6
CONTINUOUS
 10
23.9805865378
 20
58.18324
 11
27.4095865378
 21
58.18324
  0
LINE
  5
32B
100
AcDbEntity
  8
0
100
AcDbLine
 62
7
  6
CONTINUOUS
 10
48.9741865378
 20
58.18324
 11
52.4031865378
 21
58.18324
  0
LINE
  5
32C
100
AcDbEntity
  8
0
100
AcDbLine
 62
7
  6
CONTINUOUS
 10
58.6918865378
 20
58.325
 11
57.6918865378
 21
58.325
  0
LINE
  5
32D
100
AcDbEntity
  8
0
100
AcDbLine
 62
7
  6
CONTINUOUS
 10
18.6918865378
 20
58.325
 11
17.6918865378
 21
58.325
  0
LINE
  5
32E
100
AcDbEntity
  8
0
100
AcDbLine
 62
7
  6
CONTINUOUS
 10
18.6918865378
 20
58.525
 11
17.6918865378
 21
58.525
  0
LINE
  5
32F
100
AcDbEntity
  8
0
100
AcDbLine
 62
7
  6
CONTINUOUS
 10
57.6918865378
 20
58.525
 11
58.6918865378
 21
58.525
  0
LINE
  5
330
100
AcDbEntity
  8
0
100
AcDbLine
 62
7
  6
CONTINUOUS
 10
52.4412865378
 20
58.5998
 11
48.6312865378
 21
58.5998
  0
LINE
  5
331
100
AcDbEntity
  8
0
100
AcDbLine
 62
7
  6
CONTINUOUS
 10
27.7524865378
 20
58.5998
 11
23.9424865378
 21
58.5998
  0
LINE
  5
332
100
AcDbEntity
  8
0
100
AcDbLine
 62
7
  6
CONTINUOUS
 10
33.0300376484
 20
59.2983
 11
43.3537354271
 21
59.2983
  0
LINE
  5
333
100
AcDbEntity
  8
0
100
AcDbLine
 62
7
  6
CONTINUOUS
 10
43.3537354271
 20
59.6031
 11
33.0300376484
 21
59.6031
  0
LINE
  5
334
100
AcDbEntity
  8
0
100
AcDbLine
 62
7
  6
CONTINUOUS
 10
43.3537354271
 20
59.7936
 11
33.0300376484
 21
59.7936
  0
LINE
  5
335
100
AcDbEntity
  8
0
100
AcDbLine
 62
7
  6
CONTINUOUS
 10
33.8230865454
 20
60.0476
 11
33.7437115416
 21
60.0638127654
  0
LINE
  5
336
100
AcDbEntity
  8
0
100
AcDbLine
 62
7
  6
CONTINUOUS
 10
33.8072115378
 20
60.3232170111
 11
33.727836534
 21
60.3394297979
  0
LINE
  5
337
100
AcDbEntity
  8
0
100
AcDbLine
 62
7
  6
CONTINUOUS
 10
33.8865865302
 20
60.8096
 11
33.9659615227
 21
60.793387236
  0
LINE
  5
338
100
AcDbEntity
  8
0
100
AcDbLine
 62
7
  6
CONTINUOUS
 10
33.7595865378
 20
60.1448765955
 11
33.8072115378
 21
60.1286638315
  0
LINE
  5
339
100
AcDbEntity
  8
0
100
AcDbLine
 62
7
  6
CONTINUOUS
 10
33.7437115416
 20
60.420493618
 11
33.7913365302
 21
60.404280854
  0
LINE
  5
33A
100
AcDbEntity
  8
0
100
AcDbLine
 62
7
  6
CONTINUOUS
 10
33.9500865378
 20
60.7123234159
 11
33.9024615378
 21
60.7285361799
  0
LINE
  5
33B
100
AcDbEntity
  8
0
100
AcDbLine
 62
7
  6
CONTINUOUS
 10
42.2527115378
 20
60.1773021236
 11
42.2209615383
 21
60.258365955
  0
LINE
  5
33C
100
AcDbEntity
  8
0
100
AcDbLine
 62
7
  6
CONTINUOUS
 10
42.7448365227
 20
60.420493618
 11
42.7765865378
 21
60.3394297979
  0
LINE
  5
33D
100
AcDbEntity
  8
0
100
AcDbLine
 62
7
  6
CONTINUOUS
 10
42.3003365378
 20
60.2745787191
 11
42.316211534
 21
60.225940427
  0
LINE
  5
33E
100
AcDbEntity
  8
0
100
AcDbLine
 62
7
  6
CONTINUOUS
 10
42.6972115227
 20
60.3232170111
 11
42.6813365378
 21
60.3718553259
  0
LINE
  5
33F
100
AcDbEntity
  8
0
100
AcDbLine
 62
7
  6
CONTINUOUS
 10
42.7289615378
 20
60.6798978878
 11
42.7448365227
 21
60.6312595957
  0
LINE
  5
340
100
AcDbEntity
  8
0
100
AcDbLine
 62
7
  6
CONTINUOUS
 10
46.1790237138
 20
54.4119106952
 11
46.1369030833
 21
56.825
  0
LINE
  5
341
100
AcDbEntity
  8
0
100
AcDbLine
 62
7
  6
CONTINUOUS
 10
46.5918865369
 20
43.1249999998
 11
46.5918865365
 21
43.625
  0
LINE
  5
342
100
AcDbEntity
  8
0
100
AcDbLine
 62
7
  6
CONTINUOUS
 10
47.7468699923
 20
56.825
 11
47.7047493618
 21
54.4119106952
  0
LINE
  5
343
100
AcDbEntity
  8
0
100
AcDbLine
 62
7
  6
CONTINUOUS
 10
48.1912032715
 20
51.1358556981
 11
48.2279742851
 21
53.2424656606
  0
LINE
  5
344
100
AcDbEntity
  8
0
100
AcDbLine
 62
7
  6
CONTINUOUS
 10
33.9659615227
 20
60.0638127654
 11
33.8865865302
 21
60.0476
  0
LINE
  5
345
100
AcDbEntity
  8
0
100
AcDbLine
 62
7
  6
CONTINUOUS
 10
33.9659615227
 20
60.3394297979
 11
33.8865865302
 21
60.3232170111
  0
LINE
  5
346
100
AcDbEntity
  8
0
100
AcDbLine
 62
7
  6
CONTINUOUS
 10
33.727836534
 20
60.793387236
 11
33.8072115378
 21
60.8096
  0
LINE
  5
347
100
AcDbEntity
  8
0
100
AcDbLine
 62
7
  6
CONTINUOUS
 10
33.8230865454
 20
60.0476
 11
33.8865865302
 21
60.0476
  0
LINE
  5
348
100
AcDbEntity
  8
0
100
AcDbLine
 62
7
  6
CONTINUOUS
 10
42.4590865454
 20
60.0476
 11
42.5384615378
 21
60.0476
  0
LINE
  5
349
100
AcDbEntity
  8
0
100
AcDbLine
 62
7
  6
CONTINUOUS
 10
42.5543365454
 20
60.1286638315
 11
42.4432115378
 21
60.1286638315
  0
LINE
  5
34A
100
AcDbEntity
  8
0
100
AcDbLine
 62
7
  6
CONTINUOUS
 10
33.9024615378
 20
60.1286638315
 11
33.8072115378
 21
60.1286638315
  0
LINE
  5
34B
100
AcDbEntity
  8
0
100
AcDbLine
 62
7
  6
CONTINUOUS
 10
33.680211534
 20
60.225940427
 11
33.6008365387
 21
60.225940427
  0
LINE
  5
34C
100
AcDbEntity
  8
0
100
AcDbLine
 62
7
  6
CONTINUOUS
 10
33.8072115378
 20
60.3232170111
 11
33.8865865302
 21
60.3232170111
  0
LINE
  5
34D
100
AcDbEntity
  8
0
100
AcDbLine
 62
7
  6
CONTINUOUS
 10
33.9024615378
 20
60.404280854
 11
33.7913365302
 21
60.404280854
  0
LINE
  5
34E
100
AcDbEntity
  8
0
100
AcDbLine
 62
7
  6
CONTINUOUS
 10
42.4432115378
 20
60.452919146
 11
42.5543365454
 21
60.452919146
  0
LINE
  5
34F
100
AcDbEntity
  8
0
100
AcDbLine
 62
7
  6
CONTINUOUS
 10
42.5384615378
 20
60.5339829662
 11
42.4590865454
 21
60.5339829662
  0
LINE
  5
350
100
AcDbEntity
  8
0
100
AcDbLine
 62
7
  6
CONTINUOUS
 10
42.6654615529
 20
60.6312595957
 11
42.7448365227
 21
60.6312595957
  0
LINE
  5
351
100
AcDbEntity
  8
0
100
AcDbLine
 62
7
  6
CONTINUOUS
 10
33.7913365302
 20
60.7285361799
 11
33.9024615378
 21
60.7285361799
  0
LINE
  5
352
100
AcDbEntity
  8
0
100
AcDbLine
 62
7
  6
CONTINUOUS
 10
42.4432115378
 20
60.7285361799
 11
42.5384615378
 21
60.7285361799
  0
LINE
  5
353
100
AcDbEntity
  8
0
100
AcDbLine
 62
7
  6
CONTINUOUS
 10
42.5225865302
 20
60.8096
 11
42.4590865454
 21
60.8096
  0
LINE
  5
354
100
AcDbEntity
  8
0
100
AcDbLine
 62
7
  6
CONTINUOUS
 10
33.8865865302
 20
60.8096
 11
33.8072115378
 21
60.8096
  0
LINE
  5
355
100
AcDbEntity
  8
0
100
AcDbLine
 62
7
  6
CONTINUOUS
 10
42.4590865454
 20
60.0476
 11
42.3797115416
 21
60.0638127654
  0
LINE
  5
356
100
AcDbEntity
  8
0
100
AcDbLine
 62
7
  6
CONTINUOUS
 10
42.5384615378
 20
60.5339829662
 11
42.6178365529
 21
60.5177702021
  0
LINE
  5
357
100
AcDbEntity
  8
0
100
AcDbLine
 62
7
  6
CONTINUOUS
 10
42.5225865302
 20
60.8096
 11
42.6019615227
 21
60.793387236
  0
LINE
  5
358
100
AcDbEntity
  8
0
100
AcDbLine
 62
7
  6
CONTINUOUS
 10
42.3955865378
 20
60.1448765955
 11
42.4432115378
 21
60.1286638315
  0
LINE
  5
359
100
AcDbEntity
  8
0
100
AcDbLine
 62
7
  6
CONTINUOUS
 10
42.6019615227
 20
60.436706382
 11
42.5543365454
 21
60.452919146
  0
LINE
  5
35A
100
AcDbEntity
  8
0
100
AcDbLine
 62
7
  6
CONTINUOUS
 10
42.5860865378
 20
60.7123234159
 11
42.5384615378
 21
60.7285361799
  0
LINE
  5
35B
100
AcDbEntity
  8
0
100
AcDbLine
 62
7
  6
CONTINUOUS
 10
32.711836534
 20
65.8550127654
 11
32.6324615359
 21
65.9036510618
  0
LINE
  5
35C
100
AcDbEntity
  8
0
100
AcDbLine
 62
7
  6
CONTINUOUS
 10
42.3797115416
 20
60.0638127654
 11
42.3003365378
 21
60.1124510618
  0
LINE
  5
35D
100
AcDbEntity
  8
0
100
AcDbLine
 62
7
  6
CONTINUOUS
 10
32.9658365529
 20
66.3089702021
 11
33.0452115227
 21
66.2603319101
  0
LINE
  5
35E
100
AcDbEntity
  8
0
100
AcDbLine
 62
7
  6
CONTINUOUS
 10
42.6178365529
 20
60.5177702021
 11
42.6972115227
 21
60.4691319101
  0
LINE
  5
35F
100
AcDbEntity
  8
0
100
AcDbLine
 62
7
  6
CONTINUOUS
 10
42.6019615227
 20
60.793387236
 11
42.6813365378
 21
60.7447489439
  0
LINE
  5
360
100
AcDbEntity
  8
0
100
AcDbLine
 62
7
  6
CONTINUOUS
 10
32.6800865416
 20
65.9685021235
 11
32.7277115416
 21
65.9360765955
  0
LINE
  5
361
100
AcDbEntity
  8
0
100
AcDbLine
 62
7
  6
CONTINUOUS
 10
32.9975865227
 20
66.195480854
 11
32.9499615227
 21
66.227906382
  0
LINE
  5
362
100
AcDbEntity
  8
0
100
AcDbLine
 62
7
  6
CONTINUOUS
 10
42.3479615378
 20
60.1773021236
 11
42.3955865378
 21
60.1448765955
  0
LINE
  5
363
100
AcDbEntity
  8
0
100
AcDbLine
 62
7
  6
CONTINUOUS
 10
42.6495865227
 20
60.404280854
 11
42.6019615227
 21
60.436706382
  0
LINE
  5
364
100
AcDbEntity
  8
0
100
AcDbLine
 62
7
  6
CONTINUOUS
 10
42.6337115378
 20
60.6798978878
 11
42.5860865378
 21
60.7123234159
  0
LINE
  5
365
100
AcDbEntity
  8
0
100
AcDbLine
 62
7
  6
CONTINUOUS
 10
42.6813365378
 20
60.3718553259
 11
42.6495865227
 21
60.404280854
  0
LINE
  5
366
100
AcDbEntity
  8
0
100
AcDbLine
 62
7
  6
CONTINUOUS
 10
42.6972115227
 20
60.4691319101
 11
42.7448365227
 21
60.420493618
  0
LINE
  5
367
100
AcDbEntity
  8
0
100
AcDbLine
 62
7
  6
CONTINUOUS
 10
42.3003365378
 20
60.1124510618
 11
42.2527115378
 21
60.1773021236
  0
LINE
  5
368
100
AcDbEntity
  8
0
100
AcDbLine
 62
7
  6
CONTINUOUS
 10
42.6813365378
 20
60.7447489439
 11
42.7289615378
 21
60.6798978878
  0
LINE
  5
369
100
AcDbEntity
  8
0
100
AcDbLine
 62
7
  6
CONTINUOUS
 10
42.316211534
 20
60.225940427
 11
42.3479615378
 21
60.1773021236
  0
LINE
  5
36A
100
AcDbEntity
  8
0
100
AcDbLine
 62
7
  6
CONTINUOUS
 10
42.6654615529
 20
60.6312595957
 11
42.6337115378
 21
60.6798978878
  0
LINE
  5
36B
100
AcDbEntity
  8
0
100
AcDbLine
 62
7
  6
CONTINUOUS
 10
48.6312865378
 20
57.025
 11
48.6312865378
 21
58.5998
  0
LINE
  5
36C
100
AcDbEntity
  8
0
100
AcDbLine
 62
7
  6
CONTINUOUS
 10
48.9741865378
 20
58.18324
 11
48.9741865378
 21
58.5998
  0
LINE
  5
36D
100
AcDbEntity
  8
0
100
AcDbLine
 62
7
  6
CONTINUOUS
 10
49.1011865378
 20
65.9452801076
 11
49.1011865378
 21
65.0821893321
  0
LINE
  5
36E
100
AcDbEntity
  8
0
100
AcDbLine
 62
7
  6
CONTINUOUS
 10
49.1011865378
 20
61.5154106679
 11
49.1011865378
 21
60.6523198924
  0
LINE
  5
36F
100
AcDbEntity
  8
0
100
AcDbLine
 62
7
  6
CONTINUOUS
 10
49.7361865378
 20
60.3633686927
 11
49.7361865378
 21
61.6490216058
  0
LINE
  5
370
100
AcDbEntity
  8
0
100
AcDbLine
 62
7
  6
CONTINUOUS
 10
49.7361865378
 20
64.9485783942
 11
49.7361865378
 21
66.2342313073
  0
LINE
  5
371
100
AcDbEntity
  8
0
100
AcDbLine
 62
7
  6
CONTINUOUS
 10
50.3711865378
 20
66.3685242482
 11
50.3711865378
 21
65.1771553311
  0
LINE
  5
372
100
AcDbEntity
  8
0
100
AcDbLine
 62
7
  6
CONTINUOUS
 10
50.3711865378
 20
61.4204446689
 11
50.3711865378
 21
60.2290757518
  0
LINE
  5
373
100
AcDbEntity
  8
0
100
AcDbLine
 62
7
  6
CONTINUOUS
 10
50.1875227716
 20
51.175
 11
50.1918865378
 21
51.425
  0
LINE
  5
374
100
AcDbEntity
  8
0
100
AcDbLine
 62
7
  6
CONTINUOUS
 10
30.8287953589
 20
61.4501615933
 11
30.5286259558
 21
61.3972336287
  0
LINE
  5
375
100
AcDbEntity
  8
0
100
AcDbLine
 62
7
  6
CONTINUOUS
 10
45.8551471198
 20
61.3972336287
 11
45.5549777167
 21
61.4501615933
  0
LINE
  5
376
100
AcDbEntity
  8
0
100
AcDbLine
 62
7
  6
CONTINUOUS
 10
32.7912115378
 20
65.8388
 11
32.711836534
 21
65.8550127654
  0
LINE
  5
377
100
AcDbEntity
  8
0
100
AcDbLine
 62
7
  6
CONTINUOUS
 10
32.7277115416
 20
65.9360765955
 11
32.7912115378
 21
65.9198638315
  0
LINE
  5
378
100
AcDbEntity
  8
0
100
AcDbLine
 62
7
  6
CONTINUOUS
 10
32.9499615227
 20
66.227906382
 11
32.8864615378
 21
66.244119146
  0
LINE
  5
379
100
AcDbEntity
  8
0
100
AcDbLine
 62
7
  6
CONTINUOUS
 10
51.0061865378
 20
60.2290757518
 11
51.0061865378
 21
61.4204446689
  0
LINE
  5
37A
100
AcDbEntity
  8
0
100
AcDbLine
 62
7
  6
CONTINUOUS
 10
51.0061865378
 20
65.1771553311
 11
51.0061865378
 21
66.3685242482
  0
LINE
  5
37B
100
AcDbEntity
  8
0
100
AcDbLine
 62
7
  6
CONTINUOUS
 10
51.6411865378
 20
66.2342313073
 11
51.6411865378
 21
64.9485783942
  0
LINE
  5
37C
100
AcDbEntity
  8
0
100
AcDbLine
 62
7
  6
CONTINUOUS
 10
51.6411865378
 20
61.6490216058
 11
51.6411865378
 21
60.3633686927
  0
LINE
  5
37D
100
AcDbEntity
  8
0
100
AcDbLine
 62
7
  6
CONTINUOUS
 10
52.2761865378
 20
60.6523198924
 11
52.2761865378
 21
61.5154106679
  0
LINE
  5
37E
100
AcDbEntity
  8
0
100
AcDbLine
 62
7
  6
CONTINUOUS
 10
52.2761865378
 20
65.0821893321
 11
52.2761865378
 21
65.9452801076
  0
LINE
  5
37F
100
AcDbEntity
  8
0
100
AcDbLine
 62
7
  6
CONTINUOUS
 10
52.4031865378
 20
58.5998
 11
52.4031865378
 21
58.18324
  0
LINE
  5
380
100
AcDbEntity
  8
0
100
AcDbLine
 62
7
  6
CONTINUOUS
 10
32.8864615378
 20
65.9198638315
 11
32.9499615227
 21
65.9360765955
  0
LINE
  5
381
100
AcDbEntity
  8
0
100
AcDbLine
 62
7
  6
CONTINUOUS
 10
32.7912115378
 20
66.244119146
 11
32.7277115416
 21
66.227906382
  0
LINE
  5
382
100
AcDbEntity
  8
0
100
AcDbLine
 62
7
  6
CONTINUOUS
 10
32.9658365529
 20
65.8550127654
 11
32.8864615378
 21
65.8388
  0
LINE
  5
383
100
AcDbEntity
  8
0
100
AcDbLine
 62
7
  6
CONTINUOUS
 10
32.711836534
 20
66.3089702021
 11
32.7912115378
 21
66.3251829662
  0
LINE
  5
384
100
AcDbEntity
  8
0
100
AcDbLine
 62
7
  6
CONTINUOUS
 10
30.0135748451
 20
64.3182336287
 11
30.3137442483
 21
64.3711615933
  0
LINE
  5
385
100
AcDbEntity
  8
0
100
AcDbLine
 62
7
  6
CONTINUOUS
 10
32.7912115378
 20
65.8388
 11
32.8864615378
 21
65.8388
  0
LINE
  5
386
100
AcDbEntity
  8
0
100
AcDbLine
 62
7
  6
CONTINUOUS
 10
43.5703365378
 20
65.8388
 11
43.6655865378
 21
65.8388
  0
LINE
  5
387
100
AcDbEntity
  8
0
100
AcDbLine
 62
7
  6
CONTINUOUS
 10
32.8864615378
 20
65.9198638315
 11
32.7912115378
 21
65.9198638315
  0
LINE
  5
388
100
AcDbEntity
  8
0
100
AcDbLine
 62
7
  6
CONTINUOUS
 10
32.6483365378
 20
66.033353191
 11
32.5530865378
 21
66.033353191
  0
LINE
  5
389
100
AcDbEntity
  8
0
100
AcDbLine
 62
7
  6
CONTINUOUS
 10
32.5530865378
 20
66.1792680899
 11
32.664211534
 21
66.1792680899
  0
LINE
  5
38A
100
AcDbEntity
  8
0
100
AcDbLine
 62
7
  6
CONTINUOUS
 10
32.7912115378
 20
66.244119146
 11
32.8864615378
 21
66.244119146
  0
LINE
  5
38B
100
AcDbEntity
  8
0
100
AcDbLine
 62
7
  6
CONTINUOUS
 10
32.8864615378
 20
66.3251829662
 11
32.7912115378
 21
66.3251829662
  0
LINE
  5
38C
100
AcDbEntity
  8
0
100
AcDbLine
 62
7
  6
CONTINUOUS
 10
32.6324615359
 20
66.5197361799
 11
33.0928365227
 21
66.5197361799
  0
LINE
  5
38D
100
AcDbEntity
  8
0
100
AcDbLine
 62
7
  6
CONTINUOUS
 10
43.6655865378
 20
66.6008
 11
43.5703365378
 21
66.6008
  0
LINE
  5
38E
100
AcDbEntity
  8
0
100
AcDbLine
 62
7
  6
CONTINUOUS
 10
33.0928365227
 20
66.6008
 11
32.5530865378
 21
66.6008
  0
LINE
  5
38F
100
AcDbEntity
  8
0
100
AcDbLine
 62
7
  6
CONTINUOUS
 10
32.5149865378
 20
66.804
 11
43.8687865378
 21
66.804
  0
LINE
  5
390
100
AcDbEntity
  8
0
100
AcDbLine
 62
7
  6
CONTINUOUS
 10
32.5149865378
 20
66.9945
 11
43.8687865378
 21
66.9945
  0
LINE
  5
391
100
AcDbEntity
  8
0
100
AcDbLine
 62
7
  6
CONTINUOUS
 10
46.0700288273
 20
64.3711615933
 11
46.3701982304
 21
64.3182336287
  0
LINE
  5
392
100
AcDbEntity
  8
0
100
AcDbLine
 62
7
  6
CONTINUOUS
 10
32.8864615378
 20
66.3251829662
 11
32.9658365529
 21
66.3089702021
  0
LINE
  5
393
100
AcDbEntity
  8
0
100
AcDbLine
 62
7
  6
CONTINUOUS
 10
55.183892252
 20
57.025
 11
54.939521343
 21
71.025
  0
LINE
  5
394
100
AcDbEntity
  8
0
100
AcDbLine
 62
7
  6
CONTINUOUS
 10
53.7112865378
 20
57.025
 11
53.7112865378
 21
67.9978
  0
LINE
  5
395
100
AcDbEntity
  8
0
100
AcDbLine
 62
7
  6
CONTINUOUS
 10
53.7918865365
 20
43.625
 11
53.7918865369
 21
43.1249999989
  0
LINE
  5
396
100
AcDbEntity
  8
0
100
AcDbLine
 62
7
  6
CONTINUOUS
 10
55.8180691352
 20
72.525
 11
55.8049778365
 21
71.775
  0
LINE
  5
397
100
AcDbEntity
  8
0
100
AcDbLine
 62
7
  6
CONTINUOUS
 10
56.9918865378
 20
57.025
 11
57.6918865378
 21
58.525
  0
LINE
  5
398
100
AcDbEntity
  8
0
100
AcDbLine
 62
7
  6
CONTINUOUS
 10
57.6918865378
 20
58.325
 11
56.9918865378
 21
56.825
  0
LINE
  5
399
100
AcDbEntity
  8
0
100
AcDbLine
 62
7
  6
CONTINUOUS
 10
42.8728373039
 20
31.625
 11
43.4247559238
 21
32.3755548834
  0
LINE
  5
39A
100
AcDbEntity
  8
0
100
AcDbLine
 62
7
  6
CONTINUOUS
 10
43.8687865378
 20
67.2993
 11
32.5149865378
 21
67.2993
  0
LINE
  5
39B
100
AcDbEntity
  8
0
100
AcDbLine
 62
7
  6
CONTINUOUS
 10
57.1203546113
 20
68.4269386745
 11
55.8634184643
 21
68.4269386745
  0
LINE
  5
39C
100
AcDbEntity
  8
0
100
AcDbLine
 62
7
  6
CONTINUOUS
 10
19.2634184643
 20
68.4269386745
 11
20.5203546113
 21
68.4269386745
  0
LINE
  5
39D
100
AcDbEntity
  8
0
100
AcDbLine
 62
7
  6
CONTINUOUS
 10
56.9618865378
 20
68.6170870397
 11
55.9618865378
 21
68.6170870397
  0
LINE
  5
39E
100
AcDbEntity
  8
0
100
AcDbLine
 62
7
  6
CONTINUOUS
 10
20.4218865378
 20
68.6170870397
 11
19.4218865378
 21
68.6170870397
  0
LINE
  5
39F
100
AcDbEntity
  8
0
100
AcDbLine
 62
7
  6
CONTINUOUS
 10
19.2540380923
 20
68.9643398282
 11
19.4218865378
 21
68.9643398282
  0
LINE
  5
3A0
100
AcDbEntity
  8
0
100
AcDbLine
 62
7
  6
CONTINUOUS
 10
20.4218865378
 20
68.9643398282
 11
20.5297349833
 21
68.9643398282
  0
LINE
  5
3A1
100
AcDbEntity
  8
0
100
AcDbLine
 62
7
  6
CONTINUOUS
 10
55.8540380923
 20
68.9643398282
 11
55.9618865378
 21
68.9643398282
  0
LINE
  5
3A2
100
AcDbEntity
  8
0
100
AcDbLine
 62
7
  6
CONTINUOUS
 10
56.9618865378
 20
68.9643398282
 11
57.1297349833
 21
68.9643398282
  0
LINE
  5
3A3
100
AcDbEntity
  8
0
100
AcDbLine
 62
7
  6
CONTINUOUS
 10
24.2472865378
 20
69.5726
 11
52.1364865378
 21
69.5726
  0
LINE
  5
3A4
100
AcDbEntity
  8
0
100
AcDbLine
 62
7
  6
CONTINUOUS
 10
55.8634184643
 20
68.4269386745
 11
55.7918865378
 21
72.525
  0
LINE
  5
3A5
100
AcDbEntity
  8
0
100
AcDbLine
 62
7
  6
CONTINUOUS
 10
57.1787952391
 20
71.775
 11
57.1657039404
 21
72.525
  0
LINE
  5
3A6
100
AcDbEntity
  8
0
100
AcDbLine
 62
7
  6
CONTINUOUS
 10
55.9618865378
 20
68.4269386745
 11
55.9618865378
 21
70.025
  0
LINE
  5
3A7
100
AcDbEntity
  8
0
100
AcDbLine
 62
7
  6
CONTINUOUS
 10
55.9618865378
 20
70.9259162841
 11
55.9618865378
 21
72.525
  0
LINE
  5
3A8
100
AcDbEntity
  8
0
100
AcDbLine
 62
7
  6
CONTINUOUS
 10
56.9618865378
 20
68.4269386745
 11
56.9618865378
 21
70.025
  0
LINE
  5
3A9
100
AcDbEntity
  8
0
100
AcDbLine
 62
7
  6
CONTINUOUS
 10
56.9618865378
 20
70.9255429037
 11
56.9618865378
 21
72.525
  0
LINE
  5
3AA
100
AcDbEntity
  8
0
100
AcDbLine
 62
7
  6
CONTINUOUS
 10
57.1918865378
 20
72.525
 11
57.1639578327
 21
70.9249655591
  0
LINE
  5
3AB
100
AcDbEntity
  8
0
100
AcDbLine
 62
7
  6
CONTINUOUS
 10
57.1482488755
 20
70.025
 11
57.1203546113
 21
68.4269386745
  0
LINE
  5
3AC
100
AcDbEntity
  8
0
100
AcDbLine
 62
7
  6
CONTINUOUS
 10
54.9918865376
 20
43.1249999998
 11
55.4918865378
 21
43.625
  0
LINE
  5
3AD
100
AcDbEntity
  8
0
100
AcDbLine
 62
7
  6
CONTINUOUS
 10
17.6918865378
 20
70.025
 11
20.5482488755
 21
70.025
  0
LINE
  5
3AE
100
AcDbEntity
  8
0
100
AcDbLine
 62
7
  6
CONTINUOUS
 10
55.8355394198
 20
70.0245153314
 11
58.6918865378
 21
70.025
  0
LINE
  5
3AF
100
AcDbEntity
  8
0
100
AcDbLine
 62
7
  6
CONTINUOUS
 10
55.8267966677
 20
70.525
 11
54.9482488755
 21
70.525
  0
LINE
  5
3B0
100
AcDbEntity
  8
0
100
AcDbLine
 62
7
  6
CONTINUOUS
 10
21.4355242001
 20
70.525
 11
20.5569764079
 21
70.525
  0
LINE
  5
3B1
100
AcDbEntity
  8
0
100
AcDbLine
 62
7
  6
CONTINUOUS
 10
17.6918865378
 20
70.9269386745
 11
20.5639922736
 21
70.9269386745
  0
LINE
  5
3B2
100
AcDbEntity
  8
0
100
AcDbLine
 62
7
  6
CONTINUOUS
 10
54.939521343
 20
71.025
 11
21.4442517326
 21
71.025
  0
LINE
  5
3B3
100
AcDbEntity
  8
0
100
AcDbLine
 62
7
  6
CONTINUOUS
 10
19.2180691352
 20
71.025
 11
19.4218865378
 21
71.025
  0
LINE
  5
3B4
100
AcDbEntity
  8
0
100
AcDbLine
 62
7
  6
CONTINUOUS
 10
20.4218865378
 20
71.025
 11
20.5657039404
 21
71.025
  0
LINE
  5
3B5
100
AcDbEntity
  8
0
100
AcDbLine
 62
7
  6
CONTINUOUS
 10
55.8180691352
 20
71.025
 11
55.9618865378
 21
71.025
  0
LINE
  5
3B6
100
AcDbEntity
  8
0
100
AcDbLine
 62
7
  6
CONTINUOUS
 10
56.9618865378
 20
71.025
 11
57.1657039404
 21
71.025
  0
LINE
  5
3B7
100
AcDbEntity
  8
0
100
AcDbLine
 62
7
  6
CONTINUOUS
 10
56.9618865378
 20
71.0949098511
 11
55.9618865378
 21
71.0949098511
  0
LINE
  5
3B8
100
AcDbEntity
  8
0
100
AcDbLine
 62
7
  6
CONTINUOUS
 10
20.4218865378
 20
71.0949098511
 11
19.4218865378
 21
71.0949098511
  0
LINE
  5
3B9
100
AcDbEntity
  8
0
100
AcDbLine
 62
7
  6
CONTINUOUS
 10
15.4418865378
 20
71.2342133582
 11
16.8373879
 21
71.2342133582
  0
LINE
  5
3BA
100
AcDbEntity
  8
0
100
AcDbLine
 62
7
  6
CONTINUOUS
 10
59.5463851756
 20
71.2342133582
 11
60.9418865378
 21
71.2342133582
  0
LINE
  5
3BB
100
AcDbEntity
  8
0
100
AcDbLine
 62
7
  6
CONTINUOUS
 10
11.1624731062
 20
71.5598994967
 11
13.8321172021
 21
71.5598994967
  0
LINE
  5
3BC
100
AcDbEntity
  8
0
100
AcDbLine
 62
7
  6
CONTINUOUS
 10
62.5516558735
 20
71.5598994967
 11
65.2212999694
 21
71.5598994967
  0
LINE
  5
3BD
100
AcDbEntity
  8
0
100
AcDbLine
 62
7
  6
CONTINUOUS
 10
57.1814473385
 20
71.6230613255
 11
56.9618865378
 21
71.6230613255
  0
LINE
  5
3BE
100
AcDbEntity
  8
0
100
AcDbLine
 62
7
  6
CONTINUOUS
 10
55.9618865378
 20
71.6230613255
 11
55.8023257371
 21
71.6230613255
  0
LINE
  5
3BF
100
AcDbEntity
  8
0
100
AcDbLine
 62
7
  6
CONTINUOUS
 10
20.5814473385
 20
71.6230613255
 11
20.4218865378
 21
71.6230613255
  0
LINE
  5
3C0
100
AcDbEntity
  8
0
100
AcDbLine
 62
7
  6
CONTINUOUS
 10
19.4218865378
 20
71.6230613255
 11
19.2023257371
 21
71.6230613255
  0
LINE
  5
3C1
100
AcDbEntity
  8
0
100
AcDbLine
 62
7
  6
CONTINUOUS
 10
58.6918865378
 20
70.9249655591
 11
55.8197977218
 21
70.9259693373
  0
LINE
  5
3C2
100
AcDbEntity
  8
0
100
AcDbLine
 62
7
  6
CONTINUOUS
 10
58.8210540183
 20
50.925
 11
58.6918865378
 21
58.325
  0
LINE
  5
3C3
100
AcDbEntity
  8
0
100
AcDbLine
 62
7
  6
CONTINUOUS
 10
58.6918865378
 20
58.325
 11
58.6918865378
 21
72.525
  0
LINE
  5
3C4
100
AcDbEntity
  8
0
100
AcDbLine
 62
7
  6
CONTINUOUS
 10
59.6918865378
 20
50.425
 11
59.6918865378
 21
50.125
  0
LINE
  5
3C5
100
AcDbEntity
  8
0
100
AcDbLine
 62
7
  6
CONTINUOUS
 10
58.756432196
 20
54.6271817169
 11
59.0688397762
 21
72.525
  0
LINE
  5
3C6
100
AcDbEntity
  8
0
100
AcDbLine
 62
7
  6
CONTINUOUS
 10
59.1918865378
 20
50.925
 11
59.5689159402
 21
72.525
  0
LINE
  5
3C7
100
AcDbEntity
  8
0
100
AcDbLine
 62
7
  6
CONTINUOUS
 10
13.6918865378
 20
73.025
 11
14.6918865378
 21
73.025
  0
LINE
  5
3C8
100
AcDbEntity
  8
0
100
AcDbLine
 62
7
  6
CONTINUOUS
 10
16.6918865378
 20
73.025
 11
17.6918865378
 21
73.025
  0
LINE
  5
3C9
100
AcDbEntity
  8
0
100
AcDbLine
 62
7
  6
CONTINUOUS
 10
58.6918865378
 20
73.025
 11
59.6918865378
 21
73.025
  0
LINE
  5
3CA
100
AcDbEntity
  8
0
100
AcDbLine
 62
7
  6
CONTINUOUS
 10
61.6918865378
 20
73.025
 11
62.6918865378
 21
73.025
  0
LINE
  5
3CB
100
AcDbEntity
  8
0
100
AcDbLine
 62
7
  6
CONTINUOUS
 10
64.221909142
 20
72.525
 11
12.1618639336
 21
72.525
  0
LINE
  5
3CC
100
AcDbEntity
  8
0
100
AcDbLine
 62
7
  6
CONTINUOUS
 10
60.9418865378
 20
71.2342133582
 11
60.9418865378
 21
50.925
  0
LINE
  5
3CD
100
AcDbEntity
  8
0
100
AcDbLine
 62
7
  6
CONTINUOUS
 10
61.1918865378
 20
50.925
 11
61.1918865378
 21
43.625
  0
LINE
  5
3CE
100
AcDbEntity
  8
0
100
AcDbLine
 62
7
  6
CONTINUOUS
 10
64.9911550846
 20
43.625
 11
65.106393624
 21
40.325
  0
LINE
  5
3CF
100
AcDbEntity
  8
0
100
AcDbLine
 62
7
  6
CONTINUOUS
 10
66.2382326231
 20
42.2978217618
 11
65.9369709149
 21
50.9248283427
  0
LINE
  5
3D0
100
AcDbEntity
  8
0
100
AcDbLine
 62
7
  6
CONTINUOUS
 10
65.9418865378
 20
50.925
 11
65.221299969
 21
71.5598994967
  0
LINE
  5
3D1
100
AcDbEntity
  8
0
100
AcDbLine
 62
7
  6
CONTINUOUS
 10
65.3918865378
 20
50.425
 11
65.3918865378
 21
50.925
  0
LINE
  5
3D2
100
AcDbEntity
  8
0
100
AcDbLine
 62
7
  6
CONTINUOUS
 10
67.5918865378
 20
42.4162511336
 11
67.5918865378
 21
41.4503613982
  0
LINE
  5
3D3
100
AcDbEntity
  8
0
100
AcDbLine
 62
7
  6
CONTINUOUS
 10
66.406393624
 20
40.325
 11
68.0918865378
 21
41.925
  0
LINE
  5
3D4
100
AcDbEntity
  8
0
100
AcDbLine
 62
7
  6
CONTINUOUS
 10
68.0918865378
 20
41.925
 11
68.0918865378
 21
42.425
  0
ARC
  5
3D5
100
AcDbEntity
  8
0
100
AcDbCircle
 62
7
  6
CONTINUOUS
 10
31.192547256
 20
33.8406603093
 40
19.8634615997
100
AcDbArc
 50
90.0019058292
 51
90.726532287
  0
ARC
  5
3D6
100
AcDbEntity
  8
0
100
AcDbCircle
 62
7
  6
CONTINUOUS
 10
33.7646476577
 20
32.967973222
 40
1.0
100
AcDbArc
 50
182.0
 51
216.3288093065
  0
ARC
  5
3D7
100
AcDbEntity
  8
0
100
AcDbCircle
 62
7
  6
CONTINUOUS
 10
33.7496672091
 20
32.662443903
 40
0.9740540385
100
AcDbArc
 50
160.078824528
 51
173.1217746172
  0
ARC
  5
3D8
100
AcDbEntity
  8
0
100
AcDbCircle
 62
7
  6
CONTINUOUS
 10
33.7291219467
 20
32.6701766495
 40
0.9521034404
100
AcDbArc
 50
135.0250148333
 51
160.0950551708
  0
ARC
  5
3D9
100
AcDbEntity
  8
0
100
AcDbCircle
 62
7
  6
CONTINUOUS
 10
37.3668865378
 20
32.275
 40
0.2
100
AcDbArc
 50
180.0
 51
270.0
  0
ARC
  5
3DA
100
AcDbEntity
  8
0
100
AcDbCircle
 62
7
  6
CONTINUOUS
 10
23.9424865378
 20
59.8698
 40
1.27
100
AcDbArc
 50
180.0
 51
270.0
  0
ARC
  5
3DB
100
AcDbEntity
  8
0
100
AcDbCircle
 62
7
  6
CONTINUOUS
 10
24.2472865378
 20
67.9978
 40
1.5748
100
AcDbArc
 50
90.0
 51
180.0
  0
ARC
  5
3DC
100
AcDbEntity
  8
0
100
AcDbCircle
 62
7
  6
CONTINUOUS
 10
12.1618639336
 20
71.525
 40
1.0
100
AcDbArc
 50
89.9999999999
 51
177.9999999993
  0
ARC
  5
3DD
100
AcDbEntity
  8
0
100
AcDbCircle
 62
7
  6
CONTINUOUS
 10
14.6918865378
 20
72.525
 40
0.5
100
AcDbArc
 50
0.0
 51
89.9999999997
  0
ARC
  5
3DE
100
AcDbEntity
  8
0
100
AcDbCircle
 62
7
  6
CONTINUOUS
 10
13.6918865378
 20
72.525
 40
0.5
100
AcDbArc
 50
90.0000000003
 51
180.0000000003
  0
ARC
  5
3DF
100
AcDbEntity
  8
0
100
AcDbCircle
 62
7
  6
CONTINUOUS
 10
17.6918865378
 20
72.525
 40
0.5
100
AcDbArc
 50
0.0
 51
89.9999999997
  0
ARC
  5
3E0
100
AcDbEntity
  8
0
100
AcDbCircle
 62
7
  6
CONTINUOUS
 10
16.6918865378
 20
72.525
 40
0.5
100
AcDbArc
 50
90.0000000003
 51
180.0000000003
  0
ARC
  5
3E1
100
AcDbEntity
  8
0
100
AcDbCircle
 62
7
  6
CONTINUOUS
 10
38.1918718015
 20
54.2973265415
 40
3.0049488917
100
AcDbArc
 50
269.7673861281
 51
270.4776561952
  0
ARC
  5
3E2
100
AcDbEntity
  8
0
100
AcDbCircle
 62
7
  6
CONTINUOUS
 10
34.6918718015
 20
54.2973265413
 40
3.0049488915
100
AcDbArc
 50
269.767386128
 51
270.4776561952
  0
ARC
  5
3E3
100
AcDbEntity
  8
0
100
AcDbCircle
 62
7
  6
CONTINUOUS
 10
31.1918718015
 20
54.2973265411
 40
3.0049488913
100
AcDbArc
 50
269.767386128
 51
270.4776561953
  0
ARC
  5
3E4
100
AcDbEntity
  8
0
100
AcDbCircle
 62
7
  6
CONTINUOUS
 10
29.4918718015
 20
54.000645635
 40
3.0049488911
100
AcDbArc
 50
269.7673861279
 51
270.4776561956
  0
ARC
  5
3E5
100
AcDbEntity
  8
0
100
AcDbCircle
 62
7
  6
CONTINUOUS
 10
32.9918718015
 20
54.000645635
 40
3.0049488911
100
AcDbArc
 50
269.7673861279
 51
270.4776561955
  0
ARC
  5
3E6
100
AcDbEntity
  8
0
100
AcDbCircle
 62
7
  6
CONTINUOUS
 10
32.9918718015
 20
54.5940074468
 40
3.0049488912
100
AcDbArc
 50
269.7673861278
 51
270.4776561959
  0
ARC
  5
3E7
100
AcDbEntity
  8
0
100
AcDbCircle
 62
7
  6
CONTINUOUS
 10
36.4918718015
 20
54.000645635
 40
3.0049488911
100
AcDbArc
 50
269.7673861279
 51
270.4776561956
  0
ARC
  5
3E8
100
AcDbEntity
  8
0
100
AcDbCircle
 62
7
  6
CONTINUOUS
 10
36.4918718015
 20
54.5940074468
 40
3.0049488912
100
AcDbArc
 50
269.7673861278
 51
270.4776561959
  0
ARC
  5
3E9
100
AcDbEntity
  8
0
100
AcDbCircle
 62
7
  6
CONTINUOUS
 10
33.0300376484
 20
61.8383
 40
2.54
100
AcDbArc
 50
190.0
 51
270.0
  0
ARC
  5
3EA
100
AcDbEntity
  8
0
100
AcDbCircle
 62
7
  6
CONTINUOUS
 10
33.0300376484
 20
61.8383
 40
2.2352
100
AcDbArc
 50
189.9999999995
 51
270.0
  0
ARC
  5
3EB
100
AcDbEntity
  8
0
100
AcDbCircle
 62
7
  6
CONTINUOUS
 10
33.0300376484
 20
61.8383
 40
2.0447
100
AcDbArc
 50
189.9999999999
 51
270.0
  0
CIRCLE
  5
3EC
100
AcDbEntity
  8
0
100
AcDbCircle
 62
7
  6
CONTINUOUS
 10
34.0770865378
 20
61.8764
 40
1.0414
  0
CIRCLE
  5
3ED
100
AcDbEntity
  8
0
100
AcDbCircle
 62
7
  6
CONTINUOUS
 10
36.8202865378
 20
61.8764
 40
1.0414
  0
ARC
  5
3EE
100
AcDbEntity
  8
0
100
AcDbCircle
 62
7
  6
CONTINUOUS
 10
29.4548635905
 20
54.425
 40
0.75
100
AcDbArc
 50
270.0
 51
359.0
  0
ARC
  5
3EF
100
AcDbEntity
  8
0
100
AcDbCircle
 62
7
  6
CONTINUOUS
 10
29.4289094851
 20
54.425
 40
0.75
100
AcDbArc
 50
181.0
 51
270.0
  0
CIRCLE
  5
3F0
100
AcDbEntity
  8
0
100
AcDbCircle
 62
7
  6
CONTINUOUS
 10
34.0770865378
 20
61.8764
 40
0.5715000004
  0
CIRCLE
  5
3F1
100
AcDbEntity
  8
0
100
AcDbCircle
 62
7
  6
CONTINUOUS
 10
36.8202865378
 20
61.8764
 40
0.5715000004
  0
ARC
  5
3F2
100
AcDbEntity
  8
0
100
AcDbCircle
 62
7
  6
CONTINUOUS
 10
25.6950865378
 20
63.2988
 40
3.0861
100
AcDbArc
 50
287.9774086675
 51
300.9575785424
  0
ARC
  5
3F3
100
AcDbEntity
  8
0
100
AcDbCircle
 62
7
  6
CONTINUOUS
 10
25.6950865378
 20
63.2988
 40
3.0861
100
AcDbArc
 50
59.0424214576
 51
72.0225913325
  0
ARC
  5
3F4
100
AcDbEntity
  8
0
100
AcDbCircle
 62
7
  6
CONTINUOUS
 10
25.6950865378
 20
63.2988
 40
3.0861
100
AcDbArc
 50
84.0949240903
 51
95.9050759097
  0
ARC
  5
3F5
100
AcDbEntity
  8
0
100
AcDbCircle
 62
7
  6
CONTINUOUS
 10
25.6950865378
 20
63.2988
 40
3.0861
100
AcDbArc
 50
107.9774086675
 51
120.9575785424
  0
ARC
  5
3F6
100
AcDbEntity
  8
0
100
AcDbCircle
 62
7
  6
CONTINUOUS
 10
25.6950865378
 20
63.2988
 40
3.0861
100
AcDbArc
 50
239.0424214576
 51
252.0225913325
  0
ARC
  5
3F7
100
AcDbEntity
  8
0
100
AcDbCircle
 62
7
  6
CONTINUOUS
 10
25.6950865378
 20
63.2988
 40
3.0861
100
AcDbArc
 50
264.0949240903
 51
275.9050759097
  0
ARC
  5
3F8
100
AcDbEntity
  8
0
100
AcDbCircle
 62
7
  6
CONTINUOUS
 10
32.5149865378
 20
64.7593
 40
2.54
100
AcDbArc
 50
90.0
 51
189.9999999999
  0
ARC
  5
3F9
100
AcDbEntity
  8
0
100
AcDbCircle
 62
7
  6
CONTINUOUS
 10
25.6950865378
 20
63.2988
 40
2.3876
100
AcDbArc
 50
311.6741644997
 51
48.3258355003
  0
ARC
  5
3FA
100
AcDbEntity
  8
0
100
AcDbCircle
 62
7
  6
CONTINUOUS
 10
25.6950865378
 20
63.2988
 40
2.3876
100
AcDbArc
 50
131.6741644997
 51
228.3258355003
  0
ARC
  5
3FB
100
AcDbEntity
  8
0
100
AcDbCircle
 62
7
  6
CONTINUOUS
 10
32.5149865378
 20
64.7593
 40
2.2352
100
AcDbArc
 50
89.9999999996
 51
190.0
  0
ARC
  5
3FC
100
AcDbEntity
  8
0
100
AcDbCircle
 62
7
  6
CONTINUOUS
 10
32.5149865378
 20
64.7593
 40
2.0447
100
AcDbArc
 50
90.0
 51
189.9999999991
  0
CIRCLE
  5
3FD
100
AcDbEntity
  8
0
100
AcDbCircle
 62
7
  6
CONTINUOUS
 10
25.6950865378
 20
63.2988
 40
1.905
  0
CIRCLE
  5
3FE
100
AcDbEntity
  8
0
100
AcDbCircle
 62
7
  6
CONTINUOUS
 10
25.6950865378
 20
63.2988
 40
1.1811
  0
CIRCLE
  5
3FF
100
AcDbEntity
  8
0
100
AcDbCircle
 62
7
  6
CONTINUOUS
 10
32.7054865378
 20
64.7212
 40
1.0414
  0
CIRCLE
  5
400
100
AcDbEntity
  8
0
100
AcDbCircle
 62
7
  6
CONTINUOUS
 10
35.4486865378
 20
64.7212
 40
1.0414
  0
CIRCLE
  5
401
100
AcDbEntity
  8
0
100
AcDbCircle
 62
7
  6
CONTINUOUS
 10
32.7054865378
 20
64.7212
 40
0.5715000004
  0
CIRCLE
  5
402
100
AcDbEntity
  8
0
100
AcDbCircle
 62
7
  6
CONTINUOUS
 10
35.4486865378
 20
64.7212
 40
0.5715000004
  0
ARC
  5
403
100
AcDbEntity
  8
0
100
AcDbCircle
 62
7
  6
CONTINUOUS
 10
45.1911924984
 20
33.8455669233
 40
19.8585549869
100
AcDbArc
 50
89.2737581357
 51
89.9979975616
  0
ARC
  5
404
100
AcDbEntity
  8
0
100
AcDbCircle
 62
7
  6
CONTINUOUS
 10
42.6191254179
 20
32.967973222
 40
1.0
100
AcDbArc
 50
323.6711906935
 51
358.0
  0
ARC
  5
405
100
AcDbEntity
  8
0
100
AcDbCircle
 62
7
  6
CONTINUOUS
 10
42.633972742
 20
32.6625087098
 40
0.9741785538
100
AcDbArc
 50
6.8735126757
 51
15.4286145101
  0
ARC
  5
406
100
AcDbEntity
  8
0
100
AcDbCircle
 62
7
  6
CONTINUOUS
 10
42.6532696135
 20
32.6691393893
 40
0.9538139101
100
AcDbArc
 50
15.3530441127
 51
44.9604074331
  0
ARC
  5
407
100
AcDbEntity
  8
0
100
AcDbCircle
 62
7
  6
CONTINUOUS
 10
39.0168865378
 20
32.275
 40
0.2
100
AcDbArc
 50
270.0
 51
360.0
  0
ARC
  5
408
100
AcDbEntity
  8
0
100
AcDbCircle
 62
7
  6
CONTINUOUS
 10
45.1918718015
 20
54.2973265413
 40
3.0049488915
100
AcDbArc
 50
269.767386128
 51
270.4776561952
  0
ARC
  5
409
100
AcDbEntity
  8
0
100
AcDbCircle
 62
7
  6
CONTINUOUS
 10
41.6918718015
 20
54.2973265411
 40
3.0049488913
100
AcDbArc
 50
269.767386128
 51
270.4776561953
  0
ARC
  5
40A
100
AcDbEntity
  8
0
100
AcDbCircle
 62
7
  6
CONTINUOUS
 10
43.4918718015
 20
54.0006456352
 40
3.0049488913
100
AcDbArc
 50
269.7673861279
 51
270.4776561955
  0
ARC
  5
40B
100
AcDbEntity
  8
0
100
AcDbCircle
 62
7
  6
CONTINUOUS
 10
43.4918718015
 20
54.5940074468
 40
3.0049488912
100
AcDbArc
 50
269.7673861278
 51
270.4776561959
  0
ARC
  5
40C
100
AcDbEntity
  8
0
100
AcDbCircle
 62
7
  6
CONTINUOUS
 10
46.9918718015
 20
54.000645635
 40
3.0049488911
100
AcDbArc
 50
269.7673861279
 51
270.4776561956
  0
ARC
  5
40D
100
AcDbEntity
  8
0
100
AcDbCircle
 62
7
  6
CONTINUOUS
 10
39.9918718015
 20
54.5940074466
 40
3.004948891
100
AcDbArc
 50
269.7673861277
 51
270.4776561959
  0
ARC
  5
40E
100
AcDbEntity
  8
0
100
AcDbCircle
 62
7
  6
CONTINUOUS
 10
39.9918718015
 20
54.000645635
 40
3.0049488911
100
AcDbArc
 50
269.7673861279
 51
270.4776561956
  0
ARC
  5
40F
100
AcDbEntity
  8
0
100
AcDbCircle
 62
7
  6
CONTINUOUS
 10
43.3537354271
 20
61.8383
 40
2.54
100
AcDbArc
 50
270.0
 51
350.0
  0
ARC
  5
410
100
AcDbEntity
  8
0
100
AcDbCircle
 62
7
  6
CONTINUOUS
 10
43.3537354271
 20
61.8383
 40
2.2352
100
AcDbArc
 50
270.0
 51
350.0000000003
  0
ARC
  5
411
100
AcDbEntity
  8
0
100
AcDbCircle
 62
7
  6
CONTINUOUS
 10
43.3537354271
 20
61.8383
 40
2.0447
100
AcDbArc
 50
270.0
 51
350.0000000004
  0
CIRCLE
  5
412
100
AcDbEntity
  8
0
100
AcDbCircle
 62
7
  6
CONTINUOUS
 10
39.5634865378
 20
61.8764
 40
1.0414
  0
CIRCLE
  5
413
100
AcDbEntity
  8
0
100
AcDbCircle
 62
7
  6
CONTINUOUS
 10
42.3066865378
 20
61.8764
 40
1.0414
  0
ARC
  5
414
100
AcDbEntity
  8
0
100
AcDbCircle
 62
7
  6
CONTINUOUS
 10
46.9548635905
 20
54.425
 40
0.75
100
AcDbArc
 50
270.0
 51
359.0
  0
ARC
  5
415
100
AcDbEntity
  8
0
100
AcDbCircle
 62
7
  6
CONTINUOUS
 10
46.9289094851
 20
54.425
 40
0.75
100
AcDbArc
 50
181.0
 51
270.0
  0
CIRCLE
  5
416
100
AcDbEntity
  8
0
100
AcDbCircle
 62
7
  6
CONTINUOUS
 10
39.5634865378
 20
61.8764
 40
0.5715000004
  0
CIRCLE
  5
417
100
AcDbEntity
  8
0
100
AcDbCircle
 62
7
  6
CONTINUOUS
 10
42.3066865378
 20
61.8764
 40
0.5715000004
  0
ARC
  5
418
100
AcDbEntity
  8
0
100
AcDbCircle
 62
7
  6
CONTINUOUS
 10
50.6886865378
 20
63.2988
 40
3.0861
100
AcDbArc
 50
287.9774086675
 51
300.9575785424
  0
ARC
  5
419
100
AcDbEntity
  8
0
100
AcDbCircle
 62
7
  6
CONTINUOUS
 10
50.6886865378
 20
63.2988
 40
3.0861
100
AcDbArc
 50
59.0424214576
 51
72.0225913325
  0
ARC
  5
41A
100
AcDbEntity
  8
0
100
AcDbCircle
 62
7
  6
CONTINUOUS
 10
50.6886865378
 20
63.2988
 40
3.0861
100
AcDbArc
 50
84.0949240903
 51
95.9050759097
  0
ARC
  5
41B
100
AcDbEntity
  8
0
100
AcDbCircle
 62
7
  6
CONTINUOUS
 10
50.6886865378
 20
63.2988
 40
3.0861
100
AcDbArc
 50
107.9774086675
 51
120.9575785424
  0
ARC
  5
41C
100
AcDbEntity
  8
0
100
AcDbCircle
 62
7
  6
CONTINUOUS
 10
50.6886865378
 20
63.2988
 40
3.0861
100
AcDbArc
 50
239.0424214576
 51
252.0225913325
  0
ARC
  5
41D
100
AcDbEntity
  8
0
100
AcDbCircle
 62
7
  6
CONTINUOUS
 10
50.6886865378
 20
63.2988
 40
3.0861
100
AcDbArc
 50
264.0949240903
 51
275.9050759097
  0
ARC
  5
41E
100
AcDbEntity
  8
0
100
AcDbCircle
 62
7
  6
CONTINUOUS
 10
43.8687865378
 20
64.7593
 40
2.54
100
AcDbArc
 50
350.0000000002
 51
90.0
  0
ARC
  5
41F
100
AcDbEntity
  8
0
100
AcDbCircle
 62
7
  6
CONTINUOUS
 10
50.6886865378
 20
63.2988
 40
2.3876
100
AcDbArc
 50
311.6741644997
 51
48.3258355003
  0
ARC
  5
420
100
AcDbEntity
  8
0
100
AcDbCircle
 62
7
  6
CONTINUOUS
 10
50.6886865378
 20
63.2988
 40
2.3876
100
AcDbArc
 50
131.6741644997
 51
228.3258355003
  0
ARC
  5
421
100
AcDbEntity
  8
0
100
AcDbCircle
 62
7
  6
CONTINUOUS
 10
43.8687865378
 20
64.7593
 40
2.2352
100
AcDbArc
 50
350.0
 51
90.0
  0
ARC
  5
422
100
AcDbEntity
  8
0
100
AcDbCircle
 62
7
  6
CONTINUOUS
 10
43.8687865378
 20
64.7593
 40
2.0447
100
AcDbArc
 50
349.9999999999
 51
90.0
  0
CIRCLE
  5
423
100
AcDbEntity
  8
0
100
AcDbCircle
 62
7
  6
CONTINUOUS
 10
50.6886865378
 20
63.2988
 40
1.905
  0
CIRCLE
  5
424
100
AcDbEntity
  8
0
100
AcDbCircle
 62
7
  6
CONTINUOUS
 10
50.6886865378
 20
63.2988
 40
1.1811
  0
CIRCLE
  5
425
100
AcDbEntity
  8
0
100
AcDbCircle
 62
7
  6
CONTINUOUS
 10
38.1918865378
 20
64.7212
 40
1.0414
  0
CIRCLE
  5
426
100
AcDbEntity
  8
0
100
AcDbCircle
 62
7
  6
CONTINUOUS
 10
40.9350865378
 20
64.7212
 40
1.0414
  0
CIRCLE
  5
427
100
AcDbEntity
  8
0
100
AcDbCircle
 62
7
  6
CONTINUOUS
 10
43.6782865378
 20
64.7212
 40
1.0414
  0
CIRCLE
  5
428
100
AcDbEntity
  8
0
100
AcDbCircle
 62
7
  6
CONTINUOUS
 10
38.1918865378
 20
64.7212
 40
0.5715000004
  0
CIRCLE
  5
429
100
AcDbEntity
  8
0
100
AcDbCircle
 62
7
  6
CONTINUOUS
 10
40.9350865378
 20
64.7212
 40
0.5715000004
  0
CIRCLE
  5
42A
100
AcDbEntity
  8
0
100
AcDbCircle
 62
7
  6
CONTINUOUS
 10
43.6782865378
 20
64.7212
 40
0.5715000004
  0
ARC
  5
42B
100
AcDbEntity
  8
0
100
AcDbCircle
 62
7
  6
CONTINUOUS
 10
52.4412865378
 20
59.8698
 40
1.27
100
AcDbArc
 50
270.0
 51
360.0
  0
ARC
  5
42C
100
AcDbEntity
  8
0
100
AcDbCircle
 62
7
  6
CONTINUOUS
 10
52.1364865378
 20
67.9978
 40
1.5748
100
AcDbArc
 50
0.0
 51
90.0
  0
ARC
  5
42D
100
AcDbEntity
  8
0
100
AcDbCircle
 62
7
  6
CONTINUOUS
 10
64.221909142
 20
71.525
 40
1.0
100
AcDbArc
 50
2.0000000005
 51
90.0000000001
  0
ARC
  5
42E
100
AcDbEntity
  8
0
100
AcDbCircle
 62
7
  6
CONTINUOUS
 10
59.6918865378
 20
72.525
 40
0.5
100
AcDbArc
 50
0.0
 51
89.9999999997
  0
ARC
  5
42F
100
AcDbEntity
  8
0
100
AcDbCircle
 62
7
  6
CONTINUOUS
 10
58.6918865378
 20
72.525
 40
0.5
100
AcDbArc
 50
90.0000000003
 51
180.0000000003
  0
ARC
  5
430
100
AcDbEntity
  8
0
100
AcDbCircle
 62
7
  6
CONTINUOUS
 10
62.6918865378
 20
72.525
 40
0.5
100
AcDbArc
 50
0.0
 51
89.9999999997
  0
ARC
  5
431
100
AcDbEntity
  8
0
100
AcDbCircle
 62
7
  6
CONTINUOUS
 10
61.6918865378
 20
72.525
 40
0.5
100
AcDbArc
 50
90.0000000003
 51
180.0000000003
  0
SPLINE
  5
432
100
AcDbEntity
  8
0
100
AcDbSpline
 62
7
  6
CONTINUOUS
 70
0
 71
3
 72
24
 73
20
 74
0
 42
0.0000001
 43
0.0000001
 44
0.0000000001
 40
0.0
 40
0.0
 40
0.0
 40
0.0
 40
0.0691155644
 40
0.1035002321
 40
0.137099519
 40
0.1688126144
 40
0.1982830346
 40
0.2510314125
 40
0.3038583033
 40
0.3635782658
 40
0.4301264879
 40
0.5006162608
 40
0.6374585128
 40
0.6970891235
 40
0.7498998976
 40
0.8024382712
 40
0.8636266733
 40
0.9310136743
 40
1.0
 40
1.0
 40
1.0
 40
1.0
 10
28.7418865378
 20
51.3591275089
 30
0.0
 10
28.7418865378
 20
51.3161316589
 30
0.0
 10
28.7555816685
 20
51.2506127645
 30
0.0
 10
28.7989042242
 20
51.1766599094
 30
0.0
 10
28.8399450503
 20
51.1296603237
 30
0.0
 10
28.8864124022
 20
51.0928359098
 30
0.0
 10
28.9489064882
 20
51.0588700578
 30
0.0
 10
29.0291201857
 20
51.0321285345
 30
0.0
 10
29.1304654281
 20
51.0140105542
 30
0.0
 10
29.2412041825
 20
51.0013360263
 30
0.0
 10
29.3634401092
 20
50.9940062746
 30
0.0
 10
29.5338020064
 20
50.9908040094
 30
0.0
 10
29.7000229764
 20
50.9966753953
 30
0.0
 10
29.8542253999
 20
51.0139061492
 30
0.0
 10
29.9552307111
 20
51.0327369969
 30
0.0
 10
30.0543311479
 20
51.0648515723
 30
0.0
 10
30.1502405669
 20
51.1278091524
 30
0.0
 10
30.223725881
 20
51.2303148732
 30
0.0
 10
30.2418865378
 20
51.3162120565
 30
0.0
 10
30.2418865378
 20
51.3591275089
 30
0.0
  0
SPLINE
  5
433
100
AcDbEntity
  8
0
100
AcDbSpline
 62
7
  6
CONTINUOUS
 70
0
 71
3
 72
24
 73
20
 74
0
 42
0.0000001
 43
0.0000001
 44
0.0000000001
 40
0.0
 40
0.0
 40
0.0
 40
0.0
 40
0.0691155644
 40
0.1035002321
 40
0.137099519
 40
0.1688126144
 40
0.1982830346
 40
0.2510314125
 40
0.3038583033
 40
0.3635782658
 40
0.4301264879
 40
0.5006162608
 40
0.6374585128
 40
0.6970891235
 40
0.7498998976
 40
0.8024382712
 40
0.8636266733
 40
0.9310136743
 40
1.0
 40
1.0
 40
1.0
 40
1.0
 10
32.2418865378
 20
51.3591275089
 30
0.0
 10
32.2418865378
 20
51.3161316589
 30
0.0
 10
32.2555816685
 20
51.2506127645
 30
0.0
 10
32.2989042242
 20
51.1766599094
 30
0.0
 10
32.3399450503
 20
51.1296603237
 30
0.0
 10
32.3864124022
 20
51.0928359098
 30
0.0
 10
32.4489064882
 20
51.0588700578
 30
0.0
 10
32.5291201857
 20
51.0321285345
 30
0.0
 10
32.6304654281
 20
51.0140105542
 30
0.0
 10
32.7412041825
 20
51.0013360263
 30
0.0
 10
32.8634401092
 20
50.9940062746
 30
0.0
 10
33.0338020064
 20
50.9908040094
 30
0.0
 10
33.2000229764
 20
50.9966753953
 30
0.0
 10
33.3542253999
 20
51.0139061492
 30
0.0
 10
33.4552307111
 20
51.0327369969
 30
0.0
 10
33.5543311479
 20
51.0648515723
 30
0.0
 10
33.6502405669
 20
51.1278091524
 30
0.0
 10
33.723725881
 20
51.2303148732
 30
0.0
 10
33.7418865378
 20
51.3162120565
 30
0.0
 10
33.7418865378
 20
51.3591275089
 30
0.0
  0
SPLINE
  5
434
100
AcDbEntity
  8
0
100
AcDbSpline
 62
7
  6
CONTINUOUS
 70
0
 71
3
 72
24
 73
20
 74
0
 42
0.0000001
 43
0.0000001
 44
0.0000000001
 40
0.0
 40
0.0
 40
0.0
 40
0.0
 40
0.0691155644
 40
0.1035002321
 40
0.137099519
 40
0.1688126144
 40
0.1982830346
 40
0.2510314125
 40
0.3038583033
 40
0.3635782658
 40
0.4301264879
 40
0.5006162608
 40
0.6374585128
 40
0.6970891235
 40
0.7498998976
 40
0.8024382712
 40
0.8636266733
 40
0.9310136743
 40
1.0
 40
1.0
 40
1.0
 40
1.0
 10
30.4418865378
 20
51.6558084147
 30
0.0
 10
30.4418865378
 20
51.6128125648
 30
0.0
 10
30.4555816685
 20
51.5472936704
 30
0.0
 10
30.4989042242
 20
51.4733408153
 30
0.0
 10
30.5399450503
 20
51.4263412296
 30
0.0
 10
30.5864124022
 20
51.3895168157
 30
0.0
 10
30.6489064882
 20
51.3555509636
 30
0.0
 10
30.7291201857
 20
51.3288094404
 30
0.0
 10
30.8304654281
 20
51.3106914601
 30
0.0
 10
30.9412041825
 20
51.2980169321
 30
0.0
 10
31.0634401092
 20
51.2906871804
 30
0.0
 10
31.2338020064
 20
51.2874849153
 30
0.0
 10
31.4000229764
 20
51.2933563011
 30
0.0
 10
31.5542253999
 20
51.310587055
 30
0.0
 10
31.6552307111
 20
51.3294179028
 30
0.0
 10
31.7543311479
 20
51.3615324781
 30
0.0
 10
31.8502405669
 20
51.4244900583
 30
0.0
 10
31.923725881
 20
51.5269957791
 30
0.0
 10
31.9418865378
 20
51.6128929624
 30
0.0
 10
31.9418865378
 20
51.6558084147
 30
0.0
  0
SPLINE
  5
435
100
AcDbEntity
  8
0
100
AcDbSpline
 62
7
  6
CONTINUOUS
 70
0
 71
3
 72
24
 73
20
 74
0
 42
0.0000001
 43
0.0000001
 44
0.0000000001
 40
0.0
 40
0.0
 40
0.0
 40
0.0
 40
0.0691155644
 40
0.1035002321
 40
0.137099519
 40
0.1688126144
 40
0.1982830346
 40
0.2510314125
 40
0.3038583033
 40
0.3635782658
 40
0.4301264879
 40
0.5006162608
 40
0.6374585128
 40
0.6970891235
 40
0.7498998976
 40
0.8024382712
 40
0.8636266733
 40
0.9310136743
 40
1.0
 40
1.0
 40
1.0
 40
1.0
 10
32.2418865378
 20
51.9524893206
 30
0.0
 10
32.2418865378
 20
51.9094934707
 30
0.0
 10
32.2555816685
 20
51.8439745762
 30
0.0
 10
32.2989042242
 20
51.7700217211
 30
0.0
 10
32.3399450503
 20
51.7230221354
 30
0.0
 10
32.3864124022
 20
51.6861977216
 30
0.0
 10
32.4489064882
 20
51.6522318695
 30
0.0
 10
32.5291201857
 20
51.6254903463
 30
0.0
 10
32.6304654281
 20
51.6073723659
 30
0.0
 10
32.7412041825
 20
51.594697838
 30
0.0
 10
32.8634401092
 20
51.5873680863
 30
0.0
 10
33.0338020064
 20
51.5841658211
 30
0.0
 10
33.2000229764
 20
51.590037207
 30
0.0
 10
33.3542253999
 20
51.6072679609
 30
0.0
 10
33.4552307111
 20
51.6260988086
 30
0.0
 10
33.5543311479
 20
51.658213384
 30
0.0
 10
33.6502405669
 20
51.7211709641
 30
0.0
 10
33.723725881
 20
51.8236766849
 30
0.0
 10
33.7418865378
 20
51.9095738683
 30
0.0
 10
33.7418865378
 20
51.9524893206
 30
0.0
  0
SPLINE
  5
436
100
AcDbEntity
  8
0
100
AcDbSpline
 62
7
  6
CONTINUOUS
 70
0
 71
3
 72
24
 73
20
 74
0
 42
0.0000001
 43
0.0000001
 44
0.0000000001
 40
0.0
 40
0.0
 40
0.0
 40
0.0
 40
0.0691155644
 40
0.1035002321
 40
0.137099519
 40
0.1688126144
 40
0.1982830346
 40
0.2510314125
 40
0.3038583033
 40
0.3635782658
 40
0.4301264879
 40
0.5006162608
 40
0.6374585128
 40
0.6970891235
 40
0.7498998976
 40
0.8024382712
 40
0.8636266733
 40
0.9310136743
 40
1.0
 40
1.0
 40
1.0
 40
1.0
 10
33.9418865378
 20
51.6558084147
 30
0.0
 10
33.9418865378
 20
51.6128125648
 30
0.0
 10
33.9555816685
 20
51.5472936704
 30
0.0
 10
33.9989042242
 20
51.4733408153
 30
0.0
 10
34.0399450503
 20
51.4263412296
 30
0.0
 10
34.0864124022
 20
51.3895168157
 30
0.0
 10
34.1489064882
 20
51.3555509636
 30
0.0
 10
34.2291201857
 20
51.3288094404
 30
0.0
 10
34.3304654281
 20
51.3106914601
 30
0.0
 10
34.4412041825
 20
51.2980169321
 30
0.0
 10
34.5634401092
 20
51.2906871804
 30
0.0
 10
34.7338020064
 20
51.2874849153
 30
0.0
 10
34.9000229764
 20
51.2933563011
 30
0.0
 10
35.0542253999
 20
51.310587055
 30
0.0
 10
35.1552307111
 20
51.3294179028
 30
0.0
 10
35.2543311479
 20
51.3615324781
 30
0.0
 10
35.3502405669
 20
51.4244900583
 30
0.0
 10
35.423725881
 20
51.5269957791
 30
0.0
 10
35.4418865378
 20
51.6128929624
 30
0.0
 10
35.4418865378
 20
51.6558084147
 30
0.0
  0
SPLINE
  5
437
100
AcDbEntity
  8
0
100
AcDbSpline
 62
7
  6
CONTINUOUS
 70
0
 71
3
 72
24
 73
20
 74
0
 42
0.0000001
 43
0.0000001
 44
0.0000000001
 40
0.0
 40
0.0
 40
0.0
 40
0.0
 40
0.0691155644
 40
0.1035002321
 40
0.137099519
 40
0.1688126144
 40
0.1982830346
 40
0.2510314125
 40
0.3038583033
 40
0.3635782658
 40
0.4301264879
 40
0.5006162608
 40
0.6374585128
 40
0.6970891235
 40
0.7498998976
 40
0.8024382712
 40
0.8636266733
 40
0.9310136743
 40
1.0
 40
1.0
 40
1.0
 40
1.0
 10
35.7418865378
 20
51.3591275089
 30
0.0
 10
35.7418865378
 20
51.3161316589
 30
0.0
 10
35.7555816685
 20
51.2506127645
 30
0.0
 10
35.7989042242
 20
51.1766599094
 30
0.0
 10
35.8399450503
 20
51.1296603237
 30
0.0
 10
35.8864124022
 20
51.0928359098
 30
0.0
 10
35.9489064882
 20
51.0588700578
 30
0.0
 10
36.0291201857
 20
51.0321285345
 30
0.0
 10
36.1304654281
 20
51.0140105542
 30
0.0
 10
36.2412041825
 20
51.0013360263
 30
0.0
 10
36.3634401092
 20
50.9940062746
 30
0.0
 10
36.5338020064
 20
50.9908040094
 30
0.0
 10
36.7000229764
 20
50.9966753953
 30
0.0
 10
36.8542253999
 20
51.0139061492
 30
0.0
 10
36.9552307111
 20
51.0327369969
 30
0.0
 10
37.0543311479
 20
51.0648515723
 30
0.0
 10
37.1502405669
 20
51.1278091524
 30
0.0
 10
37.223725881
 20
51.2303148732
 30
0.0
 10
37.2418865378
 20
51.3162120565
 30
0.0
 10
37.2418865378
 20
51.3591275089
 30
0.0
  0
SPLINE
  5
438
100
AcDbEntity
  8
0
100
AcDbSpline
 62
7
  6
CONTINUOUS
 70
0
 71
3
 72
24
 73
20
 74
0
 42
0.0000001
 43
0.0000001
 44
0.0000000001
 40
0.0
 40
0.0
 40
0.0
 40
0.0
 40
0.0691155644
 40
0.1035002321
 40
0.137099519
 40
0.1688126144
 40
0.1982830346
 40
0.2510314125
 40
0.3038583033
 40
0.3635782658
 40
0.4301264879
 40
0.5006162608
 40
0.6374585128
 40
0.6970891235
 40
0.7498998976
 40
0.8024382712
 40
0.8636266733
 40
0.9310136743
 40
1.0
 40
1.0
 40
1.0
 40
1.0
 10
35.7418865378
 20
51.9524893206
 30
0.0
 10
35.7418865378
 20
51.9094934707
 30
0.0
 10
35.7555816685
 20
51.8439745762
 30
0.0
 10
35.7989042242
 20
51.7700217211
 30
0.0
 10
35.8399450503
 20
51.7230221354
 30
0.0
 10
35.8864124022
 20
51.6861977216
 30
0.0
 10
35.9489064882
 20
51.6522318695
 30
0.0
 10
36.0291201857
 20
51.6254903463
 30
0.0
 10
36.1304654281
 20
51.6073723659
 30
0.0
 10
36.2412041825
 20
51.594697838
 30
0.0
 10
36.3634401092
 20
51.5873680863
 30
0.0
 10
36.5338020064
 20
51.5841658211
 30
0.0
 10
36.7000229764
 20
51.590037207
 30
0.0
 10
36.8542253999
 20
51.6072679609
 30
0.0
 10
36.9552307111
 20
51.6260988086
 30
0.0
 10
37.0543311479
 20
51.658213384
 30
0.0
 10
37.1502405669
 20
51.7211709641
 30
0.0
 10
37.223725881
 20
51.8236766849
 30
0.0
 10
37.2418865378
 20
51.9095738683
 30
0.0
 10
37.2418865378
 20
51.9524893206
 30
0.0
  0
SPLINE
  5
439
100
AcDbEntity
  8
0
100
AcDbSpline
 62
7
  6
CONTINUOUS
 70
0
 71
3
 72
24
 73
20
 74
0
 42
0.0000001
 43
0.0000001
 44
0.0000000001
 40
0.0
 40
0.0
 40
0.0
 40
0.0
 40
0.0691155644
 40
0.1035002321
 40
0.137099519
 40
0.1688126144
 40
0.1982830346
 40
0.2510314125
 40
0.3038583033
 40
0.3635782658
 40
0.4301264879
 40
0.5006162608
 40
0.6374585128
 40
0.6970891235
 40
0.7498998976
 40
0.8024382712
 40
0.8636266733
 40
0.9310136743
 40
1.0
 40
1.0
 40
1.0
 40
1.0
 10
39.2418865378
 20
51.9524893206
 30
0.0
 10
39.2418865378
 20
51.9094934707
 30
0.0
 10
39.2555816685
 20
51.8439745762
 30
0.0
 10
39.2989042242
 20
51.7700217211
 30
0.0
 10
39.3399450503
 20
51.7230221354
 30
0.0
 10
39.3864124022
 20
51.6861977216
 30
0.0
 10
39.4489064882
 20
51.6522318695
 30
0.0
 10
39.5291201857
 20
51.6254903463
 30
0.0
 10
39.6304654281
 20
51.6073723659
 30
0.0
 10
39.7412041825
 20
51.594697838
 30
0.0
 10
39.8634401092
 20
51.5873680863
 30
0.0
 10
40.0338020064
 20
51.5841658211
 30
0.0
 10
40.2000229764
 20
51.590037207
 30
0.0
 10
40.3542253999
 20
51.6072679609
 30
0.0
 10
40.4552307111
 20
51.6260988086
 30
0.0
 10
40.5543311479
 20
51.658213384
 30
0.0
 10
40.6502405669
 20
51.7211709641
 30
0.0
 10
40.723725881
 20
51.8236766849
 30
0.0
 10
40.7418865378
 20
51.9095738683
 30
0.0
 10
40.7418865378
 20
51.9524893206
 30
0.0
  0
SPLINE
  5
43A
100
AcDbEntity
  8
0
100
AcDbSpline
 62
7
  6
CONTINUOUS
 70
0
 71
3
 72
24
 73
20
 74
0
 42
0.0000001
 43
0.0000001
 44
0.0000000001
 40
0.0
 40
0.0
 40
0.0
 40
0.0
 40
0.0691155644
 40
0.1035002321
 40
0.137099519
 40
0.1688126144
 40
0.1982830346
 40
0.2510314125
 40
0.3038583033
 40
0.3635782658
 40
0.4301264879
 40
0.5006162608
 40
0.6374585128
 40
0.6970891235
 40
0.7498998976
 40
0.8024382712
 40
0.8636266733
 40
0.9310136743
 40
1.0
 40
1.0
 40
1.0
 40
1.0
 10
37.4418865378
 20
51.6558084147
 30
0.0
 10
37.4418865378
 20
51.6128125648
 30
0.0
 10
37.4555816685
 20
51.5472936704
 30
0.0
 10
37.4989042242
 20
51.4733408153
 30
0.0
 10
37.5399450503
 20
51.4263412296
 30
0.0
 10
37.5864124022
 20
51.3895168157
 30
0.0
 10
37.6489064882
 20
51.3555509636
 30
0.0
 10
37.7291201857
 20
51.3288094404
 30
0.0
 10
37.8304654281
 20
51.3106914601
 30
0.0
 10
37.9412041825
 20
51.2980169321
 30
0.0
 10
38.0634401092
 20
51.2906871804
 30
0.0
 10
38.2338020064
 20
51.2874849153
 30
0.0
 10
38.4000229764
 20
51.2933563011
 30
0.0
 10
38.5542253999
 20
51.310587055
 30
0.0
 10
38.6552307111
 20
51.3294179028
 30
0.0
 10
38.7543311479
 20
51.3615324781
 30
0.0
 10
38.8502405669
 20
51.4244900583
 30
0.0
 10
38.923725881
 20
51.5269957791
 30
0.0
 10
38.9418865378
 20
51.6128929624
 30
0.0
 10
38.9418865378
 20
51.6558084147
 30
0.0
  0
SPLINE
  5
43B
100
AcDbEntity
  8
0
100
AcDbSpline
 62
7
  6
CONTINUOUS
 70
0
 71
3
 72
24
 73
20
 74
0
 42
0.0000001
 43
0.0000001
 44
0.0000000001
 40
0.0
 40
0.0
 40
0.0
 40
0.0
 40
0.0691155644
 40
0.1035002321
 40
0.137099519
 40
0.1688126144
 40
0.1982830346
 40
0.2510314125
 40
0.3038583033
 40
0.3635782658
 40
0.4301264879
 40
0.5006162608
 40
0.6374585128
 40
0.6970891235
 40
0.7498998976
 40
0.8024382712
 40
0.8636266733
 40
0.9310136743
 40
1.0
 40
1.0
 40
1.0
 40
1.0
 10
39.2418865378
 20
51.3591275089
 30
0.0
 10
39.2418865378
 20
51.3161316589
 30
0.0
 10
39.2555816685
 20
51.2506127645
 30
0.0
 10
39.2989042242
 20
51.1766599094
 30
0.0
 10
39.3399450503
 20
51.1296603237
 30
0.0
 10
39.3864124022
 20
51.0928359098
 30
0.0
 10
39.4489064882
 20
51.0588700578
 30
0.0
 10
39.5291201857
 20
51.0321285345
 30
0.0
 10
39.6304654281
 20
51.0140105542
 30
0.0
 10
39.7412041825
 20
51.0013360263
 30
0.0
 10
39.8634401092
 20
50.9940062746
 30
0.0
 10
40.0338020064
 20
50.9908040094
 30
0.0
 10
40.2000229764
 20
50.9966753953
 30
0.0
 10
40.3542253999
 20
51.0139061492
 30
0.0
 10
40.4552307111
 20
51.0327369969
 30
0.0
 10
40.5543311479
 20
51.0648515723
 30
0.0
 10
40.6502405669
 20
51.1278091524
 30
0.0
 10
40.723725881
 20
51.2303148732
 30
0.0
 10
40.7418865378
 20
51.3162120565
 30
0.0
 10
40.7418865378
 20
51.3591275089
 30
0.0
  0
SPLINE
  5
43C
100
AcDbEntity
  8
0
100
AcDbSpline
 62
7
  6
CONTINUOUS
 70
0
 71
3
 72
24
 73
20
 74
0
 42
0.0000001
 43
0.0000001
 44
0.0000000001
 40
0.0
 40
0.0
 40
0.0
 40
0.0
 40
0.0691155644
 40
0.1035002321
 40
0.137099519
 40
0.1688126144
 40
0.1982830346
 40
0.2510314125
 40
0.3038583033
 40
0.3635782658
 40
0.4301264879
 40
0.5006162608
 40
0.6374585128
 40
0.6970891235
 40
0.7498998976
 40
0.8024382712
 40
0.8636266733
 40
0.9310136743
 40
1.0
 40
1.0
 40
1.0
 40
1.0
 10
40.9418865378
 20
51.6558084147
 30
0.0
 10
40.9418865378
 20
51.6128125648
 30
0.0
 10
40.9555816685
 20
51.5472936704
 30
0.0
 10
40.9989042242
 20
51.4733408153
 30
0.0
 10
41.0399450503
 20
51.4263412296
 30
0.0
 10
41.0864124022
 20
51.3895168157
 30
0.0
 10
41.1489064882
 20
51.3555509636
 30
0.0
 10
41.2291201857
 20
51.3288094404
 30
0.0
 10
41.3304654281
 20
51.3106914601
 30
0.0
 10
41.4412041825
 20
51.2980169321
 30
0.0
 10
41.5634401092
 20
51.2906871804
 30
0.0
 10
41.7338020064
 20
51.2874849153
 30
0.0
 10
41.9000229764
 20
51.2933563011
 30
0.0
 10
42.0542253999
 20
51.310587055
 30
0.0
 10
42.1552307111
 20
51.3294179028
 30
0.0
 10
42.2543311479
 20
51.3615324781
 30
0.0
 10
42.3502405669
 20
51.4244900583
 30
0.0
 10
42.423725881
 20
51.5269957791
 30
0.0
 10
42.4418865378
 20
51.6128929624
 30
0.0
 10
42.4418865378
 20
51.6558084147
 30
0.0
  0
SPLINE
  5
43D
100
AcDbEntity
  8
0
100
AcDbSpline
 62
7
  6
CONTINUOUS
 70
0
 71
3
 72
24
 73
20
 74
0
 42
0.0000001
 43
0.0000001
 44
0.0000000001
 40
0.0
 40
0.0
 40
0.0
 40
0.0
 40
0.0691155644
 40
0.1035002321
 40
0.137099519
 40
0.1688126144
 40
0.1982830346
 40
0.2510314125
 40
0.3038583033
 40
0.3635782658
 40
0.4301264879
 40
0.5006162608
 40
0.6374585128
 40
0.6970891235
 40
0.7498998976
 40
0.8024382712
 40
0.8636266733
 40
0.9310136743
 40
1.0
 40
1.0
 40
1.0
 40
1.0
 10
42.7418865378
 20
51.9524893206
 30
0.0
 10
42.7418865378
 20
51.9094934707
 30
0.0
 10
42.7555816685
 20
51.8439745762
 30
0.0
 10
42.7989042242
 20
51.7700217211
 30
0.0
 10
42.8399450503
 20
51.7230221354
 30
0.0
 10
42.8864124022
 20
51.6861977216
 30
0.0
 10
42.9489064882
 20
51.6522318695
 30
0.0
 10
43.0291201857
 20
51.6254903463
 30
0.0
 10
43.1304654281
 20
51.6073723659
 30
0.0
 10
43.2412041825
 20
51.594697838
 30
0.0
 10
43.3634401092
 20
51.5873680863
 30
0.0
 10
43.5338020064
 20
51.5841658211
 30
0.0
 10
43.7000229764
 20
51.590037207
 30
0.0
 10
43.8542253999
 20
51.6072679609
 30
0.0
 10
43.9552307111
 20
51.6260988086
 30
0.0
 10
44.0543311479
 20
51.658213384
 30
0.0
 10
44.1502405669
 20
51.7211709641
 30
0.0
 10
44.223725881
 20
51.8236766849
 30
0.0
 10
44.2418865378
 20
51.9095738683
 30
0.0
 10
44.2418865378
 20
51.9524893206
 30
0.0
  0
SPLINE
  5
43E
100
AcDbEntity
  8
0
100
AcDbSpline
 62
7
  6
CONTINUOUS
 70
0
 71
3
 72
24
 73
20
 74
0
 42
0.0000001
 43
0.0000001
 44
0.0000000001
 40
0.0
 40
0.0
 40
0.0
 40
0.0
 40
0.0691155644
 40
0.1035002321
 40
0.137099519
 40
0.1688126144
 40
0.1982830346
 40
0.2510314125
 40
0.3038583033
 40
0.3635782658
 40
0.4301264879
 40
0.5006162608
 40
0.6374585128
 40
0.6970891235
 40
0.7498998976
 40
0.8024382712
 40
0.8636266733
 40
0.9310136743
 40
1.0
 40
1.0
 40
1.0
 40
1.0
 10
42.7418865378
 20
51.3591275089
 30
0.0
 10
42.7418865378
 20
51.3161316589
 30
0.0
 10
42.7555816685
 20
51.2506127645
 30
0.0
 10
42.7989042242
 20
51.1766599094
 30
0.0
 10
42.8399450503
 20
51.1296603237
 30
0.0
 10
42.8864124022
 20
51.0928359098
 30
0.0
 10
42.9489064882
 20
51.0588700578
 30
0.0
 10
43.0291201857
 20
51.0321285345
 30
0.0
 10
43.1304654281
 20
51.0140105542
 30
0.0
 10
43.2412041825
 20
51.0013360263
 30
0.0
 10
43.3634401092
 20
50.9940062746
 30
0.0
 10
43.5338020064
 20
50.9908040094
 30
0.0
 10
43.7000229764
 20
50.9966753953
 30
0.0
 10
43.8542253999
 20
51.0139061492
 30
0.0
 10
43.9552307111
 20
51.0327369969
 30
0.0
 10
44.0543311479
 20
51.0648515723
 30
0.0
 10
44.1502405669
 20
51.1278091524
 30
0.0
 10
44.223725881
 20
51.2303148732
 30
0.0
 10
44.2418865378
 20
51.3162120565
 30
0.0
 10
44.2418865378
 20
51.3591275089
 30
0.0
  0
SPLINE
  5
43F
100
AcDbEntity
  8
0
100
AcDbSpline
 62
7
  6
CONTINUOUS
 70
0
 71
3
 72
24
 73
20
 74
0
 42
0.0000001
 43
0.0000001
 44
0.0000000001
 40
0.0
 40
0.0
 40
0.0
 40
0.0
 40
0.0691155644
 40
0.1035002321
 40
0.137099519
 40
0.1688126144
 40
0.1982830346
 40
0.2510314125
 40
0.3038583033
 40
0.3635782658
 40
0.4301264879
 40
0.5006162608
 40
0.6374585128
 40
0.6970891235
 40
0.7498998976
 40
0.8024382712
 40
0.8636266733
 40
0.9310136743
 40
1.0
 40
1.0
 40
1.0
 40
1.0
 10
44.4418865378
 20
51.6558084147
 30
0.0
 10
44.4418865378
 20
51.6128125648
 30
0.0
 10
44.4555816685
 20
51.5472936704
 30
0.0
 10
44.4989042242
 20
51.4733408153
 30
0.0
 10
44.5399450503
 20
51.4263412296
 30
0.0
 10
44.5864124022
 20
51.3895168157
 30
0.0
 10
44.6489064882
 20
51.3555509636
 30
0.0
 10
44.7291201857
 20
51.3288094404
 30
0.0
 10
44.8304654281
 20
51.3106914601
 30
0.0
 10
44.9412041825
 20
51.2980169321
 30
0.0
 10
45.0634401092
 20
51.2906871804
 30
0.0
 10
45.2338020064
 20
51.2874849153
 30
0.0
 10
45.4000229764
 20
51.2933563011
 30
0.0
 10
45.5542253999
 20
51.310587055
 30
0.0
 10
45.6552307111
 20
51.3294179028
 30
0.0
 10
45.7543311479
 20
51.3615324781
 30
0.0
 10
45.8502405669
 20
51.4244900583
 30
0.0
 10
45.923725881
 20
51.5269957791
 30
0.0
 10
45.9418865378
 20
51.6128929624
 30
0.0
 10
45.9418865378
 20
51.6558084147
 30
0.0
  0
SPLINE
  5
440
100
AcDbEntity
  8
0
100
AcDbSpline
 62
7
  6
CONTINUOUS
 70
0
 71
3
 72
24
 73
20
 74
0
 42
0.0000001
 43
0.0000001
 44
0.0000000001
 40
0.0
 40
0.0
 40
0.0
 40
0.0
 40
0.0691155644
 40
0.1035002321
 40
0.137099519
 40
0.1688126144
 40
0.1982830346
 40
0.2510314125
 40
0.3038583033
 40
0.3635782658
 40
0.4301264879
 40
0.5006162608
 40
0.6374585128
 40
0.6970891235
 40
0.7498998976
 40
0.8024382712
 40
0.8636266733
 40
0.9310136743
 40
1.0
 40
1.0
 40
1.0
 40
1.0
 10
46.2418865378
 20
51.3591275089
 30
0.0
 10
46.2418865378
 20
51.3161316589
 30
0.0
 10
46.2555816685
 20
51.2506127645
 30
0.0
 10
46.2989042242
 20
51.1766599094
 30
0.0
 10
46.3399450503
 20
51.1296603237
 30
0.0
 10
46.3864124022
 20
51.0928359098
 30
0.0
 10
46.4489064882
 20
51.0588700578
 30
0.0
 10
46.5291201857
 20
51.0321285345
 30
0.0
 10
46.6304654281
 20
51.0140105542
 30
0.0
 10
46.7412041825
 20
51.0013360263
 30
0.0
 10
46.8634401092
 20
50.9940062746
 30
0.0
 10
47.0338020064
 20
50.9908040094
 30
0.0
 10
47.2000229764
 20
50.9966753953
 30
0.0
 10
47.3542253999
 20
51.0139061492
 30
0.0
 10
47.4552307111
 20
51.0327369969
 30
0.0
 10
47.5543311479
 20
51.0648515723
 30
0.0
 10
47.6502405669
 20
51.1278091524
 30
0.0
 10
47.723725881
 20
51.2303148732
 30
0.0
 10
47.7418865378
 20
51.3162120565
 30
0.0
 10
47.7418865378
 20
51.3591275089
 30
0.0
  0
SPLINE
  5
441
100
AcDbEntity
  8
0
100
AcDbSpline
 62
7
  6
CONTINUOUS
 70
0
 71
3
 72
20
 73
16
 74
0
 42
0.0000001
 43
0.0000001
 44
0.0000000001
 40
0.0
 40
0.0
 40
0.0
 40
0.0
 40
0.015302072
 40
0.0244488786
 40
0.0350439834
 40
0.0613056688
 40
0.0949884728
 40
0.1363219621
 40
0.1852904389
 40
0.2416729244
 40
0.3051483128
 40
0.4514817972
 40
0.6197962065
 40
0.8047537279
 40
1.0
 40
1.0
 40
1.0
 40
1.0
 10
48.2279742851
 20
53.2424656606
 30
0.0
 10
48.2282144869
 20
53.2571671408
 30
0.0
 10
48.2202448052
 20
53.2808877082
 30
0.0
 10
48.1995512764
 20
53.3074804915
 30
0.0
 10
48.1669925739
 20
53.3376786123
 30
0.0
 10
48.1089026528
 20
53.3735023411
 30
0.0
 10
48.0198076582
 20
53.4129457008
 30
0.0
 10
47.9068395152
 20
53.4511934133
 30
0.0
 10
47.7706957937
 20
53.4878958319
 30
0.0
 10
47.6122099652
 20
53.5227383913
 30
0.0
 10
47.3604925709
 20
53.5683766664
 30
0.0
 10
47.0002107908
 20
53.616717949
 30
0.0
 10
46.5220548292
 20
53.6605214043
 30
0.0
 10
45.99575117
 20
53.690406905
 30
0.0
 10
45.6304921542
 20
53.7001500071
 30
0.0
 10
45.4428991325
 20
53.7025266588
 30
0.0
  0
SPLINE
  5
442
100
AcDbEntity
  8
0
100
AcDbSpline
 62
7
  6
CONTINUOUS
 70
0
 71
3
 72
20
 73
16
 74
0
 42
0.0000001
 43
0.0000001
 44
0.0000000001
 40
0.0
 40
0.0
 40
0.0
 40
0.0
 40
0.1951171946
 40
0.3801033649
 40
0.5485137278
 40
0.6948827868
 40
0.7583192882
 40
0.8147066318
 40
0.8637251775
 40
0.9050954497
 40
0.9387379745
 40
0.9649584149
 40
0.9755431082
 40
0.984687112
 40
1.0
 40
1.0
 40
1.0
 40
1.0
 10
30.9406777541
 20
53.7025249871
 30
0.0
 10
30.7532213233
 20
53.7001487994
 30
0.0
 10
30.3880834516
 20
53.6904144047
 30
0.0
 10
29.8618179187
 20
53.6605360443
 30
0.0
 10
29.3835457674
 20
53.6166900583
 30
0.0
 10
29.0231869741
 20
53.5684192033
 30
0.0
 10
28.7714997758
 20
53.5227006854
 30
0.0
 10
28.6130121955
 20
53.4878467371
 30
0.0
 10
28.4767869632
 20
53.4511512811
 30
0.0
 10
28.3637633901
 20
53.4129442066
 30
0.0
 10
28.2747452089
 20
53.3734429813
 30
0.0
 10
28.2167561909
 20
53.3376415525
 30
0.0
 10
28.1842340478
 20
53.3074864932
 30
0.0
 10
28.1635359698
 20
53.2809034804
 30
0.0
 10
28.155558435
 20
53.2571765468
 30
0.0
 10
28.1557987905
 20
53.2424656606
 30
0.0
  0
SPLINE
  5
443
100
AcDbEntity
  8
0
100
AcDbSpline
 62
7
  6
CONTINUOUS
 70
0
 71
3
 72
23
 73
19
 74
0
 42
0.0000001
 43
0.0000001
 44
0.0000000001
 40
0.0
 40
0.0
 40
0.0
 40
0.0
 40
0.1426458233
 40
0.2136718369
 40
0.2839868762
 40
0.3524564968
 40
0.4169364808
 40
0.4469654259
 40
0.4751954306
 40
0.5017980569
 40
0.5274783363
 40
0.5781214968
 40
0.6309097105
 40
0.6867543546
 40
0.7454041502
 40
0.8064688654
 40
0.8695218189
 40
1.0
 40
1.0
 40
1.0
 40
1.0
 10
62.267989205
 20
72.525
 30
0.0
 10
62.3638129377
 20
72.525
 30
0.0
 10
62.5074907192
 20
72.5216738555
 30
0.0
 10
62.6974474562
 20
72.5030791359
 30
0.0
 10
62.8365123107
 20
72.4787128875
 30
0.0
 10
62.9675960363
 20
72.4392777653
 30
0.0
 10
63.0661303252
 20
72.388667477
 30
0.0
 10
63.1290412497
 20
72.3348070261
 30
0.0
 10
63.1652458686
 20
72.2902397715
 30
0.0
 10
63.1890758122
 20
72.2411207892
 30
0.0
 10
63.2042730613
 20
72.1730753553
 30
0.0
 10
63.1941637316
 20
72.0844776631
 30
0.0
 10
63.1477841826
 20
71.9867606155
 30
0.0
 10
63.0786808455
 20
71.8974102261
 30
0.0
 10
62.9930983024
 20
71.8157949031
 30
0.0
 10
62.894900326
 20
71.7417383825
 30
0.0
 10
62.7496075174
 20
71.6512599645
 30
0.0
 10
62.6324131557
 20
71.5939697738
 30
0.0
 10
62.5516558734
 20
71.5598994967
 30
0.0
  0
SPLINE
  5
444
100
AcDbEntity
  8
0
100
AcDbSpline
 62
7
  6
CONTINUOUS
 70
0
 71
3
 72
9
 73
5
 74
0
 42
0.0000001
 43
0.0000001
 44
0.0000000001
 40
0.0
 40
0.0
 40
0.0
 40
0.0
 40
0.5241539148
 40
1.0
 40
1.0
 40
1.0
 40
1.0
 10
42.6573457822
 20
34.027561758
 30
0.0
 10
42.7737019089
 20
33.9071474211
 30
0.0
 10
42.996403676
 20
33.6781060535
 30
0.0
 10
43.2206922173
 20
33.4506107184
 30
0.0
 10
43.3281836209
 20
33.3431216687
 30
0.0
  0
SPLINE
  5
445
100
AcDbEntity
  8
0
100
AcDbSpline
 62
7
  6
CONTINUOUS
 70
0
 71
3
 72
9
 73
5
 74
0
 42
0.0000001
 43
0.0000001
 44
0.0000000001
 40
0.0
 40
0.0
 40
0.0
 40
0.0
 40
0.4758481445
 40
1.0
 40
1.0
 40
1.0
 40
1.0
 10
33.0555894547
 20
33.3431216686
 30
0.0
 10
33.1630813233
 20
33.4506111834
 30
0.0
 10
33.3873696468
 20
33.6781067327
 30
0.0
 10
33.6100716239
 20
33.9071478943
 30
0.0
 10
33.7264272934
 20
34.027561758
 30
0.0
  0
SPLINE
  5
446
100
AcDbEntity
  8
0
100
AcDbSpline
 62
7
  6
CONTINUOUS
 70
0
 71
3
 72
23
 73
19
 74
0
 42
0.0000001
 43
0.0000001
 44
0.0000000001
 40
0.0
 40
0.0
 40
0.0
 40
0.0
 40
0.130477986
 40
0.1935307164
 40
0.2545954646
 40
0.3132451116
 40
0.3690889866
 40
0.4218774939
 40
0.4725208699
 40
0.4982006453
 40
0.5248034999
 40
0.5530344004
 40
0.5830625988
 40
0.6475430981
 40
0.7160125965
 40
0.786328044
 40
0.8573541721
 40
1.0
 40
1.0
 40
1.0
 40
1.0
 10
13.8321172022
 20
71.5598994967
 30
0.0
 10
13.7513600637
 20
71.5939697131
 30
0.0
 10
13.6341661718
 20
71.6512600484
 30
0.0
 10
13.4888732381
 20
71.7417377454
 30
0.0
 10
13.3906756455
 20
71.8157942131
 30
0.0
 10
13.3050927364
 20
71.8974085222
 30
0.0
 10
13.2359924784
 20
71.9867605146
 30
0.0
 10
13.1896107734
 20
72.0844761716
 30
0.0
 10
13.1794994368
 20
72.1730730821
 30
0.0
 10
13.19469297
 20
72.2411198816
 30
0.0
 10
13.2185298034
 20
72.2902361355
 30
0.0
 10
13.2547328561
 20
72.3348040792
 30
0.0
 10
13.3176410362
 20
72.388668846
 30
0.0
 10
13.41617643
 20
72.4392773305
 30
0.0
 10
13.5472599067
 20
72.4787140738
 30
0.0
 10
13.686325337
 20
72.5030792215
 30
0.0
 10
13.8762823289
 20
72.521673603
 30
0.0
 10
14.0199601622
 20
72.525
 30
0.0
 10
14.1157838706
 20
72.525
 30
0.0
  0
SPLINE
  5
447
100
AcDbEntity
  8
0
100
AcDbSpline
 62
7
  6
CONTINUOUS
 70
0
 71
3
 72
15
 73
11
 74
0
 42
0.0000001
 43
0.0000001
 44
0.0000000001
 40
0.0
 40
0.0
 40
0.0
 40
0.0
 40
0.0338759296
 40
0.060714364
 40
0.0953000485
 40
0.1880349945
 40
0.3101914529
 40
0.4580616665
 40
0.6263882577
 40
1.0
 40
1.0
 40
1.0
 40
1.0
 10
29.0418965944
 20
51.062446603
 30
0.0
 10
29.0418965944
 20
51.0573535724
 30
0.0
 10
29.0493188249
 20
51.0494758337
 30
0.0
 10
29.0614765391
 20
51.0427071045
 30
0.0
 10
29.0831119966
 20
51.0337468773
 30
0.0
 10
29.1194203409
 20
51.0243772696
 30
0.0
 10
29.1731655818
 20
51.014738358
 30
0.0
 10
29.2386068607
 20
51.0068083963
 30
0.0
 10
29.34199539
 20
50.9984142768
 30
0.0
 10
29.423502424
 20
50.9959498356
 30
0.0
 10
29.4796721092
 20
50.9957215085
 30
0.0
  0
SPLINE
  5
448
100
AcDbEntity
  8
0
100
AcDbSpline
 62
7
  6
CONTINUOUS
 70
0
 71
3
 72
15
 73
11
 74
0
 42
0.0000001
 43
0.0000001
 44
0.0000000001
 40
0.0
 40
0.0
 40
0.0
 40
0.0
 40
0.3752984659
 40
0.5435170116
 40
0.690930496
 40
0.8125278535
 40
0.9047770363
 40
0.9391999639
 40
0.9659626957
 40
1.0
 40
1.0
 40
1.0
 40
1.0
 10
29.5169227885
 20
50.9958011654
 30
0.0
 10
29.571743518
 20
50.9962579282
 30
0.0
 10
29.6511583589
 20
50.9989502125
 30
0.0
 10
29.751744908
 20
51.007497159
 30
0.0
 10
29.815136484
 20
51.0154354753
 30
0.0
 10
29.8670954196
 20
51.0249961561
 30
0.0
 10
29.9021605368
 20
51.034252228
 30
0.0
 10
29.9230130872
 20
51.0430663495
 30
0.0
 10
29.9347765202
 20
51.0497467219
 30
0.0
 10
29.9418764812
 20
51.0574745214
 30
0.0
 10
29.9418764812
 20
51.062446603
 30
0.0
  0
SPLINE
  5
449
100
AcDbEntity
  8
0
100
AcDbSpline
 62
7
  6
CONTINUOUS
 70
0
 71
3
 72
14
 73
10
 74
0
 42
0.0000001
 43
0.0000001
 44
0.0000000001
 40
0.0
 40
0.0
 40
0.0
 40
0.0
 40
0.0337389339
 40
0.0606617927
 40
0.0954198511
 40
0.188667312
 40
0.3113527574
 40
0.6280350646
 40
1.0
 40
1.0
 40
1.0
 40
1.0
 10
29.9418764812
 20
51.062446603
 30
0.0
 10
29.9418764812
 20
51.0676557802
 30
0.0
 10
29.9341399606
 20
51.0756749767
 30
0.0
 10
29.9216011385
 20
51.0825271223
 30
0.0
 10
29.8992022819
 20
51.0916252981
 30
0.0
 10
29.861693179
 20
51.1011040036
 30
0.0
 10
29.7805879978
 20
51.1152435303
 30
0.0
 10
29.6556495427
 20
51.1261897321
 30
0.0
 10
29.5493166648
 20
51.129198315
 30
0.0
 10
29.4918865378
 20
51.129198315
 30
0.0
  0
SPLINE
  5
44A
100
AcDbEntity
  8
0
100
AcDbSpline
 62
7
  6
CONTINUOUS
 70
0
 71
3
 72
14
 73
10
 74
0
 42
0.0000001
 43
0.0000001
 44
0.0000000001
 40
0.0
 40
0.0
 40
0.0
 40
0.0
 40
0.3719649354
 40
0.6886472426
 40
0.811332688
 40
0.9045801489
 40
0.9393382073
 40
0.9662610661
 40
1.0
 40
1.0
 40
1.0
 40
1.0
 10
29.4918865378
 20
51.129198315
 30
0.0
 10
29.4344564108
 20
51.129198315
 30
0.0
 10
29.3281235328
 20
51.1261897321
 30
0.0
 10
29.2031850778
 20
51.1152435303
 30
0.0
 10
29.1220798966
 20
51.1011040036
 30
0.0
 10
29.0845707936
 20
51.0916252981
 30
0.0
 10
29.0621719371
 20
51.0825271223
 30
0.0
 10
29.049633115
 20
51.0756749767
 30
0.0
 10
29.0418965944
 20
51.0676557802
 30
0.0
 10
29.0418965944
 20
51.062446603
 30
0.0
  0
SPLINE
  5
44B
100
AcDbEntity
  8
0
100
AcDbSpline
 62
7
  6
CONTINUOUS
 70
0
 71
3
 72
15
 73
11
 74
0
 42
0.0000001
 43
0.0000001
 44
0.0000000001
 40
0.0
 40
0.0
 40
0.0
 40
0.0
 40
0.0338759296
 40
0.060714364
 40
0.0953000485
 40
0.1880349945
 40
0.3101914529
 40
0.4580616665
 40
0.6263882577
 40
1.0
 40
1.0
 40
1.0
 40
1.0
 10
32.5418965944
 20
51.062446603
 30
0.0
 10
32.5418965944
 20
51.0573535724
 30
0.0
 10
32.5493188249
 20
51.0494758337
 30
0.0
 10
32.5614765391
 20
51.0427071045
 30
0.0
 10
32.5831119966
 20
51.0337468773
 30
0.0
 10
32.6194203409
 20
51.0243772696
 30
0.0
 10
32.6731655818
 20
51.014738358
 30
0.0
 10
32.7386068607
 20
51.0068083963
 30
0.0
 10
32.84199539
 20
50.9984142768
 30
0.0
 10
32.923502424
 20
50.9959498356
 30
0.0
 10
32.9796721092
 20
50.9957215085
 30
0.0
  0
SPLINE
  5
44C
100
AcDbEntity
  8
0
100
AcDbSpline
 62
7
  6
CONTINUOUS
 70
0
 71
3
 72
15
 73
11
 74
0
 42
0.0000001
 43
0.0000001
 44
0.0000000001
 40
0.0
 40
0.0
 40
0.0
 40
0.0
 40
0.3752984659
 40
0.5435170116
 40
0.690930496
 40
0.8125278535
 40
0.9047770363
 40
0.9391999639
 40
0.9659626957
 40
1.0
 40
1.0
 40
1.0
 40
1.0
 10
33.0169227885
 20
50.9958011654
 30
0.0
 10
33.071743518
 20
50.9962579282
 30
0.0
 10
33.1511583589
 20
50.9989502125
 30
0.0
 10
33.251744908
 20
51.007497159
 30
0.0
 10
33.315136484
 20
51.0154354753
 30
0.0
 10
33.3670954196
 20
51.0249961561
 30
0.0
 10
33.4021605368
 20
51.034252228
 30
0.0
 10
33.4230130872
 20
51.0430663495
 30
0.0
 10
33.4347765202
 20
51.0497467219
 30
0.0
 10
33.4418764812
 20
51.0574745214
 30
0.0
 10
33.4418764812
 20
51.062446603
 30
0.0
  0
SPLINE
  5
44D
100
AcDbEntity
  8
0
100
AcDbSpline
 62
7
  6
CONTINUOUS
 70
0
 71
3
 72
14
 73
10
 74
0
 42
0.0000001
 43
0.0000001
 44
0.0000000001
 40
0.0
 40
0.0
 40
0.0
 40
0.0
 40
0.0337389339
 40
0.0606617927
 40
0.0954198511
 40
0.188667312
 40
0.3113527574
 40
0.6280350646
 40
1.0
 40
1.0
 40
1.0
 40
1.0
 10
33.4418764812
 20
51.062446603
 30
0.0
 10
33.4418764812
 20
51.0676557802
 30
0.0
 10
33.4341399606
 20
51.0756749767
 30
0.0
 10
33.4216011385
 20
51.0825271223
 30
0.0
 10
33.3992022819
 20
51.0916252981
 30
0.0
 10
33.361693179
 20
51.1011040036
 30
0.0
 10
33.2805879978
 20
51.1152435303
 30
0.0
 10
33.1556495427
 20
51.1261897321
 30
0.0
 10
33.0493166648
 20
51.129198315
 30
0.0
 10
32.9918865378
 20
51.129198315
 30
0.0
  0
SPLINE
  5
44E
100
AcDbEntity
  8
0
100
AcDbSpline
 62
7
  6
CONTINUOUS
 70
0
 71
3
 72
14
 73
10
 74
0
 42
0.0000001
 43
0.0000001
 44
0.0000000001
 40
0.0
 40
0.0
 40
0.0
 40
0.0
 40
0.3719649354
 40
0.6886472426
 40
0.811332688
 40
0.9045801489
 40
0.9393382073
 40
0.9662610661
 40
1.0
 40
1.0
 40
1.0
 40
1.0
 10
32.9918865378
 20
51.129198315
 30
0.0
 10
32.9344564108
 20
51.129198315
 30
0.0
 10
32.8281235328
 20
51.1261897321
 30
0.0
 10
32.7031850778
 20
51.1152435303
 30
0.0
 10
32.6220798966
 20
51.1011040036
 30
0.0
 10
32.5845707936
 20
51.0916252981
 30
0.0
 10
32.5621719371
 20
51.0825271223
 30
0.0
 10
32.549633115
 20
51.0756749767
 30
0.0
 10
32.5418965944
 20
51.0676557802
 30
0.0
 10
32.5418965944
 20
51.062446603
 30
0.0
  0
SPLINE
  5
44F
100
AcDbEntity
  8
0
100
AcDbSpline
 62
7
  6
CONTINUOUS
 70
0
 71
3
 72
15
 73
11
 74
0
 42
0.0000001
 43
0.0000001
 44
0.0000000001
 40
0.0
 40
0.0
 40
0.0
 40
0.0
 40
0.0338759296
 40
0.060714364
 40
0.0953000485
 40
0.1880349945
 40
0.3101914529
 40
0.4580616665
 40
0.6263882577
 40
1.0
 40
1.0
 40
1.0
 40
1.0
 10
30.7418965944
 20
51.3591275089
 30
0.0
 10
30.7418965944
 20
51.3540344783
 30
0.0
 10
30.7493188249
 20
51.3461567396
 30
0.0
 10
30.7614765391
 20
51.3393880103
 30
0.0
 10
30.7831119966
 20
51.3304277832
 30
0.0
 10
30.8194203409
 20
51.3210581754
 30
0.0
 10
30.8731655818
 20
51.3114192639
 30
0.0
 10
30.9386068607
 20
51.3034893022
 30
0.0
 10
31.04199539
 20
51.2950951826
 30
0.0
 10
31.123502424
 20
51.2926307414
 30
0.0
 10
31.1796721092
 20
51.2924024144
 30
0.0
  0
SPLINE
  5
450
100
AcDbEntity
  8
0
100
AcDbSpline
 62
7
  6
CONTINUOUS
 70
0
 71
3
 72
15
 73
11
 74
0
 42
0.0000001
 43
0.0000001
 44
0.0000000001
 40
0.0
 40
0.0
 40
0.0
 40
0.0
 40
0.3752984659
 40
0.5435170116
 40
0.690930496
 40
0.8125278535
 40
0.9047770363
 40
0.9391999639
 40
0.9659626957
 40
1.0
 40
1.0
 40
1.0
 40
1.0
 10
31.2169227885
 20
51.2924820713
 30
0.0
 10
31.2717435179
 20
51.292938834
 30
0.0
 10
31.3511583589
 20
51.2956311183
 30
0.0
 10
31.451744908
 20
51.3041780648
 30
0.0
 10
31.515136484
 20
51.3121163812
 30
0.0
 10
31.5670954196
 20
51.321677062
 30
0.0
 10
31.6021605368
 20
51.3309331339
 30
0.0
 10
31.6230130872
 20
51.3397472554
 30
0.0
 10
31.6347765202
 20
51.3464276278
 30
0.0
 10
31.6418764812
 20
51.3541554272
 30
0.0
 10
31.6418764812
 20
51.3591275089
 30
0.0
  0
SPLINE
  5
451
100
AcDbEntity
  8
0
100
AcDbSpline
 62
7
  6
CONTINUOUS
 70
0
 71
3
 72
14
 73
10
 74
0
 42
0.0000001
 43
0.0000001
 44
0.0000000001
 40
0.0
 40
0.0
 40
0.0
 40
0.0
 40
0.0337389339
 40
0.0606617927
 40
0.0954198511
 40
0.188667312
 40
0.3113527574
 40
0.6280350646
 40
1.0
 40
1.0
 40
1.0
 40
1.0
 10
31.6418764812
 20
51.3591275089
 30
0.0
 10
31.6418764812
 20
51.3643366861
 30
0.0
 10
31.6341399606
 20
51.3723558826
 30
0.0
 10
31.6216011385
 20
51.3792080281
 30
0.0
 10
31.5992022819
 20
51.388306204
 30
0.0
 10
31.561693179
 20
51.3977849094
 30
0.0
 10
31.4805879978
 20
51.4119244362
 30
0.0
 10
31.3556495427
 20
51.4228706379
 30
0.0
 10
31.2493166648
 20
51.4258792209
 30
0.0
 10
31.1918865378
 20
51.4258792209
 30
0.0
  0
SPLINE
  5
452
100
AcDbEntity
  8
0
100
AcDbSpline
 62
7
  6
CONTINUOUS
 70
0
 71
3
 72
14
 73
10
 74
0
 42
0.0000001
 43
0.0000001
 44
0.0000000001
 40
0.0
 40
0.0
 40
0.0
 40
0.0
 40
0.3719649354
 40
0.6886472426
 40
0.811332688
 40
0.9045801489
 40
0.9393382073
 40
0.9662610661
 40
1.0
 40
1.0
 40
1.0
 40
1.0
 10
31.1918865378
 20
51.4258792209
 30
0.0
 10
31.1344564108
 20
51.4258792209
 30
0.0
 10
31.0281235328
 20
51.4228706379
 30
0.0
 10
30.9031850778
 20
51.4119244362
 30
0.0
 10
30.8220798966
 20
51.3977849094
 30
0.0
 10
30.7845707936
 20
51.388306204
 30
0.0
 10
30.7621719371
 20
51.3792080281
 30
0.0
 10
30.749633115
 20
51.3723558826
 30
0.0
 10
30.7418965944
 20
51.3643366861
 30
0.0
 10
30.7418965944
 20
51.3591275089
 30
0.0
  0
SPLINE
  5
453
100
AcDbEntity
  8
0
100
AcDbSpline
 62
7
  6
CONTINUOUS
 70
0
 71
3
 72
15
 73
11
 74
0
 42
0.0000001
 43
0.0000001
 44
0.0000000001
 40
0.0
 40
0.0
 40
0.0
 40
0.0
 40
0.0338759296
 40
0.060714364
 40
0.0953000485
 40
0.1880349945
 40
0.3101914529
 40
0.4580616665
 40
0.6263882577
 40
1.0
 40
1.0
 40
1.0
 40
1.0
 10
32.5418965944
 20
51.6558084147
 30
0.0
 10
32.5418965944
 20
51.6507153842
 30
0.0
 10
32.5493188249
 20
51.6428376455
 30
0.0
 10
32.5614765391
 20
51.6360689162
 30
0.0
 10
32.5831119966
 20
51.6271086891
 30
0.0
 10
32.6194203409
 20
51.6177390813
 30
0.0
 10
32.6731655817
 20
51.6081001697
 30
0.0
 10
32.7386068607
 20
51.600170208
 30
0.0
 10
32.84199539
 20
51.5917760885
 30
0.0
 10
32.923502424
 20
51.5893116473
 30
0.0
 10
32.9796721092
 20
51.5890833203
 30
0.0
  0
SPLINE
  5
454
100
AcDbEntity
  8
0
100
AcDbSpline
 62
7
  6
CONTINUOUS
 70
0
 71
3
 72
15
 73
11
 74
0
 42
0.0000001
 43
0.0000001
 44
0.0000000001
 40
0.0
 40
0.0
 40
0.0
 40
0.0
 40
0.375298466
 40
0.5435170116
 40
0.690930496
 40
0.8125278535
 40
0.9047770363
 40
0.9391999639
 40
0.9659626957
 40
1.0
 40
1.0
 40
1.0
 40
1.0
 10
33.0169227885
 20
51.5891629772
 30
0.0
 10
33.071743518
 20
51.5896197399
 30
0.0
 10
33.1511583589
 20
51.5923120242
 30
0.0
 10
33.251744908
 20
51.6008589707
 30
0.0
 10
33.315136484
 20
51.608797287
 30
0.0
 10
33.3670954196
 20
51.6183579679
 30
0.0
 10
33.4021605368
 20
51.6276140398
 30
0.0
 10
33.4230130872
 20
51.6364281612
 30
0.0
 10
33.4347765202
 20
51.6431085336
 30
0.0
 10
33.4418764812
 20
51.6508363331
 30
0.0
 10
33.4418764812
 20
51.6558084147
 30
0.0
  0
SPLINE
  5
455
100
AcDbEntity
  8
0
100
AcDbSpline
 62
7
  6
CONTINUOUS
 70
0
 71
3
 72
14
 73
10
 74
0
 42
0.0000001
 43
0.0000001
 44
0.0000000001
 40
0.0
 40
0.0
 40
0.0
 40
0.0
 40
0.0337389339
 40
0.0606617927
 40
0.0954198511
 40
0.188667312
 40
0.3113527574
 40
0.6280350646
 40
1.0
 40
1.0
 40
1.0
 40
1.0
 10
33.4418764812
 20
51.6558084147
 30
0.0
 10
33.4418764812
 20
51.6610175919
 30
0.0
 10
33.4341399606
 20
51.6690367884
 30
0.0
 10
33.4216011385
 20
51.675888934
 30
0.0
 10
33.3992022819
 20
51.6849871099
 30
0.0
 10
33.361693179
 20
51.6944658153
 30
0.0
 10
33.2805879978
 20
51.708605342
 30
0.0
 10
33.1556495427
 20
51.7195515438
 30
0.0
 10
33.0493166648
 20
51.7225601268
 30
0.0
 10
32.9918865378
 20
51.7225601268
 30
0.0
  0
SPLINE
  5
456
100
AcDbEntity
  8
0
100
AcDbSpline
 62
7
  6
CONTINUOUS
 70
0
 71
3
 72
14
 73
10
 74
0
 42
0.0000001
 43
0.0000001
 44
0.0000000001
 40
0.0
 40
0.0
 40
0.0
 40
0.0
 40
0.3719649354
 40
0.6886472426
 40
0.811332688
 40
0.9045801489
 40
0.9393382073
 40
0.9662610661
 40
1.0
 40
1.0
 40
1.0
 40
1.0
 10
32.9918865378
 20
51.7225601268
 30
0.0
 10
32.9344564108
 20
51.7225601268
 30
0.0
 10
32.8281235328
 20
51.7195515438
 30
0.0
 10
32.7031850778
 20
51.708605342
 30
0.0
 10
32.6220798966
 20
51.6944658153
 30
0.0
 10
32.5845707936
 20
51.6849871099
 30
0.0
 10
32.5621719371
 20
51.675888934
 30
0.0
 10
32.549633115
 20
51.6690367884
 30
0.0
 10
32.5418965944
 20
51.6610175919
 30
0.0
 10
32.5418965944
 20
51.6558084147
 30
0.0
  0
SPLINE
  5
457
100
AcDbEntity
  8
0
100
AcDbSpline
 62
7
  6
CONTINUOUS
 70
0
 71
3
 72
15
 73
11
 74
0
 42
0.0000001
 43
0.0000001
 44
0.0000000001
 40
0.0
 40
0.0
 40
0.0
 40
0.0
 40
0.0338759296
 40
0.060714364
 40
0.0953000485
 40
0.1880349945
 40
0.3101914529
 40
0.4580616665
 40
0.6263882577
 40
1.0
 40
1.0
 40
1.0
 40
1.0
 10
34.2418965944
 20
51.3591275089
 30
0.0
 10
34.2418965944
 20
51.3540344783
 30
0.0
 10
34.2493188249
 20
51.3461567396
 30
0.0
 10
34.2614765391
 20
51.3393880103
 30
0.0
 10
34.2831119966
 20
51.3304277832
 30
0.0
 10
34.3194203409
 20
51.3210581754
 30
0.0
 10
34.3731655818
 20
51.3114192639
 30
0.0
 10
34.4386068607
 20
51.3034893022
 30
0.0
 10
34.54199539
 20
51.2950951826
 30
0.0
 10
34.623502424
 20
51.2926307414
 30
0.0
 10
34.6796721092
 20
51.2924024144
 30
0.0
  0
SPLINE
  5
458
100
AcDbEntity
  8
0
100
AcDbSpline
 62
7
  6
CONTINUOUS
 70
0
 71
3
 72
15
 73
11
 74
0
 42
0.0000001
 43
0.0000001
 44
0.0000000001
 40
0.0
 40
0.0
 40
0.0
 40
0.0
 40
0.3752984659
 40
0.5435170116
 40
0.690930496
 40
0.8125278535
 40
0.9047770363
 40
0.9391999639
 40
0.9659626957
 40
1.0
 40
1.0
 40
1.0
 40
1.0
 10
34.7169227885
 20
51.2924820713
 30
0.0
 10
34.7717435179
 20
51.292938834
 30
0.0
 10
34.8511583589
 20
51.2956311183
 30
0.0
 10
34.951744908
 20
51.3041780648
 30
0.0
 10
35.015136484
 20
51.3121163812
 30
0.0
 10
35.0670954196
 20
51.321677062
 30
0.0
 10
35.1021605368
 20
51.3309331339
 30
0.0
 10
35.1230130872
 20
51.3397472554
 30
0.0
 10
35.1347765202
 20
51.3464276278
 30
0.0
 10
35.1418764812
 20
51.3541554272
 30
0.0
 10
35.1418764812
 20
51.3591275089
 30
0.0
  0
SPLINE
  5
459
100
AcDbEntity
  8
0
100
AcDbSpline
 62
7
  6
CONTINUOUS
 70
0
 71
3
 72
14
 73
10
 74
0
 42
0.0000001
 43
0.0000001
 44
0.0000000001
 40
0.0
 40
0.0
 40
0.0
 40
0.0
 40
0.0337389339
 40
0.0606617927
 40
0.0954198511
 40
0.188667312
 40
0.3113527574
 40
0.6280350646
 40
1.0
 40
1.0
 40
1.0
 40
1.0
 10
35.1418764812
 20
51.3591275089
 30
0.0
 10
35.1418764812
 20
51.3643366861
 30
0.0
 10
35.1341399606
 20
51.3723558826
 30
0.0
 10
35.1216011385
 20
51.3792080281
 30
0.0
 10
35.0992022819
 20
51.388306204
 30
0.0
 10
35.061693179
 20
51.3977849094
 30
0.0
 10
34.9805879978
 20
51.4119244362
 30
0.0
 10
34.8556495427
 20
51.4228706379
 30
0.0
 10
34.7493166648
 20
51.4258792209
 30
0.0
 10
34.6918865378
 20
51.4258792209
 30
0.0
  0
SPLINE
  5
45A
100
AcDbEntity
  8
0
100
AcDbSpline
 62
7
  6
CONTINUOUS
 70
0
 71
3
 72
14
 73
10
 74
0
 42
0.0000001
 43
0.0000001
 44
0.0000000001
 40
0.0
 40
0.0
 40
0.0
 40
0.0
 40
0.3719649354
 40
0.6886472426
 40
0.811332688
 40
0.9045801489
 40
0.9393382073
 40
0.9662610661
 40
1.0
 40
1.0
 40
1.0
 40
1.0
 10
34.6918865378
 20
51.4258792209
 30
0.0
 10
34.6344564108
 20
51.4258792209
 30
0.0
 10
34.5281235328
 20
51.4228706379
 30
0.0
 10
34.4031850778
 20
51.4119244362
 30
0.0
 10
34.3220798966
 20
51.3977849094
 30
0.0
 10
34.2845707936
 20
51.388306204
 30
0.0
 10
34.2621719371
 20
51.3792080281
 30
0.0
 10
34.249633115
 20
51.3723558826
 30
0.0
 10
34.2418965944
 20
51.3643366861
 30
0.0
 10
34.2418965944
 20
51.3591275089
 30
0.0
  0
SPLINE
  5
45B
100
AcDbEntity
  8
0
100
AcDbSpline
 62
7
  6
CONTINUOUS
 70
0
 71
3
 72
15
 73
11
 74
0
 42
0.0000001
 43
0.0000001
 44
0.0000000001
 40
0.0
 40
0.0
 40
0.0
 40
0.0
 40
0.0338759296
 40
0.060714364
 40
0.0953000485
 40
0.1880349945
 40
0.3101914529
 40
0.4580616665
 40
0.6263882577
 40
1.0
 40
1.0
 40
1.0
 40
1.0
 10
36.0418965944
 20
51.062446603
 30
0.0
 10
36.0418965944
 20
51.0573535724
 30
0.0
 10
36.0493188249
 20
51.0494758337
 30
0.0
 10
36.0614765391
 20
51.0427071045
 30
0.0
 10
36.0831119966
 20
51.0337468773
 30
0.0
 10
36.1194203409
 20
51.0243772696
 30
0.0
 10
36.1731655818
 20
51.014738358
 30
0.0
 10
36.2386068607
 20
51.0068083963
 30
0.0
 10
36.34199539
 20
50.9984142768
 30
0.0
 10
36.423502424
 20
50.9959498356
 30
0.0
 10
36.4796721092
 20
50.9957215085
 30
0.0
  0
SPLINE
  5
45C
100
AcDbEntity
  8
0
100
AcDbSpline
 62
7
  6
CONTINUOUS
 70
0
 71
3
 72
15
 73
11
 74
0
 42
0.0000001
 43
0.0000001
 44
0.0000000001
 40
0.0
 40
0.0
 40
0.0
 40
0.0
 40
0.3752984659
 40
0.5435170116
 40
0.690930496
 40
0.8125278535
 40
0.9047770363
 40
0.9391999639
 40
0.9659626957
 40
1.0
 40
1.0
 40
1.0
 40
1.0
 10
36.5169227885
 20
50.9958011654
 30
0.0
 10
36.571743518
 20
50.9962579282
 30
0.0
 10
36.6511583589
 20
50.9989502125
 30
0.0
 10
36.751744908
 20
51.007497159
 30
0.0
 10
36.815136484
 20
51.0154354753
 30
0.0
 10
36.8670954196
 20
51.0249961561
 30
0.0
 10
36.9021605368
 20
51.034252228
 30
0.0
 10
36.9230130872
 20
51.0430663495
 30
0.0
 10
36.9347765202
 20
51.0497467219
 30
0.0
 10
36.9418764812
 20
51.0574745214
 30
0.0
 10
36.9418764812
 20
51.062446603
 30
0.0
  0
SPLINE
  5
45D
100
AcDbEntity
  8
0
100
AcDbSpline
 62
7
  6
CONTINUOUS
 70
0
 71
3
 72
14
 73
10
 74
0
 42
0.0000001
 43
0.0000001
 44
0.0000000001
 40
0.0
 40
0.0
 40
0.0
 40
0.0
 40
0.0337389339
 40
0.0606617927
 40
0.0954198511
 40
0.188667312
 40
0.3113527574
 40
0.6280350646
 40
1.0
 40
1.0
 40
1.0
 40
1.0
 10
36.9418764812
 20
51.062446603
 30
0.0
 10
36.9418764812
 20
51.0676557802
 30
0.0
 10
36.9341399606
 20
51.0756749767
 30
0.0
 10
36.9216011385
 20
51.0825271223
 30
0.0
 10
36.8992022819
 20
51.0916252981
 30
0.0
 10
36.861693179
 20
51.1011040036
 30
0.0
 10
36.7805879978
 20
51.1152435303
 30
0.0
 10
36.6556495427
 20
51.1261897321
 30
0.0
 10
36.5493166648
 20
51.129198315
 30
0.0
 10
36.4918865378
 20
51.129198315
 30
0.0
  0
SPLINE
  5
45E
100
AcDbEntity
  8
0
100
AcDbSpline
 62
7
  6
CONTINUOUS
 70
0
 71
3
 72
14
 73
10
 74
0
 42
0.0000001
 43
0.0000001
 44
0.0000000001
 40
0.0
 40
0.0
 40
0.0
 40
0.0
 40
0.3719649354
 40
0.6886472426
 40
0.811332688
 40
0.9045801489
 40
0.9393382073
 40
0.9662610661
 40
1.0
 40
1.0
 40
1.0
 40
1.0
 10
36.4918865378
 20
51.129198315
 30
0.0
 10
36.4344564108
 20
51.129198315
 30
0.0
 10
36.3281235328
 20
51.1261897321
 30
0.0
 10
36.2031850778
 20
51.1152435303
 30
0.0
 10
36.1220798966
 20
51.1011040036
 30
0.0
 10
36.0845707936
 20
51.0916252981
 30
0.0
 10
36.0621719371
 20
51.0825271223
 30
0.0
 10
36.049633115
 20
51.0756749767
 30
0.0
 10
36.0418965944
 20
51.0676557802
 30
0.0
 10
36.0418965944
 20
51.062446603
 30
0.0
  0
SPLINE
  5
45F
100
AcDbEntity
  8
0
100
AcDbSpline
 62
7
  6
CONTINUOUS
 70
0
 71
3
 72
15
 73
11
 74
0
 42
0.0000001
 43
0.0000001
 44
0.0000000001
 40
0.0
 40
0.0
 40
0.0
 40
0.0
 40
0.0338759296
 40
0.060714364
 40
0.0953000485
 40
0.1880349945
 40
0.3101914529
 40
0.4580616665
 40
0.6263882577
 40
1.0
 40
1.0
 40
1.0
 40
1.0
 10
36.0418965944
 20
51.6558084147
 30
0.0
 10
36.0418965944
 20
51.6507153842
 30
0.0
 10
36.0493188249
 20
51.6428376455
 30
0.0
 10
36.0614765391
 20
51.6360689162
 30
0.0
 10
36.0831119966
 20
51.6271086891
 30
0.0
 10
36.1194203409
 20
51.6177390813
 30
0.0
 10
36.1731655817
 20
51.6081001697
 30
0.0
 10
36.2386068607
 20
51.600170208
 30
0.0
 10
36.34199539
 20
51.5917760885
 30
0.0
 10
36.423502424
 20
51.5893116473
 30
0.0
 10
36.4796721092
 20
51.5890833203
 30
0.0
  0
SPLINE
  5
460
100
AcDbEntity
  8
0
100
AcDbSpline
 62
7
  6
CONTINUOUS
 70
0
 71
3
 72
15
 73
11
 74
0
 42
0.0000001
 43
0.0000001
 44
0.0000000001
 40
0.0
 40
0.0
 40
0.0
 40
0.0
 40
0.375298466
 40
0.5435170116
 40
0.690930496
 40
0.8125278535
 40
0.9047770363
 40
0.9391999639
 40
0.9659626957
 40
1.0
 40
1.0
 40
1.0
 40
1.0
 10
36.5169227885
 20
51.5891629772
 30
0.0
 10
36.571743518
 20
51.5896197399
 30
0.0
 10
36.6511583589
 20
51.5923120242
 30
0.0
 10
36.751744908
 20
51.6008589707
 30
0.0
 10
36.815136484
 20
51.608797287
 30
0.0
 10
36.8670954196
 20
51.6183579679
 30
0.0
 10
36.9021605368
 20
51.6276140398
 30
0.0
 10
36.9230130872
 20
51.6364281612
 30
0.0
 10
36.9347765202
 20
51.6431085336
 30
0.0
 10
36.9418764812
 20
51.6508363331
 30
0.0
 10
36.9418764812
 20
51.6558084147
 30
0.0
  0
SPLINE
  5
461
100
AcDbEntity
  8
0
100
AcDbSpline
 62
7
  6
CONTINUOUS
 70
0
 71
3
 72
20
 73
16
 74
0
 42
0.0000001
 43
0.0000001
 44
0.0000000001
 40
0.0
 40
0.0
 40
0.0
 40
0.0
 40
0.0072083213
 40
0.0150760056
 40
0.0241280654
 40
0.0347049989
 40
0.0611462949
 40
0.095247957
 40
0.1371926638
 40
0.1869077399
 40
0.3083948548
 40
0.4560712659
 40
0.6248323887
 40
0.8086116584
 40
1.0
 40
1.0
 40
1.0
 40
1.0
 10
28.1819813878
 20
51.7424656606
 30
0.0
 10
28.181857003
 20
51.7499299823
 30
0.0
 10
28.1842668738
 20
51.7656754927
 30
0.0
 10
28.195362699
 20
51.7883761697
 30
0.0
 10
28.2134680407
 20
51.8105929869
 30
0.0
 10
28.2495089614
 20
51.8421007256
 30
0.0
 10
28.3135956744
 20
51.8794447437
 30
0.0
 10
28.4116482331
 20
51.9203652061
 30
0.0
 10
28.535884841
 20
51.9599378829
 30
0.0
 10
28.7500072548
 20
52.0139530735
 30
0.0
 10
29.075450272
 20
52.0721078074
 30
0.0
 10
29.5257371435
 20
52.127307919
 30
0.0
 10
30.0422741358
 20
52.1687083336
 30
0.0
 10
30.6051007656
 20
52.1943678614
 30
0.0
 10
30.9936736064
 20
52.2001801256
 30
0.0
 10
31.1918865378
 20
52.2001841985
 30
0.0
  0
SPLINE
  5
462
100
AcDbEntity
  8
0
100
AcDbSpline
 62
7
  6
CONTINUOUS
 70
0
 71
3
 72
14
 73
10
 74
0
 42
0.0000001
 43
0.0000001
 44
0.0000000001
 40
0.0
 40
0.0
 40
0.0
 40
0.0
 40
0.0337389339
 40
0.0606617927
 40
0.0954198511
 40
0.188667312
 40
0.3113527574
 40
0.6280350646
 40
1.0
 40
1.0
 40
1.0
 40
1.0
 10
36.9418764812
 20
51.6558084147
 30
0.0
 10
36.9418764812
 20
51.6610175919
 30
0.0
 10
36.9341399606
 20
51.6690367884
 30
0.0
 10
36.9216011385
 20
51.675888934
 30
0.0
 10
36.8992022819
 20
51.6849871099
 30
0.0
 10
36.861693179
 20
51.6944658153
 30
0.0
 10
36.7805879978
 20
51.708605342
 30
0.0
 10
36.6556495427
 20
51.7195515438
 30
0.0
 10
36.5493166648
 20
51.7225601268
 30
0.0
 10
36.4918865378
 20
51.7225601268
 30
0.0
  0
SPLINE
  5
463
100
AcDbEntity
  8
0
100
AcDbSpline
 62
7
  6
CONTINUOUS
 70
0
 71
3
 72
14
 73
10
 74
0
 42
0.0000001
 43
0.0000001
 44
0.0000000001
 40
0.0
 40
0.0
 40
0.0
 40
0.0
 40
0.3719649354
 40
0.6886472426
 40
0.811332688
 40
0.9045801489
 40
0.9393382073
 40
0.9662610661
 40
1.0
 40
1.0
 40
1.0
 40
1.0
 10
36.4918865378
 20
51.7225601268
 30
0.0
 10
36.4344564108
 20
51.7225601268
 30
0.0
 10
36.3281235328
 20
51.7195515438
 30
0.0
 10
36.2031850778
 20
51.708605342
 30
0.0
 10
36.1220798966
 20
51.6944658153
 30
0.0
 10
36.0845707936
 20
51.6849871099
 30
0.0
 10
36.0621719371
 20
51.675888934
 30
0.0
 10
36.049633115
 20
51.6690367884
 30
0.0
 10
36.0418965944
 20
51.6610175919
 30
0.0
 10
36.0418965944
 20
51.6558084147
 30
0.0
  0
SPLINE
  5
464
100
AcDbEntity
  8
0
100
AcDbSpline
 62
7
  6
CONTINUOUS
 70
0
 71
3
 72
15
 73
11
 74
0
 42
0.0000001
 43
0.0000001
 44
0.0000000001
 40
0.0
 40
0.0
 40
0.0
 40
0.0
 40
0.0338759296
 40
0.060714364
 40
0.0953000485
 40
0.1880349945
 40
0.3101914529
 40
0.4580616665
 40
0.6263882577
 40
1.0
 40
1.0
 40
1.0
 40
1.0
 10
39.5418965944
 20
51.6558084147
 30
0.0
 10
39.5418965944
 20
51.6507153842
 30
0.0
 10
39.5493188249
 20
51.6428376455
 30
0.0
 10
39.5614765391
 20
51.6360689162
 30
0.0
 10
39.5831119966
 20
51.6271086891
 30
0.0
 10
39.6194203409
 20
51.6177390813
 30
0.0
 10
39.6731655817
 20
51.6081001697
 30
0.0
 10
39.7386068607
 20
51.600170208
 30
0.0
 10
39.84199539
 20
51.5917760885
 30
0.0
 10
39.923502424
 20
51.5893116473
 30
0.0
 10
39.9796721092
 20
51.5890833203
 30
0.0
  0
SPLINE
  5
465
100
AcDbEntity
  8
0
100
AcDbSpline
 62
7
  6
CONTINUOUS
 70
0
 71
3
 72
15
 73
11
 74
0
 42
0.0000001
 43
0.0000001
 44
0.0000000001
 40
0.0
 40
0.0
 40
0.0
 40
0.0
 40
0.375298466
 40
0.5435170116
 40
0.690930496
 40
0.8125278535
 40
0.9047770363
 40
0.9391999639
 40
0.9659626957
 40
1.0
 40
1.0
 40
1.0
 40
1.0
 10
40.0169227885
 20
51.5891629772
 30
0.0
 10
40.071743518
 20
51.5896197399
 30
0.0
 10
40.1511583589
 20
51.5923120242
 30
0.0
 10
40.251744908
 20
51.6008589707
 30
0.0
 10
40.315136484
 20
51.608797287
 30
0.0
 10
40.3670954196
 20
51.6183579679
 30
0.0
 10
40.4021605368
 20
51.6276140398
 30
0.0
 10
40.4230130872
 20
51.6364281612
 30
0.0
 10
40.4347765202
 20
51.6431085336
 30
0.0
 10
40.4418764812
 20
51.6508363331
 30
0.0
 10
40.4418764812
 20
51.6558084147
 30
0.0
  0
SPLINE
  5
466
100
AcDbEntity
  8
0
100
AcDbSpline
 62
7
  6
CONTINUOUS
 70
0
 71
3
 72
14
 73
10
 74
0
 42
0.0000001
 43
0.0000001
 44
0.0000000001
 40
0.0
 40
0.0
 40
0.0
 40
0.0
 40
0.0337389339
 40
0.0606617927
 40
0.0954198511
 40
0.188667312
 40
0.3113527574
 40
0.6280350646
 40
1.0
 40
1.0
 40
1.0
 40
1.0
 10
40.4418764812
 20
51.6558084147
 30
0.0
 10
40.4418764812
 20
51.6610175919
 30
0.0
 10
40.4341399606
 20
51.6690367884
 30
0.0
 10
40.4216011385
 20
51.675888934
 30
0.0
 10
40.3992022819
 20
51.6849871099
 30
0.0
 10
40.361693179
 20
51.6944658153
 30
0.0
 10
40.2805879978
 20
51.708605342
 30
0.0
 10
40.1556495427
 20
51.7195515438
 30
0.0
 10
40.0493166648
 20
51.7225601268
 30
0.0
 10
39.9918865378
 20
51.7225601268
 30
0.0
  0
SPLINE
  5
467
100
AcDbEntity
  8
0
100
AcDbSpline
 62
7
  6
CONTINUOUS
 70
0
 71
3
 72
14
 73
10
 74
0
 42
0.0000001
 43
0.0000001
 44
0.0000000001
 40
0.0
 40
0.0
 40
0.0
 40
0.0
 40
0.3719649354
 40
0.6886472426
 40
0.811332688
 40
0.9045801489
 40
0.9393382073
 40
0.9662610661
 40
1.0
 40
1.0
 40
1.0
 40
1.0
 10
39.9918865378
 20
51.7225601268
 30
0.0
 10
39.9344564108
 20
51.7225601268
 30
0.0
 10
39.8281235328
 20
51.7195515438
 30
0.0
 10
39.7031850778
 20
51.708605342
 30
0.0
 10
39.6220798966
 20
51.6944658153
 30
0.0
 10
39.5845707936
 20
51.6849871099
 30
0.0
 10
39.5621719371
 20
51.675888934
 30
0.0
 10
39.549633115
 20
51.6690367884
 30
0.0
 10
39.5418965944
 20
51.6610175919
 30
0.0
 10
39.5418965944
 20
51.6558084147
 30
0.0
  0
SPLINE
  5
468
100
AcDbEntity
  8
0
100
AcDbSpline
 62
7
  6
CONTINUOUS
 70
0
 71
3
 72
15
 73
11
 74
0
 42
0.0000001
 43
0.0000001
 44
0.0000000001
 40
0.0
 40
0.0
 40
0.0
 40
0.0
 40
0.0338759296
 40
0.060714364
 40
0.0953000485
 40
0.1880349945
 40
0.3101914529
 40
0.4580616665
 40
0.6263882577
 40
1.0
 40
1.0
 40
1.0
 40
1.0
 10
37.7418965944
 20
51.3591275089
 30
0.0
 10
37.7418965944
 20
51.3540344783
 30
0.0
 10
37.7493188249
 20
51.3461567396
 30
0.0
 10
37.7614765391
 20
51.3393880103
 30
0.0
 10
37.7831119966
 20
51.3304277832
 30
0.0
 10
37.8194203409
 20
51.3210581754
 30
0.0
 10
37.8731655818
 20
51.3114192639
 30
0.0
 10
37.9386068607
 20
51.3034893022
 30
0.0
 10
38.04199539
 20
51.2950951826
 30
0.0
 10
38.123502424
 20
51.2926307414
 30
0.0
 10
38.1796721092
 20
51.2924024144
 30
0.0
  0
SPLINE
  5
469
100
AcDbEntity
  8
0
100
AcDbSpline
 62
7
  6
CONTINUOUS
 70
0
 71
3
 72
15
 73
11
 74
0
 42
0.0000001
 43
0.0000001
 44
0.0000000001
 40
0.0
 40
0.0
 40
0.0
 40
0.0
 40
0.3752984659
 40
0.5435170116
 40
0.690930496
 40
0.8125278535
 40
0.9047770363
 40
0.9391999639
 40
0.9659626957
 40
1.0
 40
1.0
 40
1.0
 40
1.0
 10
38.2169227885
 20
51.2924820713
 30
0.0
 10
38.2717435179
 20
51.292938834
 30
0.0
 10
38.3511583589
 20
51.2956311183
 30
0.0
 10
38.451744908
 20
51.3041780648
 30
0.0
 10
38.515136484
 20
51.3121163812
 30
0.0
 10
38.5670954196
 20
51.321677062
 30
0.0
 10
38.6021605368
 20
51.3309331339
 30
0.0
 10
38.6230130872
 20
51.3397472554
 30
0.0
 10
38.6347765202
 20
51.3464276278
 30
0.0
 10
38.6418764812
 20
51.3541554272
 30
0.0
 10
38.6418764812
 20
51.3591275089
 30
0.0
  0
SPLINE
  5
46A
100
AcDbEntity
  8
0
100
AcDbSpline
 62
7
  6
CONTINUOUS
 70
0
 71
3
 72
14
 73
10
 74
0
 42
0.0000001
 43
0.0000001
 44
0.0000000001
 40
0.0
 40
0.0
 40
0.0
 40
0.0
 40
0.0337389339
 40
0.0606617927
 40
0.0954198511
 40
0.188667312
 40
0.3113527574
 40
0.6280350646
 40
1.0
 40
1.0
 40
1.0
 40
1.0
 10
38.6418764812
 20
51.3591275089
 30
0.0
 10
38.6418764812
 20
51.3643366861
 30
0.0
 10
38.6341399606
 20
51.3723558826
 30
0.0
 10
38.6216011385
 20
51.3792080281
 30
0.0
 10
38.5992022819
 20
51.388306204
 30
0.0
 10
38.561693179
 20
51.3977849094
 30
0.0
 10
38.4805879978
 20
51.4119244362
 30
0.0
 10
38.3556495427
 20
51.4228706379
 30
0.0
 10
38.2493166648
 20
51.4258792209
 30
0.0
 10
38.1918865378
 20
51.4258792209
 30
0.0
  0
SPLINE
  5
46B
100
AcDbEntity
  8
0
100
AcDbSpline
 62
7
  6
CONTINUOUS
 70
0
 71
3
 72
14
 73
10
 74
0
 42
0.0000001
 43
0.0000001
 44
0.0000000001
 40
0.0
 40
0.0
 40
0.0
 40
0.0
 40
0.3719649354
 40
0.6886472426
 40
0.811332688
 40
0.9045801489
 40
0.9393382073
 40
0.9662610661
 40
1.0
 40
1.0
 40
1.0
 40
1.0
 10
38.1918865378
 20
51.4258792209
 30
0.0
 10
38.1344564108
 20
51.4258792209
 30
0.0
 10
38.0281235328
 20
51.4228706379
 30
0.0
 10
37.9031850778
 20
51.4119244362
 30
0.0
 10
37.8220798966
 20
51.3977849094
 30
0.0
 10
37.7845707936
 20
51.388306204
 30
0.0
 10
37.7621719371
 20
51.3792080281
 30
0.0
 10
37.749633115
 20
51.3723558826
 30
0.0
 10
37.7418965944
 20
51.3643366861
 30
0.0
 10
37.7418965944
 20
51.3591275089
 30
0.0
  0
SPLINE
  5
46C
100
AcDbEntity
  8
0
100
AcDbSpline
 62
7
  6
CONTINUOUS
 70
0
 71
3
 72
15
 73
11
 74
0
 42
0.0000001
 43
0.0000001
 44
0.0000000001
 40
0.0
 40
0.0
 40
0.0
 40
0.0
 40
0.0338759296
 40
0.060714364
 40
0.0953000485
 40
0.1880349945
 40
0.3101914529
 40
0.4580616665
 40
0.6263882577
 40
1.0
 40
1.0
 40
1.0
 40
1.0
 10
39.5418965944
 20
51.062446603
 30
0.0
 10
39.5418965944
 20
51.0573535724
 30
0.0
 10
39.5493188249
 20
51.0494758337
 30
0.0
 10
39.5614765391
 20
51.0427071045
 30
0.0
 10
39.5831119966
 20
51.0337468773
 30
0.0
 10
39.6194203409
 20
51.0243772696
 30
0.0
 10
39.6731655818
 20
51.014738358
 30
0.0
 10
39.7386068607
 20
51.0068083963
 30
0.0
 10
39.84199539
 20
50.9984142768
 30
0.0
 10
39.923502424
 20
50.9959498356
 30
0.0
 10
39.9796721092
 20
50.9957215085
 30
0.0
  0
SPLINE
  5
46D
100
AcDbEntity
  8
0
100
AcDbSpline
 62
7
  6
CONTINUOUS
 70
0
 71
3
 72
15
 73
11
 74
0
 42
0.0000001
 43
0.0000001
 44
0.0000000001
 40
0.0
 40
0.0
 40
0.0
 40
0.0
 40
0.3752984659
 40
0.5435170116
 40
0.690930496
 40
0.8125278535
 40
0.9047770363
 40
0.9391999639
 40
0.9659626957
 40
1.0
 40
1.0
 40
1.0
 40
1.0
 10
40.0169227885
 20
50.9958011654
 30
0.0
 10
40.071743518
 20
50.9962579282
 30
0.0
 10
40.1511583589
 20
50.9989502125
 30
0.0
 10
40.251744908
 20
51.007497159
 30
0.0
 10
40.315136484
 20
51.0154354753
 30
0.0
 10
40.3670954196
 20
51.0249961561
 30
0.0
 10
40.4021605368
 20
51.034252228
 30
0.0
 10
40.4230130872
 20
51.0430663495
 30
0.0
 10
40.4347765202
 20
51.0497467219
 30
0.0
 10
40.4418764812
 20
51.0574745214
 30
0.0
 10
40.4418764812
 20
51.062446603
 30
0.0
  0
SPLINE
  5
46E
100
AcDbEntity
  8
0
100
AcDbSpline
 62
7
  6
CONTINUOUS
 70
0
 71
3
 72
14
 73
10
 74
0
 42
0.0000001
 43
0.0000001
 44
0.0000000001
 40
0.0
 40
0.0
 40
0.0
 40
0.0
 40
0.0337389339
 40
0.0606617927
 40
0.0954198511
 40
0.188667312
 40
0.3113527574
 40
0.6280350646
 40
1.0
 40
1.0
 40
1.0
 40
1.0
 10
40.4418764812
 20
51.062446603
 30
0.0
 10
40.4418764812
 20
51.0676557802
 30
0.0
 10
40.4341399606
 20
51.0756749767
 30
0.0
 10
40.4216011385
 20
51.0825271223
 30
0.0
 10
40.3992022819
 20
51.0916252981
 30
0.0
 10
40.361693179
 20
51.1011040036
 30
0.0
 10
40.2805879978
 20
51.1152435303
 30
0.0
 10
40.1556495427
 20
51.1261897321
 30
0.0
 10
40.0493166648
 20
51.129198315
 30
0.0
 10
39.9918865378
 20
51.129198315
 30
0.0
  0
SPLINE
  5
46F
100
AcDbEntity
  8
0
100
AcDbSpline
 62
7
  6
CONTINUOUS
 70
0
 71
3
 72
14
 73
10
 74
0
 42
0.0000001
 43
0.0000001
 44
0.0000000001
 40
0.0
 40
0.0
 40
0.0
 40
0.0
 40
0.3719649354
 40
0.6886472426
 40
0.811332688
 40
0.9045801489
 40
0.9393382073
 40
0.9662610661
 40
1.0
 40
1.0
 40
1.0
 40
1.0
 10
39.9918865378
 20
51.129198315
 30
0.0
 10
39.9344564108
 20
51.129198315
 30
0.0
 10
39.8281235328
 20
51.1261897321
 30
0.0
 10
39.7031850778
 20
51.1152435303
 30
0.0
 10
39.6220798966
 20
51.1011040036
 30
0.0
 10
39.5845707936
 20
51.0916252981
 30
0.0
 10
39.5621719371
 20
51.0825271223
 30
0.0
 10
39.549633115
 20
51.0756749767
 30
0.0
 10
39.5418965944
 20
51.0676557802
 30
0.0
 10
39.5418965944
 20
51.062446603
 30
0.0
  0
SPLINE
  5
470
100
AcDbEntity
  8
0
100
AcDbSpline
 62
7
  6
CONTINUOUS
 70
0
 71
3
 72
15
 73
11
 74
0
 42
0.0000001
 43
0.0000001
 44
0.0000000001
 40
0.0
 40
0.0
 40
0.0
 40
0.0
 40
0.0338759296
 40
0.060714364
 40
0.0953000485
 40
0.1880349945
 40
0.3101914529
 40
0.4580616665
 40
0.6263882577
 40
1.0
 40
1.0
 40
1.0
 40
1.0
 10
41.2418965944
 20
51.3591275089
 30
0.0
 10
41.2418965944
 20
51.3540344783
 30
0.0
 10
41.2493188249
 20
51.3461567396
 30
0.0
 10
41.2614765391
 20
51.3393880103
 30
0.0
 10
41.2831119966
 20
51.3304277832
 30
0.0
 10
41.3194203409
 20
51.3210581754
 30
0.0
 10
41.3731655818
 20
51.3114192639
 30
0.0
 10
41.4386068607
 20
51.3034893022
 30
0.0
 10
41.54199539
 20
51.2950951826
 30
0.0
 10
41.623502424
 20
51.2926307414
 30
0.0
 10
41.6796721092
 20
51.2924024144
 30
0.0
  0
SPLINE
  5
471
100
AcDbEntity
  8
0
100
AcDbSpline
 62
7
  6
CONTINUOUS
 70
0
 71
3
 72
15
 73
11
 74
0
 42
0.0000001
 43
0.0000001
 44
0.0000000001
 40
0.0
 40
0.0
 40
0.0
 40
0.0
 40
0.3752984659
 40
0.5435170116
 40
0.690930496
 40
0.8125278535
 40
0.9047770363
 40
0.9391999639
 40
0.9659626957
 40
1.0
 40
1.0
 40
1.0
 40
1.0
 10
41.7169227885
 20
51.2924820713
 30
0.0
 10
41.7717435179
 20
51.292938834
 30
0.0
 10
41.8511583589
 20
51.2956311183
 30
0.0
 10
41.951744908
 20
51.3041780648
 30
0.0
 10
42.015136484
 20
51.3121163812
 30
0.0
 10
42.0670954196
 20
51.321677062
 30
0.0
 10
42.1021605368
 20
51.3309331339
 30
0.0
 10
42.1230130872
 20
51.3397472554
 30
0.0
 10
42.1347765202
 20
51.3464276278
 30
0.0
 10
42.1418764812
 20
51.3541554272
 30
0.0
 10
42.1418764812
 20
51.3591275089
 30
0.0
  0
SPLINE
  5
472
100
AcDbEntity
  8
0
100
AcDbSpline
 62
7
  6
CONTINUOUS
 70
0
 71
3
 72
14
 73
10
 74
0
 42
0.0000001
 43
0.0000001
 44
0.0000000001
 40
0.0
 40
0.0
 40
0.0
 40
0.0
 40
0.0337389339
 40
0.0606617927
 40
0.0954198511
 40
0.188667312
 40
0.3113527574
 40
0.6280350646
 40
1.0
 40
1.0
 40
1.0
 40
1.0
 10
42.1418764812
 20
51.3591275089
 30
0.0
 10
42.1418764812
 20
51.3643366861
 30
0.0
 10
42.1341399606
 20
51.3723558826
 30
0.0
 10
42.1216011385
 20
51.3792080281
 30
0.0
 10
42.0992022819
 20
51.388306204
 30
0.0
 10
42.061693179
 20
51.3977849094
 30
0.0
 10
41.9805879978
 20
51.4119244362
 30
0.0
 10
41.8556495427
 20
51.4228706379
 30
0.0
 10
41.7493166648
 20
51.4258792209
 30
0.0
 10
41.6918865378
 20
51.4258792209
 30
0.0
  0
SPLINE
  5
473
100
AcDbEntity
  8
0
100
AcDbSpline
 62
7
  6
CONTINUOUS
 70
0
 71
3
 72
14
 73
10
 74
0
 42
0.0000001
 43
0.0000001
 44
0.0000000001
 40
0.0
 40
0.0
 40
0.0
 40
0.0
 40
0.3719649354
 40
0.6886472426
 40
0.811332688
 40
0.9045801489
 40
0.9393382073
 40
0.9662610661
 40
1.0
 40
1.0
 40
1.0
 40
1.0
 10
41.6918865378
 20
51.4258792209
 30
0.0
 10
41.6344564108
 20
51.4258792209
 30
0.0
 10
41.5281235328
 20
51.4228706379
 30
0.0
 10
41.4031850778
 20
51.4119244362
 30
0.0
 10
41.3220798966
 20
51.3977849094
 30
0.0
 10
41.2845707936
 20
51.388306204
 30
0.0
 10
41.2621719371
 20
51.3792080281
 30
0.0
 10
41.249633115
 20
51.3723558826
 30
0.0
 10
41.2418965944
 20
51.3643366861
 30
0.0
 10
41.2418965944
 20
51.3591275089
 30
0.0
  0
SPLINE
  5
474
100
AcDbEntity
  8
0
100
AcDbSpline
 62
7
  6
CONTINUOUS
 70
0
 71
3
 72
15
 73
11
 74
0
 42
0.0000001
 43
0.0000001
 44
0.0000000001
 40
0.0
 40
0.0
 40
0.0
 40
0.0
 40
0.0338759296
 40
0.060714364
 40
0.0953000485
 40
0.1880349945
 40
0.3101914529
 40
0.4580616665
 40
0.6263882577
 40
1.0
 40
1.0
 40
1.0
 40
1.0
 10
43.0418965944
 20
51.6558084147
 30
0.0
 10
43.0418965944
 20
51.6507153842
 30
0.0
 10
43.0493188249
 20
51.6428376455
 30
0.0
 10
43.0614765391
 20
51.6360689162
 30
0.0
 10
43.0831119966
 20
51.6271086891
 30
0.0
 10
43.1194203409
 20
51.6177390813
 30
0.0
 10
43.1731655817
 20
51.6081001697
 30
0.0
 10
43.2386068607
 20
51.600170208
 30
0.0
 10
43.34199539
 20
51.5917760885
 30
0.0
 10
43.423502424
 20
51.5893116473
 30
0.0
 10
43.4796721092
 20
51.5890833203
 30
0.0
  0
SPLINE
  5
475
100
AcDbEntity
  8
0
100
AcDbSpline
 62
7
  6
CONTINUOUS
 70
0
 71
3
 72
15
 73
11
 74
0
 42
0.0000001
 43
0.0000001
 44
0.0000000001
 40
0.0
 40
0.0
 40
0.0
 40
0.0
 40
0.375298466
 40
0.5435170116
 40
0.690930496
 40
0.8125278535
 40
0.9047770363
 40
0.9391999639
 40
0.9659626957
 40
1.0
 40
1.0
 40
1.0
 40
1.0
 10
43.5169227885
 20
51.5891629772
 30
0.0
 10
43.571743518
 20
51.5896197399
 30
0.0
 10
43.6511583589
 20
51.5923120242
 30
0.0
 10
43.751744908
 20
51.6008589707
 30
0.0
 10
43.815136484
 20
51.608797287
 30
0.0
 10
43.8670954196
 20
51.6183579679
 30
0.0
 10
43.9021605368
 20
51.6276140398
 30
0.0
 10
43.9230130872
 20
51.6364281612
 30
0.0
 10
43.9347765202
 20
51.6431085336
 30
0.0
 10
43.9418764812
 20
51.6508363331
 30
0.0
 10
43.9418764812
 20
51.6558084147
 30
0.0
  0
SPLINE
  5
476
100
AcDbEntity
  8
0
100
AcDbSpline
 62
7
  6
CONTINUOUS
 70
0
 71
3
 72
14
 73
10
 74
0
 42
0.0000001
 43
0.0000001
 44
0.0000000001
 40
0.0
 40
0.0
 40
0.0
 40
0.0
 40
0.0337389339
 40
0.0606617927
 40
0.0954198511
 40
0.188667312
 40
0.3113527574
 40
0.6280350646
 40
1.0
 40
1.0
 40
1.0
 40
1.0
 10
43.9418764812
 20
51.6558084147
 30
0.0
 10
43.9418764812
 20
51.6610175919
 30
0.0
 10
43.9341399606
 20
51.6690367884
 30
0.0
 10
43.9216011385
 20
51.675888934
 30
0.0
 10
43.8992022819
 20
51.6849871099
 30
0.0
 10
43.861693179
 20
51.6944658153
 30
0.0
 10
43.7805879978
 20
51.708605342
 30
0.0
 10
43.6556495427
 20
51.7195515438
 30
0.0
 10
43.5493166648
 20
51.7225601268
 30
0.0
 10
43.4918865378
 20
51.7225601268
 30
0.0
  0
SPLINE
  5
477
100
AcDbEntity
  8
0
100
AcDbSpline
 62
7
  6
CONTINUOUS
 70
0
 71
3
 72
14
 73
10
 74
0
 42
0.0000001
 43
0.0000001
 44
0.0000000001
 40
0.0
 40
0.0
 40
0.0
 40
0.0
 40
0.3719649354
 40
0.6886472426
 40
0.811332688
 40
0.9045801489
 40
0.9393382073
 40
0.9662610661
 40
1.0
 40
1.0
 40
1.0
 40
1.0
 10
43.4918865378
 20
51.7225601268
 30
0.0
 10
43.4344564108
 20
51.7225601268
 30
0.0
 10
43.3281235328
 20
51.7195515438
 30
0.0
 10
43.2031850778
 20
51.708605342
 30
0.0
 10
43.1220798966
 20
51.6944658153
 30
0.0
 10
43.0845707936
 20
51.6849871099
 30
0.0
 10
43.0621719371
 20
51.675888934
 30
0.0
 10
43.049633115
 20
51.6690367884
 30
0.0
 10
43.0418965944
 20
51.6610175919
 30
0.0
 10
43.0418965944
 20
51.6558084147
 30
0.0
  0
SPLINE
  5
478
100
AcDbEntity
  8
0
100
AcDbSpline
 62
7
  6
CONTINUOUS
 70
0
 71
3
 72
16
 73
12
 74
0
 42
0.0000001
 43
0.0000001
 44
0.0000000001
 40
0.0
 40
0.0
 40
0.0
 40
0.0
 40
0.0337382432
 40
0.0606516691
 40
0.0954289241
 40
0.1381517457
 40
0.1886217267
 40
0.3114053711
 40
0.4596404343
 40
0.6280664072
 40
1.0
 40
1.0
 40
1.0
 40
1.0
 10
46.2418865378
 20
51.3591275089
 30
0.0
 10
46.2418865378
 20
51.3678107398
 30
0.0
 10
46.2547336039
 20
51.3812103123
 30
0.0
 10
46.2756532912
 20
51.3926125444
 30
0.0
 10
46.3008362448
 20
51.4028494554
 30
0.0
 10
46.3322793631
 20
51.4124284327
 30
0.0
 10
46.3863446979
 20
51.4256060436
 30
0.0
 10
46.4679432357
 20
51.4396465971
 30
0.0
 10
46.580294137
 20
51.4529729299
 30
0.0
 10
46.7570240978
 20
51.4666203044
 30
0.0
 10
46.8961617767
 20
51.4703828486
 30
0.0
 10
46.9918865378
 20
51.4703828486
 30
0.0
  0
SPLINE
  5
479
100
AcDbEntity
  8
0
100
AcDbSpline
 62
7
  6
CONTINUOUS
 70
0
 71
3
 72
16
 73
12
 74
0
 42
0.0000001
 43
0.0000001
 44
0.0000000001
 40
0.0
 40
0.0
 40
0.0
 40
0.0
 40
0.3719339302
 40
0.5403599585
 40
0.6885949613
 40
0.8113785385
 40
0.8618484625
 40
0.9045712121
 40
0.9393484218
 40
0.9662618049
 40
1.0
 40
1.0
 40
1.0
 40
1.0
 10
46.9918865378
 20
51.4703828486
 30
0.0
 10
47.0876113873
 20
51.4703828486
 30
0.0
 10
47.2267491697
 20
51.4666202993
 30
0.0
 10
47.4034792174
 20
51.4529729025
 30
0.0
 10
47.5158301007
 20
51.4396465601
 30
0.0
 10
47.5974285907
 20
51.4256060004
 30
0.0
 10
47.6514938747
 20
51.412428391
 30
0.0
 10
47.6829369466
 20
51.4028494107
 30
0.0
 10
47.7081198598
 20
51.3926125173
 30
0.0
 10
47.7290395269
 20
51.3812103034
 30
0.0
 10
47.7418865378
 20
51.3678107275
 30
0.0
 10
47.7418865378
 20
51.3591275089
 30
0.0
  0
SPLINE
  5
47A
100
AcDbEntity
  8
0
100
AcDbSpline
 62
7
  6
CONTINUOUS
 70
0
 71
3
 72
16
 73
12
 74
0
 42
0.0000001
 43
0.0000001
 44
0.0000000001
 40
0.0
 40
0.0
 40
0.0
 40
0.0
 40
0.0337382432
 40
0.0606516691
 40
0.0954289241
 40
0.1381517457
 40
0.1886217267
 40
0.3114053711
 40
0.4596404343
 40
0.6280664072
 40
1.0
 40
1.0
 40
1.0
 40
1.0
 10
44.4418865378
 20
51.6558084147
 30
0.0
 10
44.4418865378
 20
51.6644916457
 30
0.0
 10
44.4547336039
 20
51.6778912182
 30
0.0
 10
44.4756532912
 20
51.6892934502
 30
0.0
 10
44.5008362448
 20
51.6995303612
 30
0.0
 10
44.5322793631
 20
51.7091093386
 30
0.0
 10
44.5863446979
 20
51.7222869495
 30
0.0
 10
44.6679432357
 20
51.736327503
 30
0.0
 10
44.780294137
 20
51.7496538357
 30
0.0
 10
44.9570240978
 20
51.7633012102
 30
0.0
 10
45.0961617767
 20
51.7670637544
 30
0.0
 10
45.1918865378
 20
51.7670637544
 30
0.0
  0
SPLINE
  5
47B
100
AcDbEntity
  8
0
100
AcDbSpline
 62
7
  6
CONTINUOUS
 70
0
 71
3
 72
15
 73
11
 74
0
 42
0.0000001
 43
0.0000001
 44
0.0000000001
 40
0.0
 40
0.0
 40
0.0
 40
0.0
 40
0.0338759296
 40
0.060714364
 40
0.0953000485
 40
0.1880349945
 40
0.3101914529
 40
0.4580616665
 40
0.6263882577
 40
1.0
 40
1.0
 40
1.0
 40
1.0
 10
43.0418965944
 20
51.062446603
 30
0.0
 10
43.0418965944
 20
51.0573535724
 30
0.0
 10
43.0493188249
 20
51.0494758337
 30
0.0
 10
43.0614765391
 20
51.0427071045
 30
0.0
 10
43.0831119966
 20
51.0337468773
 30
0.0
 10
43.1194203409
 20
51.0243772696
 30
0.0
 10
43.1731655818
 20
51.014738358
 30
0.0
 10
43.2386068607
 20
51.0068083963
 30
0.0
 10
43.34199539
 20
50.9984142768
 30
0.0
 10
43.423502424
 20
50.9959498356
 30
0.0
 10
43.4796721092
 20
50.9957215085
 30
0.0
  0
SPLINE
  5
47C
100
AcDbEntity
  8
0
100
AcDbSpline
 62
7
  6
CONTINUOUS
 70
0
 71
3
 72
15
 73
11
 74
0
 42
0.0000001
 43
0.0000001
 44
0.0000000001
 40
0.0
 40
0.0
 40
0.0
 40
0.0
 40
0.3752984659
 40
0.5435170116
 40
0.690930496
 40
0.8125278535
 40
0.9047770363
 40
0.9391999639
 40
0.9659626957
 40
1.0
 40
1.0
 40
1.0
 40
1.0
 10
43.5169227885
 20
50.9958011654
 30
0.0
 10
43.571743518
 20
50.9962579282
 30
0.0
 10
43.6511583589
 20
50.9989502125
 30
0.0
 10
43.751744908
 20
51.007497159
 30
0.0
 10
43.815136484
 20
51.0154354753
 30
0.0
 10
43.8670954196
 20
51.0249961561
 30
0.0
 10
43.9021605368
 20
51.034252228
 30
0.0
 10
43.9230130872
 20
51.0430663495
 30
0.0
 10
43.9347765202
 20
51.0497467219
 30
0.0
 10
43.9418764812
 20
51.0574745214
 30
0.0
 10
43.9418764812
 20
51.062446603
 30
0.0
  0
SPLINE
  5
47D
100
AcDbEntity
  8
0
100
AcDbSpline
 62
7
  6
CONTINUOUS
 70
0
 71
3
 72
16
 73
12
 74
0
 42
0.0000001
 43
0.0000001
 44
0.0000000001
 40
0.0
 40
0.0
 40
0.0
 40
0.0
 40
0.3719339302
 40
0.5403599585
 40
0.6885949613
 40
0.8113785385
 40
0.8618484625
 40
0.9045712121
 40
0.9393484218
 40
0.9662618049
 40
1.0
 40
1.0
 40
1.0
 40
1.0
 10
45.1918865378
 20
51.7670637544
 30
0.0
 10
45.2876113873
 20
51.7670637544
 30
0.0
 10
45.4267491697
 20
51.7633012052
 30
0.0
 10
45.6034792174
 20
51.7496538083
 30
0.0
 10
45.7158301007
 20
51.736327466
 30
0.0
 10
45.7974285907
 20
51.7222869063
 30
0.0
 10
45.8514938747
 20
51.7091092969
 30
0.0
 10
45.8829369466
 20
51.6995303166
 30
0.0
 10
45.9081198598
 20
51.6892934232
 30
0.0
 10
45.9290395269
 20
51.6778912092
 30
0.0
 10
45.9418865378
 20
51.6644916334
 30
0.0
 10
45.9418865378
 20
51.6558084147
 30
0.0
  0
SPLINE
  5
47E
100
AcDbEntity
  8
0
100
AcDbSpline
 62
7
  6
CONTINUOUS
 70
0
 71
3
 72
16
 73
12
 74
0
 42
0.0000001
 43
0.0000001
 44
0.0000000001
 40
0.0
 40
0.0
 40
0.0
 40
0.0
 40
0.0337382432
 40
0.0606516691
 40
0.0954289241
 40
0.1381517457
 40
0.1886217267
 40
0.3114053711
 40
0.4596404343
 40
0.6280664072
 40
1.0
 40
1.0
 40
1.0
 40
1.0
 10
42.7418865378
 20
51.3591275089
 30
0.0
 10
42.7418865378
 20
51.3678107398
 30
0.0
 10
42.7547336039
 20
51.3812103123
 30
0.0
 10
42.7756532912
 20
51.3926125444
 30
0.0
 10
42.8008362448
 20
51.4028494554
 30
0.0
 10
42.8322793631
 20
51.4124284327
 30
0.0
 10
42.8863446979
 20
51.4256060436
 30
0.0
 10
42.9679432357
 20
51.4396465971
 30
0.0
 10
43.080294137
 20
51.4529729299
 30
0.0
 10
43.2570240978
 20
51.4666203044
 30
0.0
 10
43.3961617767
 20
51.4703828486
 30
0.0
 10
43.4918865378
 20
51.4703828486
 30
0.0
  0
SPLINE
  5
47F
100
AcDbEntity
  8
0
100
AcDbSpline
 62
7
  6
CONTINUOUS
 70
0
 71
3
 72
14
 73
10
 74
0
 42
0.0000001
 43
0.0000001
 44
0.0000000001
 40
0.0
 40
0.0
 40
0.0
 40
0.0
 40
0.0337389339
 40
0.0606617927
 40
0.0954198511
 40
0.188667312
 40
0.3113527574
 40
0.6280350646
 40
1.0
 40
1.0
 40
1.0
 40
1.0
 10
43.9418764812
 20
51.062446603
 30
0.0
 10
43.9418764812
 20
51.0676557802
 30
0.0
 10
43.9341399606
 20
51.0756749767
 30
0.0
 10
43.9216011385
 20
51.0825271223
 30
0.0
 10
43.8992022819
 20
51.0916252981
 30
0.0
 10
43.861693179
 20
51.1011040036
 30
0.0
 10
43.7805879978
 20
51.1152435303
 30
0.0
 10
43.6556495427
 20
51.1261897321
 30
0.0
 10
43.5493166648
 20
51.129198315
 30
0.0
 10
43.4918865378
 20
51.129198315
 30
0.0
  0
SPLINE
  5
480
100
AcDbEntity
  8
0
100
AcDbSpline
 62
7
  6
CONTINUOUS
 70
0
 71
3
 72
16
 73
12
 74
0
 42
0.0000001
 43
0.0000001
 44
0.0000000001
 40
0.0
 40
0.0
 40
0.0
 40
0.0
 40
0.3719339302
 40
0.5403599585
 40
0.6885949613
 40
0.8113785385
 40
0.8618484625
 40
0.9045712121
 40
0.9393484218
 40
0.9662618049
 40
1.0
 40
1.0
 40
1.0
 40
1.0
 10
43.4918865378
 20
51.4703828486
 30
0.0
 10
43.5876113873
 20
51.4703828486
 30
0.0
 10
43.7267491697
 20
51.4666202993
 30
0.0
 10
43.9034792174
 20
51.4529729025
 30
0.0
 10
44.0158301007
 20
51.4396465601
 30
0.0
 10
44.0974285907
 20
51.4256060004
 30
0.0
 10
44.1514938747
 20
51.412428391
 30
0.0
 10
44.1829369466
 20
51.4028494107
 30
0.0
 10
44.2081198598
 20
51.3926125173
 30
0.0
 10
44.2290395269
 20
51.3812103034
 30
0.0
 10
44.2418865378
 20
51.3678107275
 30
0.0
 10
44.2418865378
 20
51.3591275089
 30
0.0
  0
SPLINE
  5
481
100
AcDbEntity
  8
0
100
AcDbSpline
 62
7
  6
CONTINUOUS
 70
0
 71
3
 72
16
 73
12
 74
0
 42
0.0000001
 43
0.0000001
 44
0.0000000001
 40
0.0
 40
0.0
 40
0.0
 40
0.0
 40
0.0337382432
 40
0.0606516691
 40
0.0954289241
 40
0.1381517457
 40
0.1886217267
 40
0.3114053711
 40
0.4596404343
 40
0.6280664072
 40
1.0
 40
1.0
 40
1.0
 40
1.0
 10
42.7418865378
 20
51.9524893206
 30
0.0
 10
42.7418865378
 20
51.9611725515
 30
0.0
 10
42.7547336039
 20
51.974572124
 30
0.0
 10
42.7756532912
 20
51.9859743561
 30
0.0
 10
42.8008362448
 20
51.9962112671
 30
0.0
 10
42.8322793631
 20
52.0057902444
 30
0.0
 10
42.8863446979
 20
52.0189678553
 30
0.0
 10
42.9679432357
 20
52.0330084088
 30
0.0
 10
43.080294137
 20
52.0463347416
 30
0.0
 10
43.2570240978
 20
52.0599821161
 30
0.0
 10
43.3961617767
 20
52.0637446603
 30
0.0
 10
43.4918865378
 20
52.0637446603
 30
0.0
  0
SPLINE
  5
482
100
AcDbEntity
  8
0
100
AcDbSpline
 62
7
  6
CONTINUOUS
 70
0
 71
3
 72
14
 73
10
 74
0
 42
0.0000001
 43
0.0000001
 44
0.0000000001
 40
0.0
 40
0.0
 40
0.0
 40
0.0
 40
0.3719649354
 40
0.6886472426
 40
0.811332688
 40
0.9045801489
 40
0.9393382073
 40
0.9662610661
 40
1.0
 40
1.0
 40
1.0
 40
1.0
 10
43.4918865378
 20
51.129198315
 30
0.0
 10
43.4344564108
 20
51.129198315
 30
0.0
 10
43.3281235328
 20
51.1261897321
 30
0.0
 10
43.2031850778
 20
51.1152435303
 30
0.0
 10
43.1220798966
 20
51.1011040036
 30
0.0
 10
43.0845707936
 20
51.0916252981
 30
0.0
 10
43.0621719371
 20
51.0825271223
 30
0.0
 10
43.049633115
 20
51.0756749767
 30
0.0
 10
43.0418965944
 20
51.0676557802
 30
0.0
 10
43.0418965944
 20
51.062446603
 30
0.0
  0
SPLINE
  5
483
100
AcDbEntity
  8
0
100
AcDbSpline
 62
7
  6
CONTINUOUS
 70
0
 71
3
 72
16
 73
12
 74
0
 42
0.0000001
 43
0.0000001
 44
0.0000000001
 40
0.0
 40
0.0
 40
0.0
 40
0.0
 40
0.3719339302
 40
0.5403599585
 40
0.6885949613
 40
0.8113785385
 40
0.8618484625
 40
0.9045712121
 40
0.9393484218
 40
0.9662618049
 40
1.0
 40
1.0
 40
1.0
 40
1.0
 10
43.4918865378
 20
52.0637446603
 30
0.0
 10
43.5876113873
 20
52.0637446603
 30
0.0
 10
43.7267491697
 20
52.059982111
 30
0.0
 10
43.9034792174
 20
52.0463347142
 30
0.0
 10
44.0158301007
 20
52.0330083719
 30
0.0
 10
44.0974285907
 20
52.0189678121
 30
0.0
 10
44.1514938747
 20
52.0057902027
 30
0.0
 10
44.1829369466
 20
51.9962112224
 30
0.0
 10
44.2081198598
 20
51.985974329
 30
0.0
 10
44.2290395269
 20
51.9745721151
 30
0.0
 10
44.2418865378
 20
51.9611725393
 30
0.0
 10
44.2418865378
 20
51.9524893206
 30
0.0
  0
SPLINE
  5
484
100
AcDbEntity
  8
0
100
AcDbSpline
 62
7
  6
CONTINUOUS
 70
0
 71
3
 72
16
 73
12
 74
0
 42
0.0000001
 43
0.0000001
 44
0.0000000001
 40
0.0
 40
0.0
 40
0.0
 40
0.0
 40
0.0337382432
 40
0.0606516691
 40
0.0954289241
 40
0.1381517457
 40
0.1886217267
 40
0.3114053711
 40
0.4596404343
 40
0.6280664072
 40
1.0
 40
1.0
 40
1.0
 40
1.0
 10
40.9418865378
 20
51.6558084147
 30
0.0
 10
40.9418865378
 20
51.6644916457
 30
0.0
 10
40.9547336039
 20
51.6778912182
 30
0.0
 10
40.9756532912
 20
51.6892934502
 30
0.0
 10
41.0008362448
 20
51.6995303612
 30
0.0
 10
41.0322793631
 20
51.7091093386
 30
0.0
 10
41.0863446979
 20
51.7222869495
 30
0.0
 10
41.1679432357
 20
51.736327503
 30
0.0
 10
41.280294137
 20
51.7496538357
 30
0.0
 10
41.4570240978
 20
51.7633012102
 30
0.0
 10
41.5961617767
 20
51.7670637544
 30
0.0
 10
41.6918865378
 20
51.7670637544
 30
0.0
  0
SPLINE
  5
485
100
AcDbEntity
  8
0
100
AcDbSpline
 62
7
  6
CONTINUOUS
 70
0
 71
3
 72
16
 73
12
 74
0
 42
0.0000001
 43
0.0000001
 44
0.0000000001
 40
0.0
 40
0.0
 40
0.0
 40
0.0
 40
0.3719339302
 40
0.5403599585
 40
0.6885949613
 40
0.8113785385
 40
0.8618484625
 40
0.9045712121
 40
0.9393484218
 40
0.9662618049
 40
1.0
 40
1.0
 40
1.0
 40
1.0
 10
41.6918865378
 20
51.7670637544
 30
0.0
 10
41.7876113873
 20
51.7670637544
 30
0.0
 10
41.9267491697
 20
51.7633012052
 30
0.0
 10
42.1034792174
 20
51.7496538083
 30
0.0
 10
42.2158301007
 20
51.736327466
 30
0.0
 10
42.2974285907
 20
51.7222869063
 30
0.0
 10
42.3514938747
 20
51.7091092969
 30
0.0
 10
42.3829369466
 20
51.6995303166
 30
0.0
 10
42.4081198598
 20
51.6892934232
 30
0.0
 10
42.4290395269
 20
51.6778912092
 30
0.0
 10
42.4418865378
 20
51.6644916334
 30
0.0
 10
42.4418865378
 20
51.6558084147
 30
0.0
  0
SPLINE
  5
486
100
AcDbEntity
  8
0
100
AcDbSpline
 62
7
  6
CONTINUOUS
 70
0
 71
3
 72
16
 73
12
 74
0
 42
0.0000001
 43
0.0000001
 44
0.0000000001
 40
0.0
 40
0.0
 40
0.0
 40
0.0
 40
0.0337382432
 40
0.0606516691
 40
0.0954289241
 40
0.1381517457
 40
0.1886217267
 40
0.3114053711
 40
0.4596404343
 40
0.6280664072
 40
1.0
 40
1.0
 40
1.0
 40
1.0
 10
39.2418865378
 20
51.3591275089
 30
0.0
 10
39.2418865378
 20
51.3678107398
 30
0.0
 10
39.2547336039
 20
51.3812103123
 30
0.0
 10
39.2756532912
 20
51.3926125444
 30
0.0
 10
39.3008362448
 20
51.4028494554
 30
0.0
 10
39.3322793631
 20
51.4124284327
 30
0.0
 10
39.3863446979
 20
51.4256060436
 30
0.0
 10
39.4679432357
 20
51.4396465971
 30
0.0
 10
39.580294137
 20
51.4529729299
 30
0.0
 10
39.7570240978
 20
51.4666203044
 30
0.0
 10
39.8961617767
 20
51.4703828486
 30
0.0
 10
39.9918865378
 20
51.4703828486
 30
0.0
  0
SPLINE
  5
487
100
AcDbEntity
  8
0
100
AcDbSpline
 62
7
  6
CONTINUOUS
 70
0
 71
3
 72
15
 73
11
 74
0
 42
0.0000001
 43
0.0000001
 44
0.0000000001
 40
0.0
 40
0.0
 40
0.0
 40
0.0
 40
0.0338759296
 40
0.060714364
 40
0.0953000485
 40
0.1880349945
 40
0.3101914529
 40
0.4580616665
 40
0.6263882577
 40
1.0
 40
1.0
 40
1.0
 40
1.0
 10
44.7418965944
 20
51.3591275089
 30
0.0
 10
44.7418965944
 20
51.3540344783
 30
0.0
 10
44.7493188249
 20
51.3461567396
 30
0.0
 10
44.7614765391
 20
51.3393880103
 30
0.0
 10
44.7831119966
 20
51.3304277832
 30
0.0
 10
44.8194203409
 20
51.3210581754
 30
0.0
 10
44.8731655818
 20
51.3114192639
 30
0.0
 10
44.9386068607
 20
51.3034893022
 30
0.0
 10
45.04199539
 20
51.2950951826
 30
0.0
 10
45.123502424
 20
51.2926307414
 30
0.0
 10
45.1796721092
 20
51.2924024144
 30
0.0
  0
SPLINE
  5
488
100
AcDbEntity
  8
0
100
AcDbSpline
 62
7
  6
CONTINUOUS
 70
0
 71
3
 72
15
 73
11
 74
0
 42
0.0000001
 43
0.0000001
 44
0.0000000001
 40
0.0
 40
0.0
 40
0.0
 40
0.0
 40
0.3752984659
 40
0.5435170116
 40
0.690930496
 40
0.8125278535
 40
0.9047770363
 40
0.9391999639
 40
0.9659626957
 40
1.0
 40
1.0
 40
1.0
 40
1.0
 10
45.2169227885
 20
51.2924820713
 30
0.0
 10
45.2717435179
 20
51.292938834
 30
0.0
 10
45.3511583589
 20
51.2956311183
 30
0.0
 10
45.451744908
 20
51.3041780648
 30
0.0
 10
45.515136484
 20
51.3121163812
 30
0.0
 10
45.5670954196
 20
51.321677062
 30
0.0
 10
45.6021605368
 20
51.3309331339
 30
0.0
 10
45.6230130872
 20
51.3397472554
 30
0.0
 10
45.6347765202
 20
51.3464276278
 30
0.0
 10
45.6418764812
 20
51.3541554272
 30
0.0
 10
45.6418764812
 20
51.3591275089
 30
0.0
  0
SPLINE
  5
489
100
AcDbEntity
  8
0
100
AcDbSpline
 62
7
  6
CONTINUOUS
 70
0
 71
3
 72
16
 73
12
 74
0
 42
0.0000001
 43
0.0000001
 44
0.0000000001
 40
0.0
 40
0.0
 40
0.0
 40
0.0
 40
0.3719339302
 40
0.5403599585
 40
0.6885949613
 40
0.8113785385
 40
0.8618484625
 40
0.9045712121
 40
0.9393484218
 40
0.9662618049
 40
1.0
 40
1.0
 40
1.0
 40
1.0
 10
39.9918865378
 20
51.4703828486
 30
0.0
 10
40.0876113873
 20
51.4703828486
 30
0.0
 10
40.2267491697
 20
51.4666202993
 30
0.0
 10
40.4034792174
 20
51.4529729025
 30
0.0
 10
40.5158301007
 20
51.4396465601
 30
0.0
 10
40.5974285907
 20
51.4256060004
 30
0.0
 10
40.6514938747
 20
51.412428391
 30
0.0
 10
40.6829369466
 20
51.4028494107
 30
0.0
 10
40.7081198598
 20
51.3926125173
 30
0.0
 10
40.7290395269
 20
51.3812103034
 30
0.0
 10
40.7418865378
 20
51.3678107275
 30
0.0
 10
40.7418865378
 20
51.3591275089
 30
0.0
  0
SPLINE
  5
48A
100
AcDbEntity
  8
0
100
AcDbSpline
 62
7
  6
CONTINUOUS
 70
0
 71
3
 72
16
 73
12
 74
0
 42
0.0000001
 43
0.0000001
 44
0.0000000001
 40
0.0
 40
0.0
 40
0.0
 40
0.0
 40
0.0337382432
 40
0.0606516691
 40
0.0954289241
 40
0.1381517457
 40
0.1886217267
 40
0.3114053711
 40
0.4596404343
 40
0.6280664072
 40
1.0
 40
1.0
 40
1.0
 40
1.0
 10
37.4418865378
 20
51.6558084147
 30
0.0
 10
37.4418865378
 20
51.6644916457
 30
0.0
 10
37.4547336039
 20
51.6778912182
 30
0.0
 10
37.4756532912
 20
51.6892934502
 30
0.0
 10
37.5008362448
 20
51.6995303612
 30
0.0
 10
37.5322793631
 20
51.7091093386
 30
0.0
 10
37.5863446979
 20
51.7222869495
 30
0.0
 10
37.6679432357
 20
51.736327503
 30
0.0
 10
37.780294137
 20
51.7496538357
 30
0.0
 10
37.9570240978
 20
51.7633012102
 30
0.0
 10
38.0961617767
 20
51.7670637544
 30
0.0
 10
38.1918865378
 20
51.7670637544
 30
0.0
  0
SPLINE
  5
48B
100
AcDbEntity
  8
0
100
AcDbSpline
 62
7
  6
CONTINUOUS
 70
0
 71
3
 72
14
 73
10
 74
0
 42
0.0000001
 43
0.0000001
 44
0.0000000001
 40
0.0
 40
0.0
 40
0.0
 40
0.0
 40
0.0337389339
 40
0.0606617927
 40
0.0954198511
 40
0.188667312
 40
0.3113527574
 40
0.6280350646
 40
1.0
 40
1.0
 40
1.0
 40
1.0
 10
45.6418764812
 20
51.3591275089
 30
0.0
 10
45.6418764812
 20
51.3643366861
 30
0.0
 10
45.6341399606
 20
51.3723558826
 30
0.0
 10
45.6216011385
 20
51.3792080281
 30
0.0
 10
45.5992022819
 20
51.388306204
 30
0.0
 10
45.561693179
 20
51.3977849094
 30
0.0
 10
45.4805879978
 20
51.4119244362
 30
0.0
 10
45.3556495427
 20
51.4228706379
 30
0.0
 10
45.2493166648
 20
51.4258792209
 30
0.0
 10
45.1918865378
 20
51.4258792209
 30
0.0
  0
SPLINE
  5
48C
100
AcDbEntity
  8
0
100
AcDbSpline
 62
7
  6
CONTINUOUS
 70
0
 71
3
 72
16
 73
12
 74
0
 42
0.0000001
 43
0.0000001
 44
0.0000000001
 40
0.0
 40
0.0
 40
0.0
 40
0.0
 40
0.3719339302
 40
0.5403599585
 40
0.6885949613
 40
0.8113785385
 40
0.8618484625
 40
0.9045712121
 40
0.9393484218
 40
0.9662618049
 40
1.0
 40
1.0
 40
1.0
 40
1.0
 10
38.1918865378
 20
51.7670637544
 30
0.0
 10
38.2876113873
 20
51.7670637544
 30
0.0
 10
38.4267491697
 20
51.7633012052
 30
0.0
 10
38.6034792174
 20
51.7496538083
 30
0.0
 10
38.7158301007
 20
51.736327466
 30
0.0
 10
38.7974285907
 20
51.7222869063
 30
0.0
 10
38.8514938747
 20
51.7091092969
 30
0.0
 10
38.8829369466
 20
51.6995303166
 30
0.0
 10
38.9081198598
 20
51.6892934232
 30
0.0
 10
38.9290395269
 20
51.6778912092
 30
0.0
 10
38.9418865378
 20
51.6644916334
 30
0.0
 10
38.9418865378
 20
51.6558084147
 30
0.0
  0
SPLINE
  5
48D
100
AcDbEntity
  8
0
100
AcDbSpline
 62
7
  6
CONTINUOUS
 70
0
 71
3
 72
16
 73
12
 74
0
 42
0.0000001
 43
0.0000001
 44
0.0000000001
 40
0.0
 40
0.0
 40
0.0
 40
0.0
 40
0.0337382432
 40
0.0606516691
 40
0.0954289241
 40
0.1381517457
 40
0.1886217267
 40
0.3114053711
 40
0.4596404343
 40
0.6280664072
 40
1.0
 40
1.0
 40
1.0
 40
1.0
 10
39.2418865378
 20
51.9524893206
 30
0.0
 10
39.2418865378
 20
51.9611725515
 30
0.0
 10
39.2547336039
 20
51.974572124
 30
0.0
 10
39.2756532912
 20
51.9859743561
 30
0.0
 10
39.3008362448
 20
51.9962112671
 30
0.0
 10
39.3322793631
 20
52.0057902444
 30
0.0
 10
39.3863446979
 20
52.0189678553
 30
0.0
 10
39.4679432357
 20
52.0330084088
 30
0.0
 10
39.580294137
 20
52.0463347416
 30
0.0
 10
39.7570240978
 20
52.0599821161
 30
0.0
 10
39.8961617767
 20
52.0637446603
 30
0.0
 10
39.9918865378
 20
52.0637446603
 30
0.0
  0
SPLINE
  5
48E
100
AcDbEntity
  8
0
100
AcDbSpline
 62
7
  6
CONTINUOUS
 70
0
 71
3
 72
14
 73
10
 74
0
 42
0.0000001
 43
0.0000001
 44
0.0000000001
 40
0.0
 40
0.0
 40
0.0
 40
0.0
 40
0.3719649354
 40
0.6886472426
 40
0.811332688
 40
0.9045801489
 40
0.9393382073
 40
0.9662610661
 40
1.0
 40
1.0
 40
1.0
 40
1.0
 10
45.1918865378
 20
51.4258792209
 30
0.0
 10
45.1344564108
 20
51.4258792209
 30
0.0
 10
45.0281235328
 20
51.4228706379
 30
0.0
 10
44.9031850778
 20
51.4119244362
 30
0.0
 10
44.8220798966
 20
51.3977849094
 30
0.0
 10
44.7845707936
 20
51.388306204
 30
0.0
 10
44.7621719371
 20
51.3792080281
 30
0.0
 10
44.749633115
 20
51.3723558826
 30
0.0
 10
44.7418965944
 20
51.3643366861
 30
0.0
 10
44.7418965944
 20
51.3591275089
 30
0.0
  0
SPLINE
  5
48F
100
AcDbEntity
  8
0
100
AcDbSpline
 62
7
  6
CONTINUOUS
 70
0
 71
3
 72
16
 73
12
 74
0
 42
0.0000001
 43
0.0000001
 44
0.0000000001
 40
0.0
 40
0.0
 40
0.0
 40
0.0
 40
0.3719339302
 40
0.5403599585
 40
0.6885949613
 40
0.8113785385
 40
0.8618484625
 40
0.9045712121
 40
0.9393484218
 40
0.9662618049
 40
1.0
 40
1.0
 40
1.0
 40
1.0
 10
39.9918865378
 20
52.0637446603
 30
0.0
 10
40.0876113873
 20
52.0637446603
 30
0.0
 10
40.2267491697
 20
52.059982111
 30
0.0
 10
40.4034792174
 20
52.0463347142
 30
0.0
 10
40.5158301007
 20
52.0330083719
 30
0.0
 10
40.5974285907
 20
52.0189678121
 30
0.0
 10
40.6514938747
 20
52.0057902027
 30
0.0
 10
40.6829369466
 20
51.9962112224
 30
0.0
 10
40.7081198598
 20
51.985974329
 30
0.0
 10
40.7290395269
 20
51.9745721151
 30
0.0
 10
40.7418865378
 20
51.9611725393
 30
0.0
 10
40.7418865378
 20
51.9524893206
 30
0.0
  0
SPLINE
  5
490
100
AcDbEntity
  8
0
100
AcDbSpline
 62
7
  6
CONTINUOUS
 70
0
 71
3
 72
16
 73
12
 74
0
 42
0.0000001
 43
0.0000001
 44
0.0000000001
 40
0.0
 40
0.0
 40
0.0
 40
0.0
 40
0.0337382432
 40
0.0606516691
 40
0.0954289241
 40
0.1381517457
 40
0.1886217267
 40
0.3114053711
 40
0.4596404343
 40
0.6280664072
 40
1.0
 40
1.0
 40
1.0
 40
1.0
 10
35.7418865378
 20
51.9524893206
 30
0.0
 10
35.7418865378
 20
51.9611725515
 30
0.0
 10
35.7547336039
 20
51.974572124
 30
0.0
 10
35.7756532912
 20
51.9859743561
 30
0.0
 10
35.8008362448
 20
51.9962112671
 30
0.0
 10
35.8322793631
 20
52.0057902444
 30
0.0
 10
35.8863446979
 20
52.0189678553
 30
0.0
 10
35.9679432357
 20
52.0330084088
 30
0.0
 10
36.080294137
 20
52.0463347416
 30
0.0
 10
36.2570240978
 20
52.0599821161
 30
0.0
 10
36.3961617767
 20
52.0637446603
 30
0.0
 10
36.4918865378
 20
52.0637446603
 30
0.0
  0
SPLINE
  5
491
100
AcDbEntity
  8
0
100
AcDbSpline
 62
7
  6
CONTINUOUS
 70
0
 71
3
 72
16
 73
12
 74
0
 42
0.0000001
 43
0.0000001
 44
0.0000000001
 40
0.0
 40
0.0
 40
0.0
 40
0.0
 40
0.3719339302
 40
0.5403599585
 40
0.6885949613
 40
0.8113785385
 40
0.8618484625
 40
0.9045712121
 40
0.9393484218
 40
0.9662618049
 40
1.0
 40
1.0
 40
1.0
 40
1.0
 10
36.4918865378
 20
52.0637446603
 30
0.0
 10
36.5876113873
 20
52.0637446603
 30
0.0
 10
36.7267491697
 20
52.059982111
 30
0.0
 10
36.9034792174
 20
52.0463347142
 30
0.0
 10
37.0158301007
 20
52.0330083719
 30
0.0
 10
37.0974285907
 20
52.0189678121
 30
0.0
 10
37.1514938747
 20
52.0057902027
 30
0.0
 10
37.1829369466
 20
51.9962112224
 30
0.0
 10
37.2081198598
 20
51.985974329
 30
0.0
 10
37.2290395269
 20
51.9745721151
 30
0.0
 10
37.2418865378
 20
51.9611725393
 30
0.0
 10
37.2418865378
 20
51.9524893206
 30
0.0
  0
SPLINE
  5
492
100
AcDbEntity
  8
0
100
AcDbSpline
 62
7
  6
CONTINUOUS
 70
0
 71
3
 72
16
 73
12
 74
0
 42
0.0000001
 43
0.0000001
 44
0.0000000001
 40
0.0
 40
0.0
 40
0.0
 40
0.0
 40
0.0337382432
 40
0.0606516691
 40
0.0954289241
 40
0.1381517457
 40
0.1886217267
 40
0.3114053711
 40
0.4596404343
 40
0.6280664072
 40
1.0
 40
1.0
 40
1.0
 40
1.0
 10
35.7418865378
 20
51.3591275089
 30
0.0
 10
35.7418865378
 20
51.3678107398
 30
0.0
 10
35.7547336039
 20
51.3812103123
 30
0.0
 10
35.7756532912
 20
51.3926125444
 30
0.0
 10
35.8008362448
 20
51.4028494554
 30
0.0
 10
35.8322793631
 20
51.4124284327
 30
0.0
 10
35.8863446979
 20
51.4256060436
 30
0.0
 10
35.9679432357
 20
51.4396465971
 30
0.0
 10
36.080294137
 20
51.4529729299
 30
0.0
 10
36.2570240978
 20
51.4666203044
 30
0.0
 10
36.3961617767
 20
51.4703828486
 30
0.0
 10
36.4918865378
 20
51.4703828486
 30
0.0
  0
SPLINE
  5
493
100
AcDbEntity
  8
0
100
AcDbSpline
 62
7
  6
CONTINUOUS
 70
0
 71
3
 72
15
 73
11
 74
0
 42
0.0000001
 43
0.0000001
 44
0.0000000001
 40
0.0
 40
0.0
 40
0.0
 40
0.0
 40
0.0338759296
 40
0.060714364
 40
0.0953000485
 40
0.1880349945
 40
0.3101914529
 40
0.4580616665
 40
0.6263882577
 40
1.0
 40
1.0
 40
1.0
 40
1.0
 10
46.5418965944
 20
51.062446603
 30
0.0
 10
46.5418965944
 20
51.0573535724
 30
0.0
 10
46.5493188249
 20
51.0494758337
 30
0.0
 10
46.5614765391
 20
51.0427071045
 30
0.0
 10
46.5831119966
 20
51.0337468773
 30
0.0
 10
46.6194203409
 20
51.0243772696
 30
0.0
 10
46.6731655818
 20
51.014738358
 30
0.0
 10
46.7386068607
 20
51.0068083963
 30
0.0
 10
46.84199539
 20
50.9984142768
 30
0.0
 10
46.923502424
 20
50.9959498356
 30
0.0
 10
46.9796721092
 20
50.9957215085
 30
0.0
  0
SPLINE
  5
494
100
AcDbEntity
  8
0
100
AcDbSpline
 62
7
  6
CONTINUOUS
 70
0
 71
3
 72
15
 73
11
 74
0
 42
0.0000001
 43
0.0000001
 44
0.0000000001
 40
0.0
 40
0.0
 40
0.0
 40
0.0
 40
0.3752984659
 40
0.5435170116
 40
0.690930496
 40
0.8125278535
 40
0.9047770363
 40
0.9391999639
 40
0.9659626957
 40
1.0
 40
1.0
 40
1.0
 40
1.0
 10
47.0169227885
 20
50.9958011654
 30
0.0
 10
47.071743518
 20
50.9962579282
 30
0.0
 10
47.1511583589
 20
50.9989502125
 30
0.0
 10
47.251744908
 20
51.007497159
 30
0.0
 10
47.315136484
 20
51.0154354753
 30
0.0
 10
47.3670954196
 20
51.0249961561
 30
0.0
 10
47.4021605368
 20
51.034252228
 30
0.0
 10
47.4230130872
 20
51.0430663495
 30
0.0
 10
47.4347765202
 20
51.0497467219
 30
0.0
 10
47.4418764812
 20
51.0574745214
 30
0.0
 10
47.4418764812
 20
51.062446603
 30
0.0
  0
SPLINE
  5
495
100
AcDbEntity
  8
0
100
AcDbSpline
 62
7
  6
CONTINUOUS
 70
0
 71
3
 72
16
 73
12
 74
0
 42
0.0000001
 43
0.0000001
 44
0.0000000001
 40
0.0
 40
0.0
 40
0.0
 40
0.0
 40
0.3719339302
 40
0.5403599585
 40
0.6885949613
 40
0.8113785385
 40
0.8618484625
 40
0.9045712121
 40
0.9393484218
 40
0.9662618049
 40
1.0
 40
1.0
 40
1.0
 40
1.0
 10
36.4918865378
 20
51.4703828486
 30
0.0
 10
36.5876113873
 20
51.4703828486
 30
0.0
 10
36.7267491697
 20
51.4666202993
 30
0.0
 10
36.9034792174
 20
51.4529729025
 30
0.0
 10
37.0158301007
 20
51.4396465601
 30
0.0
 10
37.0974285907
 20
51.4256060004
 30
0.0
 10
37.1514938747
 20
51.412428391
 30
0.0
 10
37.1829369466
 20
51.4028494107
 30
0.0
 10
37.2081198598
 20
51.3926125173
 30
0.0
 10
37.2290395269
 20
51.3812103034
 30
0.0
 10
37.2418865378
 20
51.3678107275
 30
0.0
 10
37.2418865378
 20
51.3591275089
 30
0.0
  0
SPLINE
  5
496
100
AcDbEntity
  8
0
100
AcDbSpline
 62
7
  6
CONTINUOUS
 70
0
 71
3
 72
16
 73
12
 74
0
 42
0.0000001
 43
0.0000001
 44
0.0000000001
 40
0.0
 40
0.0
 40
0.0
 40
0.0
 40
0.0337382432
 40
0.0606516691
 40
0.0954289241
 40
0.1381517457
 40
0.1886217267
 40
0.3114053711
 40
0.4596404343
 40
0.6280664072
 40
1.0
 40
1.0
 40
1.0
 40
1.0
 10
33.9418865378
 20
51.6558084147
 30
0.0
 10
33.9418865378
 20
51.6644916457
 30
0.0
 10
33.9547336039
 20
51.6778912182
 30
0.0
 10
33.9756532912
 20
51.6892934502
 30
0.0
 10
34.0008362448
 20
51.6995303612
 30
0.0
 10
34.0322793631
 20
51.7091093386
 30
0.0
 10
34.0863446979
 20
51.7222869495
 30
0.0
 10
34.1679432357
 20
51.736327503
 30
0.0
 10
34.280294137
 20
51.7496538357
 30
0.0
 10
34.4570240978
 20
51.7633012102
 30
0.0
 10
34.5961617767
 20
51.7670637544
 30
0.0
 10
34.6918865378
 20
51.7670637544
 30
0.0
  0
SPLINE
  5
497
100
AcDbEntity
  8
0
100
AcDbSpline
 62
7
  6
CONTINUOUS
 70
0
 71
3
 72
14
 73
10
 74
0
 42
0.0000001
 43
0.0000001
 44
0.0000000001
 40
0.0
 40
0.0
 40
0.0
 40
0.0
 40
0.0337389339
 40
0.0606617927
 40
0.0954198511
 40
0.188667312
 40
0.3113527574
 40
0.6280350646
 40
1.0
 40
1.0
 40
1.0
 40
1.0
 10
47.4418764812
 20
51.062446603
 30
0.0
 10
47.4418764812
 20
51.0676557802
 30
0.0
 10
47.4341399606
 20
51.0756749767
 30
0.0
 10
47.4216011385
 20
51.0825271223
 30
0.0
 10
47.3992022819
 20
51.0916252981
 30
0.0
 10
47.361693179
 20
51.1011040036
 30
0.0
 10
47.2805879978
 20
51.1152435303
 30
0.0
 10
47.1556495427
 20
51.1261897321
 30
0.0
 10
47.0493166648
 20
51.129198315
 30
0.0
 10
46.9918865378
 20
51.129198315
 30
0.0
  0
SPLINE
  5
498
100
AcDbEntity
  8
0
100
AcDbSpline
 62
7
  6
CONTINUOUS
 70
0
 71
3
 72
16
 73
12
 74
0
 42
0.0000001
 43
0.0000001
 44
0.0000000001
 40
0.0
 40
0.0
 40
0.0
 40
0.0
 40
0.3719339302
 40
0.5403599585
 40
0.6885949613
 40
0.8113785385
 40
0.8618484625
 40
0.9045712121
 40
0.9393484218
 40
0.9662618049
 40
1.0
 40
1.0
 40
1.0
 40
1.0
 10
34.6918865378
 20
51.7670637544
 30
0.0
 10
34.7876113873
 20
51.7670637544
 30
0.0
 10
34.9267491697
 20
51.7633012052
 30
0.0
 10
35.1034792174
 20
51.7496538083
 30
0.0
 10
35.2158301007
 20
51.736327466
 30
0.0
 10
35.2974285907
 20
51.7222869063
 30
0.0
 10
35.3514938747
 20
51.7091092969
 30
0.0
 10
35.3829369466
 20
51.6995303166
 30
0.0
 10
35.4081198598
 20
51.6892934232
 30
0.0
 10
35.4290395269
 20
51.6778912092
 30
0.0
 10
35.4418865378
 20
51.6644916334
 30
0.0
 10
35.4418865378
 20
51.6558084147
 30
0.0
  0
SPLINE
  5
499
100
AcDbEntity
  8
0
100
AcDbSpline
 62
7
  6
CONTINUOUS
 70
0
 71
3
 72
16
 73
12
 74
0
 42
0.0000001
 43
0.0000001
 44
0.0000000001
 40
0.0
 40
0.0
 40
0.0
 40
0.0
 40
0.0337382432
 40
0.0606516691
 40
0.0954289241
 40
0.1381517457
 40
0.1886217267
 40
0.3114053711
 40
0.4596404343
 40
0.6280664072
 40
1.0
 40
1.0
 40
1.0
 40
1.0
 10
32.2418865378
 20
51.9524893206
 30
0.0
 10
32.2418865378
 20
51.9611725515
 30
0.0
 10
32.2547336039
 20
51.974572124
 30
0.0
 10
32.2756532912
 20
51.9859743561
 30
0.0
 10
32.3008362448
 20
51.9962112671
 30
0.0
 10
32.3322793631
 20
52.0057902444
 30
0.0
 10
32.3863446979
 20
52.0189678553
 30
0.0
 10
32.4679432357
 20
52.0330084088
 30
0.0
 10
32.580294137
 20
52.0463347416
 30
0.0
 10
32.7570240978
 20
52.0599821161
 30
0.0
 10
32.8961617767
 20
52.0637446603
 30
0.0
 10
32.9918865378
 20
52.0637446603
 30
0.0
  0
SPLINE
  5
49A
100
AcDbEntity
  8
0
100
AcDbSpline
 62
7
  6
CONTINUOUS
 70
0
 71
3
 72
14
 73
10
 74
0
 42
0.0000001
 43
0.0000001
 44
0.0000000001
 40
0.0
 40
0.0
 40
0.0
 40
0.0
 40
0.3719649354
 40
0.6886472426
 40
0.811332688
 40
0.9045801489
 40
0.9393382073
 40
0.9662610661
 40
1.0
 40
1.0
 40
1.0
 40
1.0
 10
46.9918865378
 20
51.129198315
 30
0.0
 10
46.9344564108
 20
51.129198315
 30
0.0
 10
46.8281235328
 20
51.1261897321
 30
0.0
 10
46.7031850778
 20
51.1152435303
 30
0.0
 10
46.6220798966
 20
51.1011040036
 30
0.0
 10
46.5845707936
 20
51.0916252981
 30
0.0
 10
46.5621719371
 20
51.0825271223
 30
0.0
 10
46.549633115
 20
51.0756749767
 30
0.0
 10
46.5418965944
 20
51.0676557802
 30
0.0
 10
46.5418965944
 20
51.062446603
 30
0.0
  0
SPLINE
  5
49B
100
AcDbEntity
  8
0
100
AcDbSpline
 62
7
  6
CONTINUOUS
 70
0
 71
3
 72
16
 73
12
 74
0
 42
0.0000001
 43
0.0000001
 44
0.0000000001
 40
0.0
 40
0.0
 40
0.0
 40
0.0
 40
0.3719339302
 40
0.5403599585
 40
0.6885949613
 40
0.8113785385
 40
0.8618484625
 40
0.9045712121
 40
0.9393484218
 40
0.9662618049
 40
1.0
 40
1.0
 40
1.0
 40
1.0
 10
32.9918865378
 20
52.0637446603
 30
0.0
 10
33.0876113873
 20
52.0637446603
 30
0.0
 10
33.2267491697
 20
52.059982111
 30
0.0
 10
33.4034792174
 20
52.0463347142
 30
0.0
 10
33.5158301007
 20
52.0330083719
 30
0.0
 10
33.5974285907
 20
52.0189678121
 30
0.0
 10
33.6514938747
 20
52.0057902027
 30
0.0
 10
33.6829369466
 20
51.9962112224
 30
0.0
 10
33.7081198598
 20
51.985974329
 30
0.0
 10
33.7290395269
 20
51.9745721151
 30
0.0
 10
33.7418865378
 20
51.9611725393
 30
0.0
 10
33.7418865378
 20
51.9524893206
 30
0.0
  0
SPLINE
  5
49C
100
AcDbEntity
  8
0
100
AcDbSpline
 62
7
  6
CONTINUOUS
 70
0
 71
3
 72
16
 73
12
 74
0
 42
0.0000001
 43
0.0000001
 44
0.0000000001
 40
0.0
 40
0.0
 40
0.0
 40
0.0
 40
0.0337382432
 40
0.0606516691
 40
0.0954289241
 40
0.1381517457
 40
0.1886217267
 40
0.3114053711
 40
0.4596404343
 40
0.6280664072
 40
1.0
 40
1.0
 40
1.0
 40
1.0
 10
30.4418865378
 20
51.6558084147
 30
0.0
 10
30.4418865378
 20
51.6644916457
 30
0.0
 10
30.4547336039
 20
51.6778912182
 30
0.0
 10
30.4756532912
 20
51.6892934502
 30
0.0
 10
30.5008362448
 20
51.6995303612
 30
0.0
 10
30.5322793631
 20
51.7091093386
 30
0.0
 10
30.5863446979
 20
51.7222869495
 30
0.0
 10
30.6679432357
 20
51.736327503
 30
0.0
 10
30.780294137
 20
51.7496538357
 30
0.0
 10
30.9570240978
 20
51.7633012102
 30
0.0
 10
31.0961617767
 20
51.7670637544
 30
0.0
 10
31.1918865378
 20
51.7670637544
 30
0.0
  0
SPLINE
  5
49D
100
AcDbEntity
  8
0
100
AcDbSpline
 62
7
  6
CONTINUOUS
 70
0
 71
3
 72
16
 73
12
 74
0
 42
0.0000001
 43
0.0000001
 44
0.0000000001
 40
0.0
 40
0.0
 40
0.0
 40
0.0
 40
0.3719339302
 40
0.5403599585
 40
0.6885949613
 40
0.8113785385
 40
0.8618484625
 40
0.9045712121
 40
0.9393484218
 40
0.9662618049
 40
1.0
 40
1.0
 40
1.0
 40
1.0
 10
31.1918865378
 20
51.7670637544
 30
0.0
 10
31.2876113873
 20
51.7670637544
 30
0.0
 10
31.4267491697
 20
51.7633012052
 30
0.0
 10
31.6034792174
 20
51.7496538083
 30
0.0
 10
31.7158301007
 20
51.736327466
 30
0.0
 10
31.7974285907
 20
51.7222869063
 30
0.0
 10
31.8514938747
 20
51.7091092969
 30
0.0
 10
31.8829369466
 20
51.6995303166
 30
0.0
 10
31.9081198598
 20
51.6892934232
 30
0.0
 10
31.9290395269
 20
51.6778912092
 30
0.0
 10
31.9418865378
 20
51.6644916334
 30
0.0
 10
31.9418865378
 20
51.6558084147
 30
0.0
  0
SPLINE
  5
49E
100
AcDbEntity
  8
0
100
AcDbSpline
 62
7
  6
CONTINUOUS
 70
0
 71
3
 72
16
 73
12
 74
0
 42
0.0000001
 43
0.0000001
 44
0.0000000001
 40
0.0
 40
0.0
 40
0.0
 40
0.0
 40
0.0337382432
 40
0.0606516691
 40
0.0954289241
 40
0.1381517457
 40
0.1886217267
 40
0.3114053711
 40
0.4596404343
 40
0.6280664072
 40
1.0
 40
1.0
 40
1.0
 40
1.0
 10
32.2418865378
 20
51.3591275089
 30
0.0
 10
32.2418865378
 20
51.3678107398
 30
0.0
 10
32.2547336039
 20
51.3812103123
 30
0.0
 10
32.2756532912
 20
51.3926125444
 30
0.0
 10
32.3008362448
 20
51.4028494554
 30
0.0
 10
32.3322793631
 20
51.4124284327
 30
0.0
 10
32.3863446979
 20
51.4256060436
 30
0.0
 10
32.4679432357
 20
51.4396465971
 30
0.0
 10
32.580294137
 20
51.4529729299
 30
0.0
 10
32.7570240978
 20
51.4666203044
 30
0.0
 10
32.8961617767
 20
51.4703828486
 30
0.0
 10
32.9918865378
 20
51.4703828486
 30
0.0
  0
SPLINE
  5
49F
100
AcDbEntity
  8
0
100
AcDbSpline
 62
7
  6
CONTINUOUS
 70
0
 71
3
 72
16
 73
12
 74
0
 42
0.0000001
 43
0.0000001
 44
0.0000000001
 40
0.0
 40
0.0
 40
0.0
 40
0.0
 40
0.3719339302
 40
0.5403599585
 40
0.6885949613
 40
0.8113785385
 40
0.8618484625
 40
0.9045712121
 40
0.9393484218
 40
0.9662618049
 40
1.0
 40
1.0
 40
1.0
 40
1.0
 10
32.9918865378
 20
51.4703828486
 30
0.0
 10
33.0876113873
 20
51.4703828486
 30
0.0
 10
33.2267491697
 20
51.4666202993
 30
0.0
 10
33.4034792174
 20
51.4529729025
 30
0.0
 10
33.5158301007
 20
51.4396465601
 30
0.0
 10
33.5974285907
 20
51.4256060004
 30
0.0
 10
33.6514938747
 20
51.412428391
 30
0.0
 10
33.6829369466
 20
51.4028494107
 30
0.0
 10
33.7081198598
 20
51.3926125173
 30
0.0
 10
33.7290395269
 20
51.3812103034
 30
0.0
 10
33.7418865378
 20
51.3678107275
 30
0.0
 10
33.7418865378
 20
51.3591275089
 30
0.0
  0
SPLINE
  5
4A0
100
AcDbEntity
  8
0
100
AcDbSpline
 62
7
  6
CONTINUOUS
 70
0
 71
3
 72
16
 73
12
 74
0
 42
0.0000001
 43
0.0000001
 44
0.0000000001
 40
0.0
 40
0.0
 40
0.0
 40
0.0
 40
0.0337382432
 40
0.0606516691
 40
0.0954289241
 40
0.1381517457
 40
0.1886217267
 40
0.3114053711
 40
0.4596404343
 40
0.6280664072
 40
1.0
 40
1.0
 40
1.0
 40
1.0
 10
28.7418865378
 20
51.3591275089
 30
0.0
 10
28.7418865378
 20
51.3678107398
 30
0.0
 10
28.7547336039
 20
51.3812103123
 30
0.0
 10
28.7756532912
 20
51.3926125444
 30
0.0
 10
28.8008362448
 20
51.4028494554
 30
0.0
 10
28.8322793631
 20
51.4124284327
 30
0.0
 10
28.8863446979
 20
51.4256060436
 30
0.0
 10
28.9679432357
 20
51.4396465971
 30
0.0
 10
29.080294137
 20
51.4529729299
 30
0.0
 10
29.2570240978
 20
51.4666203044
 30
0.0
 10
29.3961617767
 20
51.4703828486
 30
0.0
 10
29.4918865378
 20
51.4703828486
 30
0.0
  0
SPLINE
  5
4A1
100
AcDbEntity
  8
0
100
AcDbSpline
 62
7
  6
CONTINUOUS
 70
0
 71
3
 72
16
 73
12
 74
0
 42
0.0000001
 43
0.0000001
 44
0.0000000001
 40
0.0
 40
0.0
 40
0.0
 40
0.0
 40
0.3719339302
 40
0.5403599585
 40
0.6885949613
 40
0.8113785385
 40
0.8618484625
 40
0.9045712121
 40
0.9393484218
 40
0.9662618049
 40
1.0
 40
1.0
 40
1.0
 40
1.0
 10
29.4918865378
 20
51.4703828486
 30
0.0
 10
29.5876113873
 20
51.4703828486
 30
0.0
 10
29.7267491697
 20
51.4666202993
 30
0.0
 10
29.9034792174
 20
51.4529729025
 30
0.0
 10
30.0158301007
 20
51.4396465601
 30
0.0
 10
30.0974285907
 20
51.4256060004
 30
0.0
 10
30.1514938747
 20
51.412428391
 30
0.0
 10
30.1829369466
 20
51.4028494107
 30
0.0
 10
30.2081198598
 20
51.3926125173
 30
0.0
 10
30.2290395269
 20
51.3812103034
 30
0.0
 10
30.2418865378
 20
51.3678107275
 30
0.0
 10
30.2418865378
 20
51.3591275089
 30
0.0
  0
SPLINE
  5
4A2
100
AcDbEntity
  8
0
100
AcDbSpline
 62
7
  6
CONTINUOUS
 70
0
 71
3
 72
20
 73
16
 74
0
 42
0.0000001
 43
0.0000001
 44
0.0000000001
 40
0.0
 40
0.0
 40
0.0
 40
0.0
 40
0.1913732261
 40
0.3751002331
 40
0.5439258595
 40
0.69167111
 40
0.813097853
 40
0.8628449502
 40
0.9048361816
 40
0.93890589
 40
0.9653023321
 40
0.9758670417
 40
0.9849147767
 40
0.9927845313
 40
1.0
 40
1.0
 40
1.0
 40
1.0
 10
45.1918865378
 20
52.2001841985
 30
0.0
 10
45.3900841259
 20
52.2001801259
 30
0.0
 10
45.7785867247
 20
52.1943547263
 30
0.0
 10
46.3414158417
 20
52.1687575617
 30
0.0
 10
46.8580275102
 20
52.127256297
 30
0.0
 10
47.3084083597
 20
52.0721783326
 30
0.0
 10
47.6338717995
 20
52.0138890217
 30
0.0
 10
47.8480128553
 20
51.9598832784
 30
0.0
 10
47.9723204296
 20
51.9203682223
 30
0.0
 10
48.0703218973
 20
51.8793952241
 30
0.0
 10
48.1342991682
 20
51.842055705
 30
0.0
 10
48.1702952966
 20
51.8105948423
 30
0.0
 10
48.1883966033
 20
51.7883943962
 30
0.0
 10
48.19950242
 20
51.7656928299
 30
0.0
 10
48.2019161961
 20
51.7499373954
 30
0.0
 10
48.2017916877
 20
51.7424656606
 30
0.0
  0
ELLIPSE
  5
4A3
100
AcDbEntity
  8
0
100
AcDbEllipse
 62
7
  6
CONTINUOUS
 10
60.9418865378
 20
75.3802183167
 30
0.0
 11
0.0
 21
4.1460049589
 31
0.0
 40
0.9993900839
 41
-3.1415926536
 42
-2.7425819448
  0
ELLIPSE
  5
4A4
100
AcDbEntity
  8
0
100
AcDbEllipse
 62
7
  6
CONTINUOUS
 10
15.4418865378
 20
75.3802183167
 30
0.0
 11
0.0
 21
4.1460049589
 31
0.0
 40
0.9993900839
 41
-3.5406033624
 42
-3.1415926536
  0
ENDSEC
  0
SECTION
  2
OBJECTS
  0
DICTIONARY
  5
C
100
AcDbDictionary
280
0
281
1
  3
ACAD_GROUP
350
D
  3
ACAD_MLINESTYLE
350
17
  3
ACAD_LAYOUT
350
1A
  3
ACAD_PLOTSETTINGS
350
19
  3
ACAD_PLOTSTYLENAME
350
E
  0
DICTIONARY
  5
D
102
{ACAD_REACTORS
330
C
102
}
100
AcDbDictionary
280
0
281
1
  0
ACDBDICTIONARYWDFLT
  5
E
102
{ACAD_REACTORS
330
C
102
}
100
AcDbDictionary
281
1
  3
Normal
350
F
100
AcDbDictionaryWithDefault
340
F
  0
DICTIONARY
  5
17
102
{ACAD_REACTORS
330
C
102
}
100
AcDbDictionary
280
0
281
1
  3
Standard
350
18
  0
DICTIONARY
  5
19
102
{ACAD_REACTORS
330
C
102
}
100
AcDbDictionary
281
1
  0
DICTIONARY
  5
1A
102
{ACAD_REACTORS
330
C
102
}
100
AcDbDictionary
281
1
  3
Model
350
4A5
  3
Layout1
350
4A6
  0
ACDBPLACEHOLDER
  5
F
102
{ACAD_REACTORS
330
E
102
}
  0
MLINESTYLE
  5
18
102
{ACAD_REACTORS
330
17
102
}
100
AcDbMlineStyle
  2
STANDARD
 70
0
  3

 62
256
 51
90.0
 52
90.0
 71
2
 49
0.5
 62
256
  6
BYLAYER
 49
-0.5
 62
256
  6
BYLAYER
  0
LAYOUT
  5
4A5
102
{ACAD_REACTORS
330
1A
102
}
100
AcDbPlotSettings
  1

  2
none_device
  4

  6

 40
0.0
 41
0.0
 42
0.0
 43
0.0
 44
210.0
 45
297.0
 46
0.0
 47
0.0
 48
0.0
 49
0.0
140
0.0
141
0.0
142
1.0
143
1.0
 70
1024
 72
1
 73
0
 74
0
  7

 75
0
147
1.0
148
0.0
149
0.0
100
AcDbLayout
  1
Model
 70
0
 71
0
 10
0.0
 20
0.0
 11
210.0
 21
297.0
 12
0.0
 22
0.0
 32
0.0
 14
0.0
 24
0.0
 34
0.0
 15
0.0
 25
0.0
 35
0.0
146
0.0
 13
0.0
 23
0.0
 33
0.0
 16
1.0
 26
0.0
 36
0.0
 17
0.0
 27
1.0
 37
0.0
 76
0
330
210
345
0
346
0
  0
LAYOUT
  5
4A6
102
{ACAD_REACTORS
330
1A
102
}
100
AcDbPlotSettings
  1

  2
none_device
  4

  6

 40
0.0
 41
0.0
 42
0.0
 43
0.0
 44
210.0
 45
297.0
 46
0.0
 47
0.0
 48
0.0
 49
0.0
140
0.0
141
0.0
142
1.0
143
1.0
 70
0
 72
1
 73
0
 74
0
  7

 75
0
147
1.0
148
0.0
149
0.0
100
AcDbLayout
  1
Layout1
 70
0
 71
1
 10
0.0
 20
0.0
 11
210.0
 21
297.0
 12
0.0
 22
0.0
 32
0.0
 14
0.0
 24
0.0
 34
0.0
 15
0.0
 25
0.0
 35
0.0
146
0.0
 13
0.0
 23
0.0
 33
0.0
 16
1.0
 26
0.0
 36
0.0
 17
0.0
 27
1.0
 37
0.0
 76
0
330
211
345
0
346
0
  0
ENDSEC
  0
EOF
