999
DXF file: C:\Users\sesa63760\Dev\_Creo\CAD\MCADID0003711_3D-CAD\drw0001_4.dxf
999
Pro/ENGINEER 2019471 by Parametric Technology Corporation
  0
SECTION
  2
HEADER
  9
$ACADVER
  1
AC1024
  9
$DWGCODEPAGE
  3
ANSI_1252
  9
$EXTMAX
 10
42.3297631487
 20
59.8663793103
 30
0.0
  9
$EXTMIN
 10
0.0
 20
0.0
 30
0.0
  9
$LIMMIN
 10
0.0
 20
0.0
  9
$LIMMAX
 10
42.3297631487
 20
59.8663793103
  9
$VIEWCTR
 10
21.1648815744
 20
29.9331896552
  9
$VIEWSIZE
 40
59.8663793103
  9
$CLAYER
  8
0
  9
$LTSCALE
 40
3.9024010217
  9
$CELTYPE
  6
BYLAYER
  9
$DIMSCALE
 40
1.0
  9
$DIMASZ
 40
0.5039257518
  9
$DIMEXO
 40
1.0
  9
$DIMDLI
 40
2.6962043423
  9
$DIMEXE
 40
1.0
  9
$DIMCEN
 40
0.6385747126
  9
$DIMLFAC
 40
1.0
  9
$DIMBLK
  1
_FILLED
  9
$DIMALT
 70
0
  9
$DIMALTF
 40
0.0393700787
  9
$DIMTXT
 40
0.7054960525
  9
$DIMTOL
 70
1
  9
$DIMLIM
 70
0
  9
$DIMTFAC
 40
1.0
  9
$DIMTP
 40
0.01
  9
$DIMTM
 40
0.01
  9
$DIMGAP
 40
0.625
  9
$DIMDSEP
 70
46
  9
$AUNITS
 70
0
  9
$PDMODE
 70
3
  9
$PDSIZE
 40
0.3125
  9
$HANDSEED
  5
267
  9
$TILEMODE
 70
1
  9
$MEASUREMENT
 70
1
  9
$INSUNITS
 70
4
  0
ENDSEC
  0
SECTION
  2
CLASSES
  0
CLASS
  1
ACDBDICTIONARYWDFLT
  2
AcDbDictionaryWithDefault
  3
AutoCAD 2000
 90
0
 91
1
280
0
281
0
  0
CLASS
  1
ACDBPLACEHOLDER
  2
AcDbPlaceHolder
  3
AutoCAD 2000
 90
0
 91
1
280
0
281
0
  0
CLASS
  1
LAYOUT
  2
AcDbLayout
  3
AutoCAD 2000
 90
0
 91
0
280
0
281
0
  0
ENDSEC
  0
SECTION
  2
TABLES
  0
TABLE
  2
VPORT
  5
8
100
AcDbSymbolTable
 70
2
  0
VPORT
  5
1F4
100
AcDbSymbolTableRecord
100
AcDbViewportTableRecord
  2
*ACTIVE
 70
0
 10
0.0
 20
0.0
 11
1.0
 21
1.0
 12
21.1648815744
 22
29.9331896552
 13
0.0
 23
0.0
 14
1.0
 24
1.0
 15
0.0
 25
0.0
 16
0.0
 26
0.0
 36
1.0
 17
0.0
 27
0.0
 37
0.0
 40
59.8663793103
 41
0.7070707071
 42
50.0
 43
0.0
 44
0.0
 50
0.0
 51
0.0
 71
0
 72
100
 73
1
 74
1
 75
0
 76
0
 77
0
 78
0
  0
ENDTAB
  0
TABLE
  2
LTYPE
  5
5
100
AcDbSymbolTable
 70
6
  0
LTYPE
  5
14
100
AcDbSymbolTableRecord
100
AcDbLinetypeTableRecord
  2
BYBLOCK
 70
0
  3

 72
65
 73
0
 40
0.0
  0
LTYPE
  5
15
100
AcDbSymbolTableRecord
100
AcDbLinetypeTableRecord
  2
BYLAYER
 70
0
  3

 72
65
 73
0
 40
0.0
  0
LTYPE
  5
16
100
AcDbSymbolTableRecord
100
AcDbLinetypeTableRecord
  2
CONTINUOUS
 70
64
  3
Solid line
 72
65
 73
0
 40
0.0
  0
LTYPE
  5
1F5
100
AcDbSymbolTableRecord
100
AcDbLinetypeTableRecord
  2
CENTER
 70
64
  3
____ _ ____ _ ____ _ ____ _ ____ _ ____ _ ____
 72
65
 73
4
 40
0.6
 49
0.375
 74
0
 49
-0.075
 74
0
 49
0.075
 74
0
 49
-0.075
 74
0
  0
LTYPE
  5
1F6
100
AcDbSymbolTableRecord
100
AcDbLinetypeTableRecord
  2
HIDDEN
 70
64
  3
- - - - - - - - - - - - - - - - - - - -
 72
65
 73
2
 40
0.2
 49
0.1
 74
0
 49
-0.1
 74
0
  0
LTYPE
  5
1F7
100
AcDbSymbolTableRecord
100
AcDbLinetypeTableRecord
  2
PHANTOM
 70
64
  3
_____ _ _ _____ _ _ _____ _ _ _____
 72
65
 73
6
 40
0.8
 49
0.45
 74
0
 49
-0.05
 74
0
 49
0.1
 74
0
 49
-0.05
 74
0
 49
0.1
 74
0
 49
-0.05
 74
0
  0
LTYPE
  5
1F8
100
AcDbSymbolTableRecord
100
AcDbLinetypeTableRecord
  2
DOT
 70
64
  3
. . . . . . . . . . . . . . . . . . . .
 72
65
 73
2
 40
0.2
 49
0.1
 74
0
 49
-0.1
 74
0
  0
LTYPE
  5
1F9
100
AcDbSymbolTableRecord
100
AcDbLinetypeTableRecord
  2
DASHED
 70
64
  3
- - - - - - - - - - - - - - - - - - - -
 72
65
 73
2
 40
0.2
 49
0.1
 74
0
 49
-0.1
 74
0
  0
ENDTAB
  0
TABLE
  2
LAYER
  5
2
100
AcDbSymbolTable
 70
36
  0
LAYER
  5
10
100
AcDbSymbolTableRecord
100
AcDbLayerTableRecord
  2
0
 70
0
 62
7
  6
CONTINUOUS
370
-3
390
F
  0
LAYER
  5
1FA
100
AcDbSymbolTableRecord
100
AcDbLayerTableRecord
  2
DEFAULT_1
 70
0
 62
7
  6
CENTER
370
-3
390
F
  0
LAYER
  5
1FB
100
AcDbSymbolTableRecord
100
AcDbLayerTableRecord
  2
DEFAULT_2
 70
0
 62
7
  6
HIDDEN
370
-3
390
F
  0
LAYER
  5
1FC
100
AcDbSymbolTableRecord
100
AcDbLayerTableRecord
  2
DEFAULT_3
 70
0
 62
7
  6
PHANTOM
370
-3
390
F
  0
LAYER
  5
1FD
100
AcDbSymbolTableRecord
100
AcDbLayerTableRecord
  2
00_COMPONENTS
 70
0
 62
7
  6
CONTINUOUS
370
-3
390
F
  0
LAYER
  5
1FE
100
AcDbSymbolTableRecord
100
AcDbLayerTableRecord
  2
01_1_DEFAULT_DATUMS
 70
0
 62
7
  6
CONTINUOUS
370
-3
390
F
  0
LAYER
  5
1FF
100
AcDbSymbolTableRecord
100
AcDbLayerTableRecord
  2
01_PLANES
 70
0
 62
7
  6
CONTINUOUS
370
-3
390
F
  0
LAYER
  5
200
100
AcDbSymbolTableRecord
100
AcDbLayerTableRecord
  2
02_COORD_SYS
 70
0
 62
7
  6
CONTINUOUS
370
-3
390
F
  0
LAYER
  5
201
100
AcDbSymbolTableRecord
100
AcDbLayerTableRecord
  2
03_AXES
 70
0
 62
7
  6
CONTINUOUS
370
-3
390
F
  0
LAYER
  5
202
100
AcDbSymbolTableRecord
100
AcDbLayerTableRecord
  2
04_POINTS
 70
0
 62
7
  6
CONTINUOUS
370
-3
390
F
  0
LAYER
  5
203
100
AcDbSymbolTableRecord
100
AcDbLayerTableRecord
  2
05_CURVES
 70
0
 62
7
  6
CONTINUOUS
370
-3
390
F
  0
LAYER
  5
204
100
AcDbSymbolTableRecord
100
AcDbLayerTableRecord
  2
06_SURFS
 70
0
 62
7
  6
CONTINUOUS
370
-3
390
F
  0
LAYER
  5
205
100
AcDbSymbolTableRecord
100
AcDbLayerTableRecord
  2
07_COSMETICS
 70
0
 62
7
  6
CONTINUOUS
370
-3
390
F
  0
LAYER
  5
206
100
AcDbSymbolTableRecord
100
AcDbLayerTableRecord
  2
10_NOTES
 70
0
 62
7
  6
CONTINUOUS
370
-3
390
F
  0
LAYER
  5
207
100
AcDbSymbolTableRecord
100
AcDbLayerTableRecord
  2
11_NOTES_PUB
 70
0
 62
7
  6
CONTINUOUS
370
-3
390
F
  0
LAYER
  5
208
100
AcDbSymbolTableRecord
100
AcDbLayerTableRecord
  2
13_REF_GTOL
 70
0
 62
7
  6
CONTINUOUS
370
-3
390
F
  0
LAYER
  5
209
100
AcDbSymbolTableRecord
100
AcDbLayerTableRecord
  2
16_MISC
 70
0
 62
7
  6
CONTINUOUS
370
-3
390
F
  0
LAYER
  5
20A
100
AcDbSymbolTableRecord
100
AcDbLayerTableRecord
  2
17_NO_PRINT
 70
0
 62
7
  6
CONTINUOUS
370
-3
390
F
  0
LAYER
  5
20B
100
AcDbSymbolTableRecord
100
AcDbLayerTableRecord
  2
18_DATUM_CAMS_JOINTS
 70
0
 62
7
  6
CONTINUOUS
370
-3
390
F
  0
LAYER
  5
20C
100
AcDbSymbolTableRecord
100
AcDbLayerTableRecord
  2
19_DATUM_FUNCTIONAL
 70
0
 62
7
  6
CONTINUOUS
370
-3
390
F
  0
LAYER
  5
20D
100
AcDbSymbolTableRecord
100
AcDbLayerTableRecord
  2
20_DATUM_KINEMATIC_SCHEME
 70
0
 62
7
  6
CONTINUOUS
370
-3
390
F
  0
ENDTAB
  0
TABLE
  2
STYLE
  5
3
100
AcDbSymbolTable
 70
1
  0
STYLE
  5
11
100
AcDbSymbolTableRecord
100
AcDbTextStyleTableRecord
  2
STANDARD
 70
0
 40
0.0
 41
1.0
 50
0.0
 71
0
 42
0.2
  3
ARIAL.TTF
  4

  0
STYLE
  5
20E
100
AcDbSymbolTableRecord
100
AcDbTextStyleTableRecord
  2
TEXTSTYLE_1
 70
0
 40
0.0
 41
0.8
 50
0.0
 71
0
 42
0.2
  3
gdt
  4

  0
ENDTAB
  0
TABLE
  2
VIEW
  5
6
100
AcDbSymbolTable
 70
0
  0
ENDTAB
  0
TABLE
  2
UCS
  5
7
100
AcDbSymbolTable
 70
0
  0
ENDTAB
  0
TABLE
  2
APPID
  5
9
100
AcDbSymbolTable
 70
1
  0
APPID
  5
20F
100
AcDbSymbolTableRecord
100
AcDbRegAppTableRecord
  2
ACAD
 70
0
  0
ENDTAB
  0
TABLE
  2
BLOCK_RECORD
  5
1
100
AcDbSymbolTable
 70
0
  0
BLOCK_RECORD
  5
210
100
AcDbSymbolTableRecord
100
AcDbBlockTableRecord
  2
*Model_Space
  0
BLOCK_RECORD
  5
211
100
AcDbSymbolTableRecord
100
AcDbBlockTableRecord
  2
*Paper_Space
  0
BLOCK_RECORD
  5
212
100
AcDbSymbolTableRecord
100
AcDbBlockTableRecord
  2
_FILLED
  0
ENDTAB
  0
TABLE
  2
DIMSTYLE
  5
A
100
AcDbSymbolTable
 70
1
100
AcDbDimStyleTable
 71
0
  0
DIMSTYLE
105
213
100
AcDbSymbolTableRecord
100
AcDbDimStyleTableRecord
  2
STANDARD
 70
0
  3

  4

 40
1.0
 41
0.5039257518
 42
1.0
 43
0.38
 44
1.0
 45
0.0
 46
0.0
 47
0.01
 48
0.01
140
0.7054960525
141
0.09
142
0.0
143
25.4
144
1.0
145
0.0
146
1.0
147
0.625
 71
1
 72
0
 73
0
 74
0
 75
0
 76
0
 77
1
 78
8
 79
2
170
0
171
1
172
0
173
0
174
0
175
0
176
0
177
0
178
0
270
2
179
2
271
2
272
2
273
2
274
2
275
0
280
0
281
0
282
0
283
1
284
8
285
0
286
0
287
3
288
0
340
11
278
46
341
212
342
212
343
212
344
212
  0
ENDTAB
  0
ENDSEC
  0
SECTION
  2
BLOCKS
  0
BLOCK
  5
20
100
AcDbEntity
  8
0
100
AcDbBlockBegin
  2
*Model_Space
 70
0
 10
0.0
 20
0.0
 30
0.0
  3
*Model_Space
  1

  0
ENDBLK
  5
21
100
AcDbEntity
  8
0
100
AcDbBlockEnd
  0
BLOCK
  5
1C
100
AcDbEntity
  8
0
100
AcDbBlockBegin
  2
*Paper_Space
 70
0
 10
0.0
 20
0.0
 30
0.0
  3
*Paper_Space
  1

  0
ENDBLK
  5
1D
100
AcDbEntity
  8
0
100
AcDbBlockEnd
  0
BLOCK
  5
214
100
AcDbEntity
  8
0
100
AcDbBlockBegin
  2
_FILLED
 70
64
 10
0.0
 20
0.0
  3
_FILLED
  1

  0
SOLID
  5
215
100
AcDbEntity
  8
0
  6
BYBLOCK
 62
0
100
AcDbTrace
 10
0.0
 20
0.0
 11
-1.0
 21
0.25
 12
-1.0
 22
-0.25
 13
-1.0
 23
-0.25
  0
ENDBLK
  5
216
100
AcDbEntity
  8
0
  6
BYBLOCK
 62
0
100
AcDbBlockEnd
  0
ENDSEC
  0
SECTION
  2
ENTITIES
  0
LINE
  5
217
100
AcDbEntity
  8
0
100
AcDbLine
 62
7
  6
BYLAYER
 10
4.7144505399
 20
9.0499999984
 11
38.7144505399
 21
9.0499999984
  0
LINE
  5
218
100
AcDbEntity
  8
0
100
AcDbLine
 62
7
  6
BYLAYER
 10
4.7144505399
 20
11.5499999984
 11
5.0204572248
 21
11.5499999984
  0
LINE
  5
219
100
AcDbEntity
  8
0
100
AcDbLine
 62
7
  6
BYLAYER
 10
38.4084438581
 20
11.5499999984
 11
38.7144505399
 21
11.5499999984
  0
LINE
  5
21A
100
AcDbEntity
  8
0
100
AcDbLine
 62
7
  6
BYLAYER
 10
4.7144505399
 20
11.5499999978
 11
4.7144505399
 21
9.0499999984
  0
LINE
  5
21B
100
AcDbEntity
  8
0
100
AcDbLine
 62
7
  6
BYLAYER
 10
4.9694561079
 20
11.5499999984
 11
4.9694561079
 21
16.0499999984
  0
LINE
  5
21C
100
AcDbEntity
  8
0
100
AcDbLine
 62
7
  6
BYLAYER
 10
5.0204572277
 20
11.5499999984
 11
5.0204572277
 21
16.0499999984
  0
LINE
  5
21D
100
AcDbEntity
  8
0
100
AcDbLine
 62
7
  6
BYLAYER
 10
7.7144505396
 20
9.0499999984
 11
7.7144505455
 21
16.5499999984
  0
LINE
  5
21E
100
AcDbEntity
  8
0
100
AcDbLine
 62
7
  6
BYLAYER
 10
4.9694563093
 20
16.0499999984
 11
15.0948069078
 21
16.0499999983
  0
LINE
  5
21F
100
AcDbEntity
  8
0
100
AcDbLine
 62
7
  6
BYLAYER
 10
29.11445054
 20
16.0499999968
 11
38.4594449719
 21
16.0499999986
  0
LINE
  5
220
100
AcDbEntity
  8
0
100
AcDbLine
 62
7
  6
BYLAYER
 10
5.4694560978
 20
16.5499999984
 11
14.3551870382
 21
16.5499999984
  0
LINE
  5
221
100
AcDbEntity
  8
0
100
AcDbLine
 62
7
  6
BYLAYER
 10
29.9804759409
 20
16.5499999984
 11
37.9594449756
 21
16.5499999984
  0
LINE
  5
222
100
AcDbEntity
  8
0
100
AcDbLine
 62
7
  6
BYLAYER
 10
14.5120973522
 20
17.6652034953
 11
14.6060666143
 21
17.631001481
  0
LINE
  5
223
100
AcDbEntity
  8
0
100
AcDbLine
 62
7
  6
BYLAYER
 10
30.1144505399
 20
21.0499999984
 11
16.9144390883
 21
21.0503127543
  0
LINE
  5
224
100
AcDbEntity
  8
0
100
AcDbLine
 62
7
  6
BYLAYER
 10
15.9750135323
 20
21.3921522154
 11
16.9145872323
 21
21.0502625626
  0
LINE
  5
225
100
AcDbEntity
  8
0
100
AcDbLine
 62
7
  6
BYLAYER
 10
16.9145202685
 20
22.0499999984
 11
29.1144505401
 21
22.0499999984
  0
LINE
  5
226
100
AcDbEntity
  8
0
100
AcDbLine
 62
7
  6
BYLAYER
 10
21.3144505399
 20
24.2500000003
 11
22.5144505399
 21
24.2500001049
  0
LINE
  5
227
100
AcDbEntity
  8
0
100
AcDbLine
 62
7
  6
BYLAYER
 10
16.9144355855
 20
21.0501563764
 11
16.9145180123
 21
22.0499999939
  0
LWPOLYLINE
  5
228
100
AcDbEntity
  8
0
100
AcDbPolyline
 62
7
  6
BYLAYER
 90
4
 70
0
 10
21.3597440456
 20
50.37440511
 10
21.3390160808
 20
50.2788855274
 10
21.3182290526
 20
50.1148467494
 10
21.3144505814
 20
50.0089055709
  0
LINE
  5
229
100
AcDbEntity
  8
0
100
AcDbLine
 62
7
  6
BYLAYER
 10
21.4469711057
 20
24.7499999984
 11
23.8144505395
 21
24.7499999984
  0
LINE
  5
22A
100
AcDbEntity
  8
0
100
AcDbLine
 62
7
  6
BYLAYER
 10
23.814450538
 20
24.8499999976
 11
21.3492940059
 21
24.8499999998
  0
LINE
  5
22B
100
AcDbEntity
  8
0
100
AcDbLine
 62
7
  6
BYLAYER
 10
24.8144505399
 20
25.7500000009
 11
24.7144505399
 21
25.7500000009
  0
LINE
  5
22C
100
AcDbEntity
  8
0
100
AcDbLine
 62
7
  6
BYLAYER
 10
13.8933609198
 20
16.5499999984
 11
14.2557547993
 21
17.5456689995
  0
LINE
  5
22D
100
AcDbEntity
  8
0
100
AcDbLine
 62
7
  6
BYLAYER
 10
14.106196474
 20
16.5499999984
 11
14.5120973521
 21
17.6652034953
  0
LINE
  5
22E
100
AcDbEntity
  8
0
100
AcDbLine
 62
7
  6
BYLAYER
 10
14.2126142512
 20
16.5499999989
 11
15.9750126052
 21
21.3921496815
  0
LINE
  5
22F
100
AcDbEntity
  8
0
100
AcDbLine
 62
7
  6
BYLAYER
 10
21.3144505399
 20
50.0085786382
 11
21.3144505399
 21
22.0499999984
  0
LINE
  5
230
100
AcDbEntity
  8
0
100
AcDbLine
 62
7
  6
BYLAYER
 10
21.4144505399
 20
22.0499999984
 11
21.4144505411
 21
24.6830127284
  0
LINE
  5
231
100
AcDbEntity
  8
0
100
AcDbLine
 62
7
  6
BYLAYER
 10
16.9144390883
 20
21.0503127543
 11
15.0948069078
 21
16.0499999983
  0
LINE
  5
232
100
AcDbEntity
  8
0
100
AcDbLine
 62
7
  6
BYLAYER
 10
22.4144505606
 20
24.6830127706
 11
22.414450545
 21
22.0499999984
  0
LINE
  5
233
100
AcDbEntity
  8
0
100
AcDbLine
 62
7
  6
BYLAYER
 10
22.5144505399
 20
22.0499999984
 11
22.5144505399
 21
24.7499999797
  0
LINE
  5
234
100
AcDbEntity
  8
0
100
AcDbLine
 62
7
  6
BYLAYER
 10
22.8144505397
 20
24.7499999984
 11
22.8144505421
 21
50.4499999984
  0
LINE
  5
235
100
AcDbEntity
  8
0
100
AcDbLine
 62
7
  6
BYLAYER
 10
23.8144505383
 20
50.4499999984
 11
23.8144505383
 21
50.3499999984
  0
LINE
  5
236
100
AcDbEntity
  8
0
100
AcDbLine
 62
7
  6
BYLAYER
 10
23.8144505395
 20
24.8499999976
 11
23.8144505395
 21
24.7499999984
  0
LINE
  5
237
100
AcDbEntity
  8
0
100
AcDbLine
 62
7
  6
BYLAYER
 10
24.7144505407
 20
49.4499999953
 11
24.7144505412
 21
25.7499999995
  0
LINE
  5
238
100
AcDbEntity
  8
0
100
AcDbLine
 62
7
  6
BYLAYER
 10
24.8144505399
 20
25.7500000016
 11
24.8144505399
 21
49.4499999958
  0
LWPOLYLINE
  5
239
100
AcDbEntity
  8
0
100
AcDbPolyline
 62
7
  6
BYLAYER
 90
3
 70
0
 10
22.4969315165
 20
24.7463228538
 10
22.495458837
 20
24.7454305903
 10
22.5497599657
 20
24.7490251845
  0
LINE
  5
23A
100
AcDbEntity
  8
0
100
AcDbLine
 62
7
  6
BYLAYER
 10
30.1144505399
 20
16.5499999985
 11
30.1144505399
 21
21.0499999984
  0
LINE
  5
23B
100
AcDbEntity
  8
0
100
AcDbLine
 62
7
  6
BYLAYER
 10
29.11445054
 20
16.0499999968
 11
29.1144505218
 21
22.0499999939
  0
LINE
  5
23C
100
AcDbEntity
  8
0
100
AcDbLine
 62
7
  6
BYLAYER
 10
14.5120973524
 20
17.6652034947
 11
14.2557547998
 21
17.5456689994
  0
LINE
  5
23D
100
AcDbEntity
  8
0
100
AcDbLine
 62
7
  6
BYLAYER
 10
35.7144505399
 20
16.5499999984
 11
35.7144505399
 21
9.0499999984
  0
LINE
  5
23E
100
AcDbEntity
  8
0
100
AcDbLine
 62
7
  6
BYLAYER
 10
38.4084438582
 20
16.0499999986
 11
38.4084438582
 21
11.549999998
  0
LINE
  5
23F
100
AcDbEntity
  8
0
100
AcDbLine
 62
7
  6
BYLAYER
 10
38.4594449719
 20
16.0499999986
 11
38.4594449719
 21
11.5499999984
  0
LINE
  5
240
100
AcDbEntity
  8
0
100
AcDbLine
 62
7
  6
BYLAYER
 10
38.7144505399
 20
9.0499999984
 11
38.7144505399
 21
11.5499999979
  0
LINE
  5
241
100
AcDbEntity
  8
0
100
AcDbLine
 62
7
  6
BYLAYER
 10
24.7144505399
 20
49.4499999958
 11
24.8144505399
 21
49.4499999958
  0
LINE
  5
242
100
AcDbEntity
  8
0
100
AcDbLine
 62
7
  6
BYLAYER
 10
21.3597395478
 20
50.3499999984
 11
23.8144505423
 21
50.3499999984
  0
LINE
  5
243
100
AcDbEntity
  8
0
100
AcDbLine
 62
7
  6
BYLAYER
 10
21.4567202821
 20
50.4499999984
 11
23.8144505392
 21
50.4499999984
  0
ARC
  5
244
100
AcDbEntity
  8
0
100
AcDbCircle
 62
7
  6
BYLAYER
 10
22.6277988998
 20
50.008109972
 40
1.3133485708
100
AcDbArc
 50
164.9102198409
 51
179.9645785611
  0
ARC
  5
245
100
AcDbEntity
  8
0
100
AcDbCircle
 62
7
  6
BYLAYER
 10
23.8144505318
 20
49.4499999901
 40
1.0000000112
100
AcDbArc
 50
0.0000003228
 51
89.9999995736
  0
ARC
  5
246
100
AcDbEntity
  8
0
100
AcDbCircle
 62
7
  6
BYLAYER
 10
23.8144505317
 20
25.7500000064
 40
1.0000000111
100
AcDbArc
 50
270.0000004517
 51
359.9999995425
  0
ARC
  5
247
100
AcDbEntity
  8
0
100
AcDbCircle
 62
7
  6
BYLAYER
 10
29.1144505399
 20
21.0499999985
 40
0.9999999999
100
AcDbArc
 50
0.0
 51
89.9999999867
  0
ARC
  5
248
100
AcDbEntity
  8
0
100
AcDbCircle
 62
7
  6
BYLAYER
 10
16.9146580779
 20
21.0499999984
 40
1.0
100
AcDbArc
 50
90.0039478937
 51
159.9960508107
  0
ARC
  5
249
100
AcDbEntity
  8
0
100
AcDbCircle
 62
7
  6
BYLAYER
 10
23.8144505337
 20
25.7500000039
 40
0.9000000068
100
AcDbArc
 50
270.0000002728
 51
359.9999997239
  0
ARC
  5
24A
100
AcDbEntity
  8
0
100
AcDbCircle
 62
7
  6
BYLAYER
 10
23.8144505344
 20
49.4499999922
 40
0.9000000068
100
AcDbArc
 50
0.0000001986
 51
89.9999994955
  0
ARC
  5
24B
100
AcDbEntity
  8
0
100
AcDbCircle
 62
7
  6
BYLAYER
 10
5.5754463665
 20
16.0497567649
 40
0.5549891916
100
AcDbArc
 50
170.9154001165
 51
179.9748891051
  0
ARC
  5
24C
100
AcDbEntity
  8
0
100
AcDbCircle
 62
7
  6
BYLAYER
 10
5.4694561078
 20
16.0499999985
 40
0.5
100
AcDbArc
 50
90.0
 51
180.0155783254
  0
ARC
  5
24D
100
AcDbEntity
  8
0
100
AcDbCircle
 62
7
  6
BYLAYER
 10
37.959444972
 20
16.0499999986
 40
0.5
100
AcDbArc
 50
0.0
 51
89.9526680771
  0
ARC
  5
24E
100
AcDbEntity
  8
0
100
AcDbCircle
 62
7
  6
BYLAYER
 10
21.4619841338
 20
50.3501678282
 40
0.1022219995
100
AcDbArc
 50
153.9627531519
 51
179.9686810693
  0
ARC
  5
24F
100
AcDbEntity
  8
0
100
AcDbCircle
 62
7
  6
BYLAYER
 10
21.4567202802
 20
50.3499999983
 40
0.0999999996
100
AcDbArc
 50
90.0
 51
165.8861973855
  0
ARC
  5
250
100
AcDbEntity
  8
0
100
AcDbCircle
 62
7
  6
BYLAYER
 10
21.4573169638
 20
50.3536099998
 40
0.0964511892
100
AcDbArc
 50
114.2213239152
 51
124.4330883929
  0
ARC
  5
251
100
AcDbEntity
  8
0
100
AcDbCircle
 62
7
  6
BYLAYER
 10
22.4362376212
 20
24.7703498458
 40
0.0783043589
100
AcDbArc
 50
338.5929241303
 51
343.848556211
  0
ARC
  5
252
100
AcDbEntity
  8
0
100
AcDbCircle
 62
7
  6
BYLAYER
 10
21.4068654693
 20
50.3625354623
 40
0.048593385
100
AcDbArc
 50
165.8884090423
 51
171.0406763355
  0
SPLINE
  5
253
100
AcDbEntity
  8
0
100
AcDbSpline
 62
7
  6
BYLAYER
 70
0
 71
3
 72
17
 73
13
 74
0
 42
0.0000001
 43
0.0000001
 44
0.0000000001
 40
0.0
 40
0.0
 40
0.0
 40
0.0
 40
0.2900142151
 40
0.4312821962
 40
0.5675277973
 40
0.6962982826
 40
0.756872526
 40
0.8142425048
 40
0.8677610672
 40
0.9168802013
 40
0.9610663101
 40
1.0
 40
1.0
 40
1.0
 40
1.0
 10
29.1144505399
 20
16.0499999973
 30
0.0
 10
29.1940195854
 20
16.106263809
 30
0.0
 10
29.312339949
 20
16.1899516509
 30
0.0
 10
29.4697752284
 20
16.2975843448
 30
0.0
 10
29.5839944585
 20
16.372383383
 30
0.0
 10
29.6774044841
 20
16.4294129724
 30
0.0
 10
29.7498161407
 20
16.4698006413
 30
0.0
 10
29.8010846338
 20
16.4961256777
 30
0.0
 10
29.8500987041
 20
16.5182955197
 30
0.0
 10
29.896412912
 20
16.5354728425
 30
0.0
 10
29.9394614672
 20
16.5467983528
 30
0.0
 10
29.9673932812
 20
16.549999998
 30
0.0
 10
29.9804759413
 20
16.5499999982
 30
0.0
  0
SPLINE
  5
254
100
AcDbEntity
  8
0
100
AcDbSpline
 62
7
  6
BYLAYER
 70
0
 71
3
 72
14
 73
10
 74
0
 42
0.0000001
 43
0.0000001
 44
0.0000000001
 40
0.0
 40
0.0
 40
0.0
 40
0.0
 40
0.2964911614
 40
0.4394067255
 40
0.575420552
 40
0.7018222536
 40
0.8158547696
 40
0.9154125133
 40
1.0
 40
1.0
 40
1.0
 40
1.0
 10
15.0948069075
 20
16.0499999984
 30
0.0
 10
15.0275784253
 20
16.1089204392
 30
0.0
 10
14.9280168391
 20
16.1963448364
 30
0.0
 10
14.7945902477
 20
16.3072586076
 30
0.0
 10
14.6985487209
 20
16.3828683743
 30
0.0
 10
14.6064117788
 20
16.4492346132
 30
0.0
 10
14.5185881457
 20
16.5025047976
 30
0.0
 10
14.4361062236
 20
16.5389280515
 30
0.0
 10
14.3806907116
 20
16.5499999984
 30
0.0
 10
14.3551870382
 20
16.5499999984
 30
0.0
  0
SPLINE
  5
255
100
AcDbEntity
  8
0
100
AcDbSpline
 62
7
  6
BYLAYER
 70
0
 71
3
 72
13
 73
9
 74
0
 42
0.0000001
 43
0.0000001
 44
0.0000000001
 40
0.0
 40
0.0
 40
0.0
 40
0.0
 40
0.0882266039
 40
0.1724098482
 40
0.3641802395
 40
0.4878302903
 40
0.6346358707
 40
1.0
 40
1.0
 40
1.0
 40
1.0
 10
21.3492940059
 20
24.8499999998
 30
0.0
 10
21.3464519874
 20
24.8500054191
 30
0.0
 10
21.3408417494
 20
24.8493104481
 30
0.0
 10
21.3301322065
 20
24.8439238874
 30
0.0
 10
21.3228639364
 20
24.8323650013
 30
0.0
 10
21.3185212319
 20
24.8181798371
 30
0.0
 10
21.3150090197
 20
24.7979257726
 30
0.0
 10
21.3144505399
 20
24.7813846337
 30
0.0
 10
21.3144505399
 20
24.7696152416
 30
0.0
  0
SPLINE
  5
256
100
AcDbEntity
  8
0
100
AcDbSpline
 62
7
  6
BYLAYER
 70
0
 71
3
 72
11
 73
7
 74
0
 42
0.0000001
 43
0.0000001
 44
0.0000000001
 40
0.0
 40
0.0
 40
0.0
 40
0.0
 40
0.237479121
 40
0.4961639423
 40
0.7572744056
 40
1.0
 40
1.0
 40
1.0
 40
1.0
 10
21.4469711037
 20
24.7499999984
 30
0.0
 10
21.4347599168
 20
24.7499999985
 30
0.0
 10
21.4089902749
 20
24.755019267
 30
0.0
 10
21.3758219727
 20
24.7774465413
 30
0.0
 10
21.3541202764
 20
24.8113695324
 30
0.0
 10
21.3492941236
 20
24.8375190381
 30
0.0
 10
21.3492940027
 20
24.849999999
 30
0.0
  0
SPLINE
  5
257
100
AcDbEntity
  8
0
100
AcDbSpline
 62
7
  6
BYLAYER
 70
0
 71
3
 72
11
 73
7
 74
0
 42
0.0000001
 43
0.0000001
 44
0.0000000001
 40
0.0
 40
0.0
 40
0.0
 40
0.0
 40
0.2238793508
 40
0.4766121815
 40
0.7441160104
 40
1.0
 40
1.0
 40
1.0
 40
1.0
 10
21.314450541
 20
24.7696152412
 30
0.0
 10
21.3144506654
 20
24.7587345809
 30
0.0
 10
21.3197098925
 20
24.7353013703
 30
0.0
 10
21.3426401359
 20
24.7059144777
 30
0.0
 10
21.3763855477
 20
24.6871488923
 30
0.0
 10
21.4020144292
 20
24.6830127008
 30
0.0
 10
21.4144505327
 20
24.6830127
 30
0.0
  0
SPLINE
  5
258
100
AcDbEntity
  8
0
100
AcDbSpline
 62
7
  6
BYLAYER
 70
0
 71
3
 72
9
 73
5
 74
0
 42
0.0000001
 43
0.0000001
 44
0.0000000001
 40
0.0
 40
0.0
 40
0.0
 40
0.0
 40
0.4885814409
 40
1.0
 40
1.0
 40
1.0
 40
1.0
 10
22.4144504817
 20
24.6830127095
 30
0.0
 10
22.4266340339
 20
24.6830127031
 30
0.0
 10
22.4517235483
 20
24.6869560787
 30
0.0
 10
22.4742240647
 20
24.6991965483
 30
0.0
 10
22.4839987548
 20
24.7073877176
 30
0.0
  0
SPLINE
  5
259
100
AcDbEntity
  8
0
100
AcDbSpline
 62
7
  6
BYLAYER
 70
0
 71
3
 72
9
 73
5
 74
0
 42
0.0000001
 43
0.0000001
 44
0.0000000001
 40
0.0
 40
0.0
 40
0.0
 40
0.0
 40
0.5146637588
 40
1.0
 40
1.0
 40
1.0
 40
1.0
 10
22.4839987548
 20
24.7073877176
 30
0.0
 10
22.489643341
 20
24.7121178685
 30
0.0
 10
22.499584516
 20
24.7226325547
 30
0.0
 10
22.5066057455
 20
24.735303401
 30
0.0
 10
22.5091398209
 20
24.7417693997
 30
0.0
  0
SPLINE
  5
25A
100
AcDbEntity
  8
0
100
AcDbSpline
 62
7
  6
BYLAYER
 70
0
 71
3
 72
9
 73
5
 74
0
 42
0.0000001
 43
0.0000001
 44
0.0000000001
 40
0.0
 40
0.0
 40
0.0
 40
0.0
 40
0.2515820344
 40
1.0
 40
1.0
 40
1.0
 40
1.0
 10
21.3701399173
 20
50.3950433924
 30
0.0
 10
21.3713758315
 20
50.3973432195
 30
0.0
 10
21.3764929821
 20
50.4063661983
 30
0.0
 10
21.3826357566
 20
50.4148637711
 30
0.0
 10
21.3879650998
 20
50.4205138892
 30
0.0
  0
SPLINE
  5
25B
100
AcDbEntity
  8
0
100
AcDbSpline
 62
7
  6
BYLAYER
 70
0
 71
3
 72
8
 73
4
 74
0
 42
0.0000001
 43
0.0000001
 44
0.0000000001
 40
0.0
 40
0.0
 40
0.0
 40
0.0
 40
1.0
 40
1.0
 40
1.0
 40
1.0
 10
21.3879650998
 20
50.4205138892
 30
0.0
 10
21.3924202783
 20
50.4252372264
 30
0.0
 10
21.3974257558
 20
50.4294876826
 30
0.0
 10
21.4027792741
 20
50.4331616956
 30
0.0
  0
SPLINE
  5
25C
100
AcDbEntity
  8
0
100
AcDbSpline
 62
7
  6
BYLAYER
 70
0
 71
3
 72
9
 73
5
 74
0
 42
0.0000001
 43
0.0000001
 44
0.0000000001
 40
0.0
 40
0.0
 40
0.0
 40
0.0
 40
0.2511195143
 40
1.0
 40
1.0
 40
1.0
 40
1.0
 10
21.4177466605
 20
50.4415703488
 30
0.0
 10
21.4208031452
 20
50.4429458419
 30
0.0
 10
21.4332477726
 20
50.4477937374
 30
0.0
 10
21.4467248677
 20
50.4499999981
 30
0.0
 10
21.4567202821
 20
50.4499999979
 30
0.0
  0
SPLINE
  5
25D
100
AcDbEntity
  8
0
100
AcDbSpline
 62
7
  6
BYLAYER
 70
0
 71
3
 72
9
 73
5
 74
0
 42
0.0000001
 43
0.0000001
 44
0.0000000001
 40
0.0
 40
0.0
 40
0.0
 40
0.0
 40
0.2515884066
 40
1.0
 40
1.0
 40
1.0
 40
1.0
 10
5.0274188032
 20
16.1373854856
 30
0.0
 10
5.0291040188
 20
16.1479376636
 30
0.0
 10
5.0370034125
 20
16.1896772987
 30
0.0
 10
5.0497341078
 20
16.2305179985
 30
0.0
 10
5.0619203867
 20
16.2598771678
 30
0.0
  0
SPLINE
  5
25E
100
AcDbEntity
  8
0
100
AcDbSpline
 62
7
  6
BYLAYER
 70
0
 71
3
 72
12
 73
8
 74
0
 42
0.0000001
 43
0.0000001
 44
0.0000000001
 40
0.0
 40
0.0
 40
0.0
 40
0.0
 40
0.2598939075
 40
0.512300037
 40
0.636144932
 40
0.7586494143
 40
1.0
 40
1.0
 40
1.0
 40
1.0
 10
5.0619203867
 20
16.2598771678
 30
0.0
 10
5.0794897581
 20
16.3022052776
 30
0.0
 10
5.1253163719
 20
16.3815173605
 30
0.0
 10
5.2070626845
 20
16.4606874059
 30
0.0
 10
5.2825359344
 20
16.5064743279
 30
0.0
 10
5.3621845014
 20
16.53952809
 30
0.0
 10
5.4268964362
 20
16.549999999
 30
0.0
 10
5.4694561079
 20
16.5499999985
 30
0.0
  0
SPLINE
  5
25F
100
AcDbEntity
  8
0
100
AcDbSpline
 62
7
  6
BYLAYER
 70
0
 71
3
 72
9
 73
5
 74
0
 42
0.0000001
 43
0.0000001
 44
0.0000000001
 40
0.0
 40
0.0
 40
0.0
 40
0.0
 40
0.2555728534
 40
1.0
 40
1.0
 40
1.0
 40
1.0
 10
21.3588659029
 20
50.3701066314
 30
0.0
 10
21.3585978741
 20
50.3684067187
 30
0.0
 10
21.357902927
 20
50.3617011911
 30
0.0
 10
21.3585857236
 20
50.3548775978
 30
0.0
 10
21.3597394311
 20
50.3499995332
 30
0.0
  0
SPLINE
  5
260
100
AcDbEntity
  8
0
100
AcDbSpline
 62
7
  6
BYLAYER
 70
0
 71
3
 72
14
 73
10
 74
0
 42
0.0000001
 43
0.0000001
 44
0.0000000001
 40
0.0
 40
0.0
 40
0.0
 40
0.0
 40
0.1183609196
 40
0.2379895263
 40
0.3594083049
 40
0.4833087182
 40
0.6098177329
 40
0.7386898756
 40
1.0
 40
1.0
 40
1.0
 40
1.0
 10
37.959858026
 20
16.5499997835
 30
0.0
 10
37.9891915362
 20
16.5499692381
 30
0.0
 10
38.0483568319
 20
16.5433557479
 30
0.0
 10
38.1333173074
 20
16.514510065
 30
0.0
 10
38.2114852063
 20
16.4676937982
 30
0.0
 10
38.2797535135
 20
16.4049117554
 30
0.0
 10
38.3357215353
 20
16.3286382139
 30
0.0
 10
38.3912085306
 20
16.2126524389
 30
0.0
 10
38.408443858
 20
16.1147607945
 30
0.0
 10
38.4084438581
 20
16.0499999986
 30
0.0
  0
SPLINE
  5
261
100
AcDbEntity
  8
0
100
AcDbSpline
 62
7
  6
BYLAYER
 70
0
 71
3
 72
12
 73
8
 74
0
 42
0.0000001
 43
0.0000001
 44
0.0000000001
 40
0.0
 40
0.0
 40
0.0
 40
0.0
 40
0.2408861606
 40
0.3518705194
 40
0.4631727597
 40
0.7050235384
 40
1.0
 40
1.0
 40
1.0
 40
1.0
 10
22.4144617738
 20
24.6830127712
 30
0.0
 10
22.4144618694
 20
24.69044963
 30
0.0
 10
22.4157558144
 20
24.7015155366
 30
0.0
 10
22.4217485165
 20
24.7146136901
 30
0.0
 10
22.4305212367
 20
24.7260934464
 30
0.0
 10
22.4475717261
 20
24.7375094964
 30
0.0
 10
22.4636491842
 20
24.7421308249
 30
0.0
 10
22.4725556737
 20
24.7440302893
 30
0.0
  0
SPLINE
  5
262
100
AcDbEntity
  8
0
100
AcDbSpline
 62
7
  6
BYLAYER
 70
0
 71
3
 72
9
 73
5
 74
0
 42
0.0000001
 43
0.0000001
 44
0.0000000001
 40
0.0
 40
0.0
 40
0.0
 40
0.0
 40
0.2379268722
 40
1.0
 40
1.0
 40
1.0
 40
1.0
 10
22.4725556737
 20
24.7440302893
 30
0.0
 10
22.474253278
 20
24.7443923331
 30
0.0
 10
22.4814108982
 20
24.7458076767
 30
0.0
 10
22.4886418287
 20
24.7468362081
 30
0.0
 10
22.4941661014
 20
24.7474624797
 30
0.0
  0
SPLINE
  5
263
100
AcDbEntity
  8
0
100
AcDbSpline
 62
7
  6
BYLAYER
 70
0
 71
3
 72
9
 73
5
 74
0
 42
0.0000001
 43
0.0000001
 44
0.0000000001
 40
0.0
 40
0.0
 40
0.0
 40
0.0
 40
0.2418327276
 40
1.0
 40
1.0
 40
1.0
 40
1.0
 10
22.4941661014
 20
24.7474624797
 30
0.0
 10
22.4956996873
 20
24.7476363381
 30
0.0
 10
22.5020469636
 20
24.7483043274
 30
0.0
 10
22.5084134214
 20
24.7487828924
 30
0.0
 10
22.5132438642
 20
24.7490659085
 30
0.0
  0
SPLINE
  5
264
100
AcDbEntity
  8
0
100
AcDbSpline
 62
7
  6
BYLAYER
 70
0
 71
3
 72
13
 73
9
 74
0
 42
0.0000001
 43
0.0000001
 44
0.0000000001
 40
0.0
 40
0.0
 40
0.0
 40
0.0
 40
0.0969344498
 40
0.1876244346
 40
0.3848778994
 40
0.5062782709
 40
0.6478589002
 40
1.0
 40
1.0
 40
1.0
 40
1.0
 10
21.4469694951
 20
24.7499999985
 30
0.0
 10
21.4442945216
 20
24.7500000069
 30
0.0
 10
21.439072444
 20
24.7494052482
 30
0.0
 10
21.4292384259
 20
24.7448769354
 30
0.0
 10
21.4222895218
 20
24.7351311643
 30
0.0
 10
21.4181929685
 20
24.7231317877
 30
0.0
 10
21.4149493886
 20
24.7064062416
 30
0.0
 10
21.4144488719
 20
24.6927303065
 30
0.0
 10
21.4144488734
 20
24.6830127285
 30
0.0
  0
ENDSEC
  0
SECTION
  2
OBJECTS
  0
DICTIONARY
  5
C
100
AcDbDictionary
280
0
281
1
  3
ACAD_GROUP
350
D
  3
ACAD_MLINESTYLE
350
17
  3
ACAD_LAYOUT
350
1A
  3
ACAD_PLOTSETTINGS
350
19
  3
ACAD_PLOTSTYLENAME
350
E
  0
DICTIONARY
  5
D
102
{ACAD_REACTORS
330
C
102
}
100
AcDbDictionary
280
0
281
1
  0
ACDBDICTIONARYWDFLT
  5
E
102
{ACAD_REACTORS
330
C
102
}
100
AcDbDictionary
281
1
  3
Normal
350
F
100
AcDbDictionaryWithDefault
340
F
  0
DICTIONARY
  5
17
102
{ACAD_REACTORS
330
C
102
}
100
AcDbDictionary
280
0
281
1
  3
Standard
350
18
  0
DICTIONARY
  5
19
102
{ACAD_REACTORS
330
C
102
}
100
AcDbDictionary
281
1
  0
DICTIONARY
  5
1A
102
{ACAD_REACTORS
330
C
102
}
100
AcDbDictionary
281
1
  3
Model
350
265
  3
Layout1
350
266
  0
ACDBPLACEHOLDER
  5
F
102
{ACAD_REACTORS
330
E
102
}
  0
MLINESTYLE
  5
18
102
{ACAD_REACTORS
330
17
102
}
100
AcDbMlineStyle
  2
STANDARD
 70
0
  3

 62
256
 51
90.0
 52
90.0
 71
2
 49
0.5
 62
256
  6
BYLAYER
 49
-0.5
 62
256
  6
BYLAYER
  0
LAYOUT
  5
265
102
{ACAD_REACTORS
330
1A
102
}
100
AcDbPlotSettings
  1

  2
none_device
  4

  6

 40
0.0
 41
0.0
 42
0.0
 43
0.0
 44
210.0
 45
297.0
 46
0.0
 47
0.0
 48
0.0
 49
0.0
140
0.0
141
0.0
142
1.0
143
1.0
 70
1024
 72
1
 73
0
 74
0
  7

 75
0
147
1.0
148
0.0
149
0.0
100
AcDbLayout
  1
Model
 70
0
 71
0
 10
0.0
 20
0.0
 11
210.0
 21
297.0
 12
0.0
 22
0.0
 32
0.0
 14
0.0
 24
0.0
 34
0.0
 15
0.0
 25
0.0
 35
0.0
146
0.0
 13
0.0
 23
0.0
 33
0.0
 16
1.0
 26
0.0
 36
0.0
 17
0.0
 27
1.0
 37
0.0
 76
0
330
210
345
0
346
0
  0
LAYOUT
  5
266
102
{ACAD_REACTORS
330
1A
102
}
100
AcDbPlotSettings
  1

  2
none_device
  4

  6

 40
0.0
 41
0.0
 42
0.0
 43
0.0
 44
210.0
 45
297.0
 46
0.0
 47
0.0
 48
0.0
 49
0.0
140
0.0
141
0.0
142
1.0
143
1.0
 70
0
 72
1
 73
0
 74
0
  7

 75
0
147
1.0
148
0.0
149
0.0
100
AcDbLayout
  1
Layout1
 70
0
 71
1
 10
0.0
 20
0.0
 11
210.0
 21
297.0
 12
0.0
 22
0.0
 32
0.0
 14
0.0
 24
0.0
 34
0.0
 15
0.0
 25
0.0
 35
0.0
146
0.0
 13
0.0
 23
0.0
 33
0.0
 16
1.0
 26
0.0
 36
0.0
 17
0.0
 27
1.0
 37
0.0
 76
0
330
211
345
0
346
0
  0
ENDSEC
  0
EOF
