999
DXF file: C:\Users\sesa63760\Dev\_Creo\CAD\MCADID0004047_3D-CAD\drw0001_5.dxf
999
Pro/ENGINEER 2019471 by Parametric Technology Corporation
  0
SECTION
  2
HEADER
  9
$ACADVER
  1
AC1024
  9
$DWGCODEPAGE
  3
ANSI_1252
  9
$EXTMAX
 10
93.5106401708
 20
132.2507625272
 30
0.0
  9
$EXTMIN
 10
0.0
 20
0.0
 30
0.0
  9
$LIMMIN
 10
0.0
 20
0.0
  9
$LIMMAX
 10
93.5106401708
 20
132.2507625272
  9
$VIEWCTR
 10
46.7553200854
 20
66.1253812636
  9
$VIEWSIZE
 40
132.2507625272
  9
$CLAYER
  8
0
  9
$LTSCALE
 40
8.6207904462
  9
$CELTYPE
  6
BYLAYER
  9
$DIMSCALE
 40
1.0
  9
$DIMASZ
 40
1.1132219068
  9
$DIMEXO
 40
1.0
  9
$DIMDLI
 40
5.9561824901
  9
$DIMEXE
 40
1.0
  9
$DIMCEN
 40
1.4106748003
  9
$DIMLFAC
 40
1.0
  9
$DIMBLK
  1
_FILLED
  9
$DIMALT
 70
0
  9
$DIMALTF
 40
0.0393700787
  9
$DIMTXT
 40
1.5585106695
  9
$DIMTOL
 70
1
  9
$DIMLIM
 70
0
  9
$DIMTFAC
 40
1.0
  9
$DIMTP
 40
0.01
  9
$DIMTM
 40
0.01
  9
$DIMGAP
 40
0.625
  9
$DIMDSEP
 70
46
  9
$AUNITS
 70
0
  9
$PDMODE
 70
3
  9
$PDSIZE
 40
0.3125
  9
$HANDSEED
  5
3B7
  9
$TILEMODE
 70
1
  9
$MEASUREMENT
 70
1
  9
$INSUNITS
 70
4
  0
ENDSEC
  0
SECTION
  2
CLASSES
  0
CLASS
  1
ACDBDICTIONARYWDFLT
  2
AcDbDictionaryWithDefault
  3
AutoCAD 2000
 90
0
 91
1
280
0
281
0
  0
CLASS
  1
ACDBPLACEHOLDER
  2
AcDbPlaceHolder
  3
AutoCAD 2000
 90
0
 91
1
280
0
281
0
  0
CLASS
  1
LAYOUT
  2
AcDbLayout
  3
AutoCAD 2000
 90
0
 91
0
280
0
281
0
  0
ENDSEC
  0
SECTION
  2
TABLES
  0
TABLE
  2
VPORT
  5
8
100
AcDbSymbolTable
 70
2
  0
VPORT
  5
1F4
100
AcDbSymbolTableRecord
100
AcDbViewportTableRecord
  2
*ACTIVE
 70
0
 10
0.0
 20
0.0
 11
1.0
 21
1.0
 12
46.7553200854
 22
66.1253812636
 13
0.0
 23
0.0
 14
1.0
 24
1.0
 15
0.0
 25
0.0
 16
0.0
 26
0.0
 36
1.0
 17
0.0
 27
0.0
 37
0.0
 40
132.2507625272
 41
0.7070707071
 42
50.0
 43
0.0
 44
0.0
 50
0.0
 51
0.0
 71
0
 72
100
 73
1
 74
1
 75
0
 76
0
 77
0
 78
0
  0
ENDTAB
  0
TABLE
  2
LTYPE
  5
5
100
AcDbSymbolTable
 70
6
  0
LTYPE
  5
14
100
AcDbSymbolTableRecord
100
AcDbLinetypeTableRecord
  2
BYBLOCK
 70
0
  3

 72
65
 73
0
 40
0.0
  0
LTYPE
  5
15
100
AcDbSymbolTableRecord
100
AcDbLinetypeTableRecord
  2
BYLAYER
 70
0
  3

 72
65
 73
0
 40
0.0
  0
LTYPE
  5
16
100
AcDbSymbolTableRecord
100
AcDbLinetypeTableRecord
  2
CONTINUOUS
 70
64
  3
Solid line
 72
65
 73
0
 40
0.0
  0
LTYPE
  5
1F5
100
AcDbSymbolTableRecord
100
AcDbLinetypeTableRecord
  2
CENTER
 70
64
  3
____ _ ____ _ ____ _ ____ _ ____ _ ____ _ ____
 72
65
 73
4
 40
0.6
 49
0.375
 74
0
 49
-0.075
 74
0
 49
0.075
 74
0
 49
-0.075
 74
0
  0
LTYPE
  5
1F6
100
AcDbSymbolTableRecord
100
AcDbLinetypeTableRecord
  2
HIDDEN
 70
64
  3
- - - - - - - - - - - - - - - - - - - -
 72
65
 73
2
 40
0.2
 49
0.1
 74
0
 49
-0.1
 74
0
  0
LTYPE
  5
1F7
100
AcDbSymbolTableRecord
100
AcDbLinetypeTableRecord
  2
PHANTOM
 70
64
  3
_____ _ _ _____ _ _ _____ _ _ _____
 72
65
 73
6
 40
0.8
 49
0.45
 74
0
 49
-0.05
 74
0
 49
0.1
 74
0
 49
-0.05
 74
0
 49
0.1
 74
0
 49
-0.05
 74
0
  0
LTYPE
  5
1F8
100
AcDbSymbolTableRecord
100
AcDbLinetypeTableRecord
  2
DOT
 70
64
  3
. . . . . . . . . . . . . . . . . . . .
 72
65
 73
2
 40
0.2
 49
0.1
 74
0
 49
-0.1
 74
0
  0
LTYPE
  5
1F9
100
AcDbSymbolTableRecord
100
AcDbLinetypeTableRecord
  2
DASHED
 70
64
  3
- - - - - - - - - - - - - - - - - - - -
 72
65
 73
2
 40
0.2
 49
0.1
 74
0
 49
-0.1
 74
0
  0
ENDTAB
  0
TABLE
  2
LAYER
  5
2
100
AcDbSymbolTable
 70
36
  0
LAYER
  5
10
100
AcDbSymbolTableRecord
100
AcDbLayerTableRecord
  2
0
 70
0
 62
7
  6
CONTINUOUS
370
-3
390
F
  0
LAYER
  5
1FA
100
AcDbSymbolTableRecord
100
AcDbLayerTableRecord
  2
DEFAULT_1
 70
0
 62
7
  6
CENTER
370
-3
390
F
  0
LAYER
  5
1FB
100
AcDbSymbolTableRecord
100
AcDbLayerTableRecord
  2
DEFAULT_2
 70
0
 62
7
  6
HIDDEN
370
-3
390
F
  0
LAYER
  5
1FC
100
AcDbSymbolTableRecord
100
AcDbLayerTableRecord
  2
DEFAULT_3
 70
0
 62
7
  6
PHANTOM
370
-3
390
F
  0
LAYER
  5
1FD
100
AcDbSymbolTableRecord
100
AcDbLayerTableRecord
  2
00_COMPONENTS
 70
0
 62
7
  6
CONTINUOUS
370
-3
390
F
  0
LAYER
  5
1FE
100
AcDbSymbolTableRecord
100
AcDbLayerTableRecord
  2
01_1_DEFAULT_DATUMS
 70
0
 62
7
  6
CONTINUOUS
370
-3
390
F
  0
LAYER
  5
1FF
100
AcDbSymbolTableRecord
100
AcDbLayerTableRecord
  2
01_PLANES
 70
0
 62
7
  6
CONTINUOUS
370
-3
390
F
  0
LAYER
  5
200
100
AcDbSymbolTableRecord
100
AcDbLayerTableRecord
  2
02_COORD_SYS
 70
0
 62
7
  6
CONTINUOUS
370
-3
390
F
  0
LAYER
  5
201
100
AcDbSymbolTableRecord
100
AcDbLayerTableRecord
  2
03_AXES
 70
0
 62
7
  6
CONTINUOUS
370
-3
390
F
  0
LAYER
  5
202
100
AcDbSymbolTableRecord
100
AcDbLayerTableRecord
  2
04_POINTS
 70
0
 62
7
  6
CONTINUOUS
370
-3
390
F
  0
LAYER
  5
203
100
AcDbSymbolTableRecord
100
AcDbLayerTableRecord
  2
05_CURVES
 70
0
 62
7
  6
CONTINUOUS
370
-3
390
F
  0
LAYER
  5
204
100
AcDbSymbolTableRecord
100
AcDbLayerTableRecord
  2
06_SURFS
 70
0
 62
7
  6
CONTINUOUS
370
-3
390
F
  0
LAYER
  5
205
100
AcDbSymbolTableRecord
100
AcDbLayerTableRecord
  2
07_COSMETICS
 70
0
 62
7
  6
CONTINUOUS
370
-3
390
F
  0
LAYER
  5
206
100
AcDbSymbolTableRecord
100
AcDbLayerTableRecord
  2
10_NOTES
 70
0
 62
7
  6
CONTINUOUS
370
-3
390
F
  0
LAYER
  5
207
100
AcDbSymbolTableRecord
100
AcDbLayerTableRecord
  2
11_NOTES_PUB
 70
0
 62
7
  6
CONTINUOUS
370
-3
390
F
  0
LAYER
  5
208
100
AcDbSymbolTableRecord
100
AcDbLayerTableRecord
  2
13_REF_GTOL
 70
0
 62
7
  6
CONTINUOUS
370
-3
390
F
  0
LAYER
  5
209
100
AcDbSymbolTableRecord
100
AcDbLayerTableRecord
  2
16_MISC
 70
0
 62
7
  6
CONTINUOUS
370
-3
390
F
  0
LAYER
  5
20A
100
AcDbSymbolTableRecord
100
AcDbLayerTableRecord
  2
17_NO_PRINT
 70
0
 62
7
  6
CONTINUOUS
370
-3
390
F
  0
LAYER
  5
20B
100
AcDbSymbolTableRecord
100
AcDbLayerTableRecord
  2
18_DATUM_CAMS_JOINTS
 70
0
 62
7
  6
CONTINUOUS
370
-3
390
F
  0
LAYER
  5
20C
100
AcDbSymbolTableRecord
100
AcDbLayerTableRecord
  2
19_DATUM_FUNCTIONAL
 70
0
 62
7
  6
CONTINUOUS
370
-3
390
F
  0
LAYER
  5
20D
100
AcDbSymbolTableRecord
100
AcDbLayerTableRecord
  2
20_DATUM_KINEMATIC_SCHEME
 70
0
 62
7
  6
CONTINUOUS
370
-3
390
F
  0
ENDTAB
  0
TABLE
  2
STYLE
  5
3
100
AcDbSymbolTable
 70
1
  0
STYLE
  5
11
100
AcDbSymbolTableRecord
100
AcDbTextStyleTableRecord
  2
STANDARD
 70
0
 40
0.0
 41
1.0
 50
0.0
 71
0
 42
0.2
  3
ARIAL.TTF
  4

  0
STYLE
  5
20E
100
AcDbSymbolTableRecord
100
AcDbTextStyleTableRecord
  2
TEXTSTYLE_1
 70
0
 40
0.0
 41
0.8
 50
0.0
 71
0
 42
0.2
  3
gdt
  4

  0
ENDTAB
  0
TABLE
  2
VIEW
  5
6
100
AcDbSymbolTable
 70
0
  0
ENDTAB
  0
TABLE
  2
UCS
  5
7
100
AcDbSymbolTable
 70
0
  0
ENDTAB
  0
TABLE
  2
APPID
  5
9
100
AcDbSymbolTable
 70
1
  0
APPID
  5
20F
100
AcDbSymbolTableRecord
100
AcDbRegAppTableRecord
  2
ACAD
 70
0
  0
ENDTAB
  0
TABLE
  2
BLOCK_RECORD
  5
1
100
AcDbSymbolTable
 70
0
  0
BLOCK_RECORD
  5
210
100
AcDbSymbolTableRecord
100
AcDbBlockTableRecord
  2
*Model_Space
  0
BLOCK_RECORD
  5
211
100
AcDbSymbolTableRecord
100
AcDbBlockTableRecord
  2
*Paper_Space
  0
BLOCK_RECORD
  5
212
100
AcDbSymbolTableRecord
100
AcDbBlockTableRecord
  2
_FILLED
  0
ENDTAB
  0
TABLE
  2
DIMSTYLE
  5
A
100
AcDbSymbolTable
 70
1
100
AcDbDimStyleTable
 71
0
  0
DIMSTYLE
105
213
100
AcDbSymbolTableRecord
100
AcDbDimStyleTableRecord
  2
STANDARD
 70
0
  3

  4

 40
1.0
 41
1.1132219068
 42
1.0
 43
0.38
 44
1.0
 45
0.0
 46
0.0
 47
0.01
 48
0.01
140
1.5585106695
141
0.09
142
0.0
143
25.4
144
1.0
145
0.0
146
1.0
147
0.625
 71
1
 72
0
 73
0
 74
0
 75
0
 76
0
 77
1
 78
8
 79
2
170
0
171
1
172
0
173
0
174
0
175
0
176
0
177
0
178
0
270
2
179
2
271
2
272
2
273
2
274
2
275
0
280
0
281
0
282
0
283
1
284
8
285
0
286
0
287
3
288
0
340
11
278
46
341
212
342
212
343
212
344
212
  0
ENDTAB
  0
ENDSEC
  0
SECTION
  2
BLOCKS
  0
BLOCK
  5
20
100
AcDbEntity
  8
0
100
AcDbBlockBegin
  2
*Model_Space
 70
0
 10
0.0
 20
0.0
 30
0.0
  3
*Model_Space
  1

  0
ENDBLK
  5
21
100
AcDbEntity
  8
0
100
AcDbBlockEnd
  0
BLOCK
  5
1C
100
AcDbEntity
  8
0
100
AcDbBlockBegin
  2
*Paper_Space
 70
0
 10
0.0
 20
0.0
 30
0.0
  3
*Paper_Space
  1

  0
ENDBLK
  5
1D
100
AcDbEntity
  8
0
100
AcDbBlockEnd
  0
BLOCK
  5
214
100
AcDbEntity
  8
0
100
AcDbBlockBegin
  2
_FILLED
 70
64
 10
0.0
 20
0.0
  3
_FILLED
  1

  0
SOLID
  5
215
100
AcDbEntity
  8
0
  6
BYBLOCK
 62
0
100
AcDbTrace
 10
0.0
 20
0.0
 11
-1.0
 21
0.25
 12
-1.0
 22
-0.25
 13
-1.0
 23
-0.25
  0
ENDBLK
  5
216
100
AcDbEntity
  8
0
  6
BYBLOCK
 62
0
100
AcDbBlockEnd
  0
ENDSEC
  0
SECTION
  2
ENTITIES
  0
LINE
  5
217
100
AcDbEntity
  8
0
100
AcDbLine
 62
7
  6
BYLAYER
 10
10.9680216266
 20
80.487254902
 11
10.9003091921
 21
80.337254902
  0
LINE
  5
218
100
AcDbEntity
  8
0
100
AcDbLine
 62
7
  6
BYLAYER
 10
10.9680216266
 20
52.087254902
 11
10.9003091921
 21
52.237254902
  0
LINE
  5
219
100
AcDbEntity
  8
0
100
AcDbLine
 62
7
  6
BYLAYER
 10
10.9003091921
 20
52.2372585213
 11
10.9003091921
 21
80.3372736499
  0
LINE
  5
21A
100
AcDbEntity
  8
0
100
AcDbLine
 62
7
  6
BYLAYER
 10
11.1003091921
 20
52.087254902
 11
11.1003091921
 21
80.487254902
  0
LINE
  5
21B
100
AcDbEntity
  8
0
100
AcDbLine
 62
7
  6
BYLAYER
 10
17.4003091921
 20
52.0372583271
 11
17.4003091921
 21
52.087254902
  0
LINE
  5
21C
100
AcDbEntity
  8
0
100
AcDbLine
 62
7
  6
BYLAYER
 10
17.4003091921
 20
80.487254902
 11
17.4003091921
 21
80.5372514768
  0
LINE
  5
21D
100
AcDbEntity
  8
0
100
AcDbLine
 62
7
  6
BYLAYER
 10
23.9003091921
 20
81.0872549019
 11
24.1003091921
 21
81.2872549019
  0
LINE
  5
21E
100
AcDbEntity
  8
0
100
AcDbLine
 62
7
  6
BYLAYER
 10
23.9003091921
 20
51.487254902
 11
24.1003091921
 21
51.287254902
  0
LINE
  5
21F
100
AcDbEntity
  8
0
100
AcDbLine
 62
7
  6
BYLAYER
 10
23.9003091921
 20
51.4873093748
 11
23.9003091921
 21
81.0871056708
  0
LINE
  5
220
100
AcDbEntity
  8
0
100
AcDbLine
 62
7
  6
BYLAYER
 10
24.1003091921
 20
51.287254902
 11
24.1003091921
 21
81.287254902
  0
LINE
  5
221
100
AcDbEntity
  8
0
100
AcDbLine
 62
7
  6
BYLAYER
 10
28.9003091921
 20
84.287254902
 11
29.5962026364
 21
86.8843645928
  0
LINE
  5
222
100
AcDbEntity
  8
0
100
AcDbLine
 62
7
  6
BYLAYER
 10
28.9003091921
 20
48.287254902
 11
29.5962026364
 21
45.6901452112
  0
LINE
  5
223
100
AcDbEntity
  8
0
100
AcDbLine
 62
7
  6
BYLAYER
 10
32.1939294134
 20
45.6526452112
 11
29.6066889669
 21
45.6526452112
  0
LINE
  5
224
100
AcDbEntity
  8
0
100
AcDbLine
 62
7
  6
BYLAYER
 10
37.606688966
 20
45.6526452112
 11
40.1939294183
 21
45.6526452112
  0
LINE
  5
225
100
AcDbEntity
  8
0
100
AcDbLine
 62
7
  6
BYLAYER
 10
32.2199394015
 20
45.7526452112
 11
29.5806789827
 21
45.7526452112
  0
LINE
  5
226
100
AcDbEntity
  8
0
100
AcDbLine
 62
7
  6
BYLAYER
 10
37.5806789859
 20
45.7526452111
 11
40.2199394025
 21
45.7526452111
  0
LINE
  5
227
100
AcDbEntity
  8
0
100
AcDbLine
 62
7
  6
BYLAYER
 10
28.9003091921
 20
48.2872609744
 11
28.9003091921
 21
84.2872488295
  0
LINE
  5
228
100
AcDbEntity
  8
0
100
AcDbLine
 62
7
  6
BYLAYER
 10
36.7003091921
 20
50.0358447404
 11
36.9003091921
 21
49.982254902
  0
LINE
  5
229
100
AcDbEntity
  8
0
100
AcDbLine
 62
7
  6
BYLAYER
 10
32.9003091921
 20
84.2872488295
 11
32.9003091921
 21
48.2872609744
  0
LINE
  5
22A
100
AcDbEntity
  8
0
100
AcDbLine
 62
7
  6
BYLAYER
 10
33.6003091921
 20
82.3969330242
 11
33.6003091921
 21
82.0738252373
  0
LINE
  5
22B
100
AcDbEntity
  8
0
100
AcDbLine
 62
7
  6
BYLAYER
 10
33.6003091921
 20
82.0653667264
 11
33.6003091921
 21
81.8153961255
  0
LINE
  5
22C
100
AcDbEntity
  8
0
100
AcDbLine
 62
7
  6
BYLAYER
 10
33.6003091921
 20
81.7185995309
 11
33.6003091921
 21
81.4387884828
  0
LINE
  5
22D
100
AcDbEntity
  8
0
100
AcDbLine
 62
7
  6
BYLAYER
 10
33.6003091921
 20
81.254390485
 11
33.6003091921
 21
80.9468685208
  0
LINE
  5
22E
100
AcDbEntity
  8
0
100
AcDbLine
 62
7
  6
BYLAYER
 10
33.6003091921
 20
80.6762724999
 11
33.6003091921
 21
80.3433800475
  0
LINE
  5
22F
100
AcDbEntity
  8
0
100
AcDbLine
 62
7
  6
BYLAYER
 10
33.6003091921
 20
79.9886454026
 11
33.6003091921
 21
79.6329159745
  0
LINE
  5
230
100
AcDbEntity
  8
0
100
AcDbLine
 62
7
  6
BYLAYER
 10
33.6003091921
 20
79.1967424504
 11
33.6003091921
 21
78.8208833624
  0
LINE
  5
231
100
AcDbEntity
  8
0
100
AcDbLine
 62
7
  6
BYLAYER
 10
33.6003091921
 20
78.3065905031
 11
33.6003091921
 21
77.9134622698
  0
LINE
  5
232
100
AcDbEntity
  8
0
100
AcDbLine
 62
7
  6
BYLAYER
 10
33.6003091921
 20
77.3249641543
 11
33.6003091921
 21
76.9175587189
  0
LINE
  5
233
100
AcDbEntity
  8
0
100
AcDbLine
 62
7
  6
BYLAYER
 10
33.6003091921
 20
76.2593341734
 11
33.6003091921
 21
75.8407521373
  0
LINE
  5
234
100
AcDbEntity
  8
0
100
AcDbLine
 62
7
  6
BYLAYER
 10
33.6003091921
 20
75.1178106479
 11
33.6003091921
 21
74.6912376731
  0
LINE
  5
235
100
AcDbEntity
  8
0
100
AcDbLine
 62
7
  6
BYLAYER
 10
33.6003091921
 20
73.9090812612
 11
33.6003091921
 21
73.4777638256
  0
LINE
  5
236
100
AcDbEntity
  8
0
100
AcDbLine
 62
7
  6
BYLAYER
 10
33.6003091921
 20
72.6423451737
 11
33.6003091921
 21
72.2095658634
  0
LINE
  5
237
100
AcDbEntity
  8
0
100
AcDbLine
 62
7
  6
BYLAYER
 10
33.6003091921
 20
71.3272430118
 11
33.6003091921
 21
70.8962955388
  0
LINE
  5
238
100
AcDbEntity
  8
0
100
AcDbLine
 62
7
  6
BYLAYER
 10
33.6003091921
 20
69.9737834973
 11
33.6003091921
 21
69.547947632
  0
LINE
  5
239
100
AcDbEntity
  8
0
100
AcDbLine
 62
7
  6
BYLAYER
 10
33.6003091921
 20
68.5922672742
 11
33.6003091921
 21
68.1747838846
  0
LINE
  5
23A
100
AcDbEntity
  8
0
100
AcDbLine
 62
7
  6
BYLAYER
 10
33.6003091921
 20
67.1932085151
 11
33.6003091921
 21
66.787254902
  0
LINE
  5
23B
100
AcDbEntity
  8
0
100
AcDbLine
 62
7
  6
BYLAYER
 10
33.6003091921
 20
65.787254902
 11
33.6003091921
 21
65.3813012888
  0
LINE
  5
23C
100
AcDbEntity
  8
0
100
AcDbLine
 62
7
  6
BYLAYER
 10
33.6003091921
 20
64.3997259193
 11
33.6003091921
 21
63.9822425297
  0
LINE
  5
23D
100
AcDbEntity
  8
0
100
AcDbLine
 62
7
  6
BYLAYER
 10
33.6003091921
 20
63.0265621719
 11
33.6003091921
 21
62.6007263066
  0
LINE
  5
23E
100
AcDbEntity
  8
0
100
AcDbLine
 62
7
  6
BYLAYER
 10
33.6003091921
 20
61.6782142651
 11
33.6003091921
 21
61.2472667921
  0
LINE
  5
23F
100
AcDbEntity
  8
0
100
AcDbLine
 62
7
  6
BYLAYER
 10
33.6003091921
 20
60.3649439405
 11
33.6003091921
 21
59.9321646303
  0
LINE
  5
240
100
AcDbEntity
  8
0
100
AcDbLine
 62
7
  6
BYLAYER
 10
33.6003091921
 20
59.0967459783
 11
33.6003091921
 21
58.6654285427
  0
LINE
  5
241
100
AcDbEntity
  8
0
100
AcDbLine
 62
7
  6
BYLAYER
 10
33.6003091921
 20
57.8832721308
 11
33.6003091921
 21
57.456699156
  0
LINE
  5
242
100
AcDbEntity
  8
0
100
AcDbLine
 62
7
  6
BYLAYER
 10
33.6003091921
 20
56.7337576666
 11
33.6003091921
 21
56.3151756305
  0
LINE
  5
243
100
AcDbEntity
  8
0
100
AcDbLine
 62
7
  6
BYLAYER
 10
33.6003091921
 20
55.656951085
 11
33.6003091921
 21
55.2495456496
  0
LINE
  5
244
100
AcDbEntity
  8
0
100
AcDbLine
 62
7
  6
BYLAYER
 10
33.6003091921
 20
54.6610475341
 11
33.6003091921
 21
54.2679193008
  0
LINE
  5
245
100
AcDbEntity
  8
0
100
AcDbLine
 62
7
  6
BYLAYER
 10
33.6003091921
 20
53.7536264415
 11
33.6003091921
 21
53.3777673535
  0
LINE
  5
246
100
AcDbEntity
  8
0
100
AcDbLine
 62
7
  6
BYLAYER
 10
33.6003091921
 20
52.9415938294
 11
33.6003091921
 21
52.5858644013
  0
LINE
  5
247
100
AcDbEntity
  8
0
100
AcDbLine
 62
7
  6
BYLAYER
 10
33.6003091921
 20
52.2311297564
 11
33.6003091921
 21
51.898237304
  0
LINE
  5
248
100
AcDbEntity
  8
0
100
AcDbLine
 62
7
  6
BYLAYER
 10
33.6003091921
 20
51.6276412831
 11
33.6003091921
 21
51.3201193189
  0
LINE
  5
249
100
AcDbEntity
  8
0
100
AcDbLine
 62
7
  6
BYLAYER
 10
33.6003091921
 20
51.1357213211
 11
33.6003091921
 21
50.8559102731
  0
LINE
  5
24A
100
AcDbEntity
  8
0
100
AcDbLine
 62
7
  6
BYLAYER
 10
33.6003091921
 20
50.7591136784
 11
33.6003091921
 21
50.5091430775
  0
LINE
  5
24B
100
AcDbEntity
  8
0
100
AcDbLine
 62
7
  6
BYLAYER
 10
33.6003091921
 20
50.5006845666
 11
33.6003091921
 21
50.1775767797
  0
LINE
  5
24C
100
AcDbEntity
  8
0
100
AcDbLine
 62
7
  6
BYLAYER
 10
36.9003091921
 20
84.287254902
 11
37.5962026364
 21
86.8843645928
  0
LINE
  5
24D
100
AcDbEntity
  8
0
100
AcDbLine
 62
7
  6
BYLAYER
 10
24.1003091922
 20
51.287254902
 11
28.9003091921
 21
51.287254902
  0
LINE
  5
24E
100
AcDbEntity
  8
0
100
AcDbLine
 62
7
  6
BYLAYER
 10
33.5471446934
 20
51.287254902
 11
36.2534720494
 21
51.287254902
  0
LINE
  5
24F
100
AcDbEntity
  8
0
100
AcDbLine
 62
7
  6
BYLAYER
 10
40.9003091921
 20
51.287254902
 11
63.7003091921
 21
51.287254902
  0
LINE
  5
250
100
AcDbEntity
  8
0
100
AcDbLine
 62
7
  6
BYLAYER
 10
17.4003091921
 20
52.037254902
 11
23.9003091921
 21
52.037254902
  0
LINE
  5
251
100
AcDbEntity
  8
0
100
AcDbLine
 62
7
  6
BYLAYER
 10
10.9680204506
 20
52.087254902
 11
17.4003091921
 21
52.087254902
  0
LINE
  5
252
100
AcDbEntity
  8
0
100
AcDbLine
 62
7
  6
BYLAYER
 10
36.9003091921
 20
48.287254902
 11
37.5962026364
 21
45.6901452112
  0
LINE
  5
253
100
AcDbEntity
  8
0
100
AcDbLine
 62
7
  6
BYLAYER
 10
36.2003091921
 20
50.1775767797
 11
36.2003091921
 21
50.5006845666
  0
LINE
  5
254
100
AcDbEntity
  8
0
100
AcDbLine
 62
7
  6
BYLAYER
 10
36.2003091921
 20
50.5091430775
 11
36.2003091921
 21
50.7591136784
  0
LINE
  5
255
100
AcDbEntity
  8
0
100
AcDbLine
 62
7
  6
BYLAYER
 10
36.2003091921
 20
50.8559102731
 11
36.2003091921
 21
51.1357213211
  0
LINE
  5
256
100
AcDbEntity
  8
0
100
AcDbLine
 62
7
  6
BYLAYER
 10
36.2003091921
 20
51.3201193189
 11
36.2003091921
 21
51.6276412831
  0
LINE
  5
257
100
AcDbEntity
  8
0
100
AcDbLine
 62
7
  6
BYLAYER
 10
36.2003091921
 20
51.898237304
 11
36.2003091921
 21
52.2311297564
  0
LINE
  5
258
100
AcDbEntity
  8
0
100
AcDbLine
 62
7
  6
BYLAYER
 10
36.2003091921
 20
52.5858644013
 11
36.2003091921
 21
52.9415938294
  0
LINE
  5
259
100
AcDbEntity
  8
0
100
AcDbLine
 62
7
  6
BYLAYER
 10
36.2003091921
 20
53.3777673535
 11
36.2003091921
 21
53.7536264415
  0
LINE
  5
25A
100
AcDbEntity
  8
0
100
AcDbLine
 62
7
  6
BYLAYER
 10
36.2003091921
 20
54.2679193008
 11
36.2003091921
 21
54.6610475341
  0
LINE
  5
25B
100
AcDbEntity
  8
0
100
AcDbLine
 62
7
  6
BYLAYER
 10
36.2003091921
 20
55.2495456496
 11
36.2003091921
 21
55.656951085
  0
LINE
  5
25C
100
AcDbEntity
  8
0
100
AcDbLine
 62
7
  6
BYLAYER
 10
36.2003091921
 20
56.3151756305
 11
36.2003091921
 21
56.7337576666
  0
LINE
  5
25D
100
AcDbEntity
  8
0
100
AcDbLine
 62
7
  6
BYLAYER
 10
36.2003091921
 20
57.456699156
 11
36.2003091921
 21
57.8832721308
  0
LINE
  5
25E
100
AcDbEntity
  8
0
100
AcDbLine
 62
7
  6
BYLAYER
 10
36.2003091921
 20
58.6654285427
 11
36.2003091921
 21
59.0967459783
  0
LINE
  5
25F
100
AcDbEntity
  8
0
100
AcDbLine
 62
7
  6
BYLAYER
 10
36.2003091921
 20
59.9321646303
 11
36.2003091921
 21
60.3649439405
  0
LINE
  5
260
100
AcDbEntity
  8
0
100
AcDbLine
 62
7
  6
BYLAYER
 10
36.2003091921
 20
61.2472667921
 11
36.2003091921
 21
61.6782142651
  0
LINE
  5
261
100
AcDbEntity
  8
0
100
AcDbLine
 62
7
  6
BYLAYER
 10
36.2003091921
 20
62.6007263066
 11
36.2003091921
 21
63.0265621719
  0
LINE
  5
262
100
AcDbEntity
  8
0
100
AcDbLine
 62
7
  6
BYLAYER
 10
36.2003091921
 20
63.9822425297
 11
36.2003091921
 21
64.3997259193
  0
LINE
  5
263
100
AcDbEntity
  8
0
100
AcDbLine
 62
7
  6
BYLAYER
 10
36.2003091921
 20
65.3813012888
 11
36.2003091921
 21
65.787254902
  0
LINE
  5
264
100
AcDbEntity
  8
0
100
AcDbLine
 62
7
  6
BYLAYER
 10
36.2003091921
 20
66.787254902
 11
36.2003091921
 21
67.1932085151
  0
LINE
  5
265
100
AcDbEntity
  8
0
100
AcDbLine
 62
7
  6
BYLAYER
 10
36.2003091921
 20
68.1747838846
 11
36.2003091921
 21
68.5922672742
  0
LINE
  5
266
100
AcDbEntity
  8
0
100
AcDbLine
 62
7
  6
BYLAYER
 10
36.2003091921
 20
69.547947632
 11
36.2003091921
 21
69.9737834973
  0
LINE
  5
267
100
AcDbEntity
  8
0
100
AcDbLine
 62
7
  6
BYLAYER
 10
36.2003091921
 20
70.8962955388
 11
36.2003091921
 21
71.3272430118
  0
LINE
  5
268
100
AcDbEntity
  8
0
100
AcDbLine
 62
7
  6
BYLAYER
 10
36.2003091921
 20
72.2095658634
 11
36.2003091921
 21
72.6423451737
  0
LINE
  5
269
100
AcDbEntity
  8
0
100
AcDbLine
 62
7
  6
BYLAYER
 10
36.2003091921
 20
73.4777638256
 11
36.2003091921
 21
73.9090812612
  0
LINE
  5
26A
100
AcDbEntity
  8
0
100
AcDbLine
 62
7
  6
BYLAYER
 10
36.2003091921
 20
74.6912376731
 11
36.2003091921
 21
75.1178106479
  0
LINE
  5
26B
100
AcDbEntity
  8
0
100
AcDbLine
 62
7
  6
BYLAYER
 10
36.2003091921
 20
75.8407521373
 11
36.2003091921
 21
76.2593341734
  0
LINE
  5
26C
100
AcDbEntity
  8
0
100
AcDbLine
 62
7
  6
BYLAYER
 10
36.2003091921
 20
76.9175587189
 11
36.2003091921
 21
77.3249641543
  0
LINE
  5
26D
100
AcDbEntity
  8
0
100
AcDbLine
 62
7
  6
BYLAYER
 10
36.2003091921
 20
77.9134622698
 11
36.2003091921
 21
78.3065905031
  0
LINE
  5
26E
100
AcDbEntity
  8
0
100
AcDbLine
 62
7
  6
BYLAYER
 10
36.2003091921
 20
78.8208833624
 11
36.2003091921
 21
79.1967424504
  0
LINE
  5
26F
100
AcDbEntity
  8
0
100
AcDbLine
 62
7
  6
BYLAYER
 10
36.2003091921
 20
79.6329159745
 11
36.2003091921
 21
79.9886454026
  0
LINE
  5
270
100
AcDbEntity
  8
0
100
AcDbLine
 62
7
  6
BYLAYER
 10
36.2003091921
 20
80.3433800475
 11
36.2003091921
 21
80.6762724999
  0
LINE
  5
271
100
AcDbEntity
  8
0
100
AcDbLine
 62
7
  6
BYLAYER
 10
36.2003091921
 20
80.9468685208
 11
36.2003091921
 21
81.254390485
  0
LINE
  5
272
100
AcDbEntity
  8
0
100
AcDbLine
 62
7
  6
BYLAYER
 10
36.2003091921
 20
81.4387884828
 11
36.2003091921
 21
81.7185995309
  0
LINE
  5
273
100
AcDbEntity
  8
0
100
AcDbLine
 62
7
  6
BYLAYER
 10
36.2003091921
 20
81.8153961255
 11
36.2003091921
 21
82.0653667264
  0
LINE
  5
274
100
AcDbEntity
  8
0
100
AcDbLine
 62
7
  6
BYLAYER
 10
36.2003091921
 20
82.0738252373
 11
36.2003091921
 21
82.3969330242
  0
LINE
  5
275
100
AcDbEntity
  8
0
100
AcDbLine
 62
7
  6
BYLAYER
 10
36.9003091921
 20
48.2872609744
 11
36.9003091921
 21
84.2872488295
  0
LINE
  5
276
100
AcDbEntity
  8
0
100
AcDbLine
 62
7
  6
BYLAYER
 10
33.1003091921
 20
50.0358447404
 11
32.9003091921
 21
49.982254902
  0
LINE
  5
277
100
AcDbEntity
  8
0
100
AcDbLine
 62
7
  6
BYLAYER
 10
85.2003091921
 20
61.1164799769
 11
83.9003091921
 21
60.887254902
  0
LINE
  5
278
100
AcDbEntity
  8
0
100
AcDbLine
 62
7
  6
BYLAYER
 10
65.0003091921
 20
52.587254902
 11
68.4003091921
 21
52.587254902
  0
LINE
  5
279
100
AcDbEntity
  8
0
100
AcDbLine
 62
7
  6
BYLAYER
 10
68.5003091921
 20
52.587254902
 11
71.3003091921
 21
52.587254902
  0
LINE
  5
27A
100
AcDbEntity
  8
0
100
AcDbLine
 62
7
  6
BYLAYER
 10
68.4003091921
 20
52.637254902
 11
68.5003091921
 21
52.637254902
  0
LINE
  5
27B
100
AcDbEntity
  8
0
100
AcDbLine
 62
7
  6
BYLAYER
 10
32.9003091921
 20
48.287254902
 11
32.2044157478
 21
45.6901452112
  0
LINE
  5
27C
100
AcDbEntity
  8
0
100
AcDbLine
 62
7
  6
BYLAYER
 10
33.6003091921
 20
66.787254902
 11
33.1003091921
 21
66.287254902
  0
LINE
  5
27D
100
AcDbEntity
  8
0
100
AcDbLine
 62
7
  6
BYLAYER
 10
32.2199394021
 20
55.6449500566
 11
29.5806789676
 21
55.6449500566
  0
LINE
  5
27E
100
AcDbEntity
  8
0
100
AcDbLine
 62
7
  6
BYLAYER
 10
37.5806789712
 20
55.6449500566
 11
40.2199394131
 21
55.6449500566
  0
LINE
  5
27F
100
AcDbEntity
  8
0
100
AcDbLine
 62
7
  6
BYLAYER
 10
32.1939294184
 20
56.1949500566
 11
29.6066889659
 21
56.1949500566
  0
LINE
  5
280
100
AcDbEntity
  8
0
100
AcDbLine
 62
7
  6
BYLAYER
 10
37.6066889708
 20
56.1949500566
 11
40.1939294174
 21
56.1949500566
  0
LINE
  5
281
100
AcDbEntity
  8
0
100
AcDbLine
 62
7
  6
BYLAYER
 10
33.6003091921
 20
65.787254902
 11
33.1003091921
 21
66.287254902
  0
LINE
  5
282
100
AcDbEntity
  8
0
100
AcDbLine
 62
7
  6
BYLAYER
 10
32.9003091921
 20
84.287254902
 11
32.2044157478
 21
86.8843645928
  0
LINE
  5
283
100
AcDbEntity
  8
0
100
AcDbLine
 62
7
  6
BYLAYER
 10
40.9003091921
 20
84.2872488295
 11
40.9003091921
 21
48.2872609744
  0
LINE
  5
284
100
AcDbEntity
  8
0
100
AcDbLine
 62
7
  6
BYLAYER
 10
36.2003091921
 20
65.787254902
 11
36.7003091921
 21
66.287254902
  0
LINE
  5
285
100
AcDbEntity
  8
0
100
AcDbLine
 62
7
  6
BYLAYER
 10
77.1003091921
 20
60.287254902
 11
82.6003091921
 21
60.287254902
  0
LINE
  5
286
100
AcDbEntity
  8
0
100
AcDbLine
 62
7
  6
BYLAYER
 10
83.7003091921
 20
60.887254902
 11
83.9003091921
 21
60.887254902
  0
LINE
  5
287
100
AcDbEntity
  8
0
100
AcDbLine
 62
7
  6
BYLAYER
 10
71.5003091921
 20
60.937254902
 11
76.4503091921
 21
60.937254902
  0
LINE
  5
288
100
AcDbEntity
  8
0
100
AcDbLine
 62
7
  6
BYLAYER
 10
83.2503091921
 20
60.937254902
 11
83.7003091921
 21
60.937254902
  0
LINE
  5
289
100
AcDbEntity
  8
0
100
AcDbLine
 62
7
  6
BYLAYER
 10
36.2003091921
 20
66.787254902
 11
36.7003091921
 21
66.287254902
  0
LINE
  5
28A
100
AcDbEntity
  8
0
100
AcDbLine
 62
7
  6
BYLAYER
 10
40.9003091921
 20
48.287254902
 11
40.2044157478
 21
45.6901452112
  0
LINE
  5
28B
100
AcDbEntity
  8
0
100
AcDbLine
 62
7
  6
BYLAYER
 10
40.9003091921
 20
84.287254902
 11
40.2044157478
 21
86.8843645928
  0
LINE
  5
28C
100
AcDbEntity
  8
0
100
AcDbLine
 62
7
  6
BYLAYER
 10
71.5003091921
 20
71.637254902
 11
76.4503091921
 21
71.637254902
  0
LINE
  5
28D
100
AcDbEntity
  8
0
100
AcDbLine
 62
7
  6
BYLAYER
 10
83.2503091921
 20
71.637254902
 11
83.7003091921
 21
71.637254902
  0
LINE
  5
28E
100
AcDbEntity
  8
0
100
AcDbLine
 62
7
  6
BYLAYER
 10
83.7003091921
 20
71.687254902
 11
83.9003091921
 21
71.687254902
  0
LINE
  5
28F
100
AcDbEntity
  8
0
100
AcDbLine
 62
7
  6
BYLAYER
 10
77.1003091921
 20
72.287254902
 11
82.6003091921
 21
72.287254902
  0
LINE
  5
290
100
AcDbEntity
  8
0
100
AcDbLine
 62
7
  6
BYLAYER
 10
32.1939294135
 20
76.3795597474
 11
29.6066889668
 21
76.3795597474
  0
LINE
  5
291
100
AcDbEntity
  8
0
100
AcDbLine
 62
7
  6
BYLAYER
 10
37.6066889659
 20
76.3795597474
 11
40.1939294184
 21
76.3795597474
  0
LINE
  5
292
100
AcDbEntity
  8
0
100
AcDbLine
 62
7
  6
BYLAYER
 10
32.2199394015
 20
76.9295597474
 11
29.5806789827
 21
76.9295597474
  0
LINE
  5
293
100
AcDbEntity
  8
0
100
AcDbLine
 62
7
  6
BYLAYER
 10
37.5806789859
 20
76.9295597473
 11
40.2199394025
 21
76.9295597473
  0
LINE
  5
294
100
AcDbEntity
  8
0
100
AcDbLine
 62
7
  6
BYLAYER
 10
85.2003091921
 20
71.458029827
 11
83.9003091921
 21
71.687254902
  0
LINE
  5
295
100
AcDbEntity
  8
0
100
AcDbLine
 62
7
  6
BYLAYER
 10
68.4003091921
 20
79.937254902
 11
68.5003091921
 21
79.937254902
  0
LINE
  5
296
100
AcDbEntity
  8
0
100
AcDbLine
 62
7
  6
BYLAYER
 10
65.0003091921
 20
79.987254902
 11
68.4003091921
 21
79.987254902
  0
LINE
  5
297
100
AcDbEntity
  8
0
100
AcDbLine
 62
7
  6
BYLAYER
 10
68.5003091921
 20
79.987254902
 11
71.3003091921
 21
79.987254902
  0
LINE
  5
298
100
AcDbEntity
  8
0
100
AcDbLine
 62
7
  6
BYLAYER
 10
10.9680204506
 20
80.487254902
 11
17.4003091921
 21
80.487254902
  0
LINE
  5
299
100
AcDbEntity
  8
0
100
AcDbLine
 62
7
  6
BYLAYER
 10
17.4003091921
 20
80.537254902
 11
23.9003091921
 21
80.537254902
  0
LINE
  5
29A
100
AcDbEntity
  8
0
100
AcDbLine
 62
7
  6
BYLAYER
 10
33.1003091921
 20
82.5386650635
 11
32.9003091921
 21
82.592254902
  0
LINE
  5
29B
100
AcDbEntity
  8
0
100
AcDbLine
 62
7
  6
BYLAYER
 10
63.7003091921
 20
81.287254902
 11
63.7003091921
 21
51.287254902
  0
LINE
  5
29C
100
AcDbEntity
  8
0
100
AcDbLine
 62
7
  6
BYLAYER
 10
65.0003091921
 20
52.587254902
 11
65.0003091921
 21
79.987254902
  0
LINE
  5
29D
100
AcDbEntity
  8
0
100
AcDbLine
 62
7
  6
BYLAYER
 10
76.4503091921
 20
71.637254902
 11
77.1003091921
 21
72.287254902
  0
LINE
  5
29E
100
AcDbEntity
  8
0
100
AcDbLine
 62
7
  6
BYLAYER
 10
24.1003091922
 20
81.287254902
 11
28.9003091921
 21
81.287254902
  0
LINE
  5
29F
100
AcDbEntity
  8
0
100
AcDbLine
 62
7
  6
BYLAYER
 10
33.5471463348
 20
81.287254902
 11
36.2534736909
 21
81.287254902
  0
LINE
  5
2A0
100
AcDbEntity
  8
0
100
AcDbLine
 62
7
  6
BYLAYER
 10
40.9003091921
 20
81.287254902
 11
63.7003091921
 21
81.287254902
  0
LINE
  5
2A1
100
AcDbEntity
  8
0
100
AcDbLine
 62
7
  6
BYLAYER
 10
76.4503091921
 20
60.937254902
 11
77.1003091921
 21
60.287254902
  0
LINE
  5
2A2
100
AcDbEntity
  8
0
100
AcDbLine
 62
7
  6
BYLAYER
 10
36.7003091921
 20
82.5386650635
 11
36.9003091921
 21
82.592254902
  0
LINE
  5
2A3
100
AcDbEntity
  8
0
100
AcDbLine
 62
7
  6
BYLAYER
 10
68.4003091921
 20
79.9873888597
 11
68.4003091921
 21
52.5871209442
  0
LINE
  5
2A4
100
AcDbEntity
  8
0
100
AcDbLine
 62
7
  6
BYLAYER
 10
68.5003091921
 20
52.5870737658
 11
68.5003091921
 21
79.9871724878
  0
LINE
  5
2A5
100
AcDbEntity
  8
0
100
AcDbLine
 62
7
  6
BYLAYER
 10
65.0003091921
 20
52.587254902
 11
63.7003091921
 21
51.287254902
  0
LINE
  5
2A6
100
AcDbEntity
  8
0
100
AcDbLine
 62
7
  6
BYLAYER
 10
32.2199394021
 20
86.8218645928
 11
29.5806789676
 21
86.8218645928
  0
LINE
  5
2A7
100
AcDbEntity
  8
0
100
AcDbLine
 62
7
  6
BYLAYER
 10
37.5806789712
 20
86.8218645928
 11
40.2199394131
 21
86.8218645928
  0
LINE
  5
2A8
100
AcDbEntity
  8
0
100
AcDbLine
 62
7
  6
BYLAYER
 10
32.1939294143
 20
86.9218645928
 11
29.60668897
 21
86.9218645928
  0
LINE
  5
2A9
100
AcDbEntity
  8
0
100
AcDbLine
 62
7
  6
BYLAYER
 10
37.6066889714
 20
86.9218645928
 11
40.193929414
 21
86.9218645928
  0
LINE
  5
2AA
100
AcDbEntity
  8
0
100
AcDbLine
 62
7
  6
BYLAYER
 10
65.0003091921
 20
79.987254902
 11
63.7003091921
 21
81.287254902
  0
LINE
  5
2AB
100
AcDbEntity
  8
0
100
AcDbLine
 62
7
  6
BYLAYER
 10
71.3003091921
 20
79.987254902
 11
71.3003091921
 21
52.587254902
  0
LINE
  5
2AC
100
AcDbEntity
  8
0
100
AcDbLine
 62
7
  6
BYLAYER
 10
71.5003091921
 20
79.787584999
 11
71.5003091921
 21
52.7873910249
  0
LINE
  5
2AD
100
AcDbEntity
  8
0
100
AcDbLine
 62
7
  6
BYLAYER
 10
76.4503091921
 20
71.637254902
 11
76.4503091921
 21
60.937254902
  0
LINE
  5
2AE
100
AcDbEntity
  8
0
100
AcDbLine
 62
7
  6
BYLAYER
 10
71.5003091921
 20
52.787254902
 11
71.3003091921
 21
52.587254902
  0
LINE
  5
2AF
100
AcDbEntity
  8
0
100
AcDbLine
 62
7
  6
BYLAYER
 10
83.2503091921
 20
60.937254902
 11
82.6003091921
 21
60.287254902
  0
LINE
  5
2B0
100
AcDbEntity
  8
0
100
AcDbLine
 62
7
  6
BYLAYER
 10
71.5003091921
 20
79.7872549019
 11
71.3003091921
 21
79.9872549019
  0
LINE
  5
2B1
100
AcDbEntity
  8
0
100
AcDbLine
 62
7
  6
BYLAYER
 10
83.2503091921
 20
71.637254902
 11
82.6003091921
 21
72.287254902
  0
LINE
  5
2B2
100
AcDbEntity
  8
0
100
AcDbLine
 62
7
  6
BYLAYER
 10
77.1003091921
 20
60.287254902
 11
77.1003091921
 21
72.287254902
  0
LINE
  5
2B3
100
AcDbEntity
  8
0
100
AcDbLine
 62
7
  6
BYLAYER
 10
82.6003091921
 20
72.287254902
 11
82.6003091921
 21
60.287254902
  0
LINE
  5
2B4
100
AcDbEntity
  8
0
100
AcDbLine
 62
7
  6
BYLAYER
 10
83.2503091921
 20
60.937254902
 11
83.2503091921
 21
71.637254902
  0
LINE
  5
2B5
100
AcDbEntity
  8
0
100
AcDbLine
 62
7
  6
BYLAYER
 10
83.7003091921
 20
60.8872545155
 11
83.7003091921
 21
71.6872445226
  0
LINE
  5
2B6
100
AcDbEntity
  8
0
100
AcDbLine
 62
7
  6
BYLAYER
 10
83.9003091921
 20
71.687254902
 11
83.9003091921
 21
60.887254902
  0
LINE
  5
2B7
100
AcDbEntity
  8
0
100
AcDbLine
 62
7
  6
BYLAYER
 10
85.2003091921
 20
71.4580351537
 11
85.2003091921
 21
61.1164746502
  0
ARC
  5
2B8
100
AcDbEntity
  8
0
100
AcDbCircle
 62
7
  6
BYLAYER
 10
-16.2647779959
 20
78.9468296114
 40
48.5266648227
100
AcDbArc
 50
356.9673903795
 51
357.6175085427
  0
ARC
  5
2B9
100
AcDbEntity
  8
0
100
AcDbCircle
 62
7
  6
BYLAYER
 10
86.0653963796
 20
78.9468296113
 40
48.5266648221
100
AcDbArc
 50
182.3824914573
 51
183.0326096205
  0
ARC
  5
2BA
100
AcDbEntity
  8
0
100
AcDbCircle
 62
7
  6
BYLAYER
 10
-8.264775611
 20
78.9468294986
 40
48.5266624351
100
AcDbArc
 50
356.9673903635
 51
357.6175085586
  0
ARC
  5
2BB
100
AcDbEntity
  8
0
100
AcDbCircle
 62
7
  6
BYLAYER
 10
78.0653938892
 20
78.9468294936
 40
48.526662329
100
AcDbArc
 50
182.3824914407
 51
183.0326096372
  0
ARC
  5
2BC
100
AcDbEntity
  8
0
100
AcDbCircle
 62
7
  6
BYLAYER
 10
86.0653911172
 20
53.627679427
 40
48.5266596076
100
AcDbArc
 50
176.9673891481
 51
177.6175073817
  0
ARC
  5
2BD
100
AcDbEntity
  8
0
100
AcDbCircle
 62
7
  6
BYLAYER
 10
-16.2647727318
 20
53.627679427
 40
48.5266596065
100
AcDbArc
 50
2.3824926183
 51
3.0326108519
  0
ARC
  5
2BE
100
AcDbEntity
  8
0
100
AcDbCircle
 62
7
  6
BYLAYER
 10
78.0653856491
 20
53.6276796855
 40
48.5266541335
100
AcDbArc
 50
176.9673891114
 51
177.6175074184
  0
ARC
  5
2BF
100
AcDbEntity
  8
0
100
AcDbCircle
 62
7
  6
BYLAYER
 10
-8.264767158
 20
53.6276796906
 40
48.5266540265
100
AcDbArc
 50
2.3824925809
 51
3.0326108893
  0
ARC
  5
2C0
100
AcDbEntity
  8
0
100
AcDbCircle
 62
7
  6
BYLAYER
 10
30.4677433189
 20
86.4189437107
 40
1.7979565761
100
AcDbArc
 50
15.0024901368
 51
16.2433769353
  0
ARC
  5
2C1
100
AcDbEntity
  8
0
100
AcDbCircle
 62
7
  6
BYLAYER
 10
31.3328750008
 20
86.4189437288
 40
1.797956509
100
AcDbArc
 50
163.7566230449
 51
164.9975098897
  0
ARC
  5
2C2
100
AcDbEntity
  8
0
100
AcDbCircle
 62
7
  6
BYLAYER
 10
30.4677556175
 20
46.155562387
 40
1.7979437355
100
AcDbArc
 50
343.7566268656
 51
344.9975224772
  0
ARC
  5
2C3
100
AcDbEntity
  8
0
100
AcDbCircle
 62
7
  6
BYLAYER
 10
31.3328626892
 20
46.1555623652
 40
1.797943655
100
AcDbArc
 50
195.0024774929
 51
196.2433731602
  0
ARC
  5
2C4
100
AcDbEntity
  8
0
100
AcDbCircle
 62
7
  6
BYLAYER
 10
39.3309548569
 20
86.419460632
 40
1.7959684264
100
AcDbArc
 50
163.7553204883
 51
164.9975846549
  0
ARC
  5
2C5
100
AcDbEntity
  8
0
100
AcDbCircle
 62
7
  6
BYLAYER
 10
38.4696635956
 20
86.4194606512
 40
1.7959683555
100
AcDbArc
 50
15.0024153172
 51
16.2446795328
  0
ARC
  5
2C6
100
AcDbEntity
  8
0
100
AcDbCircle
 62
7
  6
BYLAYER
 10
39.3309425304
 20
46.1550454557
 40
1.7959555562
100
AcDbArc
 50
195.0024026417
 51
196.2446756611
  0
ARC
  5
2C7
100
AcDbEntity
  8
0
100
AcDbCircle
 62
7
  6
BYLAYER
 10
38.4696759196
 20
46.1550454373
 40
1.795955488
100
AcDbArc
 50
343.7553243172
 51
344.9975973838
  0
ARC
  5
2C8
100
AcDbEntity
  8
0
100
AcDbCircle
 62
7
  6
BYLAYER
 10
39.2825935912
 20
46.1421736476
 40
1.7459226034
100
AcDbArc
 50
192.8916175816
 51
195.0051104458
  0
ARC
  5
2C9
100
AcDbEntity
  8
0
100
AcDbCircle
 62
7
  6
BYLAYER
 10
38.5180248871
 20
46.1421736243
 40
1.7459225067
100
AcDbArc
 50
344.9948894944
 51
347.1083824758
  0
ARC
  5
2CA
100
AcDbEntity
  8
0
100
AcDbCircle
 62
7
  6
BYLAYER
 10
39.2825862605
 20
86.4323377146
 40
1.7459151211
100
AcDbArc
 50
164.9948766816
 51
167.108378681
  0
ARC
  5
2CB
100
AcDbEntity
  8
0
100
AcDbCircle
 62
7
  6
BYLAYER
 10
38.5180323773
 20
86.4323377775
 40
1.74591486
100
AcDbArc
 50
12.891621163
 51
15.0051234785
  0
ARC
  5
2CC
100
AcDbEntity
  8
0
100
AcDbCircle
 62
7
  6
BYLAYER
 10
30.519128105
 20
46.1419112963
 40
1.7447885693
100
AcDbArc
 50
344.9938270072
 51
347.1086970514
  0
ARC
  5
2CD
100
AcDbEntity
  8
0
100
AcDbCircle
 62
7
  6
BYLAYER
 10
31.2814901863
 20
46.1419112732
 40
1.7447884735
100
AcDbArc
 50
192.8913028917
 51
195.0061730522
  0
ARC
  5
2CE
100
AcDbEntity
  8
0
100
AcDbCircle
 62
7
  6
BYLAYER
 10
30.5191353946
 20
86.4326000547
 40
1.7447811295
100
AcDbArc
 50
12.8913067481
 51
15.006185888
  0
ARC
  5
2CF
100
AcDbEntity
  8
0
100
AcDbCircle
 62
7
  6
BYLAYER
 10
31.2814827362
 20
86.4326001176
 40
1.7447808684
100
AcDbArc
 50
164.9938139516
 51
167.1086934082
  0
CIRCLE
  5
2D0
100
AcDbEntity
  8
0
100
AcDbCircle
 62
7
  6
BYLAYER
 10
73.7003091921
 20
66.287254902
 40
0.5
  0
SPLINE
  5
2D1
100
AcDbEntity
  8
0
100
AcDbSpline
 62
7
  6
BYLAYER
 70
0
 71
3
 72
10
 73
6
 74
0
 42
0.0000001
 43
0.0000001
 44
0.0000000001
 40
0.0
 40
0.0
 40
0.0
 40
0.0
 40
0.2479559505
 40
0.4968691056
 40
1.0
 40
1.0
 40
1.0
 40
1.0
 10
32.90030916
 20
50.6987943241
 30
0.0
 10
32.9003091001
 20
50.2851607438
 30
0.0
 10
32.8694609752
 20
49.4559551321
 30
0.0
 10
32.687938749
 20
47.7966134936
 30
0.0
 10
32.4296955295
 20
46.5653217332
 30
0.0
 10
32.2199393984
 20
45.7526452111
 30
0.0
  0
SPLINE
  5
2D2
100
AcDbEntity
  8
0
100
AcDbSpline
 62
7
  6
BYLAYER
 70
0
 71
3
 72
10
 73
6
 74
0
 42
0.0000001
 43
0.0000001
 44
0.0000000001
 40
0.0
 40
0.0
 40
0.0
 40
0.0
 40
0.5031310465
 40
0.7520440718
 40
1.0
 40
1.0
 40
1.0
 40
1.0
 10
29.5806789817
 20
45.7526452111
 30
0.0
 10
29.3709227785
 20
46.5653220149
 30
0.0
 10
29.1126670961
 20
47.7966119915
 30
0.0
 10
28.9311631907
 20
49.4559557034
 30
0.0
 10
28.9003093101
 20
50.2851606656
 30
0.0
 10
28.9003092278
 20
50.6987942269
 30
0.0
  0
SPLINE
  5
2D3
100
AcDbEntity
  8
0
100
AcDbSpline
 62
7
  6
BYLAYER
 70
0
 71
3
 72
10
 73
6
 74
0
 42
0.0000001
 43
0.0000001
 44
0.0000000001
 40
0.0
 40
0.0
 40
0.0
 40
0.0
 40
0.2479560387
 40
0.4968690774
 40
1.0
 40
1.0
 40
1.0
 40
1.0
 10
28.9003092278
 20
50.6987942269
 30
0.0
 10
28.9003091423
 20
51.1124284448
 30
0.0
 10
28.9311743176
 20
51.9416341482
 30
0.0
 10
29.1126702039
 20
53.6009801
 30
0.0
 10
29.3709225786
 20
54.8322725246
 30
0.0
 10
29.5806789676
 20
55.6449500566
 30
0.0
  0
SPLINE
  5
2D4
100
AcDbEntity
  8
0
100
AcDbSpline
 62
7
  6
BYLAYER
 70
0
 71
3
 72
10
 73
6
 74
0
 42
0.0000001
 43
0.0000001
 44
0.0000000001
 40
0.0
 40
0.0
 40
0.0
 40
0.0
 40
0.4999776682
 40
0.7499895112
 40
1.0
 40
1.0
 40
1.0
 40
1.0
 10
29.6066889668
 20
56.1949500566
 30
0.0
 10
29.3874752843
 20
57.867794378
 30
0.0
 10
29.1198682464
 20
60.3863432118
 30
0.0
 10
28.932280499
 20
63.7561276449
 30
0.0
 10
28.9003091921
 20
65.443608661
 30
0.0
 10
28.9003091921
 20
66.287254902
 30
0.0
  0
SPLINE
  5
2D5
100
AcDbEntity
  8
0
100
AcDbSpline
 62
7
  6
BYLAYER
 70
0
 71
3
 72
10
 73
6
 74
0
 42
0.0000001
 43
0.0000001
 44
0.0000000001
 40
0.0
 40
0.0
 40
0.0
 40
0.0
 40
0.5031308982
 40
0.7520440419
 40
1.0
 40
1.0
 40
1.0
 40
1.0
 10
32.2199394021
 20
55.6449500566
 30
0.0
 10
32.4296958058
 20
54.8322724731
 30
0.0
 10
32.6879399441
 20
53.6009791111
 30
0.0
 10
32.8694593466
 20
51.9416350541
 30
0.0
 10
32.9003092632
 20
51.1124284539
 30
0.0
 10
32.90030916
 20
50.6987943241
 30
0.0
  0
SPLINE
  5
2D6
100
AcDbEntity
  8
0
100
AcDbSpline
 62
7
  6
BYLAYER
 70
0
 71
3
 72
10
 73
6
 74
0
 42
0.0000001
 43
0.0000001
 44
0.0000000001
 40
0.0
 40
0.0
 40
0.0
 40
0.0
 40
0.2500120126
 40
0.5000241596
 40
1.0
 40
1.0
 40
1.0
 40
1.0
 10
32.9003091921
 20
66.287254902
 30
0.0
 10
32.9003091921
 20
65.4436035628
 30
0.0
 10
32.8683241178
 20
63.7561167475
 30
0.0
 10
32.6807485612
 20
60.3863321045
 30
0.0
 10
32.4131422835
 20
57.8677881753
 30
0.0
 10
32.1939294137
 20
56.1949500566
 30
0.0
  0
SPLINE
  5
2D7
100
AcDbEntity
  8
0
100
AcDbSpline
 62
7
  6
BYLAYER
 70
0
 71
3
 72
10
 73
6
 74
0
 42
0.0000001
 43
0.0000001
 44
0.0000000001
 40
0.0
 40
0.0
 40
0.0
 40
0.0
 40
0.4999776682
 40
0.7499895112
 40
1.0
 40
1.0
 40
1.0
 40
1.0
 10
32.1939294135
 20
76.3795597474
 30
0.0
 10
32.4131430962
 20
74.7067154258
 30
0.0
 10
32.6807501387
 20
72.1881665924
 30
0.0
 10
32.8683378851
 20
68.8183821592
 30
0.0
 10
32.9003091921
 20
67.1309011429
 30
0.0
 10
32.9003091921
 20
66.287254902
 30
0.0
  0
SPLINE
  5
2D8
100
AcDbEntity
  8
0
100
AcDbSpline
 62
7
  6
BYLAYER
 70
0
 71
3
 72
10
 73
6
 74
0
 42
0.0000001
 43
0.0000001
 44
0.0000000001
 40
0.0
 40
0.0
 40
0.0
 40
0.0
 40
0.2479559505
 40
0.4968691056
 40
1.0
 40
1.0
 40
1.0
 40
1.0
 10
32.90030916
 20
81.8757088603
 30
0.0
 10
32.9003091001
 20
81.46207528
 30
0.0
 10
32.8694609752
 20
80.6328696683
 30
0.0
 10
32.687938749
 20
78.9735280298
 30
0.0
 10
32.4296955295
 20
77.7422362695
 30
0.0
 10
32.2199393984
 20
76.9295597473
 30
0.0
  0
SPLINE
  5
2D9
100
AcDbEntity
  8
0
100
AcDbSpline
 62
7
  6
BYLAYER
 70
0
 71
3
 72
10
 73
6
 74
0
 42
0.0000001
 43
0.0000001
 44
0.0000000001
 40
0.0
 40
0.0
 40
0.0
 40
0.0
 40
0.5031308982
 40
0.7520440419
 40
1.0
 40
1.0
 40
1.0
 40
1.0
 10
32.2199394021
 20
86.8218645928
 30
0.0
 10
32.4296958058
 20
86.0091870093
 30
0.0
 10
32.6879399441
 20
84.7778936473
 30
0.0
 10
32.8694593465
 20
83.1185495903
 30
0.0
 10
32.9003092632
 20
82.2893429901
 30
0.0
 10
32.90030916
 20
81.8757088603
 30
0.0
  0
SPLINE
  5
2DA
100
AcDbEntity
  8
0
100
AcDbSpline
 62
7
  6
BYLAYER
 70
0
 71
3
 72
10
 73
6
 74
0
 42
0.0000001
 43
0.0000001
 44
0.0000000001
 40
0.0
 40
0.0
 40
0.0
 40
0.0
 40
0.2500120169
 40
0.5000241747
 40
1.0
 40
1.0
 40
1.0
 40
1.0
 10
28.9003091921
 20
66.287254902
 30
0.0
 10
28.9003091921
 20
67.1309062197
 30
0.0
 10
28.9323094155
 20
68.8183926522
 30
0.0
 10
29.1198648338
 20
72.1881779983
 30
0.0
 10
29.3874761131
 20
74.7067217502
 30
0.0
 10
29.6066889668
 20
76.3795597474
 30
0.0
  0
SPLINE
  5
2DB
100
AcDbEntity
  8
0
100
AcDbSpline
 62
7
  6
BYLAYER
 70
0
 71
3
 72
10
 73
6
 74
0
 42
0.0000001
 43
0.0000001
 44
0.0000000001
 40
0.0
 40
0.0
 40
0.0
 40
0.0
 40
0.5031310465
 40
0.7520440718
 40
1.0
 40
1.0
 40
1.0
 40
1.0
 10
29.5806789817
 20
76.9295597473
 30
0.0
 10
29.3709227785
 20
77.7422365511
 30
0.0
 10
29.1126670961
 20
78.9735265277
 30
0.0
 10
28.9311631907
 20
80.6328702397
 30
0.0
 10
28.9003093101
 20
81.4620752018
 30
0.0
 10
28.9003092278
 20
81.8757087631
 30
0.0
  0
SPLINE
  5
2DC
100
AcDbEntity
  8
0
100
AcDbSpline
 62
7
  6
BYLAYER
 70
0
 71
3
 72
10
 73
6
 74
0
 42
0.0000001
 43
0.0000001
 44
0.0000000001
 40
0.0
 40
0.0
 40
0.0
 40
0.0
 40
0.2479560387
 40
0.4968690774
 40
1.0
 40
1.0
 40
1.0
 40
1.0
 10
28.9003092278
 20
81.8757087631
 30
0.0
 10
28.9003091423
 20
82.289342981
 30
0.0
 10
28.9311743176
 20
83.1185486844
 30
0.0
 10
29.1126702039
 20
84.7778946362
 30
0.0
 10
29.3709225786
 20
86.0091870608
 30
0.0
 10
29.5806789676
 20
86.8218645928
 30
0.0
  0
SPLINE
  5
2DD
100
AcDbEntity
  8
0
100
AcDbSpline
 62
7
  6
BYLAYER
 70
0
 71
3
 72
10
 73
6
 74
0
 42
0.0000001
 43
0.0000001
 44
0.0000000001
 40
0.0
 40
0.0
 40
0.0
 40
0.0
 40
0.2479559601
 40
0.4968691048
 40
1.0
 40
1.0
 40
1.0
 40
1.0
 10
36.9003092243
 20
50.6987943241
 30
0.0
 10
36.9003091211
 20
51.1124284574
 30
0.0
 10
36.9311590336
 20
51.9416350628
 30
0.0
 10
37.1126784404
 20
53.6009791197
 30
0.0
 10
37.3709225797
 20
54.8322724778
 30
0.0
 10
37.5806789821
 20
55.6449500566
 30
0.0
  0
SPLINE
  5
2DE
100
AcDbEntity
  8
0
100
AcDbSpline
 62
7
  6
BYLAYER
 70
0
 71
3
 72
10
 73
6
 74
0
 42
0.0000001
 43
0.0000001
 44
0.0000000001
 40
0.0
 40
0.0
 40
0.0
 40
0.0
 40
0.4999776682
 40
0.7499895112
 40
1.0
 40
1.0
 40
1.0
 40
1.0
 10
37.6066889708
 20
56.1949500566
 30
0.0
 10
37.3874752881
 20
57.8677943781
 30
0.0
 10
37.1198682456
 20
60.3863432115
 30
0.0
 10
36.9322804992
 20
63.7561276448
 30
0.0
 10
36.9003091921
 20
65.443608661
 30
0.0
 10
36.9003091921
 20
66.287254902
 30
0.0
  0
SPLINE
  5
2DF
100
AcDbEntity
  8
0
100
AcDbSpline
 62
7
  6
BYLAYER
 70
0
 71
3
 72
10
 73
6
 74
0
 42
0.0000001
 43
0.0000001
 44
0.0000000001
 40
0.0
 40
0.0
 40
0.0
 40
0.0
 40
0.2500120126
 40
0.5000241596
 40
1.0
 40
1.0
 40
1.0
 40
1.0
 10
36.9003091921
 20
66.287254902
 30
0.0
 10
36.9003091921
 20
67.1309062411
 30
0.0
 10
36.9322942665
 20
68.8183930565
 30
0.0
 10
37.1198698231
 20
72.1881776994
 30
0.0
 10
37.3874761007
 20
74.7067216286
 30
0.0
 10
37.6066889706
 20
76.3795597474
 30
0.0
  0
SPLINE
  5
2E0
100
AcDbEntity
  8
0
100
AcDbSpline
 62
7
  6
BYLAYER
 70
0
 71
3
 72
10
 73
6
 74
0
 42
0.0000001
 43
0.0000001
 44
0.0000000001
 40
0.0
 40
0.0
 40
0.0
 40
0.0
 40
0.5031308973
 40
0.7520440515
 40
1.0
 40
1.0
 40
1.0
 40
1.0
 10
37.5806789859
 20
76.9295597473
 30
0.0
 10
37.3709228536
 20
77.7422362742
 30
0.0
 10
37.1126796358
 20
78.9735280385
 30
0.0
 10
36.9311574127
 20
80.6328696769
 30
0.0
 10
36.9003092841
 20
81.4620752834
 30
0.0
 10
36.9003092243
 20
81.8757088603
 30
0.0
  0
SPLINE
  5
2E1
100
AcDbEntity
  8
0
100
AcDbSpline
 62
7
  6
BYLAYER
 70
0
 71
3
 72
10
 73
6
 74
0
 42
0.0000001
 43
0.0000001
 44
0.0000000001
 40
0.0
 40
0.0
 40
0.0
 40
0.0
 40
0.2479559601
 40
0.4968691048
 40
1.0
 40
1.0
 40
1.0
 40
1.0
 10
36.9003092243
 20
81.8757088603
 30
0.0
 10
36.9003091211
 20
82.2893429936
 30
0.0
 10
36.9311590336
 20
83.118549599
 30
0.0
 10
37.1126784404
 20
84.7778936559
 30
0.0
 10
37.3709225797
 20
86.009187014
 30
0.0
 10
37.5806789821
 20
86.8218645928
 30
0.0
  0
SPLINE
  5
2E2
100
AcDbEntity
  8
0
100
AcDbSpline
 62
7
  6
BYLAYER
 70
0
 71
3
 72
10
 73
6
 74
0
 42
0.0000001
 43
0.0000001
 44
0.0000000001
 40
0.0
 40
0.0
 40
0.0
 40
0.0
 40
0.5031309256
 40
0.7520439633
 40
1.0
 40
1.0
 40
1.0
 40
1.0
 10
40.2199394166
 20
86.8218645928
 30
0.0
 10
40.4296958069
 20
86.0091870561
 30
0.0
 10
40.6879481792
 20
84.7778946274
 30
0.0
 10
40.869444063
 20
83.1185486757
 30
0.0
 10
40.900309242
 20
82.2893429775
 30
0.0
 10
40.9003091564
 20
81.8757087631
 30
0.0
  0
SPLINE
  5
2E3
100
AcDbEntity
  8
0
100
AcDbSpline
 62
7
  6
BYLAYER
 70
0
 71
3
 72
10
 73
6
 74
0
 42
0.0000001
 43
0.0000001
 44
0.0000000001
 40
0.0
 40
0.0
 40
0.0
 40
0.0
 40
0.4999776682
 40
0.7499895112
 40
1.0
 40
1.0
 40
1.0
 40
1.0
 10
40.1939294174
 20
76.3795597474
 30
0.0
 10
40.4131431
 20
74.7067154259
 30
0.0
 10
40.6807501379
 20
72.1881665921
 30
0.0
 10
40.8683378852
 20
68.8183821591
 30
0.0
 10
40.9003091921
 20
67.1309011429
 30
0.0
 10
40.9003091921
 20
66.287254902
 30
0.0
  0
SPLINE
  5
2E4
100
AcDbEntity
  8
0
100
AcDbSpline
 62
7
  6
BYLAYER
 70
0
 71
3
 72
10
 73
6
 74
0
 42
0.0000001
 43
0.0000001
 44
0.0000000001
 40
0.0
 40
0.0
 40
0.0
 40
0.0
 40
0.2479559306
 40
0.4968689569
 40
1.0
 40
1.0
 40
1.0
 40
1.0
 10
40.9003091564
 20
81.8757087631
 30
0.0
 10
40.9003090741
 20
81.4620751978
 30
0.0
 10
40.8694551918
 20
80.6328702299
 30
0.0
 10
40.6879512884
 20
78.9735265177
 30
0.0
 10
40.4296956044
 20
77.7422365455
 30
0.0
 10
40.2199394025
 20
76.9295597473
 30
0.0
  0
SPLINE
  5
2E5
100
AcDbEntity
  8
0
100
AcDbSpline
 62
7
  6
BYLAYER
 70
0
 71
3
 72
10
 73
6
 74
0
 42
0.0000001
 43
0.0000001
 44
0.0000000001
 40
0.0
 40
0.0
 40
0.0
 40
0.0
 40
0.5031308973
 40
0.7520440515
 40
1.0
 40
1.0
 40
1.0
 40
1.0
 10
37.5806789859
 20
45.7526452111
 30
0.0
 10
37.3709228536
 20
46.565321738
 30
0.0
 10
37.1126796358
 20
47.7966135023
 30
0.0
 10
36.9311574127
 20
49.4559551407
 30
0.0
 10
36.9003092841
 20
50.2851607472
 30
0.0
 10
36.9003092243
 20
50.6987943241
 30
0.0
  0
SPLINE
  5
2E6
100
AcDbEntity
  8
0
100
AcDbSpline
 62
7
  6
BYLAYER
 70
0
 71
3
 72
10
 73
6
 74
0
 42
0.0000001
 43
0.0000001
 44
0.0000000001
 40
0.0
 40
0.0
 40
0.0
 40
0.0
 40
0.2479559306
 40
0.4968689569
 40
1.0
 40
1.0
 40
1.0
 40
1.0
 10
40.9003091564
 20
50.6987942269
 30
0.0
 10
40.9003090741
 20
50.2851606616
 30
0.0
 10
40.8694551918
 20
49.4559556937
 30
0.0
 10
40.6879512884
 20
47.7966119815
 30
0.0
 10
40.4296956044
 20
46.5653220093
 30
0.0
 10
40.2199394025
 20
45.7526452111
 30
0.0
  0
SPLINE
  5
2E7
100
AcDbEntity
  8
0
100
AcDbSpline
 62
7
  6
BYLAYER
 70
0
 71
3
 72
10
 73
6
 74
0
 42
0.0000001
 43
0.0000001
 44
0.0000000001
 40
0.0
 40
0.0
 40
0.0
 40
0.0
 40
0.5031309256
 40
0.7520439633
 40
1.0
 40
1.0
 40
1.0
 40
1.0
 10
40.2199394166
 20
55.6449500566
 30
0.0
 10
40.4296958069
 20
54.8322725199
 30
0.0
 10
40.6879481792
 20
53.6009800912
 30
0.0
 10
40.869444063
 20
51.9416341395
 30
0.0
 10
40.900309242
 20
51.1124284413
 30
0.0
 10
40.9003091564
 20
50.6987942269
 30
0.0
  0
SPLINE
  5
2E8
100
AcDbEntity
  8
0
100
AcDbSpline
 62
7
  6
BYLAYER
 70
0
 71
3
 72
10
 73
6
 74
0
 42
0.0000001
 43
0.0000001
 44
0.0000000001
 40
0.0
 40
0.0
 40
0.0
 40
0.0
 40
0.2500120169
 40
0.5000241747
 40
1.0
 40
1.0
 40
1.0
 40
1.0
 10
40.9003091921
 20
66.287254902
 30
0.0
 10
40.9003091921
 20
65.4436035843
 30
0.0
 10
40.8683089688
 20
63.7561171517
 30
0.0
 10
40.6807535505
 20
60.3863318056
 30
0.0
 10
40.4131422712
 20
57.8677880537
 30
0.0
 10
40.1939294174
 20
56.1949500566
 30
0.0
  0
ELLIPSE
  5
2E9
100
AcDbEntity
  8
0
100
AcDbEllipse
 62
7
  6
BYLAYER
 10
39.7156842767
 20
65.1385070739
 30
0.0
 11
15.791979517
 21
-10.9958379272
 31
0.0
 40
0.818317629
 41
-1.3965536952
 42
-1.3960435217
  0
ELLIPSE
  5
2EA
100
AcDbEntity
  8
0
100
AcDbEllipse
 62
7
  6
BYLAYER
 10
39.7156842767
 20
64.5750698396
 30
0.0
 11
15.6563003942
 21
-12.3580633753
 31
0.0
 40
0.7470541823
 41
4.8970060586
 42
4.9020265797
  0
ELLIPSE
  5
2EB
100
AcDbEntity
  8
0
100
AcDbEllipse
 62
7
  6
BYLAYER
 10
39.7156842767
 20
64.0246633674
 30
0.0
 11
15.7703479229
 21
-13.3023954138
 31
0.0
 40
0.6792721423
 41
4.881095312
 42
4.8895407588
  0
ELLIPSE
  5
2EC
100
AcDbEntity
  8
0
100
AcDbEllipse
 62
7
  6
BYLAYER
 10
39.7156842767
 20
63.4914765829
 30
0.0
 11
15.9844133441
 21
-14.0585338956
 31
0.0
 40
0.6154007239
 41
-1.4290229293
 42
-1.4178485365
  0
ELLIPSE
  5
2ED
100
AcDbEntity
  8
0
100
AcDbEllipse
 62
7
  6
BYLAYER
 10
39.7156842767
 20
62.9795673597
 30
0.0
 11
16.2385436118
 21
-14.7051040421
 31
0.0
 40
0.5552272381
 41
-1.4615012695
 42
-1.4480705033
  0
ELLIPSE
  5
2EE
100
AcDbEntity
  8
0
100
AcDbEllipse
 62
7
  6
BYLAYER
 10
39.7156842767
 20
62.4928316358
 30
0.0
 11
16.5043969512
 21
-15.274965845
 31
0.0
 40
0.4983942514
 41
-1.4971206964
 42
-1.4817673503
  0
ELLIPSE
  5
2EF
100
AcDbEntity
  8
0
100
AcDbEllipse
 62
7
  6
BYLAYER
 10
39.7156842767
 20
62.0349737641
 30
0.0
 11
16.766803626
 21
-15.7835371161
 31
0.0
 40
0.4445239339
 41
-1.5346729672
 42
-1.5176380826
  0
ELLIPSE
  5
2F0
100
AcDbEntity
  8
0
100
AcDbEllipse
 62
7
  6
BYLAYER
 10
39.7156842767
 20
61.6094783195
 30
0.0
 11
17.0168501026
 21
-16.2384907108
 31
0.0
 40
0.3932536107
 41
-1.5734880867
 42
-1.5549485398
  0
ELLIPSE
  5
2F1
100
AcDbEntity
  8
0
100
AcDbEllipse
 62
7
  6
BYLAYER
 10
39.7156842767
 20
61.2195835793
 30
0.0
 11
17.2489119491
 21
-16.6436838349
 31
0.0
 40
0.3442450777
 41
-1.6131670271
 42
-1.5932525833
  0
ELLIPSE
  5
2F2
100
AcDbEntity
  8
0
100
AcDbEllipse
 62
7
  6
BYLAYER
 10
39.7156842767
 20
60.8682568777
 30
0.0
 11
17.4592414022
 21
-17.0009614673
 31
0.0
 40
0.2971852239
 41
-1.6534575031
 42
-1.6322627734
  0
ELLIPSE
  5
2F3
100
AcDbEntity
  8
0
100
AcDbEllipse
 62
7
  6
BYLAYER
 10
39.7156842767
 20
60.5581720231
 30
0.0
 11
17.6452378715
 21
-17.311068251
 31
0.0
 40
0.2517837063
 41
-1.6940323896
 42
-1.6717847557
  0
ELLIPSE
  5
2F4
100
AcDbEntity
  8
0
100
AcDbEllipse
 62
7
  6
BYLAYER
 10
39.7156842767
 20
60.2916889486
 30
0.0
 11
17.8050458869
 21
-17.5741469284
 31
0.0
 40
0.2077697388
 41
-1.735034466
 42
-1.7116814851
  0
ELLIPSE
  5
2F5
100
AcDbEntity
  8
0
100
AcDbEllipse
 62
7
  6
BYLAYER
 10
39.7156842767
 20
60.0708357512
 30
0.0
 11
17.9373217495
 21
-17.7900285404
 31
0.0
 40
0.1648887629
 41
-1.7763537932
 42
-1.7518524984
  0
ELLIPSE
  5
2F6
100
AcDbEntity
  8
0
100
AcDbEllipse
 62
7
  6
BYLAYER
 10
39.7156842767
 20
59.8972932572
 30
0.0
 11
18.0410926156
 21
-17.9584099181
 31
0.0
 40
0.1228992729
 41
-1.8179059513
 42
-1.7922212391
  0
ELLIPSE
  5
2F7
100
AcDbEntity
  8
0
100
AcDbEllipse
 62
7
  6
BYLAYER
 10
39.7156842767
 20
59.7723822296
 30
0.0
 11
18.1156691418
 21
-18.0789658936
 31
0.0
 40
0.0815698667
 41
-1.8596229162
 42
-1.8327268879
  0
ELLIPSE
  5
2F8
100
AcDbEntity
  8
0
100
AcDbEllipse
 62
7
  6
BYLAYER
 10
39.7156842767
 20
59.6970533168
 30
0.0
 11
18.1605909673
 21
-18.1514209571
 31
0.0
 40
0.0406765142
 41
-1.9014465147
 42
-1.8733187897
  0
ELLIPSE
  5
2F9
100
AcDbEntity
  8
0
100
AcDbEllipse
 62
7
  6
BYLAYER
 10
28.4089311764
 20
65.8783743665
 30
0.0
 11
14.9543464083
 21
10.0427045149
 31
0.0
 40
0.9066977799
 41
-1.8464703263
 42
-1.8167011824
  0
ELLIPSE
  5
2FA
100
AcDbEntity
  8
0
100
AcDbEllipse
 62
7
  6
BYLAYER
 10
28.4089311764
 20
65.4726056588
 30
0.0
 11
14.4741311195
 21
11.8601695234
 31
0.0
 40
0.8306103506
 41
-1.8971234584
 42
-1.8673543145
  0
ELLIPSE
  5
2FB
100
AcDbEntity
  8
0
100
AcDbEllipse
 62
7
  6
BYLAYER
 10
28.4089311764
 20
65.0730369237
 30
0.0
 11
14.5700382847
 21
12.8060309747
 31
0.0
 40
0.7581403628
 41
-1.8873170525
 42
-1.8575479087
  0
ELLIPSE
  5
2FC
100
AcDbEntity
  8
0
100
AcDbEllipse
 62
7
  6
BYLAYER
 10
28.4089311764
 20
64.6827091206
 30
0.0
 11
14.8194770471
 21
13.5094930283
 31
0.0
 40
0.6901509118
 41
-1.8611064818
 42
-1.8313373379
  0
ELLIPSE
  5
2FD
100
AcDbEntity
  8
0
100
AcDbEllipse
 62
7
  6
BYLAYER
 10
39.7156842767
 20
67.43600273
 30
0.0
 11
15.791979517
 21
10.9958379272
 31
0.0
 40
0.818317629
 41
1.3960435217
 42
1.3965536961
  0
ELLIPSE
  5
2FE
100
AcDbEntity
  8
0
100
AcDbEllipse
 62
7
  6
BYLAYER
 10
28.4089311764
 20
64.3045928798
 30
0.0
 11
15.1182070608
 21
14.1001405585
 31
0.0
 40
0.6263036642
 41
-1.8281998094
 42
-1.7984306655
  0
ELLIPSE
  5
2FF
100
AcDbEntity
  8
0
100
AcDbEllipse
 62
7
  6
BYLAYER
 10
39.7156842767
 20
67.9994399643
 30
0.0
 11
15.6563003942
 21
12.3580633753
 31
0.0
 40
0.7470541823
 41
1.3811587275
 42
1.3861792519
  0
ELLIPSE
  5
300
100
AcDbEntity
  8
0
100
AcDbEllipse
 62
7
  6
BYLAYER
 10
28.4089311764
 20
63.9415658941
 30
0.0
 11
15.4285527016
 21
14.6201143459
 31
0.0
 40
0.5661264515
 41
-1.7919226086
 42
-1.7621534647
  0
ELLIPSE
  5
301
100
AcDbEntity
  8
0
100
AcDbEllipse
 62
7
  6
BYLAYER
 10
39.7156842767
 20
68.5498464365
 30
0.0
 11
15.7703479229
 21
13.3023954138
 31
0.0
 40
0.6792721423
 41
1.3936445484
 42
1.4020899947
  0
ELLIPSE
  5
302
100
AcDbEntity
  8
0
100
AcDbEllipse
 62
7
  6
BYLAYER
 10
28.4089311764
 20
63.5963910181
 30
0.0
 11
15.7334287619
 21
15.0865489373
 31
0.0
 40
0.5091621171
 41
-1.7537182443
 42
-1.7239491005
  0
ELLIPSE
  5
303
100
AcDbEntity
  8
0
100
AcDbEllipse
 62
7
  6
BYLAYER
 10
39.7156842767
 20
69.083033221
 30
0.0
 11
15.9844133441
 21
14.0585338956
 31
0.0
 40
0.6154007239
 41
1.4178485365
 42
1.4290229277
  0
ELLIPSE
  5
304
100
AcDbEntity
  8
0
100
AcDbEllipse
 62
7
  6
BYLAYER
 10
28.4089311764
 20
63.2716952411
 30
0.0
 11
16.023819938
 21
15.507275323
 31
0.0
 40
0.4549951859
 41
-1.7143141628
 42
-1.6845450189
  0
ELLIPSE
  5
305
100
AcDbEntity
  8
0
100
AcDbEllipse
 62
7
  6
BYLAYER
 10
39.7156842767
 20
69.5949424443
 30
0.0
 11
16.2385436118
 21
14.7051040421
 31
0.0
 40
0.5552272381
 41
1.4480705033
 42
1.4615012691
  0
ELLIPSE
  5
306
100
AcDbEntity
  8
0
100
AcDbEllipse
 62
7
  6
BYLAYER
 10
28.4089311764
 20
62.9699496939
 30
0.0
 11
16.2944188981
 21
15.8860502942
 31
0.0
 40
0.4032531911
 41
-1.674117191
 42
-1.6443480471
  0
ELLIPSE
  5
307
100
AcDbEntity
  8
0
100
AcDbEllipse
 62
7
  6
BYLAYER
 10
39.7156842767
 20
70.0816781681
 30
0.0
 11
16.5043969512
 21
15.274965845
 31
0.0
 40
0.4983942514
 41
1.4817673503
 42
1.4971206958
  0
ELLIPSE
  5
308
100
AcDbEntity
  8
0
100
AcDbEllipse
 62
7
  6
BYLAYER
 10
28.4089311764
 20
62.6934508424
 30
0.0
 11
16.5418339295
 21
16.2246471729
 31
0.0
 40
0.3536019736
 41
-1.6333731597
 42
-1.6036040158
  0
ELLIPSE
  5
309
100
AcDbEntity
  8
0
100
AcDbEllipse
 62
7
  6
BYLAYER
 10
39.7156842767
 20
70.5395360398
 30
0.0
 11
16.766803626
 21
15.7835371161
 31
0.0
 40
0.4445239339
 41
1.5176380826
 42
1.5346729655
  0
ELLIPSE
  5
30A
100
AcDbEntity
  8
0
100
AcDbEllipse
 62
7
  6
BYLAYER
 10
28.4089311764
 20
62.4443030098
 30
0.0
 11
16.7637596114
 21
16.523808647
 31
0.0
 40
0.3057398728
 41
-1.5922399181
 42
-1.5624707743
  0
ELLIPSE
  5
30B
100
AcDbEntity
  8
0
100
AcDbEllipse
 62
7
  6
BYLAYER
 10
39.7156842767
 20
70.9650314844
 30
0.0
 11
17.0168501026
 21
16.2384907108
 31
0.0
 40
0.3932536107
 41
1.5549485398
 42
1.5734880833
  0
ELLIPSE
  5
30C
100
AcDbEntity
  8
0
100
AcDbEllipse
 62
7
  6
BYLAYER
 10
28.4089311764
 20
62.2244023616
 30
0.0
 11
16.9585571531
 21
16.7837266909
 31
0.0
 40
0.2593921815
 41
-1.5508240306
 42
-1.5210548867
  0
ELLIPSE
  5
30D
100
AcDbEntity
  8
0
100
AcDbEllipse
 62
7
  6
BYLAYER
 10
39.7156842767
 20
71.3549262247
 30
0.0
 11
17.2489119491
 21
16.6436838349
 31
0.0
 40
0.3442450777
 41
1.5932525833
 42
1.6131670491
  0
ELLIPSE
  5
30E
100
AcDbEntity
  8
0
100
AcDbEllipse
 62
7
  6
BYLAYER
 10
28.4089311764
 20
62.0354224744
 30
0.0
 11
17.1250267564
 21
17.0043043001
 31
0.0
 40
0.2143062114
 41
-1.5092006484
 42
-1.4794315045
  0
ELLIPSE
  5
30F
100
AcDbEntity
  8
0
100
AcDbEllipse
 62
7
  6
BYLAYER
 10
39.7156842767
 20
71.7062529262
 30
0.0
 11
17.4592414022
 21
17.0009614673
 31
0.0
 40
0.2971852239
 41
1.6322627734
 42
1.653457536
  0
ELLIPSE
  5
310
100
AcDbEntity
  8
0
100
AcDbEllipse
 62
7
  6
BYLAYER
 10
28.4089311764
 20
61.8788015993
 30
0.0
 11
17.2622772411
 21
17.185307668
 31
0.0
 40
0.1702469903
 41
-1.4674249603
 42
-1.4376558164
  0
ELLIPSE
  5
311
100
AcDbEntity
  8
0
100
AcDbEllipse
 62
7
  6
BYLAYER
 10
39.7156842767
 20
72.0163377808
 30
0.0
 11
17.6452378715
 21
17.311068251
 31
0.0
 40
0.2517837063
 41
1.6717847557
 42
1.694032417
  0
ELLIPSE
  5
312
100
AcDbEntity
  8
0
100
AcDbEllipse
 62
7
  6
BYLAYER
 10
39.7156842767
 20
72.2828208553
 30
0.0
 11
17.8050458869
 21
17.5741469284
 31
0.0
 40
0.2077697388
 41
1.7116814851
 42
1.735034489
  0
ELLIPSE
  5
313
100
AcDbEntity
  8
0
100
AcDbEllipse
 62
7
  6
BYLAYER
 10
39.7156842767
 20
72.5036740527
 30
0.0
 11
17.9373217495
 21
17.7900285404
 31
0.0
 40
0.1648887629
 41
1.7518524984
 42
1.7763538123
  0
ELLIPSE
  5
314
100
AcDbEntity
  8
0
100
AcDbEllipse
 62
7
  6
BYLAYER
 10
39.7156842767
 20
72.6772165468
 30
0.0
 11
18.0410926156
 21
17.9584099181
 31
0.0
 40
0.1228992729
 41
1.7922212391
 42
1.8179059663
  0
ELLIPSE
  5
315
100
AcDbEntity
  8
0
100
AcDbEllipse
 62
7
  6
BYLAYER
 10
39.7156842767
 20
72.8021275743
 30
0.0
 11
18.1156691418
 21
18.0789658936
 31
0.0
 40
0.0815698667
 41
1.8327268879
 42
1.8596229267
  0
ELLIPSE
  5
316
100
AcDbEntity
  8
0
100
AcDbEllipse
 62
7
  6
BYLAYER
 10
39.7156842767
 20
72.8774564871
 30
0.0
 11
18.1605909673
 21
18.1514209571
 31
0.0
 40
0.0406765142
 41
1.8733187897
 42
1.9014465202
  0
ELLIPSE
  5
317
100
AcDbEntity
  8
0
100
AcDbEllipse
 62
7
  6
BYLAYER
 10
28.4089311764
 20
61.6137289959
 30
0.0
 11
17.4929960222
 21
17.4882083164
 31
0.0
 40
0.0420701413
 41
-1.3415664268
 42
-1.3117972829
  0
ELLIPSE
  5
318
100
AcDbEntity
  8
0
100
AcDbEllipse
 62
7
  6
BYLAYER
 10
28.4089311764
 20
61.6671494598
 30
0.0
 11
17.4466624083
 21
17.4274961419
 31
0.0
 40
0.0843354388
 41
-1.3835769222
 42
-1.3538077783
  0
ELLIPSE
  5
319
100
AcDbEntity
  8
0
100
AcDbEllipse
 62
7
  6
BYLAYER
 10
28.4089311764
 20
61.7557317157
 30
0.0
 11
17.3696482286
 21
17.326459176
 31
0.0
 40
0.1269935126
 41
-1.425539161
 42
-1.3957700171
  0
ELLIPSE
  5
31A
100
AcDbEntity
  8
0
100
AcDbEllipse
 62
7
  6
BYLAYER
 10
28.4089311764
 20
66.287254902
 30
0.0
 11
17.5084611122
 21
-0.0
 31
0.0
 40
0.963433044
 41
-1.2995325731
 42
-1.2697634292
  0
ELLIPSE
  5
31B
100
AcDbEntity
  8
0
100
AcDbEllipse
 62
7
  6
BYLAYER
 10
28.4089311764
 20
70.960780808
 30
0.0
 11
17.4929960222
 21
-17.4882083164
 31
0.0
 40
0.0420701413
 41
1.3117972829
 42
1.3415664268
  0
ELLIPSE
  5
31C
100
AcDbEntity
  8
0
100
AcDbEllipse
 62
7
  6
BYLAYER
 10
28.4089311764
 20
70.9073603442
 30
0.0
 11
17.4466624083
 21
-17.4274961419
 31
0.0
 40
0.0843354388
 41
1.3538077783
 42
1.3835769222
  0
ELLIPSE
  5
31D
100
AcDbEntity
  8
0
100
AcDbEllipse
 62
7
  6
BYLAYER
 10
28.4089311764
 20
70.8187780882
 30
0.0
 11
17.3696482286
 21
-17.326459176
 31
0.0
 40
0.1269935126
 41
1.3957700171
 42
1.425539161
  0
ELLIPSE
  5
31E
100
AcDbEntity
  8
0
100
AcDbEllipse
 62
7
  6
BYLAYER
 10
28.4089311764
 20
70.6957082047
 30
0.0
 11
17.2622772411
 21
-17.185307668
 31
0.0
 40
0.1702469903
 41
1.4376558164
 42
1.4674249603
  0
ELLIPSE
  5
31F
100
AcDbEntity
  8
0
100
AcDbEllipse
 62
7
  6
BYLAYER
 10
28.4089311764
 20
70.5390873295
 30
0.0
 11
17.1250267564
 21
-17.0043043001
 31
0.0
 40
0.2143062114
 41
1.4794315045
 42
1.5092006484
  0
ELLIPSE
  5
320
100
AcDbEntity
  8
0
100
AcDbEllipse
 62
7
  6
BYLAYER
 10
28.4089311764
 20
70.3501074423
 30
0.0
 11
16.9585571531
 21
-16.7837266909
 31
0.0
 40
0.2593921815
 41
1.5210548867
 42
1.5508240306
  0
ELLIPSE
  5
321
100
AcDbEntity
  8
0
100
AcDbEllipse
 62
7
  6
BYLAYER
 10
28.4089311764
 20
70.1302067941
 30
0.0
 11
16.7637596114
 21
-16.523808647
 31
0.0
 40
0.3057398728
 41
1.5624707743
 42
1.5922399181
  0
ELLIPSE
  5
322
100
AcDbEntity
  8
0
100
AcDbEllipse
 62
7
  6
BYLAYER
 10
28.4089311764
 20
69.8810589615
 30
0.0
 11
16.5418339295
 21
-16.2246471729
 31
0.0
 40
0.3536019736
 41
1.6036040158
 42
1.6333731597
  0
ELLIPSE
  5
323
100
AcDbEntity
  8
0
100
AcDbEllipse
 62
7
  6
BYLAYER
 10
28.4089311764
 20
69.60456011
 30
0.0
 11
16.2944188981
 21
-15.8860502942
 31
0.0
 40
0.4032531911
 41
1.6443480471
 42
1.674117191
  0
ELLIPSE
  5
324
100
AcDbEntity
  8
0
100
AcDbEllipse
 62
7
  6
BYLAYER
 10
28.4089311764
 20
69.3028145628
 30
0.0
 11
16.023819938
 21
-15.507275323
 31
0.0
 40
0.4549951859
 41
1.6845450189
 42
1.7143141628
  0
ELLIPSE
  5
325
100
AcDbEntity
  8
0
100
AcDbEllipse
 62
7
  6
BYLAYER
 10
28.4089311764
 20
68.9781187858
 30
0.0
 11
15.7334287619
 21
-15.0865489373
 31
0.0
 40
0.5091621171
 41
1.7239491005
 42
1.7537182443
  0
ELLIPSE
  5
326
100
AcDbEntity
  8
0
100
AcDbEllipse
 62
7
  6
BYLAYER
 10
28.4089311764
 20
68.6329439098
 30
0.0
 11
15.4285527016
 21
-14.6201143459
 31
0.0
 40
0.5661264515
 41
1.7621534647
 42
1.7919226086
  0
ELLIPSE
  5
327
100
AcDbEntity
  8
0
100
AcDbEllipse
 62
7
  6
BYLAYER
 10
28.4089311764
 20
68.2699169241
 30
0.0
 11
15.1182070608
 21
-14.1001405585
 31
0.0
 40
0.6263036642
 41
1.7984306655
 42
1.8281998094
  0
ELLIPSE
  5
328
100
AcDbEntity
  8
0
100
AcDbEllipse
 62
7
  6
BYLAYER
 10
28.4089311764
 20
67.8918006833
 30
0.0
 11
14.8194770471
 21
-13.5094930283
 31
0.0
 40
0.6901509118
 41
1.8313373379
 42
1.8611064818
  0
ELLIPSE
  5
329
100
AcDbEntity
  8
0
100
AcDbEllipse
 62
7
  6
BYLAYER
 10
28.4089311764
 20
67.5014728802
 30
0.0
 11
14.5700382847
 21
-12.8060309747
 31
0.0
 40
0.7581403628
 41
1.8575479087
 42
1.8873170525
  0
ELLIPSE
  5
32A
100
AcDbEntity
  8
0
100
AcDbEllipse
 62
7
  6
BYLAYER
 10
28.4089311764
 20
67.1019041451
 30
0.0
 11
14.4741311195
 21
-11.8601695234
 31
0.0
 40
0.8306103506
 41
1.8673543145
 42
1.8971234584
  0
ELLIPSE
  5
32B
100
AcDbEntity
  8
0
100
AcDbEllipse
 62
7
  6
BYLAYER
 10
28.4089311764
 20
66.287254902
 30
0.0
 11
17.5084611122
 21
0.0
 31
0.0
 40
0.963433044
 41
7.5529487364
 42
7.5827178802
  0
ELLIPSE
  5
32C
100
AcDbEntity
  8
0
100
AcDbEllipse
 62
7
  6
BYLAYER
 10
28.4089311764
 20
66.6961354374
 30
0.0
 11
14.9543464083
 21
-10.0427045149
 31
0.0
 40
0.9066977799
 41
1.8167011824
 42
1.8464703263
  0
ELLIPSE
  5
32D
100
AcDbEntity
  8
0
100
AcDbEllipse
 62
7
  6
BYLAYER
 10
28.4089311764
 20
61.7557317157
 30
0.0
 11
17.3696482286
 21
17.326459176
 31
0.0
 40
0.1269935126
 41
1.1437568412
 42
1.1735259851
  0
ELLIPSE
  5
32E
100
AcDbEntity
  8
0
100
AcDbEllipse
 62
7
  6
BYLAYER
 10
28.4089311764
 20
64.3045928798
 30
0.0
 11
15.1182070608
 21
14.1001405585
 31
0.0
 40
0.6263036642
 41
0.7410961929
 42
0.7708653368
  0
ELLIPSE
  5
32F
100
AcDbEntity
  8
0
100
AcDbEllipse
 62
7
  6
BYLAYER
 10
28.4089311764
 20
61.6671494598
 30
0.0
 11
17.4466624083
 21
17.4274961419
 31
0.0
 40
0.0843354388
 41
1.18571908
 42
1.2154882239
  0
ELLIPSE
  5
330
100
AcDbEntity
  8
0
100
AcDbEllipse
 62
7
  6
BYLAYER
 10
28.4089311764
 20
63.9415658941
 30
0.0
 11
15.4285527016
 21
14.6201143459
 31
0.0
 40
0.5661264515
 41
0.7773733936
 42
0.8071425375
  0
ELLIPSE
  5
331
100
AcDbEntity
  8
0
100
AcDbEllipse
 62
7
  6
BYLAYER
 10
28.4089311764
 20
61.6137289959
 30
0.0
 11
17.4929960222
 21
17.4882083164
 31
0.0
 40
0.0420701413
 41
1.2277295755
 42
1.2574987193
  0
ELLIPSE
  5
332
100
AcDbEntity
  8
0
100
AcDbEllipse
 62
7
  6
BYLAYER
 10
28.4089311764
 20
63.5963910181
 30
0.0
 11
15.7334287619
 21
15.0865489373
 31
0.0
 40
0.5091621171
 41
0.8155777579
 42
0.8453469018
  0
ELLIPSE
  5
333
100
AcDbEntity
  8
0
100
AcDbEllipse
 62
7
  6
BYLAYER
 10
28.4089311764
 20
63.2716952411
 30
0.0
 11
16.023819938
 21
15.507275323
 31
0.0
 40
0.4549951859
 41
0.8549818395
 42
0.8847509834
  0
ELLIPSE
  5
334
100
AcDbEntity
  8
0
100
AcDbEllipse
 62
7
  6
BYLAYER
 10
28.4089311764
 20
65.8783743665
 30
0.0
 11
14.9543464083
 21
10.0427045149
 31
0.0
 40
0.9066977799
 41
0.722825676
 42
0.7525948199
  0
ELLIPSE
  5
335
100
AcDbEntity
  8
0
100
AcDbEllipse
 62
7
  6
BYLAYER
 10
28.4089311764
 20
70.960780808
 30
0.0
 11
17.4929960222
 21
-17.4882083164
 31
0.0
 40
0.0420701413
 41
-1.2574987193
 42
-1.2277295755
  0
ELLIPSE
  5
336
100
AcDbEntity
  8
0
100
AcDbEllipse
 62
7
  6
BYLAYER
 10
28.4089311764
 20
70.9073603442
 30
0.0
 11
17.4466624083
 21
-17.4274961419
 31
0.0
 40
0.0843354388
 41
-1.2154882239
 42
-1.18571908
  0
ELLIPSE
  5
337
100
AcDbEntity
  8
0
100
AcDbEllipse
 62
7
  6
BYLAYER
 10
28.4089311764
 20
70.8187780882
 30
0.0
 11
17.3696482286
 21
-17.326459176
 31
0.0
 40
0.1269935126
 41
-1.1735259851
 42
-1.1437568412
  0
ELLIPSE
  5
338
100
AcDbEntity
  8
0
100
AcDbEllipse
 62
7
  6
BYLAYER
 10
28.4089311764
 20
70.6957082047
 30
0.0
 11
17.2622772411
 21
-17.185307668
 31
0.0
 40
0.1702469903
 41
-1.1316401859
 42
-1.101871042
  0
ELLIPSE
  5
339
100
AcDbEntity
  8
0
100
AcDbEllipse
 62
7
  6
BYLAYER
 10
28.4089311764
 20
70.5390873295
 30
0.0
 11
17.1250267564
 21
-17.0043043001
 31
0.0
 40
0.2143062114
 41
-1.0898644977
 42
-1.0600953539
  0
ELLIPSE
  5
33A
100
AcDbEntity
  8
0
100
AcDbEllipse
 62
7
  6
BYLAYER
 10
28.4089311764
 20
70.3501074423
 30
0.0
 11
16.9585571531
 21
-16.7837266909
 31
0.0
 40
0.2593921815
 41
-1.0482411156
 42
-1.0184719717
  0
ELLIPSE
  5
33B
100
AcDbEntity
  8
0
100
AcDbEllipse
 62
7
  6
BYLAYER
 10
28.4089311764
 20
70.1302067941
 30
0.0
 11
16.7637596114
 21
-16.523808647
 31
0.0
 40
0.3057398728
 41
-1.006825228
 42
-0.9770560841
  0
ELLIPSE
  5
33C
100
AcDbEntity
  8
0
100
AcDbEllipse
 62
7
  6
BYLAYER
 10
28.4089311764
 20
69.8810589615
 30
0.0
 11
16.5418339295
 21
-16.2246471729
 31
0.0
 40
0.3536019736
 41
-0.9656919865
 42
-0.9359228426
  0
ELLIPSE
  5
33D
100
AcDbEntity
  8
0
100
AcDbEllipse
 62
7
  6
BYLAYER
 10
28.4089311764
 20
69.60456011
 30
0.0
 11
16.2944188981
 21
-15.8860502942
 31
0.0
 40
0.4032531911
 41
-0.9249479552
 42
-0.8951788113
  0
ELLIPSE
  5
33E
100
AcDbEntity
  8
0
100
AcDbEllipse
 62
7
  6
BYLAYER
 10
28.4089311764
 20
69.3028145628
 30
0.0
 11
16.023819938
 21
-15.507275323
 31
0.0
 40
0.4549951859
 41
-0.8847509834
 42
-0.8549818395
  0
ELLIPSE
  5
33F
100
AcDbEntity
  8
0
100
AcDbEllipse
 62
7
  6
BYLAYER
 10
28.4089311764
 20
68.9781187858
 30
0.0
 11
15.7334287619
 21
-15.0865489373
 31
0.0
 40
0.5091621171
 41
-0.8453469018
 42
-0.8155777579
  0
ELLIPSE
  5
340
100
AcDbEntity
  8
0
100
AcDbEllipse
 62
7
  6
BYLAYER
 10
28.4089311764
 20
68.6329439098
 30
0.0
 11
15.4285527016
 21
-14.6201143459
 31
0.0
 40
0.5661264515
 41
-0.8071425375
 42
-0.7773733936
  0
ELLIPSE
  5
341
100
AcDbEntity
  8
0
100
AcDbEllipse
 62
7
  6
BYLAYER
 10
28.4089311764
 20
68.2699169241
 30
0.0
 11
15.1182070608
 21
-14.1001405585
 31
0.0
 40
0.6263036642
 41
-0.7708653368
 42
-0.7410961929
  0
ELLIPSE
  5
342
100
AcDbEntity
  8
0
100
AcDbEllipse
 62
7
  6
BYLAYER
 10
28.4089311764
 20
67.8918006833
 30
0.0
 11
14.8194770471
 21
-13.5094930283
 31
0.0
 40
0.6901509118
 41
-0.7379586644
 42
-0.7081895205
  0
ELLIPSE
  5
343
100
AcDbEntity
  8
0
100
AcDbEllipse
 62
7
  6
BYLAYER
 10
28.4089311764
 20
67.5014728802
 30
0.0
 11
14.5700382847
 21
-12.8060309747
 31
0.0
 40
0.7581403628
 41
-0.7117480936
 42
-0.6819789497
  0
ELLIPSE
  5
344
100
AcDbEntity
  8
0
100
AcDbEllipse
 62
7
  6
BYLAYER
 10
28.4089311764
 20
67.1019041451
 30
0.0
 11
14.4741311195
 21
-11.8601695234
 31
0.0
 40
0.8306103506
 41
-0.7019416878
 42
-0.6721725439
  0
ELLIPSE
  5
345
100
AcDbEntity
  8
0
100
AcDbEllipse
 62
7
  6
BYLAYER
 10
28.4089311764
 20
66.6961354374
 30
0.0
 11
14.9543464083
 21
-10.0427045149
 31
0.0
 40
0.9066977799
 41
-0.7525948199
 42
-0.722825676
  0
ELLIPSE
  5
346
100
AcDbEntity
  8
0
100
AcDbEllipse
 62
7
  6
BYLAYER
 10
28.4089311764
 20
62.9699496939
 30
0.0
 11
16.2944188981
 21
15.8860502942
 31
0.0
 40
0.4032531911
 41
0.8951788113
 42
0.9249479552
  0
ELLIPSE
  5
347
100
AcDbEntity
  8
0
100
AcDbEllipse
 62
7
  6
BYLAYER
 10
28.4089311764
 20
65.4726056588
 30
0.0
 11
14.4741311195
 21
11.8601695234
 31
0.0
 40
0.8306103506
 41
0.6721725439
 42
0.7019416878
  0
ELLIPSE
  5
348
100
AcDbEntity
  8
0
100
AcDbEllipse
 62
7
  6
BYLAYER
 10
28.4089311764
 20
62.6934508424
 30
0.0
 11
16.5418339295
 21
16.2246471729
 31
0.0
 40
0.3536019736
 41
0.9359228426
 42
0.9656919865
  0
ELLIPSE
  5
349
100
AcDbEntity
  8
0
100
AcDbEllipse
 62
7
  6
BYLAYER
 10
28.4089311764
 20
65.0730369237
 30
0.0
 11
14.5700382847
 21
12.8060309747
 31
0.0
 40
0.7581403628
 41
0.6819789497
 42
0.7117480936
  0
ELLIPSE
  5
34A
100
AcDbEntity
  8
0
100
AcDbEllipse
 62
7
  6
BYLAYER
 10
28.4089311764
 20
62.4443030098
 30
0.0
 11
16.7637596114
 21
16.523808647
 31
0.0
 40
0.3057398728
 41
0.9770560841
 42
1.006825228
  0
ELLIPSE
  5
34B
100
AcDbEntity
  8
0
100
AcDbEllipse
 62
7
  6
BYLAYER
 10
28.4089311764
 20
62.2244023616
 30
0.0
 11
16.9585571531
 21
16.7837266909
 31
0.0
 40
0.2593921815
 41
1.0184719717
 42
1.0482411156
  0
ELLIPSE
  5
34C
100
AcDbEntity
  8
0
100
AcDbEllipse
 62
7
  6
BYLAYER
 10
28.4089311764
 20
62.0354224744
 30
0.0
 11
17.1250267564
 21
17.0043043001
 31
0.0
 40
0.2143062114
 41
1.0600953539
 42
1.0898644977
  0
ELLIPSE
  5
34D
100
AcDbEntity
  8
0
100
AcDbEllipse
 62
7
  6
BYLAYER
 10
28.4089311764
 20
64.6827091206
 30
0.0
 11
14.8194770471
 21
13.5094930283
 31
0.0
 40
0.6901509118
 41
0.7081895205
 42
0.7379586644
  0
ELLIPSE
  5
34E
100
AcDbEntity
  8
0
100
AcDbEllipse
 62
7
  6
BYLAYER
 10
28.4089311764
 20
61.8788015993
 30
0.0
 11
17.2622772411
 21
17.185307668
 31
0.0
 40
0.1702469903
 41
1.101871042
 42
1.1316401859
  0
ELLIPSE
  5
34F
100
AcDbEntity
  8
0
100
AcDbEllipse
 62
7
  6
BYLAYER
 10
30.0849341075
 20
67.43600273
 30
0.0
 11
15.791979517
 21
-10.9958379272
 31
0.0
 40
0.818317629
 41
1.7450389583
 42
1.7455491319
  0
ELLIPSE
  5
350
100
AcDbEntity
  8
0
100
AcDbEllipse
 62
7
  6
BYLAYER
 10
30.0849341076
 20
67.9994399643
 30
0.0
 11
15.6563003942
 21
-12.3580633753
 31
0.0
 40
0.7470541823
 41
8.0385987122
 42
8.0436192332
  0
ELLIPSE
  5
351
100
AcDbEntity
  8
0
100
AcDbEllipse
 62
7
  6
BYLAYER
 10
30.0849341075
 20
68.5498464365
 30
0.0
 11
15.7703479229
 21
-13.3023954138
 31
0.0
 40
0.6792721423
 41
8.0226879656
 42
8.0311334124
  0
ELLIPSE
  5
352
100
AcDbEntity
  8
0
100
AcDbEllipse
 62
7
  6
BYLAYER
 10
30.0849341075
 20
69.083033221
 30
0.0
 11
15.9844133441
 21
-14.0585338956
 31
0.0
 40
0.6154007239
 41
1.7125697243
 42
1.7237441171
  0
ELLIPSE
  5
353
100
AcDbEntity
  8
0
100
AcDbEllipse
 62
7
  6
BYLAYER
 10
30.0849341075
 20
69.5949424443
 30
0.0
 11
16.2385436118
 21
-14.7051040421
 31
0.0
 40
0.5552272381
 41
1.6800913841
 42
1.6935221503
  0
ELLIPSE
  5
354
100
AcDbEntity
  8
0
100
AcDbEllipse
 62
7
  6
BYLAYER
 10
30.0849341075
 20
70.0816781681
 30
0.0
 11
16.5043969512
 21
-15.274965845
 31
0.0
 40
0.4983942514
 41
1.6444719572
 42
1.6598253033
  0
ELLIPSE
  5
355
100
AcDbEntity
  8
0
100
AcDbEllipse
 62
7
  6
BYLAYER
 10
30.0849341075
 20
70.5395360398
 30
0.0
 11
16.766803626
 21
-15.7835371161
 31
0.0
 40
0.4445239339
 41
1.6069196864
 42
1.623954571
  0
ELLIPSE
  5
356
100
AcDbEntity
  8
0
100
AcDbEllipse
 62
7
  6
BYLAYER
 10
30.0849341075
 20
70.9650314844
 30
0.0
 11
17.0168501026
 21
-16.2384907108
 31
0.0
 40
0.3932536107
 41
1.5681045669
 42
1.5866441138
  0
ELLIPSE
  5
357
100
AcDbEntity
  8
0
100
AcDbEllipse
 62
7
  6
BYLAYER
 10
30.0849341075
 20
71.3549262247
 30
0.0
 11
17.2489119491
 21
-16.6436838349
 31
0.0
 40
0.3442450777
 41
1.5284256265
 42
1.5483400703
  0
ELLIPSE
  5
358
100
AcDbEntity
  8
0
100
AcDbEllipse
 62
7
  6
BYLAYER
 10
30.0849341075
 20
71.7062529262
 30
0.0
 11
17.4592414022
 21
-17.0009614673
 31
0.0
 40
0.2971852239
 41
1.4881351505
 42
1.5093298802
  0
ELLIPSE
  5
359
100
AcDbEntity
  8
0
100
AcDbEllipse
 62
7
  6
BYLAYER
 10
30.0849341075
 20
72.0163377808
 30
0.0
 11
17.6452378715
 21
-17.311068251
 31
0.0
 40
0.2517837063
 41
1.447560264
 42
1.4698078979
  0
ELLIPSE
  5
35A
100
AcDbEntity
  8
0
100
AcDbEllipse
 62
7
  6
BYLAYER
 10
30.0849341075
 20
72.2828208553
 30
0.0
 11
17.8050458869
 21
-17.5741469284
 31
0.0
 40
0.2077697388
 41
1.4065581876
 42
1.4299111685
  0
ELLIPSE
  5
35B
100
AcDbEntity
  8
0
100
AcDbEllipse
 62
7
  6
BYLAYER
 10
30.0849341075
 20
72.5036740527
 30
0.0
 11
17.9373217495
 21
-17.7900285404
 31
0.0
 40
0.1648887629
 41
1.3652388603
 42
1.3897401552
  0
ELLIPSE
  5
35C
100
AcDbEntity
  8
0
100
AcDbEllipse
 62
7
  6
BYLAYER
 10
30.0849341076
 20
72.6772165468
 30
0.0
 11
18.0410926156
 21
-17.9584099181
 31
0.0
 40
0.1228992729
 41
1.3236867023
 42
1.3493714145
  0
ELLIPSE
  5
35D
100
AcDbEntity
  8
0
100
AcDbEllipse
 62
7
  6
BYLAYER
 10
30.0849341075
 20
72.8021275743
 30
0.0
 11
18.1156691418
 21
-18.0789658936
 31
0.0
 40
0.0815698667
 41
1.2819697374
 42
1.3088657657
  0
ELLIPSE
  5
35E
100
AcDbEntity
  8
0
100
AcDbEllipse
 62
7
  6
BYLAYER
 10
30.0849341075
 20
72.8774564871
 30
0.0
 11
18.1605909673
 21
-18.1514209571
 31
0.0
 40
0.0406765142
 41
1.2401461389
 42
1.2682738639
  0
ELLIPSE
  5
35F
100
AcDbEntity
  8
0
100
AcDbEllipse
 62
7
  6
BYLAYER
 10
41.3916872079
 20
65.8783743665
 30
0.0
 11
14.9543464083
 21
-10.0427045149
 31
0.0
 40
0.9066977799
 41
-1.3248914712
 42
-1.2951223273
  0
ELLIPSE
  5
360
100
AcDbEntity
  8
0
100
AcDbEllipse
 62
7
  6
BYLAYER
 10
41.3916872079
 20
65.4726056588
 30
0.0
 11
14.4741311195
 21
-11.8601695234
 31
0.0
 40
0.8306103506
 41
-1.2742383391
 42
-1.2444691952
  0
ELLIPSE
  5
361
100
AcDbEntity
  8
0
100
AcDbEllipse
 62
7
  6
BYLAYER
 10
41.3916872079
 20
65.0730369237
 30
0.0
 11
14.5700382847
 21
-12.8060309747
 31
0.0
 40
0.7581403628
 41
-1.2840447449
 42
-1.2542756011
  0
ELLIPSE
  5
362
100
AcDbEntity
  8
0
100
AcDbEllipse
 62
7
  6
BYLAYER
 10
41.3916872079
 20
64.6827091206
 30
0.0
 11
14.8194770471
 21
-13.5094930283
 31
0.0
 40
0.6901509118
 41
-1.3102553157
 42
-1.2804861718
  0
ELLIPSE
  5
363
100
AcDbEntity
  8
0
100
AcDbEllipse
 62
7
  6
BYLAYER
 10
41.3916872079
 20
64.3045928798
 30
0.0
 11
15.1182070608
 21
-14.1001405585
 31
0.0
 40
0.6263036642
 41
-1.3431619881
 42
-1.3133928442
  0
ELLIPSE
  5
364
100
AcDbEntity
  8
0
100
AcDbEllipse
 62
7
  6
BYLAYER
 10
41.3916872079
 20
63.9415658941
 30
0.0
 11
15.4285527016
 21
-14.6201143459
 31
0.0
 40
0.5661264515
 41
-1.3794391888
 42
-1.349670045
  0
ELLIPSE
  5
365
100
AcDbEntity
  8
0
100
AcDbEllipse
 62
7
  6
BYLAYER
 10
41.3916872079
 20
63.5963910181
 30
0.0
 11
15.7334287619
 21
-15.0865489373
 31
0.0
 40
0.5091621171
 41
-1.4176435531
 42
-1.3878744092
  0
ELLIPSE
  5
366
100
AcDbEntity
  8
0
100
AcDbEllipse
 62
7
  6
BYLAYER
 10
41.3916872079
 20
63.2716952411
 30
0.0
 11
16.023819938
 21
-15.507275323
 31
0.0
 40
0.4549951859
 41
-1.4570476347
 42
-1.4272784908
  0
ELLIPSE
  5
367
100
AcDbEntity
  8
0
100
AcDbEllipse
 62
7
  6
BYLAYER
 10
41.3916872079
 20
62.9699496939
 30
0.0
 11
16.2944188981
 21
-15.8860502942
 31
0.0
 40
0.4032531911
 41
-1.4972446065
 42
-1.4674754626
  0
ELLIPSE
  5
368
100
AcDbEntity
  8
0
100
AcDbEllipse
 62
7
  6
BYLAYER
 10
41.3916872079
 20
62.6934508424
 30
0.0
 11
16.5418339295
 21
-16.2246471729
 31
0.0
 40
0.3536019736
 41
-1.5379886378
 42
-1.5082194939
  0
ELLIPSE
  5
369
100
AcDbEntity
  8
0
100
AcDbEllipse
 62
7
  6
BYLAYER
 10
41.3916872079
 20
62.4443030098
 30
0.0
 11
16.7637596114
 21
-16.523808647
 31
0.0
 40
0.3057398728
 41
-1.5791218793
 42
-1.5493527354
  0
ELLIPSE
  5
36A
100
AcDbEntity
  8
0
100
AcDbEllipse
 62
7
  6
BYLAYER
 10
41.3916872079
 20
62.2244023616
 30
0.0
 11
16.9585571531
 21
-16.7837266909
 31
0.0
 40
0.2593921815
 41
-1.6205377669
 42
-1.590768623
  0
ELLIPSE
  5
36B
100
AcDbEntity
  8
0
100
AcDbEllipse
 62
7
  6
BYLAYER
 10
41.3916872079
 20
62.0354224744
 30
0.0
 11
17.1250267564
 21
-17.0043043001
 31
0.0
 40
0.2143062114
 41
-1.6621611491
 42
-1.6323920052
  0
ELLIPSE
  5
36C
100
AcDbEntity
  8
0
100
AcDbEllipse
 62
7
  6
BYLAYER
 10
41.3916872079
 20
61.8788015993
 30
0.0
 11
17.2622772411
 21
-17.185307668
 31
0.0
 40
0.1702469903
 41
-1.7039368372
 42
-1.6741676933
  0
ELLIPSE
  5
36D
100
AcDbEntity
  8
0
100
AcDbEllipse
 62
7
  6
BYLAYER
 10
41.3916872079
 20
61.7557317157
 30
0.0
 11
17.3696482286
 21
-17.326459176
 31
0.0
 40
0.1269935126
 41
-1.7458226364
 42
-1.7160534926
  0
ELLIPSE
  5
36E
100
AcDbEntity
  8
0
100
AcDbEllipse
 62
7
  6
BYLAYER
 10
41.3916872079
 20
61.6671494598
 30
0.0
 11
17.4466624083
 21
-17.4274961419
 31
0.0
 40
0.0843354388
 41
-1.7877848753
 42
-1.7580157314
  0
ELLIPSE
  5
36F
100
AcDbEntity
  8
0
100
AcDbEllipse
 62
7
  6
BYLAYER
 10
41.3916872079
 20
61.6137289959
 30
0.0
 11
17.4929960222
 21
-17.4882083164
 31
0.0
 40
0.0420701413
 41
-1.8297953707
 42
-1.8000262268
  0
ELLIPSE
  5
370
100
AcDbEntity
  8
0
100
AcDbEllipse
 62
7
  6
BYLAYER
 10
41.3916872079
 20
66.287254902
 30
0.0
 11
17.5084611122
 21
0.0
 31
0.0
 40
0.963433044
 41
4.4113560828
 42
4.4411252267
  0
ELLIPSE
  5
371
100
AcDbEntity
  8
0
100
AcDbEllipse
 62
7
  6
BYLAYER
 10
30.0849341075
 20
65.1385070739
 30
0.0
 11
15.791979517
 21
10.9958379272
 31
0.0
 40
0.818317629
 41
-1.7455491319
 42
-1.7450389575
  0
ELLIPSE
  5
372
100
AcDbEntity
  8
0
100
AcDbEllipse
 62
7
  6
BYLAYER
 10
41.3916872079
 20
66.287254902
 30
0.0
 11
17.5084611122
 21
-0.0
 31
0.0
 40
0.963433044
 41
1.8420600805
 42
1.8718292244
  0
ELLIPSE
  5
373
100
AcDbEntity
  8
0
100
AcDbEllipse
 62
7
  6
BYLAYER
 10
30.0849341076
 20
64.5750698396
 30
0.0
 11
15.6563003942
 21
12.3580633753
 31
0.0
 40
0.7470541823
 41
-1.7604339261
 42
-1.7554134017
  0
ELLIPSE
  5
374
100
AcDbEntity
  8
0
100
AcDbEllipse
 62
7
  6
BYLAYER
 10
41.3916872079
 20
66.6961354374
 30
0.0
 11
14.9543464083
 21
10.0427045149
 31
0.0
 40
0.9066977799
 41
1.2951223273
 42
1.3248914712
  0
ELLIPSE
  5
375
100
AcDbEntity
  8
0
100
AcDbEllipse
 62
7
  6
BYLAYER
 10
30.0849341075
 20
64.0246633674
 30
0.0
 11
15.7703479229
 21
13.3023954138
 31
0.0
 40
0.6792721423
 41
-1.7479481052
 42
-1.7395026589
  0
ELLIPSE
  5
376
100
AcDbEntity
  8
0
100
AcDbEllipse
 62
7
  6
BYLAYER
 10
41.3916872079
 20
67.1019041451
 30
0.0
 11
14.4741311195
 21
11.8601695234
 31
0.0
 40
0.8306103506
 41
1.2444691952
 42
1.2742383391
  0
ELLIPSE
  5
377
100
AcDbEntity
  8
0
100
AcDbEllipse
 62
7
  6
BYLAYER
 10
30.0849341075
 20
63.4914765829
 30
0.0
 11
15.9844133441
 21
14.0585338956
 31
0.0
 40
0.6154007239
 41
-1.7237441171
 42
-1.7125697259
  0
ELLIPSE
  5
378
100
AcDbEntity
  8
0
100
AcDbEllipse
 62
7
  6
BYLAYER
 10
41.3916872079
 20
67.5014728802
 30
0.0
 11
14.5700382847
 21
12.8060309747
 31
0.0
 40
0.7581403628
 41
1.2542756011
 42
1.2840447449
  0
ELLIPSE
  5
379
100
AcDbEntity
  8
0
100
AcDbEllipse
 62
7
  6
BYLAYER
 10
30.0849341075
 20
62.9795673597
 30
0.0
 11
16.2385436118
 21
14.7051040421
 31
0.0
 40
0.5552272381
 41
-1.6935221503
 42
-1.6800913845
  0
ELLIPSE
  5
37A
100
AcDbEntity
  8
0
100
AcDbEllipse
 62
7
  6
BYLAYER
 10
41.3916872079
 20
67.8918006833
 30
0.0
 11
14.8194770471
 21
13.5094930283
 31
0.0
 40
0.6901509118
 41
1.2804861718
 42
1.3102553157
  0
ELLIPSE
  5
37B
100
AcDbEntity
  8
0
100
AcDbEllipse
 62
7
  6
BYLAYER
 10
30.0849341075
 20
62.4928316358
 30
0.0
 11
16.5043969512
 21
15.274965845
 31
0.0
 40
0.4983942514
 41
-1.6598253033
 42
-1.6444719578
  0
ELLIPSE
  5
37C
100
AcDbEntity
  8
0
100
AcDbEllipse
 62
7
  6
BYLAYER
 10
41.3916872079
 20
68.2699169241
 30
0.0
 11
15.1182070608
 21
14.1001405585
 31
0.0
 40
0.6263036642
 41
1.3133928442
 42
1.3431619881
  0
ELLIPSE
  5
37D
100
AcDbEntity
  8
0
100
AcDbEllipse
 62
7
  6
BYLAYER
 10
30.0849341075
 20
62.0349737641
 30
0.0
 11
16.766803626
 21
15.7835371161
 31
0.0
 40
0.4445239339
 41
-1.623954571
 42
-1.6069196881
  0
ELLIPSE
  5
37E
100
AcDbEntity
  8
0
100
AcDbEllipse
 62
7
  6
BYLAYER
 10
41.3916872079
 20
68.6329439098
 30
0.0
 11
15.4285527016
 21
14.6201143459
 31
0.0
 40
0.5661264515
 41
1.349670045
 42
1.3794391888
  0
ELLIPSE
  5
37F
100
AcDbEntity
  8
0
100
AcDbEllipse
 62
7
  6
BYLAYER
 10
30.0849341075
 20
61.6094783195
 30
0.0
 11
17.0168501026
 21
16.2384907108
 31
0.0
 40
0.3932536107
 41
-1.5866441138
 42
-1.5681045703
  0
ELLIPSE
  5
380
100
AcDbEntity
  8
0
100
AcDbEllipse
 62
7
  6
BYLAYER
 10
41.3916872079
 20
68.9781187858
 30
0.0
 11
15.7334287619
 21
15.0865489373
 31
0.0
 40
0.5091621171
 41
1.3878744092
 42
1.4176435531
  0
ELLIPSE
  5
381
100
AcDbEntity
  8
0
100
AcDbEllipse
 62
7
  6
BYLAYER
 10
30.0849341075
 20
61.2195835793
 30
0.0
 11
17.2489119491
 21
16.6436838349
 31
0.0
 40
0.3442450777
 41
-1.5483400703
 42
-1.5284256044
  0
ELLIPSE
  5
382
100
AcDbEntity
  8
0
100
AcDbEllipse
 62
7
  6
BYLAYER
 10
41.3916872079
 20
69.3028145628
 30
0.0
 11
16.023819938
 21
15.507275323
 31
0.0
 40
0.4549951859
 41
1.4272784908
 42
1.4570476347
  0
ELLIPSE
  5
383
100
AcDbEntity
  8
0
100
AcDbEllipse
 62
7
  6
BYLAYER
 10
30.0849341075
 20
60.8682568777
 30
0.0
 11
17.4592414022
 21
17.0009614673
 31
0.0
 40
0.2971852239
 41
-1.5093298802
 42
-1.4881351175
  0
ELLIPSE
  5
384
100
AcDbEntity
  8
0
100
AcDbEllipse
 62
7
  6
BYLAYER
 10
41.3916872079
 20
69.60456011
 30
0.0
 11
16.2944188981
 21
15.8860502942
 31
0.0
 40
0.4032531911
 41
1.4674754626
 42
1.4972446065
  0
ELLIPSE
  5
385
100
AcDbEntity
  8
0
100
AcDbEllipse
 62
7
  6
BYLAYER
 10
30.0849341075
 20
60.5581720231
 30
0.0
 11
17.6452378715
 21
17.311068251
 31
0.0
 40
0.2517837063
 41
-1.4698078979
 42
-1.4475602366
  0
ELLIPSE
  5
386
100
AcDbEntity
  8
0
100
AcDbEllipse
 62
7
  6
BYLAYER
 10
41.3916872079
 20
69.8810589615
 30
0.0
 11
16.5418339295
 21
16.2246471729
 31
0.0
 40
0.3536019736
 41
1.5082194939
 42
1.5379886378
  0
ELLIPSE
  5
387
100
AcDbEntity
  8
0
100
AcDbEllipse
 62
7
  6
BYLAYER
 10
30.0849341075
 20
60.2916889486
 30
0.0
 11
17.8050458869
 21
17.5741469284
 31
0.0
 40
0.2077697388
 41
-1.4299111685
 42
-1.4065581646
  0
ELLIPSE
  5
388
100
AcDbEntity
  8
0
100
AcDbEllipse
 62
7
  6
BYLAYER
 10
41.3916872079
 20
70.1302067941
 30
0.0
 11
16.7637596114
 21
16.523808647
 31
0.0
 40
0.3057398728
 41
1.5493527354
 42
1.5791218793
  0
ELLIPSE
  5
389
100
AcDbEntity
  8
0
100
AcDbEllipse
 62
7
  6
BYLAYER
 10
30.0849341075
 20
60.0708357512
 30
0.0
 11
17.9373217495
 21
17.7900285404
 31
0.0
 40
0.1648887629
 41
-1.3897401552
 42
-1.3652388413
  0
ELLIPSE
  5
38A
100
AcDbEntity
  8
0
100
AcDbEllipse
 62
7
  6
BYLAYER
 10
41.3916872079
 20
70.3501074423
 30
0.0
 11
16.9585571531
 21
16.7837266909
 31
0.0
 40
0.2593921815
 41
1.590768623
 42
1.6205377669
  0
ELLIPSE
  5
38B
100
AcDbEntity
  8
0
100
AcDbEllipse
 62
7
  6
BYLAYER
 10
30.0849341076
 20
59.8972932572
 30
0.0
 11
18.0410926156
 21
17.9584099181
 31
0.0
 40
0.1228992729
 41
-1.3493714145
 42
-1.3236866873
  0
ELLIPSE
  5
38C
100
AcDbEntity
  8
0
100
AcDbEllipse
 62
7
  6
BYLAYER
 10
41.3916872079
 20
70.5390873295
 30
0.0
 11
17.1250267564
 21
17.0043043001
 31
0.0
 40
0.2143062114
 41
1.6323920052
 42
1.6621611491
  0
ELLIPSE
  5
38D
100
AcDbEntity
  8
0
100
AcDbEllipse
 62
7
  6
BYLAYER
 10
30.0849341075
 20
59.7723822296
 30
0.0
 11
18.1156691418
 21
18.0789658936
 31
0.0
 40
0.0815698667
 41
-1.3088657657
 42
-1.2819697269
  0
ELLIPSE
  5
38E
100
AcDbEntity
  8
0
100
AcDbEllipse
 62
7
  6
BYLAYER
 10
41.3916872079
 20
70.6957082047
 30
0.0
 11
17.2622772411
 21
17.185307668
 31
0.0
 40
0.1702469903
 41
1.6741676933
 42
1.7039368372
  0
ELLIPSE
  5
38F
100
AcDbEntity
  8
0
100
AcDbEllipse
 62
7
  6
BYLAYER
 10
30.0849341075
 20
59.6970533168
 30
0.0
 11
18.1605909673
 21
18.1514209571
 31
0.0
 40
0.0406765142
 41
-1.2682738639
 42
-1.2401461334
  0
ELLIPSE
  5
390
100
AcDbEntity
  8
0
100
AcDbEllipse
 62
7
  6
BYLAYER
 10
41.3916872079
 20
70.8187780882
 30
0.0
 11
17.3696482286
 21
17.326459176
 31
0.0
 40
0.1269935126
 41
1.7160534926
 42
1.7458226364
  0
ELLIPSE
  5
391
100
AcDbEntity
  8
0
100
AcDbEllipse
 62
7
  6
BYLAYER
 10
41.3916872079
 20
70.9073603442
 30
0.0
 11
17.4466624083
 21
17.4274961419
 31
0.0
 40
0.0843354388
 41
1.7580157314
 42
1.7877848753
  0
ELLIPSE
  5
392
100
AcDbEntity
  8
0
100
AcDbEllipse
 62
7
  6
BYLAYER
 10
41.3916872079
 20
70.960780808
 30
0.0
 11
17.4929960222
 21
17.4882083164
 31
0.0
 40
0.0420701413
 41
1.8000262268
 42
1.8297953707
  0
ELLIPSE
  5
393
100
AcDbEntity
  8
0
100
AcDbEllipse
 62
7
  6
BYLAYER
 10
41.3916872079
 20
67.5014728802
 30
0.0
 11
14.5700382847
 21
12.8060309747
 31
0.0
 40
0.7581403628
 41
-2.4596137039
 42
-2.42984456
  0
ELLIPSE
  5
394
100
AcDbEntity
  8
0
100
AcDbEllipse
 62
7
  6
BYLAYER
 10
41.3916872079
 20
67.8918006833
 30
0.0
 11
14.8194770471
 21
13.5094930283
 31
0.0
 40
0.6901509118
 41
-2.4334031331
 42
-2.4036339892
  0
ELLIPSE
  5
395
100
AcDbEntity
  8
0
100
AcDbEllipse
 62
7
  6
BYLAYER
 10
41.3916872079
 20
68.2699169241
 30
0.0
 11
15.1182070608
 21
14.1001405585
 31
0.0
 40
0.6263036642
 41
-2.4004964607
 42
-2.3707273168
  0
ELLIPSE
  5
396
100
AcDbEntity
  8
0
100
AcDbEllipse
 62
7
  6
BYLAYER
 10
41.3916872079
 20
68.6329439098
 30
0.0
 11
15.4285527016
 21
14.6201143459
 31
0.0
 40
0.5661264515
 41
-2.36421926
 42
-2.3344501161
  0
ELLIPSE
  5
397
100
AcDbEntity
  8
0
100
AcDbEllipse
 62
7
  6
BYLAYER
 10
41.3916872079
 20
68.9781187858
 30
0.0
 11
15.7334287619
 21
15.0865489373
 31
0.0
 40
0.5091621171
 41
-2.3260148957
 42
-2.2962457518
  0
ELLIPSE
  5
398
100
AcDbEntity
  8
0
100
AcDbEllipse
 62
7
  6
BYLAYER
 10
41.3916872079
 20
69.3028145628
 30
0.0
 11
16.023819938
 21
15.507275323
 31
0.0
 40
0.4549951859
 41
-2.2866108141
 42
-2.2568416702
  0
ELLIPSE
  5
399
100
AcDbEntity
  8
0
100
AcDbEllipse
 62
7
  6
BYLAYER
 10
41.3916872079
 20
69.60456011
 30
0.0
 11
16.2944188981
 21
15.8860502942
 31
0.0
 40
0.4032531911
 41
-2.2464138423
 42
-2.2166446984
  0
ELLIPSE
  5
39A
100
AcDbEntity
  8
0
100
AcDbEllipse
 62
7
  6
BYLAYER
 10
41.3916872079
 20
69.8810589615
 30
0.0
 11
16.5418339295
 21
16.2246471729
 31
0.0
 40
0.3536019736
 41
-2.205669811
 42
-2.1759006671
  0
ELLIPSE
  5
39B
100
AcDbEntity
  8
0
100
AcDbEllipse
 62
7
  6
BYLAYER
 10
41.3916872079
 20
61.6137289959
 30
0.0
 11
17.4929960222
 21
-17.4882083164
 31
0.0
 40
0.0420701413
 41
1.8840939343
 42
1.9138630781
  0
ELLIPSE
  5
39C
100
AcDbEntity
  8
0
100
AcDbEllipse
 62
7
  6
BYLAYER
 10
41.3916872079
 20
61.6671494598
 30
0.0
 11
17.4466624083
 21
-17.4274961419
 31
0.0
 40
0.0843354388
 41
1.9261044297
 42
1.9558735735
  0
ELLIPSE
  5
39D
100
AcDbEntity
  8
0
100
AcDbEllipse
 62
7
  6
BYLAYER
 10
41.3916872079
 20
61.7557317157
 30
0.0
 11
17.3696482286
 21
-17.326459176
 31
0.0
 40
0.1269935126
 41
1.9680666685
 42
1.9978358124
  0
ELLIPSE
  5
39E
100
AcDbEntity
  8
0
100
AcDbEllipse
 62
7
  6
BYLAYER
 10
41.3916872079
 20
70.1302067941
 30
0.0
 11
16.7637596114
 21
16.523808647
 31
0.0
 40
0.3057398728
 41
-2.1645365695
 42
-2.1347674256
  0
ELLIPSE
  5
39F
100
AcDbEntity
  8
0
100
AcDbEllipse
 62
7
  6
BYLAYER
 10
41.3916872079
 20
61.8788015993
 30
0.0
 11
17.2622772411
 21
-17.185307668
 31
0.0
 40
0.1702469903
 41
2.0099524677
 42
2.0397216116
  0
ELLIPSE
  5
3A0
100
AcDbEntity
  8
0
100
AcDbEllipse
 62
7
  6
BYLAYER
 10
41.3916872079
 20
62.0354224744
 30
0.0
 11
17.1250267564
 21
-17.0043043001
 31
0.0
 40
0.2143062114
 41
2.0517281558
 42
2.0814972997
  0
ELLIPSE
  5
3A1
100
AcDbEntity
  8
0
100
AcDbEllipse
 62
7
  6
BYLAYER
 10
41.3916872079
 20
62.2244023616
 30
0.0
 11
16.9585571531
 21
-16.7837266909
 31
0.0
 40
0.2593921815
 41
2.093351538
 42
2.1231206819
  0
ELLIPSE
  5
3A2
100
AcDbEntity
  8
0
100
AcDbEllipse
 62
7
  6
BYLAYER
 10
41.3916872079
 20
62.4443030098
 30
0.0
 11
16.7637596114
 21
-16.523808647
 31
0.0
 40
0.3057398728
 41
2.1347674256
 42
2.1645365695
  0
ELLIPSE
  5
3A3
100
AcDbEntity
  8
0
100
AcDbEllipse
 62
7
  6
BYLAYER
 10
41.3916872079
 20
70.3501074423
 30
0.0
 11
16.9585571531
 21
16.7837266909
 31
0.0
 40
0.2593921815
 41
-2.1231206819
 42
-2.093351538
  0
ELLIPSE
  5
3A4
100
AcDbEntity
  8
0
100
AcDbEllipse
 62
7
  6
BYLAYER
 10
41.3916872079
 20
62.6934508424
 30
0.0
 11
16.5418339295
 21
-16.2246471729
 31
0.0
 40
0.3536019736
 41
2.1759006671
 42
2.205669811
  0
ELLIPSE
  5
3A5
100
AcDbEntity
  8
0
100
AcDbEllipse
 62
7
  6
BYLAYER
 10
41.3916872079
 20
62.9699496939
 30
0.0
 11
16.2944188981
 21
-15.8860502942
 31
0.0
 40
0.4032531911
 41
2.2166446984
 42
2.2464138423
  0
ELLIPSE
  5
3A6
100
AcDbEntity
  8
0
100
AcDbEllipse
 62
7
  6
BYLAYER
 10
41.3916872079
 20
63.2716952411
 30
0.0
 11
16.023819938
 21
-15.507275323
 31
0.0
 40
0.4549951859
 41
2.2568416702
 42
2.2866108141
  0
ELLIPSE
  5
3A7
100
AcDbEntity
  8
0
100
AcDbEllipse
 62
7
  6
BYLAYER
 10
41.3916872079
 20
63.5963910181
 30
0.0
 11
15.7334287619
 21
-15.0865489373
 31
0.0
 40
0.5091621171
 41
2.2962457518
 42
2.3260148957
  0
ELLIPSE
  5
3A8
100
AcDbEntity
  8
0
100
AcDbEllipse
 62
7
  6
BYLAYER
 10
41.3916872079
 20
70.5390873295
 30
0.0
 11
17.1250267564
 21
17.0043043001
 31
0.0
 40
0.2143062114
 41
-2.0814972997
 42
-2.0517281558
  0
ELLIPSE
  5
3A9
100
AcDbEntity
  8
0
100
AcDbEllipse
 62
7
  6
BYLAYER
 10
41.3916872079
 20
63.9415658941
 30
0.0
 11
15.4285527016
 21
-14.6201143459
 31
0.0
 40
0.5661264515
 41
2.3344501161
 42
2.36421926
  0
ELLIPSE
  5
3AA
100
AcDbEntity
  8
0
100
AcDbEllipse
 62
7
  6
BYLAYER
 10
41.3916872079
 20
64.3045928798
 30
0.0
 11
15.1182070608
 21
-14.1001405585
 31
0.0
 40
0.6263036642
 41
2.3707273168
 42
2.4004964607
  0
ELLIPSE
  5
3AB
100
AcDbEntity
  8
0
100
AcDbEllipse
 62
7
  6
BYLAYER
 10
41.3916872079
 20
64.6827091206
 30
0.0
 11
14.8194770471
 21
-13.5094930283
 31
0.0
 40
0.6901509118
 41
2.4036339892
 42
2.4334031331
  0
ELLIPSE
  5
3AC
100
AcDbEntity
  8
0
100
AcDbEllipse
 62
7
  6
BYLAYER
 10
41.3916872079
 20
65.0730369237
 30
0.0
 11
14.5700382847
 21
-12.8060309747
 31
0.0
 40
0.7581403628
 41
2.42984456
 42
2.4596137039
  0
ELLIPSE
  5
3AD
100
AcDbEntity
  8
0
100
AcDbEllipse
 62
7
  6
BYLAYER
 10
41.3916872079
 20
65.4726056588
 30
0.0
 11
14.4741311195
 21
-11.8601695234
 31
0.0
 40
0.8306103506
 41
2.4396509658
 42
2.4694201097
  0
ELLIPSE
  5
3AE
100
AcDbEntity
  8
0
100
AcDbEllipse
 62
7
  6
BYLAYER
 10
41.3916872079
 20
70.6957082047
 30
0.0
 11
17.2622772411
 21
17.185307668
 31
0.0
 40
0.1702469903
 41
-2.0397216116
 42
-2.0099524677
  0
ELLIPSE
  5
3AF
100
AcDbEntity
  8
0
100
AcDbEllipse
 62
7
  6
BYLAYER
 10
41.3916872079
 20
65.8783743665
 30
0.0
 11
14.9543464083
 21
-10.0427045149
 31
0.0
 40
0.9066977799
 41
2.3889978337
 42
2.4187669776
  0
ELLIPSE
  5
3B0
100
AcDbEntity
  8
0
100
AcDbEllipse
 62
7
  6
BYLAYER
 10
41.3916872079
 20
70.8187780882
 30
0.0
 11
17.3696482286
 21
17.326459176
 31
0.0
 40
0.1269935126
 41
-1.9978358124
 42
-1.9680666685
  0
ELLIPSE
  5
3B1
100
AcDbEntity
  8
0
100
AcDbEllipse
 62
7
  6
BYLAYER
 10
41.3916872079
 20
70.9073603442
 30
0.0
 11
17.4466624083
 21
17.4274961419
 31
0.0
 40
0.0843354388
 41
-1.9558735735
 42
-1.9261044297
  0
ELLIPSE
  5
3B2
100
AcDbEntity
  8
0
100
AcDbEllipse
 62
7
  6
BYLAYER
 10
41.3916872079
 20
66.6961354374
 30
0.0
 11
14.9543464083
 21
10.0427045149
 31
0.0
 40
0.9066977799
 41
-2.4187669776
 42
-2.3889978337
  0
ELLIPSE
  5
3B3
100
AcDbEntity
  8
0
100
AcDbEllipse
 62
7
  6
BYLAYER
 10
41.3916872079
 20
70.960780808
 30
0.0
 11
17.4929960222
 21
17.4882083164
 31
0.0
 40
0.0420701413
 41
-1.9138630781
 42
-1.8840939343
  0
ELLIPSE
  5
3B4
100
AcDbEntity
  8
0
100
AcDbEllipse
 62
7
  6
BYLAYER
 10
41.3916872079
 20
67.1019041451
 30
0.0
 11
14.4741311195
 21
11.8601695234
 31
0.0
 40
0.8306103506
 41
-2.4694201097
 42
-2.4396509658
  0
ENDSEC
  0
SECTION
  2
OBJECTS
  0
DICTIONARY
  5
C
100
AcDbDictionary
280
0
281
1
  3
ACAD_GROUP
350
D
  3
ACAD_MLINESTYLE
350
17
  3
ACAD_LAYOUT
350
1A
  3
ACAD_PLOTSETTINGS
350
19
  3
ACAD_PLOTSTYLENAME
350
E
  0
DICTIONARY
  5
D
102
{ACAD_REACTORS
330
C
102
}
100
AcDbDictionary
280
0
281
1
  0
ACDBDICTIONARYWDFLT
  5
E
102
{ACAD_REACTORS
330
C
102
}
100
AcDbDictionary
281
1
  3
Normal
350
F
100
AcDbDictionaryWithDefault
340
F
  0
DICTIONARY
  5
17
102
{ACAD_REACTORS
330
C
102
}
100
AcDbDictionary
280
0
281
1
  3
Standard
350
18
  0
DICTIONARY
  5
19
102
{ACAD_REACTORS
330
C
102
}
100
AcDbDictionary
281
1
  0
DICTIONARY
  5
1A
102
{ACAD_REACTORS
330
C
102
}
100
AcDbDictionary
281
1
  3
Model
350
3B5
  3
Layout1
350
3B6
  0
ACDBPLACEHOLDER
  5
F
102
{ACAD_REACTORS
330
E
102
}
  0
MLINESTYLE
  5
18
102
{ACAD_REACTORS
330
17
102
}
100
AcDbMlineStyle
  2
STANDARD
 70
0
  3

 62
256
 51
90.0
 52
90.0
 71
2
 49
0.5
 62
256
  6
BYLAYER
 49
-0.5
 62
256
  6
BYLAYER
  0
LAYOUT
  5
3B5
102
{ACAD_REACTORS
330
1A
102
}
100
AcDbPlotSettings
  1

  2
none_device
  4

  6

 40
0.0
 41
0.0
 42
0.0
 43
0.0
 44
210.0
 45
297.0
 46
0.0
 47
0.0
 48
0.0
 49
0.0
140
0.0
141
0.0
142
1.0
143
1.0
 70
1024
 72
1
 73
0
 74
0
  7

 75
0
147
1.0
148
0.0
149
0.0
100
AcDbLayout
  1
Model
 70
0
 71
0
 10
0.0
 20
0.0
 11
210.0
 21
297.0
 12
0.0
 22
0.0
 32
0.0
 14
0.0
 24
0.0
 34
0.0
 15
0.0
 25
0.0
 35
0.0
146
0.0
 13
0.0
 23
0.0
 33
0.0
 16
1.0
 26
0.0
 36
0.0
 17
0.0
 27
1.0
 37
0.0
 76
0
330
210
345
0
346
0
  0
LAYOUT
  5
3B6
102
{ACAD_REACTORS
330
1A
102
}
100
AcDbPlotSettings
  1

  2
none_device
  4

  6

 40
0.0
 41
0.0
 42
0.0
 43
0.0
 44
210.0
 45
297.0
 46
0.0
 47
0.0
 48
0.0
 49
0.0
140
0.0
141
0.0
142
1.0
143
1.0
 70
0
 72
1
 73
0
 74
0
  7

 75
0
147
1.0
148
0.0
149
0.0
100
AcDbLayout
  1
Layout1
 70
0
 71
1
 10
0.0
 20
0.0
 11
210.0
 21
297.0
 12
0.0
 22
0.0
 32
0.0
 14
0.0
 24
0.0
 34
0.0
 15
0.0
 25
0.0
 35
0.0
146
0.0
 13
0.0
 23
0.0
 33
0.0
 16
1.0
 26
0.0
 36
0.0
 17
0.0
 27
1.0
 37
0.0
 76
0
330
211
345
0
346
0
  0
ENDSEC
  0
EOF
