999
DXF file: C:\Users\sesa63760\Dev\_Creo\CAD\MCADID0001889_3D-CAD\drw0001_7.dxf
999
Pro/ENGINEER 2019471 by Parametric Technology Corporation
  0
SECTION
  2
HEADER
  9
$ACADVER
  1
AC1024
  9
$DWGCODEPAGE
  3
ANSI_1252
  9
$EXTMAX
 10
100.5911180482
 20
142.2645812397
 30
0.0
  9
$EXTMIN
 10
0.0
 20
0.0
 30
0.0
  9
$LIMMIN
 10
0.0
 20
0.0
  9
$LIMMAX
 10
100.5911180482
 20
142.2645812397
  9
$VIEWCTR
 10
50.2955590241
 20
71.1322906198
  9
$VIEWSIZE
 40
142.2645812397
  9
$CLAYER
  8
0
  9
$LTSCALE
 40
9.2735430734
  9
$CELTYPE
  6
BYLAYER
  9
$DIMSCALE
 40
1.0
  9
$DIMASZ
 40
1.1975133101
  9
$DIMEXO
 40
1.0
  9
$DIMDLI
 40
6.4071752143
  9
$DIMEXE
 40
1.0
  9
$DIMCEN
 40
1.5174888666
  9
$DIMLFAC
 40
1.0
  9
$DIMBLK
  1
_FILLED
  9
$DIMALT
 70
0
  9
$DIMALTF
 40
0.0393700787
  9
$DIMTXT
 40
1.6765186341
  9
$DIMTOL
 70
1
  9
$DIMLIM
 70
0
  9
$DIMTFAC
 40
1.0
  9
$DIMTP
 40
0.01
  9
$DIMTM
 40
0.01
  9
$DIMGAP
 40
0.625
  9
$DIMDSEP
 70
46
  9
$AUNITS
 70
0
  9
$PDMODE
 70
3
  9
$PDSIZE
 40
0.3125
  9
$HANDSEED
  5
51B
  9
$TILEMODE
 70
1
  9
$MEASUREMENT
 70
1
  9
$INSUNITS
 70
4
  0
ENDSEC
  0
SECTION
  2
CLASSES
  0
CLASS
  1
ACDBDICTIONARYWDFLT
  2
AcDbDictionaryWithDefault
  3
AutoCAD 2000
 90
0
 91
1
280
0
281
0
  0
CLASS
  1
ACDBPLACEHOLDER
  2
AcDbPlaceHolder
  3
AutoCAD 2000
 90
0
 91
1
280
0
281
0
  0
CLASS
  1
LAYOUT
  2
AcDbLayout
  3
AutoCAD 2000
 90
0
 91
0
280
0
281
0
  0
ENDSEC
  0
SECTION
  2
TABLES
  0
TABLE
  2
VPORT
  5
8
100
AcDbSymbolTable
 70
2
  0
VPORT
  5
1F4
100
AcDbSymbolTableRecord
100
AcDbViewportTableRecord
  2
*ACTIVE
 70
0
 10
0.0
 20
0.0
 11
1.0
 21
1.0
 12
50.2955590241
 22
71.1322906198
 13
0.0
 23
0.0
 14
1.0
 24
1.0
 15
0.0
 25
0.0
 16
0.0
 26
0.0
 36
1.0
 17
0.0
 27
0.0
 37
0.0
 40
142.2645812397
 41
0.7070707071
 42
50.0
 43
0.0
 44
0.0
 50
0.0
 51
0.0
 71
0
 72
100
 73
1
 74
1
 75
0
 76
0
 77
0
 78
0
  0
ENDTAB
  0
TABLE
  2
LTYPE
  5
5
100
AcDbSymbolTable
 70
6
  0
LTYPE
  5
14
100
AcDbSymbolTableRecord
100
AcDbLinetypeTableRecord
  2
BYBLOCK
 70
0
  3

 72
65
 73
0
 40
0.0
  0
LTYPE
  5
15
100
AcDbSymbolTableRecord
100
AcDbLinetypeTableRecord
  2
BYLAYER
 70
0
  3

 72
65
 73
0
 40
0.0
  0
LTYPE
  5
16
100
AcDbSymbolTableRecord
100
AcDbLinetypeTableRecord
  2
CONTINUOUS
 70
64
  3
Solid line
 72
65
 73
0
 40
0.0
  0
LTYPE
  5
1F5
100
AcDbSymbolTableRecord
100
AcDbLinetypeTableRecord
  2
CENTER
 70
64
  3
____ _ ____ _ ____ _ ____ _ ____ _ ____ _ ____
 72
65
 73
4
 40
0.6
 49
0.375
 74
0
 49
-0.075
 74
0
 49
0.075
 74
0
 49
-0.075
 74
0
  0
LTYPE
  5
1F6
100
AcDbSymbolTableRecord
100
AcDbLinetypeTableRecord
  2
HIDDEN
 70
64
  3
- - - - - - - - - - - - - - - - - - - -
 72
65
 73
2
 40
0.2
 49
0.1
 74
0
 49
-0.1
 74
0
  0
LTYPE
  5
1F7
100
AcDbSymbolTableRecord
100
AcDbLinetypeTableRecord
  2
PHANTOM
 70
64
  3
_____ _ _ _____ _ _ _____ _ _ _____
 72
65
 73
6
 40
0.8
 49
0.45
 74
0
 49
-0.05
 74
0
 49
0.1
 74
0
 49
-0.05
 74
0
 49
0.1
 74
0
 49
-0.05
 74
0
  0
LTYPE
  5
1F8
100
AcDbSymbolTableRecord
100
AcDbLinetypeTableRecord
  2
DOT
 70
64
  3
. . . . . . . . . . . . . . . . . . . .
 72
65
 73
2
 40
0.2
 49
0.1
 74
0
 49
-0.1
 74
0
  0
LTYPE
  5
1F9
100
AcDbSymbolTableRecord
100
AcDbLinetypeTableRecord
  2
DASHED
 70
64
  3
- - - - - - - - - - - - - - - - - - - -
 72
65
 73
2
 40
0.2
 49
0.1
 74
0
 49
-0.1
 74
0
  0
ENDTAB
  0
TABLE
  2
LAYER
  5
2
100
AcDbSymbolTable
 70
36
  0
LAYER
  5
10
100
AcDbSymbolTableRecord
100
AcDbLayerTableRecord
  2
0
 70
0
 62
7
  6
CONTINUOUS
370
-3
390
F
  0
LAYER
  5
1FA
100
AcDbSymbolTableRecord
100
AcDbLayerTableRecord
  2
DEFAULT_1
 70
0
 62
7
  6
CENTER
370
-3
390
F
  0
LAYER
  5
1FB
100
AcDbSymbolTableRecord
100
AcDbLayerTableRecord
  2
DEFAULT_2
 70
0
 62
8
  6
HIDDEN
370
-3
390
F
  0
LAYER
  5
1FC
100
AcDbSymbolTableRecord
100
AcDbLayerTableRecord
  2
DEFAULT_3
 70
0
 62
7
  6
PHANTOM
370
-3
390
F
  0
LAYER
  5
1FD
100
AcDbSymbolTableRecord
100
AcDbLayerTableRecord
  2
00_COMPONENTS
 70
0
 62
7
  6
CONTINUOUS
370
-3
390
F
  0
LAYER
  5
1FE
100
AcDbSymbolTableRecord
100
AcDbLayerTableRecord
  2
01_1_DEFAULT_DATUMS
 70
0
 62
7
  6
CONTINUOUS
370
-3
390
F
  0
LAYER
  5
1FF
100
AcDbSymbolTableRecord
100
AcDbLayerTableRecord
  2
01_PLANES
 70
0
 62
7
  6
CONTINUOUS
370
-3
390
F
  0
LAYER
  5
200
100
AcDbSymbolTableRecord
100
AcDbLayerTableRecord
  2
02_COORD_SYS
 70
0
 62
7
  6
CONTINUOUS
370
-3
390
F
  0
LAYER
  5
201
100
AcDbSymbolTableRecord
100
AcDbLayerTableRecord
  2
03_AXES
 70
0
 62
7
  6
CONTINUOUS
370
-3
390
F
  0
LAYER
  5
202
100
AcDbSymbolTableRecord
100
AcDbLayerTableRecord
  2
04_POINTS
 70
0
 62
7
  6
CONTINUOUS
370
-3
390
F
  0
LAYER
  5
203
100
AcDbSymbolTableRecord
100
AcDbLayerTableRecord
  2
05_CURVES
 70
0
 62
7
  6
CONTINUOUS
370
-3
390
F
  0
LAYER
  5
204
100
AcDbSymbolTableRecord
100
AcDbLayerTableRecord
  2
06_SURFS
 70
0
 62
7
  6
CONTINUOUS
370
-3
390
F
  0
LAYER
  5
205
100
AcDbSymbolTableRecord
100
AcDbLayerTableRecord
  2
07_COSMETICS
 70
0
 62
7
  6
CONTINUOUS
370
-3
390
F
  0
LAYER
  5
206
100
AcDbSymbolTableRecord
100
AcDbLayerTableRecord
  2
10_NOTES
 70
0
 62
7
  6
CONTINUOUS
370
-3
390
F
  0
LAYER
  5
207
100
AcDbSymbolTableRecord
100
AcDbLayerTableRecord
  2
11_NOTES_PUB
 70
0
 62
7
  6
CONTINUOUS
370
-3
390
F
  0
LAYER
  5
208
100
AcDbSymbolTableRecord
100
AcDbLayerTableRecord
  2
13_REF_GTOL
 70
0
 62
7
  6
CONTINUOUS
370
-3
390
F
  0
LAYER
  5
209
100
AcDbSymbolTableRecord
100
AcDbLayerTableRecord
  2
16_MISC
 70
0
 62
7
  6
CONTINUOUS
370
-3
390
F
  0
LAYER
  5
20A
100
AcDbSymbolTableRecord
100
AcDbLayerTableRecord
  2
17_NO_PRINT
 70
0
 62
7
  6
CONTINUOUS
370
-3
390
F
  0
LAYER
  5
20B
100
AcDbSymbolTableRecord
100
AcDbLayerTableRecord
  2
18_DATUM_CAMS_JOINTS
 70
0
 62
7
  6
CONTINUOUS
370
-3
390
F
  0
LAYER
  5
20C
100
AcDbSymbolTableRecord
100
AcDbLayerTableRecord
  2
19_DATUM_FUNCTIONAL
 70
0
 62
7
  6
CONTINUOUS
370
-3
390
F
  0
LAYER
  5
20D
100
AcDbSymbolTableRecord
100
AcDbLayerTableRecord
  2
20_DATUM_KINEMATIC_SCHEME
 70
0
 62
7
  6
CONTINUOUS
370
-3
390
F
  0
ENDTAB
  0
TABLE
  2
STYLE
  5
3
100
AcDbSymbolTable
 70
1
  0
STYLE
  5
11
100
AcDbSymbolTableRecord
100
AcDbTextStyleTableRecord
  2
STANDARD
 70
0
 40
0.0
 41
0.8
 50
0.0
 71
0
 42
0.2
  3
txt
  4

  0
STYLE
  5
20E
100
AcDbSymbolTableRecord
100
AcDbTextStyleTableRecord
  2
TEXTSTYLE_1
 70
0
 40
0.0
 41
0.8
 50
0.0
 71
0
 42
0.2
  3
gdt
  4

  0
ENDTAB
  0
TABLE
  2
VIEW
  5
6
100
AcDbSymbolTable
 70
0
  0
ENDTAB
  0
TABLE
  2
UCS
  5
7
100
AcDbSymbolTable
 70
0
  0
ENDTAB
  0
TABLE
  2
APPID
  5
9
100
AcDbSymbolTable
 70
1
  0
APPID
  5
20F
100
AcDbSymbolTableRecord
100
AcDbRegAppTableRecord
  2
ACAD
 70
0
  0
ENDTAB
  0
TABLE
  2
BLOCK_RECORD
  5
1
100
AcDbSymbolTable
 70
0
  0
BLOCK_RECORD
  5
210
100
AcDbSymbolTableRecord
100
AcDbBlockTableRecord
  2
*Model_Space
  0
BLOCK_RECORD
  5
211
100
AcDbSymbolTableRecord
100
AcDbBlockTableRecord
  2
*Paper_Space
  0
BLOCK_RECORD
  5
212
100
AcDbSymbolTableRecord
100
AcDbBlockTableRecord
  2
_FILLED
  0
ENDTAB
  0
TABLE
  2
DIMSTYLE
  5
A
100
AcDbSymbolTable
 70
1
100
AcDbDimStyleTable
 71
0
  0
DIMSTYLE
105
213
100
AcDbSymbolTableRecord
100
AcDbDimStyleTableRecord
  2
STANDARD
 70
0
  3

  4

 40
1.0
 41
1.1975133101
 42
1.0
 43
0.38
 44
1.0
 45
0.0
 46
0.0
 47
0.01
 48
0.01
140
1.6765186341
141
0.09
142
0.0
143
25.4
144
1.0
145
0.0
146
1.0
147
0.625
 71
1
 72
0
 73
0
 74
0
 75
0
 76
0
 77
1
 78
8
 79
2
170
0
171
1
172
0
173
0
174
0
175
0
176
0
177
0
178
0
270
2
179
2
271
2
272
2
273
2
274
2
275
0
280
0
281
0
282
0
283
1
284
8
285
0
286
0
287
3
288
0
340
11
278
46
341
212
342
212
343
212
344
212
  0
ENDTAB
  0
ENDSEC
  0
SECTION
  2
BLOCKS
  0
BLOCK
  5
20
100
AcDbEntity
  8
0
100
AcDbBlockBegin
  2
*Model_Space
 70
0
 10
0.0
 20
0.0
 30
0.0
  3
*Model_Space
  1

  0
ENDBLK
  5
21
100
AcDbEntity
  8
0
100
AcDbBlockEnd
  0
BLOCK
  5
1C
100
AcDbEntity
  8
0
100
AcDbBlockBegin
  2
*Paper_Space
 70
0
 10
0.0
 20
0.0
 30
0.0
  3
*Paper_Space
  1

  0
ENDBLK
  5
1D
100
AcDbEntity
  8
0
100
AcDbBlockEnd
  0
BLOCK
  5
214
100
AcDbEntity
  8
0
100
AcDbBlockBegin
  2
_FILLED
 70
64
 10
0.0
 20
0.0
  3
_FILLED
  1

  0
SOLID
  5
215
100
AcDbEntity
  8
0
  6
BYBLOCK
 62
0
100
AcDbTrace
 10
0.0
 20
0.0
 11
-1.0
 21
0.25
 12
-1.0
 22
-0.25
 13
-1.0
 23
-0.25
  0
ENDBLK
  5
216
100
AcDbEntity
  8
0
  6
BYBLOCK
 62
0
100
AcDbBlockEnd
  0
ENDSEC
  0
SECTION
  2
ENTITIES
  0
LINE
  5
217
100
AcDbEntity
  8
0
100
AcDbLine
 62
7
  6
CONTINUOUS
 10
10.6808806496
 20
75.6024405086
 11
10.6808806496
 21
67.3024405086
  0
LINE
  5
218
100
AcDbEntity
  8
0
100
AcDbLine
 62
7
  6
CONTINUOUS
 10
11.6808806496
 20
75.6024405086
 11
11.6808806496
 21
67.3024405086
  0
LINE
  5
219
100
AcDbEntity
  8
0
100
AcDbLine
 62
7
  6
CONTINUOUS
 10
12.6808806496
 20
75.6024405086
 11
12.6808806496
 21
67.3024405086
  0
LINE
  5
21A
100
AcDbEntity
  8
0
100
AcDbLine
 62
7
  6
CONTINUOUS
 10
13.8584983075
 20
63.8805515286
 11
13.8584983075
 21
79.0805515286
  0
LINE
  5
21B
100
AcDbEntity
  8
0
100
AcDbLine
 62
7
  6
CONTINUOUS
 10
15.0584983075
 20
79.0805515286
 11
15.0584983075
 21
63.8805515286
  0
LINE
  5
21C
100
AcDbEntity
  8
0
100
AcDbLine
 62
7
  6
CONTINUOUS
 10
15.2584983075
 20
63.6805515286
 11
15.2584983075
 21
79.2805515286
  0
LINE
  5
21D
100
AcDbEntity
  8
0
100
AcDbLine
 62
7
  6
CONTINUOUS
 10
17.2303555247
 20
66.9056829378
 11
17.0101988682
 21
67.6747934933
  0
LINE
  5
21E
100
AcDbEntity
  8
0
100
AcDbLine
 62
7
  6
CONTINUOUS
 10
17.2024765071
 20
67.7298326574
 11
17.4226331636
 21
66.9607221019
  0
LINE
  5
21F
100
AcDbEntity
  8
0
100
AcDbLine
 62
7
  6
CONTINUOUS
 10
18.9530692219
 20
65.2479665902
 11
18.4115409401
 21
67.1397791031
  0
LINE
  5
220
100
AcDbEntity
  8
0
100
AcDbLine
 62
7
  6
CONTINUOUS
 10
18.1363451194
 20
68.1011672975
 11
17.5948168376
 21
69.9929798105
  0
LINE
  5
221
100
AcDbEntity
  8
0
100
AcDbLine
 62
7
  6
CONTINUOUS
 10
18.3639273931
 20
70.213136467
 11
18.9054556749
 21
68.3213239541
  0
LINE
  5
222
100
AcDbEntity
  8
0
100
AcDbLine
 62
7
  6
CONTINUOUS
 10
19.1806514956
 20
67.3599357597
 11
19.7221797774
 21
65.4681232467
  0
LINE
  5
223
100
AcDbEntity
  8
0
100
AcDbLine
 62
7
  6
CONTINUOUS
 10
17.2303555247
 20
74.4056829378
 11
17.0101988682
 21
75.1747934933
  0
LINE
  5
224
100
AcDbEntity
  8
0
100
AcDbLine
 62
7
  6
CONTINUOUS
 10
17.2024765071
 20
75.2298326574
 11
17.4226331636
 21
74.4607221019
  0
LINE
  5
225
100
AcDbEntity
  8
0
100
AcDbLine
 62
7
  6
CONTINUOUS
 10
20.1145201079
 20
67.7312703998
 11
19.8943634513
 21
68.5003809553
  0
LINE
  5
226
100
AcDbEntity
  8
0
100
AcDbLine
 62
7
  6
CONTINUOUS
 10
20.0866410902
 20
68.5554201194
 11
20.3067977467
 21
67.7863095639
  0
LINE
  5
227
100
AcDbEntity
  8
0
100
AcDbLine
 62
7
  6
CONTINUOUS
 10
18.9530692219
 20
72.7479665902
 11
18.4115409401
 21
74.6397791031
  0
LINE
  5
228
100
AcDbEntity
  8
0
100
AcDbLine
 62
7
  6
CONTINUOUS
 10
18.1363451194
 20
75.6011672975
 11
17.5948168376
 21
77.4929798105
  0
LINE
  5
229
100
AcDbEntity
  8
0
100
AcDbLine
 62
7
  6
CONTINUOUS
 10
18.3639273931
 20
77.713136467
 11
18.9054556749
 21
75.8213239541
  0
LINE
  5
22A
100
AcDbEntity
  8
0
100
AcDbLine
 62
7
  6
CONTINUOUS
 10
19.1806514956
 20
74.8599357597
 11
19.7221797774
 21
72.9681232467
  0
LINE
  5
22B
100
AcDbEntity
  8
0
100
AcDbLine
 62
7
  6
CONTINUOUS
 10
20.1145201079
 20
75.2312703998
 11
19.8943634513
 21
76.0003809553
  0
LINE
  5
22C
100
AcDbEntity
  8
0
100
AcDbLine
 62
7
  6
CONTINUOUS
 10
20.0866410902
 20
76.0554201194
 11
20.3067977467
 21
75.2863095639
  0
LINE
  5
22D
100
AcDbEntity
  8
0
100
AcDbLine
 62
7
  6
CONTINUOUS
 10
24.2584983075
 20
77.2805515286
 11
24.2584983075
 21
65.6805515286
  0
LINE
  5
22E
100
AcDbEntity
  8
0
100
AcDbLine
 62
7
  6
CONTINUOUS
 10
24.7584983075
 20
65.1805515286
 11
24.7584983075
 21
77.7805515286
  0
LINE
  5
22F
100
AcDbEntity
  8
0
100
AcDbLine
 62
7
  6
CONTINUOUS
 10
31.3672338086
 20
63.6305515286
 11
31.3672338086
 21
79.3305515286
  0
LINE
  5
230
100
AcDbEntity
  8
0
100
AcDbLine
 62
7
  6
CONTINUOUS
 10
13.8584983075
 20
77.2305515286
 11
15.0584983075
 21
77.7305515286
  0
LINE
  5
231
100
AcDbEntity
  8
0
100
AcDbLine
 62
7
  6
CONTINUOUS
 10
15.0584983075
 20
65.2305515286
 11
13.8584983075
 21
65.7305515286
  0
LINE
  5
232
100
AcDbEntity
  8
0
100
AcDbLine
 62
7
  6
CONTINUOUS
 10
32.5623612289
 20
79.3305515286
 11
32.5623612289
 21
63.6305515286
  0
LINE
  5
233
100
AcDbEntity
  8
0
100
AcDbLine
 62
7
  6
CONTINUOUS
 10
32.7550273819
 20
63.6305515286
 11
32.7550273819
 21
79.3305515286
  0
LINE
  5
234
100
AcDbEntity
  8
0
100
AcDbLine
 62
7
  6
CONTINUOUS
 10
32.9458363773
 20
63.6305515286
 11
32.9458363773
 21
79.3305515286
  0
LINE
  5
235
100
AcDbEntity
  8
0
100
AcDbLine
 62
7
  6
CONTINUOUS
 10
33.1366453727
 20
63.6305515286
 11
33.1366453727
 21
79.3305515286
  0
LINE
  5
236
100
AcDbEntity
  8
0
100
AcDbLine
 62
7
  6
CONTINUOUS
 10
33.3274543681
 20
63.6305515286
 11
33.3274543681
 21
79.3305515286
  0
LINE
  5
237
100
AcDbEntity
  8
0
100
AcDbLine
 62
7
  6
CONTINUOUS
 10
33.5182633634
 20
63.6305515286
 11
33.5182633634
 21
79.3305515286
  0
LINE
  5
238
100
AcDbEntity
  8
0
100
AcDbLine
 62
7
  6
CONTINUOUS
 10
33.7090723588
 20
63.6305515286
 11
33.7090723588
 21
79.3305515286
  0
LINE
  5
239
100
AcDbEntity
  8
0
100
AcDbLine
 62
7
  6
CONTINUOUS
 10
33.8998813542
 20
63.6305515286
 11
33.8998813542
 21
79.3305515286
  0
LINE
  5
23A
100
AcDbEntity
  8
0
100
AcDbLine
 62
7
  6
CONTINUOUS
 10
35.5029980544
 20
77.8063329825
 11
35.4585081968
 21
77.6825495482
  0
LINE
  5
23B
100
AcDbEntity
  8
0
100
AcDbLine
 62
7
  6
CONTINUOUS
 10
35.5124720071
 20
77.8172133039
 11
35.4585082351
 21
77.682545092
  0
LWPOLYLINE
  5
23C
100
AcDbEntity
  8
0
100
AcDbPolyline
 62
7
  6
CONTINUOUS
 90
3
 70
0
 10
35.4791070559
 20
77.7689814809
 10
35.4685284822
 20
77.7430998432
 10
35.4613562241
 20
77.7142483918
  0
LINE
  5
23D
100
AcDbEntity
  8
0
100
AcDbLine
 62
7
  6
CONTINUOUS
 10
35.4923715567
 20
77.7919209226
 11
35.4791070559
 21
77.7689814809
  0
LINE
  5
23E
100
AcDbEntity
  8
0
100
AcDbLine
 62
7
  6
CONTINUOUS
 10
35.4847150309
 20
65.3815539045
 11
35.4954868406
 21
65.3646700281
  0
LINE
  5
23F
100
AcDbEntity
  8
0
100
AcDbLine
 62
7
  6
CONTINUOUS
 10
35.4585399053
 20
65.4764719511
 11
35.5207391412
 21
65.3355600343
  0
LINE
  5
240
100
AcDbEntity
  8
0
100
AcDbLine
 62
7
  6
CONTINUOUS
 10
35.4585399044
 20
65.4764652792
 11
35.491393797
 21
65.3706547095
  0
LINE
  5
241
100
AcDbEntity
  8
0
100
AcDbLine
 62
7
  6
CONTINUOUS
 10
35.4847150309
 20
65.3815539045
 11
35.4584983075
 21
65.4805565674
  0
LINE
  5
242
100
AcDbEntity
  8
0
100
AcDbLine
 62
7
  6
CONTINUOUS
 10
35.4584984374
 20
65.4805401293
 11
35.4585399053
 21
65.4764719511
  0
LINE
  5
243
100
AcDbEntity
  8
0
100
AcDbLine
 62
7
  6
CONTINUOUS
 10
34.8132166975
 20
65.0305515286
 11
34.8132166975
 21
77.9305515286
  0
LINE
  5
244
100
AcDbEntity
  8
0
100
AcDbLine
 62
7
  6
CONTINUOUS
 10
35.1672338086
 20
65.0305515286
 11
35.1672338086
 21
77.9305515286
  0
LINE
  5
245
100
AcDbEntity
  8
0
100
AcDbLine
 62
7
  6
CONTINUOUS
 10
35.4584983075
 20
65.2805515286
 11
35.4584983075
 21
66.7499600517
  0
LINE
  5
246
100
AcDbEntity
  8
0
100
AcDbLine
 62
7
  6
CONTINUOUS
 10
35.4584983075
 20
66.7805515286
 11
35.4584983075
 21
77.8805515286
  0
LINE
  5
247
100
AcDbEntity
  8
0
100
AcDbLine
 62
7
  6
CONTINUOUS
 10
35.6584983075
 20
66.7805515286
 11
35.6584983075
 21
76.3805515286
  0
LINE
  5
248
100
AcDbEntity
  8
0
100
AcDbLine
 62
7
  6
CONTINUOUS
 10
36.4778182846
 20
73.6306159688
 11
36.4778283908
 21
69.5306403423
  0
LINE
  5
249
100
AcDbEntity
  8
0
100
AcDbLine
 62
7
  6
CONTINUOUS
 10
36.6191378474
 20
73.630582177
 11
36.6191288355
 21
69.5305877267
  0
LINE
  5
24A
100
AcDbEntity
  8
0
100
AcDbLine
 62
7
  6
CONTINUOUS
 10
36.9584983075
 20
65.2805515286
 11
36.9584983075
 21
65.4805515286
  0
LINE
  5
24B
100
AcDbEntity
  8
0
100
AcDbLine
 62
7
  6
CONTINUOUS
 10
36.9584983075
 20
77.6805515286
 11
36.9584983075
 21
77.8805515286
  0
LINE
  5
24C
100
AcDbEntity
  8
0
100
AcDbLine
 62
7
  6
CONTINUOUS
 10
37.0584983075
 20
77.9305515286
 11
37.0584983075
 21
77.8805515286
  0
LINE
  5
24D
100
AcDbEntity
  8
0
100
AcDbLine
 62
7
  6
CONTINUOUS
 10
37.0584983075
 20
65.0805515286
 11
37.0584983075
 21
65.0305515286
  0
LINE
  5
24E
100
AcDbEntity
  8
0
100
AcDbLine
 62
7
  6
CONTINUOUS
 10
35.4585082351
 20
77.682545092
 11
35.45849832
 21
77.6804838433
  0
LINE
  5
24F
100
AcDbEntity
  8
0
100
AcDbLine
 62
7
  6
CONTINUOUS
 10
35.4586976302
 20
66.7561159075
 11
35.4584983075
 21
66.7354768656
  0
LINE
  5
250
100
AcDbEntity
  8
0
100
AcDbLine
 62
7
  6
CONTINUOUS
 10
35.4613562241
 20
77.7142483918
 11
35.4585081968
 21
77.6825495482
  0
LWPOLYLINE
  5
251
100
AcDbEntity
  8
0
100
AcDbPolyline
 62
7
  6
CONTINUOUS
 90
5
 70
0
 10
35.4791269655
 20
76.6284642097
 10
35.4721427068
 20
76.5824110059
 10
35.4667065528
 20
76.5372599747
 10
35.4627376972
 20
76.4932472721
 10
35.4604688113
 20
76.4574132739
  0
LINE
  5
252
100
AcDbEntity
  8
0
100
AcDbLine
 62
7
  6
CONTINUOUS
 10
35.6937747934
 20
77.1870763967
 11
35.4635835604
 21
76.5039674092
  0
LWPOLYLINE
  5
253
100
AcDbEntity
  8
0
100
AcDbPolyline
 62
7
  6
CONTINUOUS
 90
11
 70
0
 10
35.6615807375
 20
77.1342129288
 10
35.6318243915
 20
77.0805065096
 10
35.6050099025
 20
77.0271346668
 10
35.5810113596
 20
76.9742941369
 10
35.5596950713
 20
76.9221695126
 10
35.5409197601
 20
76.8709305172
 10
35.5245152935
 20
76.820657381
 10
35.5102940066
 20
76.7713260205
 10
35.4980860696
 20
76.7228912002
 10
35.4877409009
 20
76.6752937227
 10
35.4791269655
 20
76.6284642097
  0
LINE
  5
254
100
AcDbEntity
  8
0
100
AcDbLine
 62
7
  6
CONTINUOUS
 10
35.5077934388
 20
77.8120405421
 11
35.4923715567
 21
77.7919209226
  0
LINE
  5
255
100
AcDbEntity
  8
0
100
AcDbLine
 62
7
  6
CONTINUOUS
 10
35.5248310193
 20
77.8293277957
 11
35.5077934388
 21
77.8120405421
  0
LINE
  5
256
100
AcDbEntity
  8
0
100
AcDbLine
 62
7
  6
CONTINUOUS
 10
36.2160456917
 20
77.6839208129
 11
35.693848482
 21
77.1871464978
  0
LINE
  5
257
100
AcDbEntity
  8
0
100
AcDbLine
 62
7
  6
CONTINUOUS
 10
35.5485924569
 20
77.8476500993
 11
35.5029980544
 21
77.8063329825
  0
LINE
  5
258
100
AcDbEntity
  8
0
100
AcDbLine
 62
7
  6
CONTINUOUS
 10
35.5426196541
 20
77.8435650194
 11
35.5248310193
 21
77.8293277957
  0
LINE
  5
259
100
AcDbEntity
  8
0
100
AcDbLine
 62
7
  6
CONTINUOUS
 10
35.5595006832
 20
77.8543348051
 11
35.5426196541
 21
77.8435650194
  0
LINE
  5
25A
100
AcDbEntity
  8
0
100
AcDbLine
 62
7
  6
CONTINUOUS
 10
35.5270114649
 20
65.3298447658
 11
35.5471309328
 21
65.3144234242
  0
LINE
  5
25B
100
AcDbEntity
  8
0
100
AcDbLine
 62
7
  6
CONTINUOUS
 10
35.5097241951
 20
65.3468818422
 11
35.5270114649
 21
65.3298447658
  0
LINE
  5
25C
100
AcDbEntity
  8
0
100
AcDbLine
 62
7
  6
CONTINUOUS
 10
35.6551290226
 20
66.0380989138
 11
36.151917859
 21
65.5158862949
  0
LINE
  5
25D
100
AcDbEntity
  8
0
100
AcDbLine
 62
7
  6
CONTINUOUS
 10
35.491393797
 20
65.3706547095
 11
35.532711603
 21
65.3250555227
  0
LINE
  5
25E
100
AcDbEntity
  8
0
100
AcDbLine
 62
7
  6
CONTINUOUS
 10
35.4954868406
 20
65.3646700281
 11
35.5097241951
 21
65.3468818422
  0
LWPOLYLINE
  5
25F
100
AcDbEntity
  8
0
100
AcDbPolyline
 62
7
  6
CONTINUOUS
 90
12
 70
0
 10
35.6565970493
 20
66.0355322101
 10
35.6984460366
 20
65.9667524211
 10
35.7429266779
 20
65.9016963877
 10
35.7896719369
 20
65.8404208544
 10
35.838322664
 20
65.7829507507
 10
35.8885295244
 20
65.7292820131
 10
35.9399577802
 20
65.6793812492
 10
35.9923182474
 20
65.6331645525
 10
36.0453587843
 20
65.5905191855
 10
36.0988484774
 20
65.5513229432
 10
36.1525766004
 20
65.5154464257
 10
36.2063516743
 20
65.482754884
  0
LWPOLYLINE
  5
260
100
AcDbEntity
  8
0
100
AcDbPolyline
 62
7
  6
CONTINUOUS
 90
8
 70
0
 10
35.4584983075
 20
65.4805410687
 10
35.4660106341
 20
65.4262419226
 10
35.4869091883
 20
65.3777951187
 10
35.5173153129
 20
65.3388854252
 10
35.5534859817
 20
65.3103335916
 10
35.592005149
 20
65.2919251612
 10
35.6286441621
 20
65.2827907078
 10
35.6562056338
 20
65.2805645117
  0
LWPOLYLINE
  5
261
100
AcDbEntity
  8
0
100
AcDbPolyline
 62
7
  6
CONTINUOUS
 90
5
 70
0
 10
35.4584983076
 20
66.7805300948
 10
35.5078941206
 20
66.3987821448
 10
35.5737282279
 20
66.2039993878
 10
35.6176952509
 20
66.1080578234
 10
35.6565970493
 20
66.0355322101
  0
LINE
  5
262
100
AcDbEntity
  8
0
100
AcDbLine
 62
7
  6
CONTINUOUS
 10
38.2256783087
 20
65.0305515286
 11
38.2259556258
 21
63.6305515286
  0
LINE
  5
263
100
AcDbEntity
  8
0
100
AcDbLine
 62
7
  6
CONTINUOUS
 10
38.2256783087
 20
79.3305515286
 11
38.2259556258
 21
77.9305515286
  0
LINE
  5
264
100
AcDbEntity
  8
0
100
AcDbLine
 62
7
  6
CONTINUOUS
 10
37.4677034742
 20
68.8305675268
 11
37.4676979378
 21
69.0305415826
  0
LINE
  5
265
100
AcDbEntity
  8
0
100
AcDbLine
 62
7
  6
CONTINUOUS
 10
37.5714930908
 20
65.0305515286
 11
37.5714930908
 21
63.6305515286
  0
LINE
  5
266
100
AcDbEntity
  8
0
100
AcDbLine
 62
7
  6
CONTINUOUS
 10
37.5714930908
 20
77.9305515286
 11
37.5714930908
 21
79.3305515286
  0
LINE
  5
267
100
AcDbEntity
  8
0
100
AcDbLine
 62
7
  6
CONTINUOUS
 10
37.8984072713
 20
69.3805515286
 11
37.8984072713
 21
73.7805515286
  0
LINE
  5
268
100
AcDbEntity
  8
0
100
AcDbLine
 62
7
  6
CONTINUOUS
 10
38.1984072713
 20
69.0805515286
 11
38.1984072713
 21
74.0805515286
  0
LINE
  5
269
100
AcDbEntity
  8
0
100
AcDbLine
 62
7
  6
CONTINUOUS
 10
39.0584983075
 20
65.0305515286
 11
39.0584983075
 21
65.0805515286
  0
LINE
  5
26A
100
AcDbEntity
  8
0
100
AcDbLine
 62
7
  6
CONTINUOUS
 10
39.0584983075
 20
77.8805515286
 11
39.0584983075
 21
77.9305515286
  0
LINE
  5
26B
100
AcDbEntity
  8
0
100
AcDbLine
 62
7
  6
CONTINUOUS
 10
39.1084983075
 20
75.1305515286
 11
39.1084983075
 21
74.1305544761
  0
LINE
  5
26C
100
AcDbEntity
  8
0
100
AcDbLine
 62
7
  6
CONTINUOUS
 10
39.1084983075
 20
69.0305479932
 11
39.1084983075
 21
68.0305515286
  0
LINE
  5
26D
100
AcDbEntity
  8
0
100
AcDbLine
 62
7
  6
CONTINUOUS
 10
39.1084983068
 20
69.0433867348
 11
39.1084983068
 21
69.0805515286
  0
LINE
  5
26E
100
AcDbEntity
  8
0
100
AcDbLine
 62
7
  6
CONTINUOUS
 10
39.1084983103
 20
74.0805515286
 11
39.1084983105
 21
74.1177163474
  0
LINE
  5
26F
100
AcDbEntity
  8
0
100
AcDbLine
 62
7
  6
CONTINUOUS
 10
39.1584983073
 20
74.4305515286
 11
39.1584983073
 21
74.0805515286
  0
LINE
  5
270
100
AcDbEntity
  8
0
100
AcDbLine
 62
7
  6
CONTINUOUS
 10
39.1584983073
 20
69.0805515286
 11
39.1584983073
 21
68.7305515286
  0
LINE
  5
271
100
AcDbEntity
  8
0
100
AcDbLine
 62
7
  6
CONTINUOUS
 10
39.7584983073
 20
68.7305515286
 11
39.7584983073
 21
69.0805515286
  0
LINE
  5
272
100
AcDbEntity
  8
0
100
AcDbLine
 62
7
  6
CONTINUOUS
 10
39.7584983073
 20
74.0805515286
 11
39.7584983073
 21
74.4305515286
  0
LINE
  5
273
100
AcDbEntity
  8
0
100
AcDbLine
 62
7
  6
CONTINUOUS
 10
37.4676976062
 20
74.1305604092
 11
37.4677113687
 21
74.3305343742
  0
LWPOLYLINE
  5
274
100
AcDbEntity
  8
0
100
AcDbPolyline
 62
7
  6
CONTINUOUS
 90
12
 70
0
 10
36.2160508781
 20
77.6839211937
 10
36.1468713495
 20
77.6420040218
 10
36.0815821731
 20
77.5975227024
 10
36.0201804672
 20
77.5508337165
 10
35.9626371804
 20
77.5022740431
 10
35.9089009657
 20
77.4521606976
 10
35.8589025751
 20
77.4007917039
 10
35.8125582792
 20
77.3484473047
 10
35.7697688549
 20
77.2953865168
 10
35.7304237883
 20
77.2418492249
 10
35.6944034174
 20
77.1880568407
 10
35.6615807375
 20
77.1342129288
  0
LINE
  5
275
100
AcDbEntity
  8
0
100
AcDbLine
 62
7
  6
CONTINUOUS
 10
35.6544187299
 20
77.8805099307
 11
35.5124720071
 21
77.8172133039
  0
LINE
  5
276
100
AcDbEntity
  8
0
100
AcDbLine
 62
7
  6
CONTINUOUS
 10
13.8584983075
 20
69.7305515286
 11
15.0584983075
 21
70.2305515286
  0
LINE
  5
277
100
AcDbEntity
  8
0
100
AcDbLine
 62
7
  6
CONTINUOUS
 10
35.654412058
 20
77.8805099317
 11
35.5485924569
 21
77.8476500993
  0
LINE
  5
278
100
AcDbEntity
  8
0
100
AcDbLine
 62
7
  6
CONTINUOUS
 10
17.0101988682
 20
75.1747934933
 11
18.067725882
 21
75.477508896
  0
LINE
  5
279
100
AcDbEntity
  8
0
100
AcDbLine
 62
7
  6
CONTINUOUS
 10
19.0291140764
 20
75.7527047167
 11
20.0866410902
 21
76.0554201194
  0
LINE
  5
27A
100
AcDbEntity
  8
0
100
AcDbLine
 62
7
  6
CONTINUOUS
 10
20.3067977467
 20
75.2863095639
 11
19.2492707329
 21
74.9835941612
  0
LINE
  5
27B
100
AcDbEntity
  8
0
100
AcDbLine
 62
7
  6
CONTINUOUS
 10
18.2878825386
 20
74.7083983405
 11
17.2303555247
 21
74.4056829378
  0
LINE
  5
27C
100
AcDbEntity
  8
0
100
AcDbLine
 62
7
  6
CONTINUOUS
 10
35.532711603
 20
65.3250555227
 11
35.6565002876
 21
65.280561418
  0
LINE
  5
27D
100
AcDbEntity
  8
0
100
AcDbLine
 62
7
  6
CONTINUOUS
 10
35.5207391412
 20
65.3355600343
 11
35.6565047438
 21
65.2805614563
  0
LWPOLYLINE
  5
27E
100
AcDbEntity
  8
0
100
AcDbPolyline
 62
7
  6
CONTINUOUS
 90
3
 70
0
 10
35.5700700732
 20
65.3011594303
 10
35.5959512626
 20
65.2905812854
 10
35.6248021314
 20
65.2834093278
  0
LINE
  5
27F
100
AcDbEntity
  8
0
100
AcDbLine
 62
7
  6
CONTINUOUS
 10
15.0584983075
 20
72.7305515286
 11
13.8584983075
 21
73.2305515286
  0
LWPOLYLINE
  5
280
100
AcDbEntity
  8
0
100
AcDbPolyline
 62
7
  6
CONTINUOUS
 90
11
 70
0
 10
36.2063516743
 20
65.482754884
 10
36.2599962617
 20
65.4531120588
 10
36.3133143819
 20
65.4263955855
 10
36.3661055485
 20
65.4024835352
 10
36.4181808846
 20
65.3812454093
 10
36.4693664606
 20
65.3625421755
 10
36.5195829424
 20
65.3462036813
 10
36.5688562392
 20
65.3320421368
 10
36.6172330052
 20
65.3198878617
 10
36.6647738295
 20
65.3095905366
 10
36.7115490605
 20
65.3010190574
  0
LINE
  5
281
100
AcDbEntity
  8
0
100
AcDbLine
 62
7
  6
CONTINUOUS
 10
35.5471309328
 20
65.3144234242
 11
35.5700700732
 21
65.3011594303
  0
LINE
  5
282
100
AcDbEntity
  8
0
100
AcDbLine
 62
7
  6
CONTINUOUS
 10
40.1084983075
 20
72.1305515288
 11
40.1084983075
 21
71.0305515284
  0
LINE
  5
283
100
AcDbEntity
  8
0
100
AcDbLine
 62
7
  6
CONTINUOUS
 10
40.1084983075
 20
68.0305515286
 11
40.1084983075
 21
69.0305515374
  0
LINE
  5
284
100
AcDbEntity
  8
0
100
AcDbLine
 62
7
  6
CONTINUOUS
 10
40.1084983075
 20
74.1305515265
 11
40.1084983075
 21
75.1305515286
  0
LINE
  5
285
100
AcDbEntity
  8
0
100
AcDbLine
 62
7
  6
CONTINUOUS
 10
40.2084983075
 20
71.0305515286
 11
40.2084983075
 21
72.1305515286
  0
LINE
  5
286
100
AcDbEntity
  8
0
100
AcDbLine
 62
7
  6
CONTINUOUS
 10
40.6584983075
 20
70.4805515286
 11
40.6584983075
 21
70.5805515286
  0
LINE
  5
287
100
AcDbEntity
  8
0
100
AcDbLine
 62
7
  6
CONTINUOUS
 10
40.6584983075
 20
72.5805515286
 11
40.6584983075
 21
72.6805515286
  0
LINE
  5
288
100
AcDbEntity
  8
0
100
AcDbLine
 62
7
  6
CONTINUOUS
 10
41.0834983075
 20
72.0105510951
 11
41.0834983075
 21
71.1605518098
  0
LINE
  5
289
100
AcDbEntity
  8
0
100
AcDbLine
 62
7
  6
CONTINUOUS
 10
41.1420769516
 20
71.1605510144
 11
41.1420769516
 21
72.0105517924
  0
LINE
  5
28A
100
AcDbEntity
  8
0
100
AcDbLine
 62
7
  6
CONTINUOUS
 10
41.4906050887
 20
72.3105515286
 11
41.4906050887
 21
70.8605515286
  0
LINE
  5
28B
100
AcDbEntity
  8
0
100
AcDbLine
 62
7
  6
CONTINUOUS
 10
41.7584983075
 20
74.1305515286
 11
41.7584983075
 21
74.0805515286
  0
LINE
  5
28C
100
AcDbEntity
  8
0
100
AcDbLine
 62
7
  6
CONTINUOUS
 10
41.7584983075
 20
69.0805515286
 11
41.7584983075
 21
69.0305515286
  0
LINE
  5
28D
100
AcDbEntity
  8
0
100
AcDbLine
 62
7
  6
CONTINUOUS
 10
42.1977118698
 20
70.6605515286
 11
42.1977119731
 21
71.3495506473
  0
LINE
  5
28E
100
AcDbEntity
  8
0
100
AcDbLine
 62
7
  6
CONTINUOUS
 10
42.1977118699
 20
71.8115521431
 11
42.1977118698
 21
72.5105515286
  0
LINE
  5
28F
100
AcDbEntity
  8
0
100
AcDbLine
 62
7
  6
CONTINUOUS
 10
64.0963834875
 20
65.284171182
 11
64.1285030179
 21
65.2932009468
  0
LINE
  5
290
100
AcDbEntity
  8
0
100
AcDbLine
 62
7
  6
CONTINUOUS
 10
64.1586742486
 20
65.3074447947
 11
64.0584990968
 21
65.2805515286
  0
LINE
  5
291
100
AcDbEntity
  8
0
100
AcDbLine
 62
7
  6
CONTINUOUS
 10
69.3742816332
 20
66.244733831
 11
68.5908635019
 21
66.0826967009
  0
LINE
  5
292
100
AcDbEntity
  8
0
100
AcDbLine
 62
7
  6
CONTINUOUS
 10
68.5503542194
 20
66.2785512338
 11
69.3337723507
 21
66.4405883638
  0
LINE
  5
293
100
AcDbEntity
  8
0
100
AcDbLine
 62
7
  6
CONTINUOUS
 10
66.3228751013
 20
66.8389999379
 11
68.2498805404
 21
67.2375692567
  0
LINE
  5
294
100
AcDbEntity
  8
0
100
AcDbLine
 62
7
  6
CONTINUOUS
 10
69.2291532046
 20
67.4401156692
 11
71.1561586437
 21
67.838684988
  0
LWPOLYLINE
  5
295
100
AcDbEntity
  8
0
100
AcDbPolyline
 62
7
  6
CONTINUOUS
 90
9
 70
0
 10
64.0585087674
 20
65.2805515286
 10
64.1081386413
 20
65.2868073797
 10
64.1529309919
 20
65.30424474
 10
64.1902017026
 20
65.3300320229
 10
64.2191057659
 20
65.361358021
 10
64.2396082034
 20
65.3956945135
 10
64.2521038993
 20
65.4303732939
 10
64.257632182
 20
65.461947926
 10
64.258496791
 20
65.4797514282
  0
LINE
  5
296
100
AcDbEntity
  8
0
100
AcDbLine
 62
7
  6
CONTINUOUS
 10
52.3584983075
 20
63.6305515286
 11
31.3672338086
 21
63.6305515286
  0
LINE
  5
297
100
AcDbEntity
  8
0
100
AcDbLine
 62
7
  6
CONTINUOUS
 10
14.0584983075
 20
63.6805515286
 11
31.3672338086
 21
63.6805515286
  0
LINE
  5
298
100
AcDbEntity
  8
0
100
AcDbLine
 62
7
  6
CONTINUOUS
 10
52.4418316408
 20
63.6805515286
 11
90.0584983075
 21
63.6805515286
  0
LWPOLYLINE
  5
299
100
AcDbEntity
  8
0
100
AcDbPolyline
 62
7
  6
CONTINUOUS
 90
5
 70
0
 10
36.7115490605
 20
65.3010190574
 10
36.7575475792
 20
65.2940727954
 10
36.8026425443
 20
65.2886704487
 10
36.8465950824
 20
65.2847314187
 10
36.8816366362
 20
65.2825220287
  0
LINE
  5
29A
100
AcDbEntity
  8
0
100
AcDbLine
 62
7
  6
CONTINUOUS
 10
36.1519730902
 20
65.5158282372
 11
36.8350816035
 21
65.2856368495
  0
LINE
  5
29B
100
AcDbEntity
  8
0
100
AcDbLine
 62
7
  6
CONTINUOUS
 10
42.7584983075
 20
69.0305515286
 11
42.7584983075
 21
69.0805515286
  0
LINE
  5
29C
100
AcDbEntity
  8
0
100
AcDbLine
 62
7
  6
CONTINUOUS
 10
42.7584983075
 20
74.0805515286
 11
42.7584983075
 21
74.1305515286
  0
LINE
  5
29D
100
AcDbEntity
  8
0
100
AcDbLine
 62
7
  6
CONTINUOUS
 10
43.5084983075
 20
72.5105515286
 11
43.5084956679
 21
71.840365153
  0
LINE
  5
29E
100
AcDbEntity
  8
0
100
AcDbLine
 62
7
  6
CONTINUOUS
 10
43.5084983075
 20
71.3207439074
 11
43.5084983075
 21
70.6605515286
  0
LINE
  5
29F
100
AcDbEntity
  8
0
100
AcDbLine
 62
7
  6
CONTINUOUS
 10
43.7048776228
 20
73.7805512627
 11
43.7048777326
 21
72.5805515286
  0
LINE
  5
2A0
100
AcDbEntity
  8
0
100
AcDbLine
 62
7
  6
CONTINUOUS
 10
43.7048777326
 20
70.5805515286
 11
43.7048777011
 21
69.38055201
  0
LINE
  5
2A1
100
AcDbEntity
  8
0
100
AcDbLine
 62
7
  6
CONTINUOUS
 10
43.8928162837
 20
69.3805517614
 11
43.892816263
 21
70.4805515286
  0
LINE
  5
2A2
100
AcDbEntity
  8
0
100
AcDbLine
 62
7
  6
CONTINUOUS
 10
43.8928162579
 20
72.6805515286
 11
43.8928162655
 21
73.7805511548
  0
LINE
  5
2A3
100
AcDbEntity
  8
0
100
AcDbLine
 62
7
  6
CONTINUOUS
 10
44.2215470815
 20
71.1605491797
 11
44.2215470815
 21
72.0105484531
  0
LINE
  5
2A4
100
AcDbEntity
  8
0
100
AcDbLine
 62
7
  6
CONTINUOUS
 10
44.2834983075
 20
71.1605515695
 11
44.2834983075
 21
72.010551382
  0
LINE
  5
2A5
100
AcDbEntity
  8
0
100
AcDbLine
 62
7
  6
CONTINUOUS
 10
44.3104334285
 20
70.4805515286
 11
44.310433276
 21
69.5121486568
  0
LINE
  5
2A6
100
AcDbEntity
  8
0
100
AcDbLine
 62
7
  6
CONTINUOUS
 10
44.3104329867
 20
73.6489562283
 11
44.3104333551
 21
72.6805515286
  0
LINE
  5
2A7
100
AcDbEntity
  8
0
100
AcDbLine
 62
7
  6
CONTINUOUS
 10
44.3382672135
 20
74.348813315
 11
44.3382665227
 21
74.1305515002
  0
LINE
  5
2A8
100
AcDbEntity
  8
0
100
AcDbLine
 62
7
  6
CONTINUOUS
 10
44.3382664102
 20
69.0305515744
 11
44.3382670101
 21
68.8122897707
  0
LINE
  5
2A9
100
AcDbEntity
  8
0
100
AcDbLine
 62
7
  6
CONTINUOUS
 10
44.3405871937
 20
69.5805515286
 11
44.3405871937
 21
70.4805515286
  0
LINE
  5
2AA
100
AcDbEntity
  8
0
100
AcDbLine
 62
7
  6
CONTINUOUS
 10
44.3405871937
 20
72.6805515286
 11
44.3405871937
 21
73.5805383543
  0
LINE
  5
2AB
100
AcDbEntity
  8
0
100
AcDbLine
 62
7
  6
CONTINUOUS
 10
44.6842942271
 20
69.5305515207
 11
44.684294227
 21
73.6305515288
  0
LINE
  5
2AC
100
AcDbEntity
  8
0
100
AcDbLine
 62
7
  6
CONTINUOUS
 10
44.8418403925
 20
69.5305515237
 11
44.8418403892
 21
73.6305518355
  0
LINE
  5
2AD
100
AcDbEntity
  8
0
100
AcDbLine
 62
7
  6
CONTINUOUS
 10
45.0592718179
 20
69.5305516686
 11
45.0592718387
 21
73.6305524289
  0
LINE
  5
2AE
100
AcDbEntity
  8
0
100
AcDbLine
 62
7
  6
CONTINUOUS
 10
17.0101988682
 20
67.6747934933
 11
18.067725882
 21
67.977508896
  0
LINE
  5
2AF
100
AcDbEntity
  8
0
100
AcDbLine
 62
7
  6
CONTINUOUS
 10
19.0291140764
 20
68.2527047167
 11
20.0866410902
 21
68.5554201194
  0
LINE
  5
2B0
100
AcDbEntity
  8
0
100
AcDbLine
 62
7
  6
CONTINUOUS
 10
66.1608379713
 20
67.6224180692
 11
68.0878434104
 21
68.020987388
  0
LINE
  5
2B1
100
AcDbEntity
  8
0
100
AcDbLine
 62
7
  6
CONTINUOUS
 10
69.0671160745
 20
68.2235338006
 11
70.9941215136
 21
68.6221031194
  0
LINE
  5
2B2
100
AcDbEntity
  8
0
100
AcDbLine
 62
7
  6
CONTINUOUS
 10
68.7666423955
 20
69.1825518235
 11
67.9832242642
 21
69.0205146934
  0
LINE
  5
2B3
100
AcDbEntity
  8
0
100
AcDbLine
 62
7
  6
CONTINUOUS
 10
67.9427149817
 20
69.2163692262
 11
68.726133113
 21
69.3784063563
  0
LINE
  5
2B4
100
AcDbEntity
  8
0
100
AcDbLine
 62
7
  6
CONTINUOUS
 10
64.0632095498
 20
65.2806068512
 11
64.0963834875
 21
65.284171182
  0
LINE
  5
2B5
100
AcDbEntity
  8
0
100
AcDbLine
 62
7
  6
CONTINUOUS
 10
64.0584991963
 20
65.2805515553
 11
64.0632028621
 21
65.2806068524
  0
LINE
  5
2B6
100
AcDbEntity
  8
0
100
AcDbLine
 62
7
  6
CONTINUOUS
 10
90.2584983075
 20
63.8805515286
 11
52.7751649741
 21
63.8805515286
  0
LINE
  5
2B7
100
AcDbEntity
  8
0
100
AcDbLine
 62
7
  6
CONTINUOUS
 10
31.3672338086
 20
63.8805515286
 11
13.8584983075
 21
63.8805515286
  0
LINE
  5
2B8
100
AcDbEntity
  8
0
100
AcDbLine
 62
7
  6
CONTINUOUS
 10
53.6354822724
 20
64.2305515286
 11
58.8584983075
 21
64.2305515286
  0
LINE
  5
2B9
100
AcDbEntity
  8
0
100
AcDbLine
 62
7
  6
CONTINUOUS
 10
58.5584983075
 20
64.3305515286
 11
55.5584983075
 21
64.3305515286
  0
LINE
  5
2BA
100
AcDbEntity
  8
0
100
AcDbLine
 62
7
  6
CONTINUOUS
 10
34.8132166975
 20
65.0305515286
 11
55.5584983075
 21
65.0305515286
  0
LINE
  5
2BB
100
AcDbEntity
  8
0
100
AcDbLine
 62
7
  6
CONTINUOUS
 10
58.5584983075
 20
65.0305515286
 11
58.8584983075
 21
65.0305515286
  0
LINE
  5
2BC
100
AcDbEntity
  8
0
100
AcDbLine
 62
7
  6
CONTINUOUS
 10
35.1672338086
 20
65.0805515286
 11
47.3584983075
 21
65.0805515286
  0
LINE
  5
2BD
100
AcDbEntity
  8
0
100
AcDbLine
 62
7
  6
CONTINUOUS
 10
49.1584983075
 20
65.0805515286
 11
64.2584983075
 21
65.0805515286
  0
LINE
  5
2BE
100
AcDbEntity
  8
0
100
AcDbLine
 62
7
  6
CONTINUOUS
 10
24.7584983075
 20
65.1805515286
 11
31.3672338086
 21
65.1805515286
  0
LINE
  5
2BF
100
AcDbEntity
  8
0
100
AcDbLine
 62
7
  6
CONTINUOUS
 10
35.1672338086
 20
65.2805515286
 11
62.7584983075
 21
65.2805515286
  0
LINE
  5
2C0
100
AcDbEntity
  8
0
100
AcDbLine
 62
7
  6
CONTINUOUS
 10
62.7631716723
 20
65.2805515286
 11
64.2584983075
 21
65.2805515286
  0
LINE
  5
2C1
100
AcDbEntity
  8
0
100
AcDbLine
 62
7
  6
CONTINUOUS
 10
35.5278730451
 20
65.3305515286
 11
36.1261463232
 21
65.3305515286
  0
LINE
  5
2C2
100
AcDbEntity
  8
0
100
AcDbLine
 62
7
  6
CONTINUOUS
 10
62.945096616
 20
65.3305515286
 11
64.1906810434
 21
65.3305515286
  0
LINE
  5
2C3
100
AcDbEntity
  8
0
100
AcDbLine
 62
7
  6
CONTINUOUS
 10
62.7584983075
 20
65.4805515286
 11
57.5568297848
 21
65.4805515286
  0
LINE
  5
2C4
100
AcDbEntity
  8
0
100
AcDbLine
 62
7
  6
CONTINUOUS
 10
56.8084983075
 20
65.4805515286
 11
36.9584983075
 21
65.4805515286
  0
LINE
  5
2C5
100
AcDbEntity
  8
0
100
AcDbLine
 62
7
  6
CONTINUOUS
 10
31.3672338086
 20
65.6805515286
 11
24.2584983075
 21
65.6805515286
  0
LINE
  5
2C6
100
AcDbEntity
  8
0
100
AcDbLine
 62
7
  6
CONTINUOUS
 10
59.8682444591
 20
65.7180515286
 11
62.7487521558
 21
65.7180515286
  0
LINE
  5
2C7
100
AcDbEntity
  8
0
100
AcDbLine
 62
7
  6
CONTINUOUS
 10
90.2584983075
 20
65.7305515286
 11
89.0584983075
 21
65.7305515286
  0
LINE
  5
2C8
100
AcDbEntity
  8
0
100
AcDbLine
 62
7
  6
CONTINUOUS
 10
81.8584983075
 20
65.7305515286
 11
80.6584983075
 21
65.7305515286
  0
LINE
  5
2C9
100
AcDbEntity
  8
0
100
AcDbLine
 62
7
  6
CONTINUOUS
 10
73.4584983075
 20
65.7305515286
 11
72.2584983075
 21
65.7305515286
  0
LINE
  5
2CA
100
AcDbEntity
  8
0
100
AcDbLine
 62
7
  6
CONTINUOUS
 10
15.0584983075
 20
65.7305515286
 11
13.8584983075
 21
65.7305515286
  0
LINE
  5
2CB
100
AcDbEntity
  8
0
100
AcDbLine
 62
7
  6
CONTINUOUS
 10
59.9432444591
 20
65.8305515286
 11
62.6737521558
 21
65.8305515286
  0
LINE
  5
2CC
100
AcDbEntity
  8
0
100
AcDbLine
 62
7
  6
CONTINUOUS
 10
35.4584983075
 20
65.8805515286
 11
35.7590574541
 21
65.8805515286
  0
LINE
  5
2CD
100
AcDbEntity
  8
0
100
AcDbLine
 62
7
  6
CONTINUOUS
 10
35.4584983075
 20
65.9524405086
 11
35.6551290226
 21
65.9524405086
  0
LINE
  5
2CE
100
AcDbEntity
  8
0
100
AcDbLine
 62
7
  6
CONTINUOUS
 10
64.2169309612
 20
66.4305515286
 11
64.2584983075
 21
66.4305515286
  0
LINE
  5
2CF
100
AcDbEntity
  8
0
100
AcDbLine
 62
7
  6
CONTINUOUS
 10
35.6565047438
 20
65.2805614563
 11
35.6585661586
 21
65.2805515412
  0
LINE
  5
2D0
100
AcDbEntity
  8
0
100
AcDbLine
 62
7
  6
CONTINUOUS
 10
62.7866771159
 20
65.2808165526
 11
62.8009915076
 21
65.2805515286
  0
LINE
  5
2D1
100
AcDbEntity
  8
0
100
AcDbLine
 62
7
  6
CONTINUOUS
 10
35.6248021314
 20
65.2834093278
 11
35.6565002876
 21
65.280561418
  0
LINE
  5
2D2
100
AcDbEntity
  8
0
100
AcDbLine
 62
7
  6
CONTINUOUS
 10
47.3584983075
 20
77.9305515286
 11
47.3584983075
 21
77.8805515286
  0
LINE
  5
2D3
100
AcDbEntity
  8
0
100
AcDbLine
 62
7
  6
CONTINUOUS
 10
47.3584983075
 20
65.2805515286
 11
47.3584983075
 21
65.0305515286
  0
LINE
  5
2D4
100
AcDbEntity
  8
0
100
AcDbLine
 62
7
  6
CONTINUOUS
 10
20.3067977467
 20
67.7863095639
 11
19.2492707329
 21
67.4835941612
  0
LINE
  5
2D5
100
AcDbEntity
  8
0
100
AcDbLine
 62
7
  6
CONTINUOUS
 10
18.2878825386
 20
67.2083983405
 11
17.2303555247
 21
66.9056829378
  0
LINE
  5
2D6
100
AcDbEntity
  8
0
100
AcDbLine
 62
7
  6
CONTINUOUS
 10
78.6682946062
 20
67.3720046327
 11
77.5686614739
 21
67.3435973406
  0
LINE
  5
2D7
100
AcDbEntity
  8
0
100
AcDbLine
 62
7
  6
CONTINUOUS
 10
76.5689949899
 20
67.3177725295
 11
75.4693618576
 21
67.2893652373
  0
LINE
  5
2D8
100
AcDbEntity
  8
0
100
AcDbLine
 62
7
  6
CONTINUOUS
 10
75.4487020087
 20
68.0890984245
 11
76.5483351411
 21
68.1175057167
  0
LINE
  5
2D9
100
AcDbEntity
  8
0
100
AcDbLine
 62
7
  6
CONTINUOUS
 10
77.548001625
 20
68.1433305277
 11
78.6476347574
 21
68.1717378199
  0
LINE
  5
2DA
100
AcDbEntity
  8
0
100
AcDbLine
 62
7
  6
CONTINUOUS
 10
35.1672338086
 20
66.5805515286
 11
35.4584983075
 21
66.5805515286
  0
LINE
  5
2DB
100
AcDbEntity
  8
0
100
AcDbLine
 62
7
  6
CONTINUOUS
 10
64.2584983075
 20
66.7805515286
 11
64.0584983075
 21
66.7805515286
  0
LINE
  5
2DC
100
AcDbEntity
  8
0
100
AcDbLine
 62
7
  6
CONTINUOUS
 10
58.3084983075
 20
66.7805515286
 11
58.1084983075
 21
66.7805515286
  0
LINE
  5
2DD
100
AcDbEntity
  8
0
100
AcDbLine
 62
7
  6
CONTINUOUS
 10
35.6584983075
 20
66.7805515286
 11
35.4584983075
 21
66.7805515286
  0
LINE
  5
2DE
100
AcDbEntity
  8
0
100
AcDbLine
 62
7
  6
CONTINUOUS
 10
10.6808806496
 20
67.3024405086
 11
13.8584983075
 21
67.3024405086
  0
LINE
  5
2DF
100
AcDbEntity
  8
0
100
AcDbLine
 62
7
  6
CONTINUOUS
 10
40.1084983075
 20
68.0305515286
 11
39.1084983075
 21
68.0305515286
  0
LINE
  5
2E0
100
AcDbEntity
  8
0
100
AcDbLine
 62
7
  6
CONTINUOUS
 10
40.1084983075
 20
68.0805515286
 11
39.9084983075
 21
68.0805515286
  0
LINE
  5
2E1
100
AcDbEntity
  8
0
100
AcDbLine
 62
7
  6
CONTINUOUS
 10
39.1084983075
 20
68.2805515286
 11
39.5119712108
 21
68.2805515286
  0
LINE
  5
2E2
100
AcDbEntity
  8
0
100
AcDbLine
 62
7
  6
CONTINUOUS
 10
39.6084982483
 20
68.5805515286
 11
39.308498308
 21
68.5805515286
  0
LINE
  5
2E3
100
AcDbEntity
  8
0
100
AcDbLine
 62
7
  6
CONTINUOUS
 10
39.7584983073
 20
68.7305515286
 11
39.1584983073
 21
68.7305515286
  0
LINE
  5
2E4
100
AcDbEntity
  8
0
100
AcDbLine
 62
7
  6
CONTINUOUS
 10
39.1584983073
 20
68.7805515286
 11
39.1084983075
 21
68.7805515286
  0
LINE
  5
2E5
100
AcDbEntity
  8
0
100
AcDbLine
 62
7
  6
CONTINUOUS
 10
40.1084983075
 20
68.8122897734
 11
44.3382670101
 21
68.8122897707
  0
LINE
  5
2E6
100
AcDbEntity
  8
0
100
AcDbLine
 62
7
  6
CONTINUOUS
 10
37.4677034742
 20
68.8305675268
 11
39.1084983075
 21
68.8305644882
  0
LINE
  5
2E7
100
AcDbEntity
  8
0
100
AcDbLine
 62
7
  6
CONTINUOUS
 10
37.4676979378
 20
69.0305515286
 11
39.1084983079
 21
69.0305515286
  0
LINE
  5
2E8
100
AcDbEntity
  8
0
100
AcDbLine
 62
7
  6
CONTINUOUS
 10
40.1084983075
 20
69.0305515286
 11
44.3382664102
 21
69.0305515286
  0
LINE
  5
2E9
100
AcDbEntity
  8
0
100
AcDbLine
 62
7
  6
CONTINUOUS
 10
38.1984072711
 20
69.0805515286
 11
43.8405871755
 21
69.0805515286
  0
LINE
  5
2EA
100
AcDbEntity
  8
0
100
AcDbLine
 62
7
  6
CONTINUOUS
 10
49.1584983075
 20
65.0305515286
 11
49.1584983075
 21
65.2805515286
  0
LINE
  5
2EB
100
AcDbEntity
  8
0
100
AcDbLine
 62
7
  6
CONTINUOUS
 10
49.1584983075
 20
77.8805515286
 11
49.1584983075
 21
77.9305515286
  0
LINE
  5
2EC
100
AcDbEntity
  8
0
100
AcDbLine
 62
7
  6
CONTINUOUS
 10
50.0084983075
 20
70.3305515286
 11
50.0084983075
 21
72.8305515286
  0
LINE
  5
2ED
100
AcDbEntity
  8
0
100
AcDbLine
 62
7
  6
CONTINUOUS
 10
50.1084983075
 20
72.8305515286
 11
50.1084983075
 21
70.3305515286
  0
LINE
  5
2EE
100
AcDbEntity
  8
0
100
AcDbLine
 62
7
  6
CONTINUOUS
 10
50.2084983075
 20
70.3305515286
 11
50.2084983075
 21
72.8305515286
  0
LINE
  5
2EF
100
AcDbEntity
  8
0
100
AcDbLine
 62
7
  6
CONTINUOUS
 10
50.5584983075
 20
69.8805515286
 11
50.5584983075
 21
69.9805515286
  0
LINE
  5
2F0
100
AcDbEntity
  8
0
100
AcDbLine
 62
7
  6
CONTINUOUS
 10
50.5584983075
 20
73.1805515286
 11
50.5584983075
 21
73.2805515286
  0
LINE
  5
2F1
100
AcDbEntity
  8
0
100
AcDbLine
 62
7
  6
CONTINUOUS
 10
50.6084983075
 20
69.7305515286
 11
50.6084983075
 21
69.8305515286
  0
LINE
  5
2F2
100
AcDbEntity
  8
0
100
AcDbLine
 62
7
  6
CONTINUOUS
 10
50.6084983075
 20
73.3305515286
 11
50.6084983075
 21
73.4305515286
  0
LINE
  5
2F3
100
AcDbEntity
  8
0
100
AcDbLine
 62
7
  6
CONTINUOUS
 10
12.6808806496
 20
69.3024405086
 11
13.8584983075
 21
69.3024405086
  0
LINE
  5
2F4
100
AcDbEntity
  8
0
100
AcDbLine
 62
7
  6
CONTINUOUS
 10
44.1224963876
 20
69.3805515048
 11
37.8984072713
 21
69.3805515286
  0
LINE
  5
2F5
100
AcDbEntity
  8
0
100
AcDbLine
 62
7
  6
CONTINUOUS
 10
45.0592718179
 20
69.5305516686
 11
44.6842942271
 21
69.5305515208
  0
LINE
  5
2F6
100
AcDbEntity
  8
0
100
AcDbLine
 62
7
  6
CONTINUOUS
 10
35.1672338086
 20
69.5805515286
 11
35.4584983075
 21
69.5805515286
  0
LINE
  5
2F7
100
AcDbEntity
  8
0
100
AcDbLine
 62
7
  6
CONTINUOUS
 10
50.9084983075
 20
69.7305515286
 11
50.6084983075
 21
69.7305515286
  0
LINE
  5
2F8
100
AcDbEntity
  8
0
100
AcDbLine
 62
7
  6
CONTINUOUS
 10
13.8584983075
 20
69.7305515286
 11
15.0584983075
 21
69.7305515286
  0
LINE
  5
2F9
100
AcDbEntity
  8
0
100
AcDbLine
 62
7
  6
CONTINUOUS
 10
72.2584983075
 20
69.7305515286
 11
73.4584983075
 21
69.7305515286
  0
LINE
  5
2FA
100
AcDbEntity
  8
0
100
AcDbLine
 62
7
  6
CONTINUOUS
 10
80.6584983075
 20
69.7305515286
 11
81.8584983075
 21
69.7305515286
  0
LINE
  5
2FB
100
AcDbEntity
  8
0
100
AcDbLine
 62
7
  6
CONTINUOUS
 10
89.0584983075
 20
69.7305515286
 11
90.2584983075
 21
69.7305515286
  0
LINE
  5
2FC
100
AcDbEntity
  8
0
100
AcDbLine
 62
7
  6
CONTINUOUS
 10
50.6084983075
 20
69.8305515286
 11
50.9084983075
 21
69.8305515286
  0
LINE
  5
2FD
100
AcDbEntity
  8
0
100
AcDbLine
 62
7
  6
CONTINUOUS
 10
50.5584983075
 20
69.8805515286
 11
50.9584983075
 21
69.8805515286
  0
LINE
  5
2FE
100
AcDbEntity
  8
0
100
AcDbLine
 62
7
  6
CONTINUOUS
 10
50.9584983075
 20
69.9805515286
 11
50.5584983075
 21
69.9805515286
  0
LINE
  5
2FF
100
AcDbEntity
  8
0
100
AcDbLine
 62
7
  6
CONTINUOUS
 10
51.5084983075
 20
70.3305515286
 11
51.3084983075
 21
70.3305515286
  0
LINE
  5
300
100
AcDbEntity
  8
0
100
AcDbLine
 62
7
  6
CONTINUOUS
 10
50.2084983075
 20
70.3305515286
 11
50.0084983075
 21
70.3305515286
  0
LINE
  5
301
100
AcDbEntity
  8
0
100
AcDbLine
 62
7
  6
CONTINUOUS
 10
35.4584983075
 20
70.3305515286
 11
35.1672338086
 21
70.3305515286
  0
LINE
  5
302
100
AcDbEntity
  8
0
100
AcDbLine
 62
7
  6
CONTINUOUS
 10
40.6584983075
 20
70.4805515286
 11
44.3405871937
 21
70.4805515286
  0
LINE
  5
303
100
AcDbEntity
  8
0
100
AcDbLine
 62
7
  6
CONTINUOUS
 10
40.6584983075
 20
70.5805515286
 11
44.2405700085
 21
70.5805515286
  0
LINE
  5
304
100
AcDbEntity
  8
0
100
AcDbLine
 62
7
  6
CONTINUOUS
 10
35.1672338086
 20
70.6305515286
 11
35.4584983075
 21
70.6305515286
  0
LINE
  5
305
100
AcDbEntity
  8
0
100
AcDbLine
 62
7
  6
CONTINUOUS
 10
41.583498443
 20
70.6605515286
 11
43.7834980194
 21
70.6605515286
  0
LINE
  5
306
100
AcDbEntity
  8
0
100
AcDbLine
 62
7
  6
CONTINUOUS
 10
43.8495224979
 20
70.8605515286
 11
41.4420769715
 21
70.8605515286
  0
LINE
  5
307
100
AcDbEntity
  8
0
100
AcDbLine
 62
7
  6
CONTINUOUS
 10
40.2084983075
 20
71.0305515286
 11
40.1084983075
 21
71.0305515286
  0
LINE
  5
308
100
AcDbEntity
  8
0
100
AcDbLine
 62
7
  6
CONTINUOUS
 10
44.2834983075
 20
71.1605513726
 11
44.2215470815
 21
71.1605513726
  0
LINE
  5
309
100
AcDbEntity
  8
0
100
AcDbLine
 62
7
  6
CONTINUOUS
 10
41.1420769516
 20
71.1605515108
 11
41.0834983075
 21
71.1605515108
  0
LINE
  5
30A
100
AcDbEntity
  8
0
100
AcDbLine
 62
7
  6
CONTINUOUS
 10
37.8984072713
 20
69.5305698622
 11
36.4778283908
 21
69.5306403423
  0
LINE
  5
30B
100
AcDbEntity
  8
0
100
AcDbLine
 62
7
  6
CONTINUOUS
 10
50.9084983075
 20
73.4305515286
 11
50.9084983075
 21
73.3305515286
  0
LINE
  5
30C
100
AcDbEntity
  8
0
100
AcDbLine
 62
7
  6
CONTINUOUS
 10
50.9084983075
 20
69.8305515286
 11
50.9084983075
 21
69.7305515286
  0
LINE
  5
30D
100
AcDbEntity
  8
0
100
AcDbLine
 62
7
  6
CONTINUOUS
 10
50.9584983075
 20
73.2805515286
 11
50.9584983075
 21
73.1805515286
  0
LINE
  5
30E
100
AcDbEntity
  8
0
100
AcDbLine
 62
7
  6
CONTINUOUS
 10
50.9584983075
 20
69.9805515286
 11
50.9584983075
 21
69.8805515286
  0
LINE
  5
30F
100
AcDbEntity
  8
0
100
AcDbLine
 62
7
  6
CONTINUOUS
 10
51.3084983075
 20
72.8305515286
 11
51.3084983075
 21
70.3305515286
  0
LINE
  5
310
100
AcDbEntity
  8
0
100
AcDbLine
 62
7
  6
CONTINUOUS
 10
51.4084983075
 20
70.3305515286
 11
51.4084983075
 21
72.8305515286
  0
LINE
  5
311
100
AcDbEntity
  8
0
100
AcDbLine
 62
7
  6
CONTINUOUS
 10
51.5084983075
 20
72.8305515286
 11
51.5084983075
 21
70.3305515286
  0
LINE
  5
312
100
AcDbEntity
  8
0
100
AcDbLine
 62
7
  6
CONTINUOUS
 10
51.6413777973
 20
63.6305515286
 11
51.6413777973
 21
65.0305515286
  0
LINE
  5
313
100
AcDbEntity
  8
0
100
AcDbLine
 62
7
  6
CONTINUOUS
 10
51.6413777973
 20
77.9305515286
 11
51.6413777973
 21
79.3305515286
  0
LINE
  5
314
100
AcDbEntity
  8
0
100
AcDbLine
 62
7
  6
CONTINUOUS
 10
67.0101988682
 20
75.1747934933
 11
68.067725882
 21
75.477508896
  0
LINE
  5
315
100
AcDbEntity
  8
0
100
AcDbLine
 62
7
  6
CONTINUOUS
 10
69.0291140764
 20
75.7527047167
 11
70.0866410902
 21
76.0554201194
  0
LINE
  5
316
100
AcDbEntity
  8
0
100
AcDbLine
 62
7
  6
CONTINUOUS
 10
70.3067977467
 20
75.2863095639
 11
69.2492707329
 21
74.9835941612
  0
LINE
  5
317
100
AcDbEntity
  8
0
100
AcDbLine
 62
7
  6
CONTINUOUS
 10
68.2878825386
 20
74.7083983405
 11
67.2303555247
 21
74.4056829378
  0
LINE
  5
318
100
AcDbEntity
  8
0
100
AcDbLine
 62
7
  6
CONTINUOUS
 10
41.0834983075
 20
72.0105512888
 11
41.1420769516
 21
72.0105512888
  0
LINE
  5
319
100
AcDbEntity
  8
0
100
AcDbLine
 62
7
  6
CONTINUOUS
 10
44.2215470815
 20
72.0105515367
 11
44.2834983075
 21
72.0105515367
  0
LINE
  5
31A
100
AcDbEntity
  8
0
100
AcDbLine
 62
7
  6
CONTINUOUS
 10
40.1084983075
 20
72.1305515286
 11
40.2084983075
 21
72.1305515286
  0
LINE
  5
31B
100
AcDbEntity
  8
0
100
AcDbLine
 62
7
  6
CONTINUOUS
 10
41.4420769475
 20
72.3105515286
 11
43.8495217205
 21
72.3105515286
  0
LINE
  5
31C
100
AcDbEntity
  8
0
100
AcDbLine
 62
7
  6
CONTINUOUS
 10
35.4584983075
 20
72.3305515286
 11
35.1672338086
 21
72.3305515286
  0
LINE
  5
31D
100
AcDbEntity
  8
0
100
AcDbLine
 62
7
  6
CONTINUOUS
 10
41.5834982905
 20
72.5105515286
 11
43.7834975329
 21
72.5105515286
  0
LINE
  5
31E
100
AcDbEntity
  8
0
100
AcDbLine
 62
7
  6
CONTINUOUS
 10
40.6584983075
 20
72.5805515286
 11
44.2405699992
 21
72.5805515286
  0
LINE
  5
31F
100
AcDbEntity
  8
0
100
AcDbLine
 62
7
  6
CONTINUOUS
 10
35.1672338086
 20
72.6305515286
 11
35.4584983075
 21
72.6305515286
  0
LINE
  5
320
100
AcDbEntity
  8
0
100
AcDbLine
 62
7
  6
CONTINUOUS
 10
44.3405871937
 20
72.6805515286
 11
40.6584983073
 21
72.6805515286
  0
LINE
  5
321
100
AcDbEntity
  8
0
100
AcDbLine
 62
7
  6
CONTINUOUS
 10
50.0084983075
 20
72.8305515286
 11
50.2084983075
 21
72.8305515286
  0
LINE
  5
322
100
AcDbEntity
  8
0
100
AcDbLine
 62
7
  6
CONTINUOUS
 10
51.3084983075
 20
72.8305515286
 11
51.5084983075
 21
72.8305515286
  0
LINE
  5
323
100
AcDbEntity
  8
0
100
AcDbLine
 62
7
  6
CONTINUOUS
 10
50.5584983075
 20
73.1805515286
 11
50.9584983075
 21
73.1805515286
  0
LINE
  5
324
100
AcDbEntity
  8
0
100
AcDbLine
 62
7
  6
CONTINUOUS
 10
90.2584983075
 20
73.2305515286
 11
89.0584983075
 21
73.2305515286
  0
LINE
  5
325
100
AcDbEntity
  8
0
100
AcDbLine
 62
7
  6
CONTINUOUS
 10
81.8584983075
 20
73.2305515286
 11
80.6584983075
 21
73.2305515286
  0
LINE
  5
326
100
AcDbEntity
  8
0
100
AcDbLine
 62
7
  6
CONTINUOUS
 10
73.4584983075
 20
73.2305515286
 11
72.2584983075
 21
73.2305515286
  0
LINE
  5
327
100
AcDbEntity
  8
0
100
AcDbLine
 62
7
  6
CONTINUOUS
 10
15.0584983075
 20
73.2305515286
 11
13.8584983075
 21
73.2305515286
  0
LINE
  5
328
100
AcDbEntity
  8
0
100
AcDbLine
 62
7
  6
CONTINUOUS
 10
50.9584983075
 20
73.2805515286
 11
50.5584983075
 21
73.2805515286
  0
LINE
  5
329
100
AcDbEntity
  8
0
100
AcDbLine
 62
7
  6
CONTINUOUS
 10
50.9084983075
 20
73.3305515286
 11
50.6084983075
 21
73.3305515286
  0
LINE
  5
32A
100
AcDbEntity
  8
0
100
AcDbLine
 62
7
  6
CONTINUOUS
 10
50.6084983075
 20
73.4305515286
 11
50.9084983075
 21
73.4305515286
  0
LINE
  5
32B
100
AcDbEntity
  8
0
100
AcDbLine
 62
7
  6
CONTINUOUS
 10
35.1672338086
 20
73.5805515286
 11
35.4584983075
 21
73.5805515286
  0
LINE
  5
32C
100
AcDbEntity
  8
0
100
AcDbLine
 62
7
  6
CONTINUOUS
 10
13.8584983075
 20
73.6024405086
 11
12.6808806496
 21
73.6024405086
  0
LINE
  5
32D
100
AcDbEntity
  8
0
100
AcDbLine
 62
7
  6
CONTINUOUS
 10
44.684294227
 20
73.630551593
 11
45.0592718387
 21
73.6305524289
  0
LINE
  5
32E
100
AcDbEntity
  8
0
100
AcDbLine
 62
7
  6
CONTINUOUS
 10
37.8984072713
 20
73.7805515286
 11
44.1224964538
 21
73.7805514887
  0
LINE
  5
32F
100
AcDbEntity
  8
0
100
AcDbLine
 62
7
  6
CONTINUOUS
 10
38.1984072711
 20
74.0805515286
 11
43.8405871962
 21
74.0805515286
  0
LINE
  5
330
100
AcDbEntity
  8
0
100
AcDbLine
 62
7
  6
CONTINUOUS
 10
44.3382665227
 20
74.1305515286
 11
40.1084983075
 21
74.1305515286
  0
LINE
  5
331
100
AcDbEntity
  8
0
100
AcDbLine
 62
7
  6
CONTINUOUS
 10
39.1084983077
 20
74.1305515286
 11
37.4676976063
 21
74.1305515286
  0
LINE
  5
332
100
AcDbEntity
  8
0
100
AcDbLine
 62
7
  6
CONTINUOUS
 10
39.1084983075
 20
74.3305376327
 11
37.4677113687
 21
74.3305343742
  0
LINE
  5
333
100
AcDbEntity
  8
0
100
AcDbLine
 62
7
  6
CONTINUOUS
 10
44.3382672135
 20
74.348813315
 11
40.1084983075
 21
74.3488133029
  0
LINE
  5
334
100
AcDbEntity
  8
0
100
AcDbLine
 62
7
  6
CONTINUOUS
 10
39.1084983075
 20
74.3805515286
 11
39.1584983073
 21
74.3805515286
  0
LINE
  5
335
100
AcDbEntity
  8
0
100
AcDbLine
 62
7
  6
CONTINUOUS
 10
39.1584983073
 20
74.4305515286
 11
39.7584983073
 21
74.4305515286
  0
LINE
  5
336
100
AcDbEntity
  8
0
100
AcDbLine
 62
7
  6
CONTINUOUS
 10
36.4778182846
 20
73.6306159688
 11
37.8984072713
 21
73.6305677256
  0
LINE
  5
337
100
AcDbEntity
  8
0
100
AcDbLine
 62
7
  6
CONTINUOUS
 10
54.5584983075
 20
65.0305515286
 11
54.5584983075
 21
64.2305515286
  0
LINE
  5
338
100
AcDbEntity
  8
0
100
AcDbLine
 62
7
  6
CONTINUOUS
 10
54.5584983075
 20
77.9305515286
 11
54.5584983075
 21
78.7305515286
  0
LINE
  5
339
100
AcDbEntity
  8
0
100
AcDbLine
 62
7
  6
CONTINUOUS
 10
55.5584983075
 20
64.3305515286
 11
55.5584983075
 21
65.0805515286
  0
LINE
  5
33A
100
AcDbEntity
  8
0
100
AcDbLine
 62
7
  6
CONTINUOUS
 10
55.5584983075
 20
77.8805515286
 11
55.5584983075
 21
78.6305515286
  0
LINE
  5
33B
100
AcDbEntity
  8
0
100
AcDbLine
 62
7
  6
CONTINUOUS
 10
75.4125901444
 20
75.1257358878
 11
76.4606340727
 21
75.4598076229
  0
LINE
  5
33C
100
AcDbEntity
  8
0
100
AcDbLine
 62
7
  6
CONTINUOUS
 10
77.4134012803
 20
75.7635092004
 11
78.4614452087
 21
76.0975809355
  0
LINE
  5
33D
100
AcDbEntity
  8
0
100
AcDbLine
 62
7
  6
CONTINUOUS
 10
78.7044064706
 20
75.3353671694
 11
77.6563625422
 21
75.0012954343
  0
LINE
  5
33E
100
AcDbEntity
  8
0
100
AcDbLine
 62
7
  6
CONTINUOUS
 10
76.7035953346
 20
74.6975938569
 11
75.6555514063
 21
74.3635221217
  0
LINE
  5
33F
100
AcDbEntity
  8
0
100
AcDbLine
 62
7
  6
CONTINUOUS
 10
83.8101988682
 20
75.1747934933
 11
84.867725882
 21
75.477508896
  0
LINE
  5
340
100
AcDbEntity
  8
0
100
AcDbLine
 62
7
  6
CONTINUOUS
 10
85.8291140764
 20
75.7527047167
 11
86.8866410902
 21
76.0554201194
  0
LINE
  5
341
100
AcDbEntity
  8
0
100
AcDbLine
 62
7
  6
CONTINUOUS
 10
39.3084982484
 20
74.5805515286
 11
39.6084983663
 21
74.5805515286
  0
LINE
  5
342
100
AcDbEntity
  8
0
100
AcDbLine
 62
7
  6
CONTINUOUS
 10
39.5119712108
 20
74.8805515286
 11
39.1084983075
 21
74.8805515286
  0
LINE
  5
343
100
AcDbEntity
  8
0
100
AcDbLine
 62
7
  6
CONTINUOUS
 10
39.9084983075
 20
75.0805515286
 11
40.1084983075
 21
75.0805515286
  0
LINE
  5
344
100
AcDbEntity
  8
0
100
AcDbLine
 62
7
  6
CONTINUOUS
 10
39.1084983075
 20
75.1305515286
 11
40.1084983075
 21
75.1305515286
  0
LINE
  5
345
100
AcDbEntity
  8
0
100
AcDbLine
 62
7
  6
CONTINUOUS
 10
10.6808806496
 20
75.6024405086
 11
13.8584983075
 21
75.6024405086
  0
LINE
  5
346
100
AcDbEntity
  8
0
100
AcDbLine
 62
7
  6
CONTINUOUS
 10
35.4584983075
 20
76.3805515286
 11
35.6584983075
 21
76.3805515286
  0
LINE
  5
347
100
AcDbEntity
  8
0
100
AcDbLine
 62
7
  6
CONTINUOUS
 10
58.1084983075
 20
76.3805515286
 11
58.3084983075
 21
76.3805515286
  0
LINE
  5
348
100
AcDbEntity
  8
0
100
AcDbLine
 62
7
  6
CONTINUOUS
 10
64.0584983075
 20
76.3805515286
 11
64.2584983075
 21
76.3805515286
  0
LINE
  5
349
100
AcDbEntity
  8
0
100
AcDbLine
 62
7
  6
CONTINUOUS
 10
35.1672338086
 20
76.5805515286
 11
35.4584983075
 21
76.5805515286
  0
LINE
  5
34A
100
AcDbEntity
  8
0
100
AcDbLine
 62
7
  6
CONTINUOUS
 10
64.1539659353
 20
76.9305515286
 11
64.2584983075
 21
76.9305515286
  0
LINE
  5
34B
100
AcDbEntity
  8
0
100
AcDbLine
 62
7
  6
CONTINUOUS
 10
13.8584983075
 20
77.2305515286
 11
15.0584983075
 21
77.2305515286
  0
LINE
  5
34C
100
AcDbEntity
  8
0
100
AcDbLine
 62
7
  6
CONTINUOUS
 10
72.2584983075
 20
77.2305515286
 11
73.4584983075
 21
77.2305515286
  0
LINE
  5
34D
100
AcDbEntity
  8
0
100
AcDbLine
 62
7
  6
CONTINUOUS
 10
80.6584983075
 20
77.2305515286
 11
81.8584983075
 21
77.2305515286
  0
LINE
  5
34E
100
AcDbEntity
  8
0
100
AcDbLine
 62
7
  6
CONTINUOUS
 10
89.0584983075
 20
77.2305515286
 11
90.2584983075
 21
77.2305515286
  0
LINE
  5
34F
100
AcDbEntity
  8
0
100
AcDbLine
 62
7
  6
CONTINUOUS
 10
56.8084983075
 20
77.8805515286
 11
56.8084983075
 21
77.6805515286
  0
LINE
  5
350
100
AcDbEntity
  8
0
100
AcDbLine
 62
7
  6
CONTINUOUS
 10
56.8084983075
 20
65.4805515286
 11
56.8084983075
 21
65.2805515286
  0
LINE
  5
351
100
AcDbEntity
  8
0
100
AcDbLine
 62
7
  6
CONTINUOUS
 10
58.1084983075
 20
76.3805515286
 11
58.1084983075
 21
66.7805515286
  0
LINE
  5
352
100
AcDbEntity
  8
0
100
AcDbLine
 62
7
  6
CONTINUOUS
 10
58.3084983075
 20
66.7805515286
 11
58.3084983075
 21
76.3805515286
  0
LINE
  5
353
100
AcDbEntity
  8
0
100
AcDbLine
 62
7
  6
CONTINUOUS
 10
58.5584983075
 20
78.7305515286
 11
58.5584983075
 21
77.8805515286
  0
LINE
  5
354
100
AcDbEntity
  8
0
100
AcDbLine
 62
7
  6
CONTINUOUS
 10
58.5584983075
 20
65.0805515286
 11
58.5584983075
 21
64.2305515286
  0
LINE
  5
355
100
AcDbEntity
  8
0
100
AcDbLine
 62
7
  6
CONTINUOUS
 10
58.8584983075
 20
64.2305515286
 11
58.8584983075
 21
65.0305515286
  0
LINE
  5
356
100
AcDbEntity
  8
0
100
AcDbLine
 62
7
  6
CONTINUOUS
 10
58.8584983075
 20
77.9305515286
 11
58.8584983075
 21
78.7305515286
  0
LINE
  5
357
100
AcDbEntity
  8
0
100
AcDbLine
 62
7
  6
CONTINUOUS
 10
58.8834970267
 20
76.3805515365
 11
58.8834970332
 21
66.7805515286
  0
LINE
  5
358
100
AcDbEntity
  8
0
100
AcDbLine
 62
7
  6
CONTINUOUS
 10
62.6737521558
 20
77.3305515286
 11
62.7487521558
 21
77.4430515286
  0
LINE
  5
359
100
AcDbEntity
  8
0
100
AcDbLine
 62
7
  6
CONTINUOUS
 10
63.7334988579
 20
76.4486924867
 11
63.6584983532
 21
76.3363531389
  0
LINE
  5
35A
100
AcDbEntity
  8
0
100
AcDbLine
 62
7
  6
CONTINUOUS
 10
52.3584983075
 20
63.6305515286
 11
53.120986517
 21
64.0880444543
  0
LINE
  5
35B
100
AcDbEntity
  8
0
100
AcDbLine
 62
7
  6
CONTINUOUS
 10
73.4584983075
 20
73.2305515286
 11
72.2584983075
 21
72.7305515286
  0
LINE
  5
35C
100
AcDbEntity
  8
0
100
AcDbLine
 62
7
  6
CONTINUOUS
 10
87.1067977467
 20
75.2863095639
 11
86.0492707329
 21
74.9835941612
  0
LINE
  5
35D
100
AcDbEntity
  8
0
100
AcDbLine
 62
7
  6
CONTINUOUS
 10
85.0878825386
 20
74.7083983405
 11
84.0303555247
 21
74.4056829378
  0
LWPOLYLINE
  5
35E
100
AcDbEntity
  8
0
100
AcDbPolyline
 62
7
  6
CONTINUOUS
 90
8
 70
0
 10
35.6584878475
 20
77.8805515286
 10
35.6041887214
 20
77.8730392076
 10
35.5557419276
 20
77.8521406658
 10
35.5168322384
 20
77.8217345577
 10
35.4882804021
 20
77.7855639056
 10
35.4698719628
 20
77.7470447516
 10
35.460737497
 20
77.7104057425
 10
35.458511291
 20
77.6828442345
  0
LINE
  5
35F
100
AcDbEntity
  8
0
100
AcDbLine
 62
7
  6
CONTINUOUS
 10
35.6584869055
 20
77.8805513983
 11
35.6544187299
 21
77.8805099307
  0
LINE
  5
360
100
AcDbEntity
  8
0
100
AcDbLine
 62
7
  6
CONTINUOUS
 10
24.2584983075
 20
77.2805515286
 11
31.3672338086
 21
77.2805515286
  0
LINE
  5
361
100
AcDbEntity
  8
0
100
AcDbLine
 62
7
  6
CONTINUOUS
 10
62.6737521558
 20
77.3305515286
 11
59.9432444591
 21
77.3305515286
  0
LINE
  5
362
100
AcDbEntity
  8
0
100
AcDbLine
 62
7
  6
CONTINUOUS
 10
62.7487521558
 20
77.4430515286
 11
59.8682444591
 21
77.4430515286
  0
LINE
  5
363
100
AcDbEntity
  8
0
100
AcDbLine
 62
7
  6
CONTINUOUS
 10
64.2584976118
 20
77.6305515286
 11
63.5870281773
 21
77.6305515286
  0
LINE
  5
364
100
AcDbEntity
  8
0
100
AcDbLine
 62
7
  6
CONTINUOUS
 10
36.1300615098
 20
77.6305515286
 11
35.4584983075
 21
77.6305515286
  0
LINE
  5
365
100
AcDbEntity
  8
0
100
AcDbLine
 62
7
  6
CONTINUOUS
 10
35.1672338086
 20
77.6805515286
 11
36.2160508781
 21
77.6805515286
  0
LINE
  5
366
100
AcDbEntity
  8
0
100
AcDbLine
 62
7
  6
CONTINUOUS
 10
36.9584983075
 20
77.6805515286
 11
56.8084983075
 21
77.6805515286
  0
LINE
  5
367
100
AcDbEntity
  8
0
100
AcDbLine
 62
7
  6
CONTINUOUS
 10
57.5568297848
 20
77.6805515286
 11
62.7584983075
 21
77.6805515286
  0
LINE
  5
368
100
AcDbEntity
  8
0
100
AcDbLine
 62
7
  6
CONTINUOUS
 10
63.5061280069
 20
77.6805515286
 11
64.2584983075
 21
77.6805515286
  0
LINE
  5
369
100
AcDbEntity
  8
0
100
AcDbLine
 62
7
  6
CONTINUOUS
 10
31.3672338086
 20
77.7805515286
 11
24.7584983075
 21
77.7805515286
  0
LINE
  5
36A
100
AcDbEntity
  8
0
100
AcDbLine
 62
7
  6
CONTINUOUS
 10
35.1672338086
 20
77.8805515286
 11
36.9538219225
 21
77.8805515286
  0
LINE
  5
36B
100
AcDbEntity
  8
0
100
AcDbLine
 62
7
  6
CONTINUOUS
 10
36.9584983075
 20
77.8805515286
 11
64.2584983075
 21
77.8805515286
  0
LINE
  5
36C
100
AcDbEntity
  8
0
100
AcDbLine
 62
7
  6
CONTINUOUS
 10
58.8584983075
 20
77.9305515286
 11
58.5584983075
 21
77.9305515286
  0
LINE
  5
36D
100
AcDbEntity
  8
0
100
AcDbLine
 62
7
  6
CONTINUOUS
 10
55.5584983075
 20
77.9305515286
 11
34.8132166975
 21
77.9305515286
  0
LINE
  5
36E
100
AcDbEntity
  8
0
100
AcDbLine
 62
7
  6
CONTINUOUS
 10
55.5584983075
 20
78.6305515286
 11
58.5584983075
 21
78.6305515286
  0
LINE
  5
36F
100
AcDbEntity
  8
0
100
AcDbLine
 62
7
  6
CONTINUOUS
 10
53.6354822724
 20
78.7305515286
 11
58.8584983075
 21
78.7305515286
  0
LINE
  5
370
100
AcDbEntity
  8
0
100
AcDbLine
 62
7
  6
CONTINUOUS
 10
13.8584983075
 20
79.0805515286
 11
31.3672338086
 21
79.0805515286
  0
LINE
  5
371
100
AcDbEntity
  8
0
100
AcDbLine
 62
7
  6
CONTINUOUS
 10
52.7751649741
 20
79.0805515286
 11
90.2584983075
 21
79.0805515286
  0
LINE
  5
372
100
AcDbEntity
  8
0
100
AcDbLine
 62
7
  6
CONTINUOUS
 10
90.0584983075
 20
79.2805515286
 11
52.4418316408
 21
79.2805515286
  0
LINE
  5
373
100
AcDbEntity
  8
0
100
AcDbLine
 62
7
  6
CONTINUOUS
 10
31.3672338086
 20
79.2805515286
 11
14.0584983075
 21
79.2805515286
  0
LINE
  5
374
100
AcDbEntity
  8
0
100
AcDbLine
 62
7
  6
CONTINUOUS
 10
31.3672338086
 20
79.3305515286
 11
52.3584983075
 21
79.3305515286
  0
LINE
  5
375
100
AcDbEntity
  8
0
100
AcDbLine
 62
7
  6
CONTINUOUS
 10
36.934062686
 20
77.8803522059
 11
36.9134408405
 21
77.8805515286
  0
LINE
  5
376
100
AcDbEntity
  8
0
100
AcDbLine
 62
7
  6
CONTINUOUS
 10
64.0916310738
 20
77.8777891824
 11
64.0598897539
 21
77.8805467568
  0
LINE
  5
377
100
AcDbEntity
  8
0
100
AcDbLine
 62
7
  6
CONTINUOUS
 10
63.023182451
 20
77.8570153429
 11
62.8812437793
 21
77.875521469
  0
LWPOLYLINE
  5
378
100
AcDbEntity
  8
0
100
AcDbPolyline
 62
7
  6
CONTINUOUS
 90
6
 70
0
 10
63.0076135685
 20
77.8597208403
 10
62.9643226108
 20
77.8663632866
 10
62.9217374671
 20
77.8716427933
 10
62.88002004
 20
77.8756209621
 10
62.8395490451
 20
77.8783602217
 10
62.8352058766
 20
77.8785889273
  0
LINE
  5
379
100
AcDbEntity
  8
0
100
AcDbLine
 62
7
  6
CONTINUOUS
 10
72.2584983075
 20
70.2305515286
 11
73.4584983075
 21
69.7305515286
  0
LINE
  5
37A
100
AcDbEntity
  8
0
100
AcDbLine
 62
7
  6
CONTINUOUS
 10
53.120986517
 20
78.8730586029
 11
52.3584983075
 21
79.3305515286
  0
LINE
  5
37B
100
AcDbEntity
  8
0
100
AcDbLine
 62
7
  6
CONTINUOUS
 10
63.6584983672
 20
66.8247627876
 11
63.733498893
 21
66.7124492119
  0
LINE
  5
37C
100
AcDbEntity
  8
0
100
AcDbLine
 62
7
  6
CONTINUOUS
 10
62.7487521558
 20
65.7180515286
 11
62.6737521558
 21
65.8305515286
  0
LINE
  5
37D
100
AcDbEntity
  8
0
100
AcDbLine
 62
7
  6
CONTINUOUS
 10
58.9584982422
 20
76.3363402766
 11
58.9584982533
 21
66.8247513742
  0
LINE
  5
37E
100
AcDbEntity
  8
0
100
AcDbLine
 62
7
  6
CONTINUOUS
 10
59.9432444591
 20
65.8305515286
 11
59.8682444591
 21
65.7180515286
  0
LINE
  5
37F
100
AcDbEntity
  8
0
100
AcDbLine
 62
7
  6
CONTINUOUS
 10
58.8834977317
 20
66.7124199878
 11
58.9584982593
 21
66.8247513742
  0
LINE
  5
380
100
AcDbEntity
  8
0
100
AcDbLine
 62
7
  6
CONTINUOUS
 10
64.0632028621
 20
65.2806068524
 11
64.2014806437
 21
65.3407081415
  0
LINE
  5
381
100
AcDbEntity
  8
0
100
AcDbLine
 62
7
  6
CONTINUOUS
 10
81.8584983075
 20
73.2305515286
 11
80.6584983075
 21
72.7305515286
  0
LINE
  5
382
100
AcDbEntity
  8
0
100
AcDbLine
 62
7
  6
CONTINUOUS
 10
35.5595006832
 20
77.8543348051
 11
35.6585034914
 21
77.8805515286
  0
LINE
  5
383
100
AcDbEntity
  8
0
100
AcDbLine
 62
7
  6
CONTINUOUS
 10
64.1280579111
 20
77.8680678266
 11
64.0598897539
 21
77.8805467568
  0
LINE
  5
384
100
AcDbEntity
  8
0
100
AcDbLine
 62
7
  6
CONTINUOUS
 10
64.1205335563
 20
77.8706895008
 11
64.0916310738
 21
77.8777891824
  0
LINE
  5
385
100
AcDbEntity
  8
0
100
AcDbLine
 62
7
  6
CONTINUOUS
 10
64.183959757
 20
77.8363100805
 11
64.0598897539
 21
77.8805467568
  0
LINE
  5
386
100
AcDbEntity
  8
0
100
AcDbLine
 62
7
  6
CONTINUOUS
 10
64.1464710367
 20
77.8601674317
 11
64.1205335563
 21
77.8706895008
  0
LINE
  5
387
100
AcDbEntity
  8
0
100
AcDbLine
 62
7
  6
CONTINUOUS
 10
80.6584983075
 20
70.2305515286
 11
81.8584983075
 21
69.7305515286
  0
LINE
  5
388
100
AcDbEntity
  8
0
100
AcDbLine
 62
7
  6
CONTINUOUS
 10
64.1996477177
 20
77.8222447374
 11
64.0598852841
 21
77.8805467256
  0
LINE
  5
389
100
AcDbEntity
  8
0
100
AcDbLine
 62
7
  6
CONTINUOUS
 10
58.9584982477
 20
76.3363402766
 11
58.8834977211
 21
76.448653856
  0
LINE
  5
38A
100
AcDbEntity
  8
0
100
AcDbLine
 62
7
  6
CONTINUOUS
 10
59.8682444591
 20
77.4430515286
 11
59.9432444591
 21
77.3305515286
  0
LINE
  5
38B
100
AcDbEntity
  8
0
100
AcDbLine
 62
7
  6
CONTINUOUS
 10
62.7584983075
 20
77.8805515286
 11
62.7584983075
 21
77.6805515286
  0
LINE
  5
38C
100
AcDbEntity
  8
0
100
AcDbLine
 62
7
  6
CONTINUOUS
 10
62.7584983075
 20
65.4805515286
 11
62.7584983075
 21
65.2805515286
  0
LINE
  5
38D
100
AcDbEntity
  8
0
100
AcDbLine
 62
7
  6
CONTINUOUS
 10
63.6584983727
 20
66.8247627876
 11
63.6584983593
 21
76.3363531389
  0
LINE
  5
38E
100
AcDbEntity
  8
0
100
AcDbLine
 62
7
  6
CONTINUOUS
 10
63.7334995814
 20
66.7805515278
 11
63.7334995561
 21
76.3805515286
  0
LINE
  5
38F
100
AcDbEntity
  8
0
100
AcDbLine
 62
7
  6
CONTINUOUS
 10
64.0584983075
 20
76.3805515286
 11
64.0584983075
 21
66.7805515286
  0
LINE
  5
390
100
AcDbEntity
  8
0
100
AcDbLine
 62
7
  6
CONTINUOUS
 10
64.2584983075
 20
63.8805515286
 11
64.2584983075
 21
79.0805515286
  0
LWPOLYLINE
  5
391
100
AcDbEntity
  8
0
100
AcDbPolyline
 62
7
  6
CONTINUOUS
 90
3
 70
0
 10
63.5097887151
 20
65.4822564293
 10
64.0585568302
 20
66.032316674
 10
64.2535751006
 20
66.65911454
  0
LWPOLYLINE
  5
392
100
AcDbEntity
  8
0
100
AcDbPolyline
 62
7
  6
CONTINUOUS
 90
10
 70
0
 10
63.5097835368
 20
65.4822560387
 10
63.5946915258
 20
65.5352476997
 10
63.6720283332
 20
65.5908189318
 10
63.7423066797
 20
65.648243325
 10
63.8060538144
 20
65.7069462703
 10
63.8637924977
 20
65.7664876537
 10
63.9160293151
 20
65.8265479935
 10
63.9632153606
 20
65.8868750875
 10
64.0056440081
 20
65.9471078684
 10
64.0435753918
 20
66.0068735667
  0
LINE
  5
393
100
AcDbEntity
  8
0
100
AcDbLine
 62
7
  6
CONTINUOUS
 10
64.1285030179
 20
65.2932009468
 11
64.1586742676
 21
65.3074447919
  0
LINE
  5
394
100
AcDbEntity
  8
0
100
AcDbLine
 62
7
  6
CONTINUOUS
 10
90.2584983075
 20
73.2305515286
 11
89.0584983075
 21
72.7305515286
  0
LINE
  5
395
100
AcDbEntity
  8
0
100
AcDbLine
 62
7
  6
CONTINUOUS
 10
83.8101988682
 20
67.6747934933
 11
84.867725882
 21
67.977508896
  0
LINE
  5
396
100
AcDbEntity
  8
0
100
AcDbLine
 62
7
  6
CONTINUOUS
 10
85.8291140764
 20
68.2527047167
 11
86.8866410902
 21
68.5554201194
  0
LINE
  5
397
100
AcDbEntity
  8
0
100
AcDbLine
 62
7
  6
CONTINUOUS
 10
87.1067977467
 20
67.7863095639
 11
86.0492707329
 21
67.4835941612
  0
LINE
  5
398
100
AcDbEntity
  8
0
100
AcDbLine
 62
7
  6
CONTINUOUS
 10
85.0878825386
 20
67.2083983405
 11
84.0303555247
 21
66.9056829378
  0
LINE
  5
399
100
AcDbEntity
  8
0
100
AcDbLine
 62
7
  6
CONTINUOUS
 10
89.0584983075
 20
70.2305515286
 11
90.2584983075
 21
69.7305515286
  0
LWPOLYLINE
  5
39A
100
AcDbEntity
  8
0
100
AcDbPolyline
 62
7
  6
CONTINUOUS
 90
10
 70
0
 10
63.4284149273
 20
77.7226440576
 10
63.3789324182
 20
77.7462242975
 10
63.3299906311
 20
77.7674174496
 10
63.2817076924
 20
77.7863439949
 10
63.2341752679
 20
77.8031308434
 10
63.1874094988
 20
77.81792261
 10
63.1413981832
 20
77.8308577302
 10
63.0961181967
 20
77.8420621037
 10
63.0515369151
 20
77.8516493101
 10
63.0076135685
 20
77.8597208403
  0
LINE
  5
39B
100
AcDbEntity
  8
0
100
AcDbLine
 62
7
  6
CONTINUOUS
 10
63.5284746039
 20
77.6678499408
 11
63.4783090752
 21
77.6965580357
  0
LINE
  5
39C
100
AcDbEntity
  8
0
100
AcDbLine
 62
7
  6
CONTINUOUS
 10
64.1878356635
 20
77.8331069659
 11
64.1280579111
 21
77.8680678266
  0
LWPOLYLINE
  5
39D
100
AcDbEntity
  8
0
100
AcDbPolyline
 62
7
  6
CONTINUOUS
 90
7
 70
0
 10
63.5513015331
 20
77.6539214251
 10
63.488757457
 20
77.6907915868
 10
63.4186991492
 20
77.7274523251
 10
63.3395587061
 20
77.7634380215
 10
63.2493402343
 20
77.7979715817
 10
63.1452203144
 20
77.8298446174
 10
63.023182451
 20
77.8570153429
  0
LWPOLYLINE
  5
39E
100
AcDbEntity
  8
0
100
AcDbPolyline
 62
7
  6
CONTINUOUS
 90
3
 70
0
 10
64.1896461191
 20
77.8315534124
 10
64.1694683625
 20
77.8469452902
 10
64.1464710367
 20
77.8601674317
  0
LWPOLYLINE
  5
39F
100
AcDbEntity
  8
0
100
AcDbPolyline
 62
7
  6
CONTINUOUS
 90
6
 70
0
 10
63.7857109962
 20
77.4736401825
 10
63.7459493484
 20
77.509687969
 10
63.7038066924
 20
77.5451976606
 10
63.6581181373
 20
77.5808400588
 10
63.6075384428
 20
77.6171351333
 10
63.5513015331
 20
77.6539214251
  0
LWPOLYLINE
  5
3A0
100
AcDbEntity
  8
0
100
AcDbPolyline
 62
7
  6
CONTINUOUS
 90
5
 70
0
 10
64.2538669642
 20
76.4983387279
 10
64.2510013615
 20
76.5303387833
 10
64.247366211
 20
76.5629639893
 10
64.242923437
 20
76.5961537857
 10
64.2376381654
 20
76.6298464204
  0
LWPOLYLINE
  5
3A1
100
AcDbEntity
  8
0
100
AcDbPolyline
 62
7
  6
CONTINUOUS
 90
5
 70
0
 10
64.2584983059
 20
76.3806201524
 10
64.2349800948
 20
76.6451300388
 10
64.1674187742
 20
76.8952782618
 10
64.1193268107
 20
77.0115399383
 10
64.0824095316
 20
77.0857179731
  0
LINE
  5
3A2
100
AcDbEntity
  8
0
100
AcDbLine
 62
7
  6
CONTINUOUS
 10
64.4584983075
 20
63.6805515286
 11
64.4584983075
 21
79.2805515286
  0
LINE
  5
3A3
100
AcDbEntity
  8
0
100
AcDbLine
 62
7
  6
CONTINUOUS
 10
64.2302424951
 20
66.4907768722
 11
64.2387564694
 21
66.5379901268
  0
LINE
  5
3A4
100
AcDbEntity
  8
0
100
AcDbLine
 62
7
  6
CONTINUOUS
 10
64.2288467075
 20
65.375753521
 11
64.2584115154
 21
65.4864360076
  0
LINE
  5
3A5
100
AcDbEntity
  8
0
100
AcDbLine
 62
7
  6
CONTINUOUS
 10
64.2014806437
 20
65.3407081415
 11
64.258498012
 21
65.4808955031
  0
LWPOLYLINE
  5
3A6
100
AcDbEntity
  8
0
100
AcDbPolyline
 62
7
  6
CONTINUOUS
 90
10
 70
0
 10
64.0435753918
 20
66.0068735667
 10
64.0772806101
 20
66.0658390668
 10
64.1070491414
 20
66.1237324723
 10
64.1331926642
 20
66.1803715496
 10
64.1560133977
 20
66.2356184046
 10
64.1758090498
 20
66.2893990566
 10
64.1928769404
 20
66.3417367818
 10
64.2074862271
 20
66.3926927829
 10
64.2198748694
 20
66.4423520379
 10
64.2302424951
 20
66.4907768722
  0
LINE
  5
3A7
100
AcDbEntity
  8
0
100
AcDbLine
 62
7
  6
CONTINUOUS
 10
64.1586742486
 20
65.3074447947
 11
64.2288467075
 21
65.375753521
  0
LINE
  5
3A8
100
AcDbEntity
  8
0
100
AcDbLine
 62
7
  6
CONTINUOUS
 10
73.4584983075
 20
65.7305515286
 11
72.2584983075
 21
65.2305515286
  0
LINE
  5
3A9
100
AcDbEntity
  8
0
100
AcDbLine
 62
7
  6
CONTINUOUS
 10
72.2584983075
 20
77.7305515286
 11
73.4584983075
 21
77.2305515286
  0
LINE
  5
3AA
100
AcDbEntity
  8
0
100
AcDbLine
 62
7
  6
CONTINUOUS
 10
64.2254215834
 20
77.7907234389
 11
64.183959757
 21
77.8363100805
  0
LWPOLYLINE
  5
3AB
100
AcDbEntity
  8
0
100
AcDbPolyline
 62
7
  6
CONTINUOUS
 90
4
 70
0
 10
63.9246772993
 20
77.3239682181
 10
63.89282131
 20
77.3620401596
 10
63.8590839429
 20
77.3997276387
 10
63.8234016381
 20
77.4369556261
  0
LINE
  5
3AC
100
AcDbEntity
  8
0
100
AcDbLine
 62
7
  6
CONTINUOUS
 10
64.2321064596
 20
77.7798559521
 11
64.1878356635
 21
77.8331069659
  0
LWPOLYLINE
  5
3AD
100
AcDbEntity
  8
0
100
AcDbPolyline
 62
7
  6
CONTINUOUS
 90
3
 70
0
 10
64.2212802272
 20
77.7967552665
 10
64.2069901733
 20
77.8145346914
 10
64.1896461191
 20
77.8315534124
  0
LINE
  5
3AE
100
AcDbEntity
  8
0
100
AcDbLine
 62
7
  6
CONTINUOUS
 10
64.2321064596
 20
77.7798559521
 11
64.2212802272
 21
77.7967552665
  0
LWPOLYLINE
  5
3AF
100
AcDbEntity
  8
0
100
AcDbPolyline
 62
7
  6
CONTINUOUS
 90
5
 70
0
 10
64.057908571
 20
77.1299115186
 10
64.0345352822
 20
77.1690547533
 10
64.0095838788
 20
77.2080736326
 10
63.9829969333
 20
77.2469297774
 10
63.9547150761
 20
77.2855784794
  0
LWPOLYLINE
  5
3B0
100
AcDbEntity
  8
0
100
AcDbPolyline
 62
7
  6
CONTINUOUS
 90
13
 70
0
 10
64.0824095316
 20
77.0857179731
 10
64.0450444203
 20
77.15178417
 10
64.005033518
 20
77.2149079828
 10
63.9628148484
 20
77.2747676218
 10
63.9186834447
 20
77.3313255396
 10
63.8729276254
 20
77.384567505
 10
63.8258277508
 20
77.4345006025
 10
63.7776538387
 20
77.481152634
 10
63.7286486358
 20
77.5245834875
 10
63.6790309703
 20
77.5648742826
 10
63.629005041
 20
77.6021155986
 10
63.5787608545
 20
77.6364058517
 10
63.5284746039
 20
77.6678499408
  0
LINE
  5
3B1
100
AcDbEntity
  8
0
100
AcDbLine
 62
7
  6
CONTINUOUS
 10
64.2584533044
 20
77.6847947545
 11
64.1996477177
 21
77.8222447374
  0
LINE
  5
3B2
100
AcDbEntity
  8
0
100
AcDbLine
 62
7
  6
CONTINUOUS
 10
64.2511153371
 20
77.7083319065
 11
64.2254215834
 21
77.7907234389
  0
LWPOLYLINE
  5
3B3
100
AcDbEntity
  8
0
100
AcDbPolyline
 62
7
  6
CONTINUOUS
 90
15
 70
0
 10
64.2376381654
 20
76.6298464204
 10
64.2314788888
 20
76.6639791852
 10
64.2244119716
 20
76.6985146214
 10
64.2163879304
 20
76.7334844082
 10
64.2073485978
 20
76.7689288944
 10
64.1972290004
 20
76.8048845433
 10
64.185957202
 20
76.8413833736
 10
64.1734541436
 20
76.878452357
 10
64.1667141988
 20
76.8972075452
 10
64.1522067265
 20
76.9351528633
 10
64.1362896851
 20
76.9735920597
 10
64.1189265945
 20
77.0124070271
 10
64.1000883431
 20
77.0514784996
 10
64.0797535039
 20
77.0906866157
 10
64.057908571
 20
77.1299115186
  0
LWPOLYLINE
  5
3B4
100
AcDbEntity
  8
0
100
AcDbPolyline
 62
7
  6
CONTINUOUS
 90
9
 70
0
 10
64.2584983074
 20
77.6805654797
 10
64.2523710104
 20
77.7296873027
 10
64.2350988045
 20
77.7744337615
 10
64.20949919
 20
77.8117027297
 10
64.178364403
 20
77.840657654
 10
64.1442021717
 20
77.8612622531
 10
64.1097064865
 20
77.8738872999
 10
64.0783016443
 20
77.8795697327
 10
64.0595358184
 20
77.8805489326
  0
LINE
  5
3B5
100
AcDbEntity
  8
0
100
AcDbLine
 62
7
  6
CONTINUOUS
 10
81.8584983075
 20
65.7305515286
 11
80.6584983075
 21
65.2305515286
  0
LINE
  5
3B6
100
AcDbEntity
  8
0
100
AcDbLine
 62
7
  6
CONTINUOUS
 10
80.6584983075
 20
77.7305515286
 11
81.8584983075
 21
77.2305515286
  0
LINE
  5
3B7
100
AcDbEntity
  8
0
100
AcDbLine
 62
7
  6
CONTINUOUS
 10
67.2303555247
 20
74.4056829378
 11
67.0101988682
 21
75.1747934933
  0
LINE
  5
3B8
100
AcDbEntity
  8
0
100
AcDbLine
 62
7
  6
CONTINUOUS
 10
67.2024765071
 20
75.2298326574
 11
67.4226331636
 21
74.4607221019
  0
LINE
  5
3B9
100
AcDbEntity
  8
0
100
AcDbLine
 62
7
  6
CONTINUOUS
 10
68.9530692219
 20
72.7479665902
 11
68.4115409401
 21
74.6397791031
  0
LINE
  5
3BA
100
AcDbEntity
  8
0
100
AcDbLine
 62
7
  6
CONTINUOUS
 10
68.1363451194
 20
75.6011672975
 11
67.5948168376
 21
77.4929798105
  0
LINE
  5
3BB
100
AcDbEntity
  8
0
100
AcDbLine
 62
7
  6
CONTINUOUS
 10
68.3639273931
 20
77.713136467
 11
68.9054556749
 21
75.8213239541
  0
LINE
  5
3BC
100
AcDbEntity
  8
0
100
AcDbLine
 62
7
  6
CONTINUOUS
 10
69.1806514956
 20
74.8599357597
 11
69.7221797774
 21
72.9681232467
  0
LINE
  5
3BD
100
AcDbEntity
  8
0
100
AcDbLine
 62
7
  6
CONTINUOUS
 10
68.5908635019
 20
66.0826967009
 11
68.3680624481
 21
67.1598966315
  0
LINE
  5
3BE
100
AcDbEntity
  8
0
100
AcDbLine
 62
7
  6
CONTINUOUS
 10
68.1655160355
 20
68.1391692957
 11
67.9427149817
 21
69.2163692262
  0
LINE
  5
3BF
100
AcDbEntity
  8
0
100
AcDbLine
 62
7
  6
CONTINUOUS
 10
68.726133113
 20
69.3784063563
 11
68.9489341668
 21
68.3012064257
  0
LINE
  5
3C0
100
AcDbEntity
  8
0
100
AcDbLine
 62
7
  6
CONTINUOUS
 10
69.1514805794
 20
67.3219337615
 11
69.3742816332
 21
66.244733831
  0
LINE
  5
3C1
100
AcDbEntity
  8
0
100
AcDbLine
 62
7
  6
CONTINUOUS
 10
72.0584983075
 20
79.2805515286
 11
72.0584983075
 21
63.6805515286
  0
LINE
  5
3C2
100
AcDbEntity
  8
0
100
AcDbLine
 62
7
  6
CONTINUOUS
 10
72.2584983075
 20
63.8805515286
 11
72.2584983075
 21
79.0805515286
  0
LINE
  5
3C3
100
AcDbEntity
  8
0
100
AcDbLine
 62
7
  6
CONTINUOUS
 10
90.2584983075
 20
65.7305515286
 11
89.0584983075
 21
65.2305515286
  0
LINE
  5
3C4
100
AcDbEntity
  8
0
100
AcDbLine
 62
7
  6
CONTINUOUS
 10
89.0584983075
 20
77.7305515286
 11
90.2584983075
 21
77.2305515286
  0
LINE
  5
3C5
100
AcDbEntity
  8
0
100
AcDbLine
 62
7
  6
CONTINUOUS
 10
70.1145201079
 20
75.2312703998
 11
69.8943634513
 21
76.0003809553
  0
LINE
  5
3C6
100
AcDbEntity
  8
0
100
AcDbLine
 62
7
  6
CONTINUOUS
 10
70.0866410902
 20
76.0554201194
 11
70.3067977467
 21
75.2863095639
  0
LINE
  5
3C7
100
AcDbEntity
  8
0
100
AcDbLine
 62
7
  6
CONTINUOUS
 10
73.4584983075
 20
63.8805515286
 11
73.4584983075
 21
65.7305515286
  0
LINE
  5
3C8
100
AcDbEntity
  8
0
100
AcDbLine
 62
7
  6
CONTINUOUS
 10
73.4584983075
 20
69.7305515286
 11
73.4584983075
 21
73.2305515286
  0
LINE
  5
3C9
100
AcDbEntity
  8
0
100
AcDbLine
 62
7
  6
CONTINUOUS
 10
73.4584983075
 20
77.2305515286
 11
73.4584983075
 21
79.0805515286
  0
LINE
  5
3CA
100
AcDbEntity
  8
0
100
AcDbLine
 62
7
  6
CONTINUOUS
 10
75.4487020087
 20
68.0890984245
 11
75.4693618576
 21
67.2893652373
  0
LINE
  5
3CB
100
AcDbEntity
  8
0
100
AcDbLine
 62
7
  6
CONTINUOUS
 10
75.6692951544
 20
67.2945301996
 11
75.6486353055
 21
68.0942633867
  0
LINE
  5
3CC
100
AcDbEntity
  8
0
100
AcDbLine
 62
7
  6
CONTINUOUS
 10
76.7223619899
 20
65.2532521168
 11
76.6715441194
 21
67.2203883622
  0
LINE
  5
3CD
100
AcDbEntity
  8
0
100
AcDbLine
 62
7
  6
CONTINUOUS
 10
76.6457193084
 20
68.2200548461
 11
76.5949014379
 21
70.1871910916
  0
LINE
  5
3CE
100
AcDbEntity
  8
0
100
AcDbLine
 62
7
  6
CONTINUOUS
 10
77.3946346251
 20
70.2078509405
 11
77.4454524955
 21
68.240714695
  0
LINE
  5
3CF
100
AcDbEntity
  8
0
100
AcDbLine
 62
7
  6
CONTINUOUS
 10
77.4712773066
 20
67.2410482111
 11
77.522095177
 21
65.2739119656
  0
LINE
  5
3D0
100
AcDbEntity
  8
0
100
AcDbLine
 62
7
  6
CONTINUOUS
 10
75.6555514063
 20
74.3635221217
 11
75.4125901444
 21
75.1257358878
  0
LINE
  5
3D1
100
AcDbEntity
  8
0
100
AcDbLine
 62
7
  6
CONTINUOUS
 10
75.6031435859
 20
75.1864762033
 11
75.8461048478
 21
74.4242624372
  0
LINE
  5
3D2
100
AcDbEntity
  8
0
100
AcDbLine
 62
7
  6
CONTINUOUS
 10
77.4268639103
 20
72.7578390943
 11
76.8292422131
 21
74.6326872938
  0
LINE
  5
3D3
100
AcDbEntity
  8
0
100
AcDbLine
 62
7
  6
CONTINUOUS
 10
76.5255406357
 20
75.5854545014
 11
75.9279189386
 21
77.460302701
  0
LINE
  5
3D4
100
AcDbEntity
  8
0
100
AcDbLine
 62
7
  6
CONTINUOUS
 10
76.6901327046
 20
77.7032639629
 11
77.2877544018
 21
75.8284157634
  0
LINE
  5
3D5
100
AcDbEntity
  8
0
100
AcDbLine
 62
7
  6
CONTINUOUS
 10
77.5914559792
 20
74.8756485558
 11
78.1890776764
 21
73.0008003563
  0
LINE
  5
3D6
100
AcDbEntity
  8
0
100
AcDbLine
 62
7
  6
CONTINUOUS
 10
78.4683613094
 20
67.3668396705
 11
78.4477014606
 21
68.1665728577
  0
LINE
  5
3D7
100
AcDbEntity
  8
0
100
AcDbLine
 62
7
  6
CONTINUOUS
 10
78.6476347574
 20
68.1717378199
 11
78.6682946062
 21
67.3720046327
  0
LINE
  5
3D8
100
AcDbEntity
  8
0
100
AcDbLine
 62
7
  6
CONTINUOUS
 10
80.4584983075
 20
79.2805515286
 11
80.4584983075
 21
63.6805515286
  0
LINE
  5
3D9
100
AcDbEntity
  8
0
100
AcDbLine
 62
7
  6
CONTINUOUS
 10
78.5138530291
 20
75.274626854
 11
78.2708917671
 21
76.03684062
  0
LINE
  5
3DA
100
AcDbEntity
  8
0
100
AcDbLine
 62
7
  6
CONTINUOUS
 10
78.4614452087
 20
76.0975809355
 11
78.7044064706
 21
75.3353671694
  0
LINE
  5
3DB
100
AcDbEntity
  8
0
100
AcDbLine
 62
7
  6
CONTINUOUS
 10
80.6584983075
 20
63.8805515286
 11
80.6584983075
 21
79.0805515286
  0
LINE
  5
3DC
100
AcDbEntity
  8
0
100
AcDbLine
 62
7
  6
CONTINUOUS
 10
81.8584983075
 20
63.8805515286
 11
81.8584983075
 21
65.7305515286
  0
LINE
  5
3DD
100
AcDbEntity
  8
0
100
AcDbLine
 62
7
  6
CONTINUOUS
 10
81.8584983075
 20
69.7305515286
 11
81.8584983075
 21
73.2305515286
  0
LINE
  5
3DE
100
AcDbEntity
  8
0
100
AcDbLine
 62
7
  6
CONTINUOUS
 10
81.8584983075
 20
77.2305515286
 11
81.8584983075
 21
79.0805515286
  0
LINE
  5
3DF
100
AcDbEntity
  8
0
100
AcDbLine
 62
7
  6
CONTINUOUS
 10
84.0303555247
 20
66.9056829378
 11
83.8101988682
 21
67.6747934933
  0
LINE
  5
3E0
100
AcDbEntity
  8
0
100
AcDbLine
 62
7
  6
CONTINUOUS
 10
84.0024765071
 20
67.7298326574
 11
84.2226331636
 21
66.9607221019
  0
LINE
  5
3E1
100
AcDbEntity
  8
0
100
AcDbLine
 62
7
  6
CONTINUOUS
 10
85.7530692219
 20
65.2479665902
 11
85.2115409401
 21
67.1397791031
  0
LINE
  5
3E2
100
AcDbEntity
  8
0
100
AcDbLine
 62
7
  6
CONTINUOUS
 10
84.9363451194
 20
68.1011672975
 11
84.3948168376
 21
69.9929798105
  0
LINE
  5
3E3
100
AcDbEntity
  8
0
100
AcDbLine
 62
7
  6
CONTINUOUS
 10
85.1639273931
 20
70.213136467
 11
85.7054556749
 21
68.3213239541
  0
LINE
  5
3E4
100
AcDbEntity
  8
0
100
AcDbLine
 62
7
  6
CONTINUOUS
 10
85.9806514956
 20
67.3599357597
 11
86.5221797774
 21
65.4681232467
  0
LINE
  5
3E5
100
AcDbEntity
  8
0
100
AcDbLine
 62
7
  6
CONTINUOUS
 10
84.0303555247
 20
74.4056829378
 11
83.8101988682
 21
75.1747934933
  0
LINE
  5
3E6
100
AcDbEntity
  8
0
100
AcDbLine
 62
7
  6
CONTINUOUS
 10
84.0024765071
 20
75.2298326574
 11
84.2226331636
 21
74.4607221019
  0
LINE
  5
3E7
100
AcDbEntity
  8
0
100
AcDbLine
 62
7
  6
CONTINUOUS
 10
86.9145201079
 20
67.7312703998
 11
86.6943634513
 21
68.5003809553
  0
LINE
  5
3E8
100
AcDbEntity
  8
0
100
AcDbLine
 62
7
  6
CONTINUOUS
 10
86.8866410902
 20
68.5554201194
 11
87.1067977467
 21
67.7863095639
  0
LINE
  5
3E9
100
AcDbEntity
  8
0
100
AcDbLine
 62
7
  6
CONTINUOUS
 10
85.7530692219
 20
72.7479665902
 11
85.2115409401
 21
74.6397791031
  0
LINE
  5
3EA
100
AcDbEntity
  8
0
100
AcDbLine
 62
7
  6
CONTINUOUS
 10
84.9363451194
 20
75.6011672975
 11
84.3948168376
 21
77.4929798105
  0
LINE
  5
3EB
100
AcDbEntity
  8
0
100
AcDbLine
 62
7
  6
CONTINUOUS
 10
85.1639273931
 20
77.713136467
 11
85.7054556749
 21
75.8213239541
  0
LINE
  5
3EC
100
AcDbEntity
  8
0
100
AcDbLine
 62
7
  6
CONTINUOUS
 10
85.9806514956
 20
74.8599357597
 11
86.5221797774
 21
72.9681232467
  0
LINE
  5
3ED
100
AcDbEntity
  8
0
100
AcDbLine
 62
7
  6
CONTINUOUS
 10
88.8584983075
 20
79.2805515286
 11
88.8584983075
 21
63.6805515286
  0
LINE
  5
3EE
100
AcDbEntity
  8
0
100
AcDbLine
 62
7
  6
CONTINUOUS
 10
89.0584983075
 20
63.8805515286
 11
89.0584983075
 21
79.0805515286
  0
LINE
  5
3EF
100
AcDbEntity
  8
0
100
AcDbLine
 62
7
  6
CONTINUOUS
 10
90.2584983075
 20
63.8805515286
 11
90.2584983075
 21
79.0805515286
  0
LINE
  5
3F0
100
AcDbEntity
  8
0
100
AcDbLine
 62
7
  6
CONTINUOUS
 10
86.9145201079
 20
75.2312703998
 11
86.6943634513
 21
76.0003809553
  0
LINE
  5
3F1
100
AcDbEntity
  8
0
100
AcDbLine
 62
7
  6
CONTINUOUS
 10
86.8866410902
 20
76.0554201194
 11
87.1067977467
 21
75.2863095639
  0
ARC
  5
3F2
100
AcDbEntity
  8
0
100
AcDbCircle
 62
7
  6
CONTINUOUS
 10
24.7584983075
 20
65.6805515286
 40
0.5
100
AcDbArc
 50
180.0
 51
270.0
  0
ARC
  5
3F3
100
AcDbEntity
  8
0
100
AcDbCircle
 62
7
  6
CONTINUOUS
 10
15.2584983075
 20
63.8805515286
 40
0.2
100
AcDbArc
 50
180.0
 51
270.0
  0
ARC
  5
3F4
100
AcDbEntity
  8
0
100
AcDbCircle
 62
7
  6
CONTINUOUS
 10
14.0584983075
 20
63.8805515286
 40
0.2
100
AcDbArc
 50
180.0
 51
270.0
  0
ARC
  5
3F5
100
AcDbEntity
  8
0
100
AcDbCircle
 62
7
  6
CONTINUOUS
 10
19.276790315
 20
67.3874553418
 40
0.1
100
AcDbArc
 50
105.9736841343
 51
195.9736841283
  0
ARC
  5
3F6
100
AcDbEntity
  8
0
100
AcDbCircle
 62
7
  6
CONTINUOUS
 10
18.3154021206
 20
67.1122595211
 40
0.1
100
AcDbArc
 50
15.9736841197
 51
105.9736841287
  0
ARC
  5
3F7
100
AcDbEntity
  8
0
100
AcDbCircle
 62
7
  6
CONTINUOUS
 10
18.0402063
 20
68.0736477155
 40
0.1
100
AcDbArc
 50
285.9736841343
 51
15.9736841363
  0
CIRCLE
  5
3F8
100
AcDbEntity
  8
0
100
AcDbCircle
 62
7
  6
CONTINUOUS
 10
18.6584983075
 20
67.7305515286
 40
2.65
  0
CIRCLE
  5
3F9
100
AcDbEntity
  8
0
100
AcDbCircle
 62
7
  6
CONTINUOUS
 10
18.6584983075
 20
67.7305515286
 40
2.5
  0
ARC
  5
3FA
100
AcDbEntity
  8
0
100
AcDbCircle
 62
7
  6
CONTINUOUS
 10
18.6584983075
 20
67.7305515286
 40
2.2
100
AcDbArc
 50
296.4493658284
 51
95.4980024356
  0
ARC
  5
3FB
100
AcDbEntity
  8
0
100
AcDbCircle
 62
7
  6
CONTINUOUS
 10
18.6584983075
 20
67.7305515286
 40
2.2
100
AcDbArc
 50
116.4493658283
 51
275.4980024357
  0
ARC
  5
3FC
100
AcDbEntity
  8
0
100
AcDbCircle
 62
7
  6
CONTINUOUS
 10
18.6584983075
 20
67.7305515286
 40
1.3876815526
100
AcDbArc
 50
359.2204349165
 51
32.7269333476
  0
ARC
  5
3FD
100
AcDbEntity
  8
0
100
AcDbCircle
 62
7
  6
CONTINUOUS
 10
18.6584983075
 20
67.7305515286
 40
1.3876815526
100
AcDbArc
 50
179.2204349165
 51
212.7269333476
  0
ARC
  5
3FE
100
AcDbEntity
  8
0
100
AcDbCircle
 62
7
  6
CONTINUOUS
 10
18.6584983075
 20
67.7305515286
 40
1.3876815526
100
AcDbArc
 50
269.2204349164
 51
302.7269333475
  0
ARC
  5
3FF
100
AcDbEntity
  8
0
100
AcDbCircle
 62
7
  6
CONTINUOUS
 10
18.6584983075
 20
67.7305515286
 40
1.3876815526
100
AcDbArc
 50
89.2204349166
 51
122.7269333477
  0
ARC
  5
400
100
AcDbEntity
  8
0
100
AcDbCircle
 62
7
  6
CONTINUOUS
 10
18.6584983075
 20
67.7305515286
 40
0.7597753402
100
AcDbArc
 50
344.2063328869
 51
47.7410353769
  0
ARC
  5
401
100
AcDbEntity
  8
0
100
AcDbCircle
 62
7
  6
CONTINUOUS
 10
18.6584983075
 20
67.7305515286
 40
0.7597753402
100
AcDbArc
 50
254.2063328866
 51
317.7410353774
  0
ARC
  5
402
100
AcDbEntity
  8
0
100
AcDbCircle
 62
7
  6
CONTINUOUS
 10
18.6584983075
 20
67.7305515286
 40
0.7597753402
100
AcDbArc
 50
164.2063328869
 51
227.7410353769
  0
ARC
  5
403
100
AcDbEntity
  8
0
100
AcDbCircle
 62
7
  6
CONTINUOUS
 10
18.6584983075
 20
67.7305515286
 40
0.7597753402
100
AcDbArc
 50
74.2063328866
 51
137.7410353774
  0
CIRCLE
  5
404
100
AcDbEntity
  8
0
100
AcDbCircle
 62
7
  6
CONTINUOUS
 10
18.6584983075
 20
67.7305515286
 40
0.4
  0
ARC
  5
405
100
AcDbEntity
  8
0
100
AcDbCircle
 62
7
  6
CONTINUOUS
 10
19.0015944943
 20
68.3488435361
 40
0.1
100
AcDbArc
 50
195.9736841277
 51
285.9736841287
  0
ARC
  5
406
100
AcDbEntity
  8
0
100
AcDbCircle
 62
7
  6
CONTINUOUS
 10
25.6084983075
 20
70.1265551458
 40
2.0732050808
100
AcDbArc
 50
130.6295470494
 51
229.3704529506
  0
ARC
  5
407
100
AcDbEntity
  8
0
100
AcDbCircle
 62
7
  6
CONTINUOUS
 10
25.6084983075
 20
70.1265551458
 40
1.9
100
AcDbArc
 50
133.1012387722
 51
223.9551174707
  0
ARC
  5
408
100
AcDbEntity
  8
0
100
AcDbCircle
 62
7
  6
CONTINUOUS
 10
36.9584983075
 20
66.7805515286
 40
1.5
100
AcDbArc
 50
179.9997848191
 51
270.0
  0
ARC
  5
409
100
AcDbEntity
  8
0
100
AcDbCircle
 62
7
  6
CONTINUOUS
 10
36.9584983075
 20
66.7805515286
 40
1.3
100
AcDbArc
 50
180.0
 51
270.0
  0
ARC
  5
40A
100
AcDbEntity
  8
0
100
AcDbCircle
 62
7
  6
CONTINUOUS
 10
35.672547956
 20
65.4858453577
 40
0.2143822011
100
AcDbArc
 50
200.5213000551
 51
209.4865324806
  0
ARC
  5
40B
100
AcDbEntity
  8
0
100
AcDbCircle
 62
7
  6
CONTINUOUS
 10
49.4584983075
 20
65.2805515286
 40
0.2
100
AcDbArc
 50
180.0
 51
270.0
  0
ARC
  5
40C
100
AcDbEntity
  8
0
100
AcDbCircle
 62
7
  6
CONTINUOUS
 10
39.2573016791
 20
69.9590094901
 40
0.9276354207
100
AcDbArc
 50
253.2211545074
 51
260.7692191102
  0
ARC
  5
40D
100
AcDbEntity
  8
0
100
AcDbCircle
 62
7
  6
CONTINUOUS
 10
50.9084983075
 20
70.3305515286
 40
0.6
100
AcDbArc
 50
270.0
 51
360.0
  0
ARC
  5
40E
100
AcDbEntity
  8
0
100
AcDbCircle
 62
7
  6
CONTINUOUS
 10
50.6084983075
 20
70.3305515286
 40
0.6
100
AcDbArc
 50
180.0
 51
270.0
  0
ARC
  5
40F
100
AcDbEntity
  8
0
100
AcDbCircle
 62
7
  6
CONTINUOUS
 10
40.6584983075
 20
71.0305515286
 40
0.55
100
AcDbArc
 50
180.0000000231
 51
269.9999999992
  0
ARC
  5
410
100
AcDbEntity
  8
0
100
AcDbCircle
 62
7
  6
CONTINUOUS
 10
43.7834983075
 20
71.1605515286
 40
0.5
100
AcDbArc
 50
269.9999772958
 51
0.0000031752
  0
ARC
  5
411
100
AcDbEntity
  8
0
100
AcDbCircle
 62
7
  6
CONTINUOUS
 10
39.9084983075
 20
68.5805515286
 40
0.5
100
AcDbArc
 50
180.0
 51
270.0
  0
ARC
  5
412
100
AcDbEntity
  8
0
100
AcDbCircle
 62
7
  6
CONTINUOUS
 10
41.5834983075
 20
71.1605515286
 40
0.5
100
AcDbArc
 50
180.0
 51
270.0000268791
  0
ARC
  5
413
100
AcDbEntity
  8
0
100
AcDbCircle
 62
7
  6
CONTINUOUS
 10
43.8405871937
 20
69.5805515286
 40
0.5
100
AcDbArc
 50
270.0
 51
0.0001240517
  0
ARC
  5
414
100
AcDbEntity
  8
0
100
AcDbCircle
 62
7
  6
CONTINUOUS
 10
50.9084983075
 20
70.3305515286
 40
0.5
100
AcDbArc
 50
270.0
 51
360.0
  0
ARC
  5
415
100
AcDbEntity
  8
0
100
AcDbCircle
 62
7
  6
CONTINUOUS
 10
50.6084983075
 20
70.3305515286
 40
0.5
100
AcDbArc
 50
180.0
 51
270.0
  0
ARC
  5
416
100
AcDbEntity
  8
0
100
AcDbCircle
 62
7
  6
CONTINUOUS
 10
40.6584983075
 20
71.0305515286
 40
0.45
100
AcDbArc
 50
179.9999999992
 51
270.0
  0
ARC
  5
417
100
AcDbEntity
  8
0
100
AcDbCircle
 62
7
  6
CONTINUOUS
 10
50.5584983075
 20
70.3305515286
 40
0.45
100
AcDbArc
 50
179.9999999999
 51
270.0
  0
ARC
  5
418
100
AcDbEntity
  8
0
100
AcDbCircle
 62
7
  6
CONTINUOUS
 10
50.9584983075
 20
70.3305515286
 40
0.45
100
AcDbArc
 50
270.0
 51
360.0
  0
ARC
  5
419
100
AcDbEntity
  8
0
100
AcDbCircle
 62
7
  6
CONTINUOUS
 10
50.5584983075
 20
70.3305515286
 40
0.35
100
AcDbArc
 50
180.0
 51
270.0
  0
ARC
  5
41A
100
AcDbEntity
  8
0
100
AcDbCircle
 62
7
  6
CONTINUOUS
 10
50.9584983075
 20
70.3305515286
 40
0.35
100
AcDbArc
 50
270.0
 51
360.0
  0
ARC
  5
41B
100
AcDbEntity
  8
0
100
AcDbCircle
 62
7
  6
CONTINUOUS
 10
38.1984072713
 20
69.3805515286
 40
0.3
100
AcDbArc
 50
180.0
 51
270.0
  0
ARC
  5
41C
100
AcDbEntity
  8
0
100
AcDbCircle
 62
7
  6
CONTINUOUS
 10
41.4420215469
 20
71.1603518365
 40
0.299864567
100
AcDbArc
 50
179.9619527999
 51
270.0105923555
  0
ARC
  5
41D
100
AcDbEntity
  8
0
100
AcDbCircle
 62
7
  6
CONTINUOUS
 10
44.1225349928
 20
69.5804959794
 40
0.1999412654
100
AcDbArc
 50
269.9889373838
 51
340.0115905543
  0
ARC
  5
41E
100
AcDbEntity
  8
0
100
AcDbCircle
 62
7
  6
CONTINUOUS
 10
39.3084983073
 20
68.7305515286
 40
0.15
100
AcDbArc
 50
179.999999998
 51
270.0000000282
  0
ARC
  5
41F
100
AcDbEntity
  8
0
100
AcDbCircle
 62
7
  6
CONTINUOUS
 10
39.6084983073
 20
68.7305515286
 40
0.15
100
AcDbArc
 50
269.9999999701
 51
360.0
  0
ARC
  5
420
100
AcDbEntity
  8
0
100
AcDbCircle
 62
7
  6
CONTINUOUS
 10
44.2405871937
 20
70.4805515286
 40
0.1
100
AcDbArc
 50
0.0
 51
90.0
  0
ARC
  5
421
100
AcDbEntity
  8
0
100
AcDbCircle
 62
7
  6
CONTINUOUS
 10
44.2162527028
 20
70.4909072815
 40
0.0896558372
100
AcDbArc
 50
75.2740573459
 51
81.6403238623
  0
ARC
  5
422
100
AcDbEntity
  8
0
100
AcDbCircle
 62
7
  6
CONTINUOUS
 10
44.2164257188
 20
70.4921845732
 40
0.0883669638
100
AcDbArc
 50
81.6309069504
 51
89.9750221299
  0
ARC
  5
423
100
AcDbEntity
  8
0
100
AcDbCircle
 62
7
  6
CONTINUOUS
 10
18.3154021206
 20
74.6122595211
 40
0.1
100
AcDbArc
 50
15.9736841197
 51
105.9736841287
  0
CIRCLE
  5
424
100
AcDbEntity
  8
0
100
AcDbCircle
 62
7
  6
CONTINUOUS
 10
18.6584983075
 20
75.2305515286
 40
2.65
  0
CIRCLE
  5
425
100
AcDbEntity
  8
0
100
AcDbCircle
 62
7
  6
CONTINUOUS
 10
18.6584983075
 20
75.2305515286
 40
2.5
  0
ARC
  5
426
100
AcDbEntity
  8
0
100
AcDbCircle
 62
7
  6
CONTINUOUS
 10
18.6584983075
 20
75.2305515286
 40
2.2
100
AcDbArc
 50
296.4493658284
 51
95.4980024356
  0
ARC
  5
427
100
AcDbEntity
  8
0
100
AcDbCircle
 62
7
  6
CONTINUOUS
 10
18.6584983075
 20
75.2305515286
 40
2.2
100
AcDbArc
 50
116.4493658283
 51
275.4980024357
  0
ARC
  5
428
100
AcDbEntity
  8
0
100
AcDbCircle
 62
7
  6
CONTINUOUS
 10
18.6584983075
 20
75.2305515286
 40
1.3876815526
100
AcDbArc
 50
359.2204349165
 51
32.7269333476
  0
ARC
  5
429
100
AcDbEntity
  8
0
100
AcDbCircle
 62
7
  6
CONTINUOUS
 10
18.6584983075
 20
75.2305515286
 40
1.3876815526
100
AcDbArc
 50
179.2204349165
 51
212.7269333476
  0
ARC
  5
42A
100
AcDbEntity
  8
0
100
AcDbCircle
 62
7
  6
CONTINUOUS
 10
18.6584983075
 20
75.2305515286
 40
1.3876815526
100
AcDbArc
 50
269.2204349164
 51
302.7269333475
  0
ARC
  5
42B
100
AcDbEntity
  8
0
100
AcDbCircle
 62
7
  6
CONTINUOUS
 10
18.6584983075
 20
75.2305515286
 40
1.3876815526
100
AcDbArc
 50
89.2204349166
 51
122.7269333477
  0
ARC
  5
42C
100
AcDbEntity
  8
0
100
AcDbCircle
 62
7
  6
CONTINUOUS
 10
18.6584983075
 20
75.2305515286
 40
0.7597753402
100
AcDbArc
 50
344.2063328869
 51
47.7410353769
  0
ARC
  5
42D
100
AcDbEntity
  8
0
100
AcDbCircle
 62
7
  6
CONTINUOUS
 10
18.6584983075
 20
75.2305515286
 40
0.7597753402
100
AcDbArc
 50
254.2063328866
 51
317.7410353774
  0
ARC
  5
42E
100
AcDbEntity
  8
0
100
AcDbCircle
 62
7
  6
CONTINUOUS
 10
18.6584983075
 20
75.2305515286
 40
0.7597753402
100
AcDbArc
 50
164.2063328869
 51
227.7410353769
  0
ARC
  5
42F
100
AcDbEntity
  8
0
100
AcDbCircle
 62
7
  6
CONTINUOUS
 10
18.6584983075
 20
75.2305515286
 40
0.7597753402
100
AcDbArc
 50
74.2063328866
 51
137.7410353774
  0
CIRCLE
  5
430
100
AcDbEntity
  8
0
100
AcDbCircle
 62
7
  6
CONTINUOUS
 10
18.6584983075
 20
75.2305515286
 40
0.4
  0
ARC
  5
431
100
AcDbEntity
  8
0
100
AcDbCircle
 62
7
  6
CONTINUOUS
 10
19.276790315
 20
74.8874553418
 40
0.1
100
AcDbArc
 50
105.9736841343
 51
195.9736841283
  0
CIRCLE
  5
432
100
AcDbEntity
  8
0
100
AcDbCircle
 62
7
  6
CONTINUOUS
 10
28.5584983075
 20
71.4805515286
 40
1.5
  0
CIRCLE
  5
433
100
AcDbEntity
  8
0
100
AcDbCircle
 62
7
  6
CONTINUOUS
 10
28.5584983075
 20
75.1642520455
 40
0.5
  0
ARC
  5
434
100
AcDbEntity
  8
0
100
AcDbCircle
 62
7
  6
CONTINUOUS
 10
24.7584983075
 20
77.2805515286
 40
0.5
100
AcDbArc
 50
90.0
 51
180.0
  0
ARC
  5
435
100
AcDbEntity
  8
0
100
AcDbCircle
 62
7
  6
CONTINUOUS
 10
14.0584983075
 20
79.0805515286
 40
0.2
100
AcDbArc
 50
90.0
 51
180.0
  0
ARC
  5
436
100
AcDbEntity
  8
0
100
AcDbCircle
 62
7
  6
CONTINUOUS
 10
15.2584983075
 20
79.0805515286
 40
0.2
100
AcDbArc
 50
90.0
 51
180.0
  0
ARC
  5
437
100
AcDbEntity
  8
0
100
AcDbCircle
 62
7
  6
CONTINUOUS
 10
19.0015944943
 20
75.8488435361
 40
0.1
100
AcDbArc
 50
195.9736841277
 51
285.9736841287
  0
ARC
  5
438
100
AcDbEntity
  8
0
100
AcDbCircle
 62
7
  6
CONTINUOUS
 10
18.0402063
 20
75.5736477155
 40
0.1
100
AcDbArc
 50
285.9736841343
 51
15.9736841363
  0
ARC
  5
439
100
AcDbEntity
  8
0
100
AcDbCircle
 62
7
  6
CONTINUOUS
 10
42.8584983075
 20
71.5805515286
 40
0.7
100
AcDbArc
 50
199.26885218
 51
338.2132106981
  0
ARC
  5
43A
100
AcDbEntity
  8
0
100
AcDbCircle
 62
7
  6
CONTINUOUS
 10
42.8584983075
 20
71.5805515286
 40
0.7
100
AcDbArc
 50
21.7873257608
 51
160.731171229
  0
CIRCLE
  5
43B
100
AcDbEntity
  8
0
100
AcDbCircle
 62
7
  6
CONTINUOUS
 10
42.8584983075
 20
71.5805515286
 40
0.65
  0
ARC
  5
43C
100
AcDbEntity
  8
0
100
AcDbCircle
 62
7
  6
CONTINUOUS
 10
43.011018777
 20
71.581279147
 40
0.5615732314
100
AcDbArc
 50
332.3584781871
 51
344.6453092786
  0
ARC
  5
43D
100
AcDbEntity
  8
0
100
AcDbCircle
 62
7
  6
CONTINUOUS
 10
43.012501997
 20
71.5805304318
 40
0.5599402499
100
AcDbArc
 50
344.6789986992
 51
27.6484026753
  0
ARC
  5
43E
100
AcDbEntity
  8
0
100
AcDbCircle
 62
7
  6
CONTINUOUS
 10
42.7034700634
 20
71.5798526822
 40
0.5563055511
100
AcDbArc
 50
155.3864202389
 51
164.5624964671
  0
ARC
  5
43F
100
AcDbEntity
  8
0
100
AcDbCircle
 62
7
  6
CONTINUOUS
 10
42.7017175616
 20
71.5805616521
 40
0.5544252061
100
AcDbArc
 50
164.5849111687
 51
204.6243498496
  0
ARC
  5
440
100
AcDbEntity
  8
0
100
AcDbCircle
 62
7
  6
CONTINUOUS
 10
40.6584983075
 20
72.1305515286
 40
0.55
100
AcDbArc
 50
90.0000000138
 51
179.9999999814
  0
ARC
  5
441
100
AcDbEntity
  8
0
100
AcDbCircle
 62
7
  6
CONTINUOUS
 10
43.7834983075
 20
72.0105515286
 40
0.5
100
AcDbArc
 50
359.9999884681
 51
90.0000611565
  0
ARC
  5
442
100
AcDbEntity
  8
0
100
AcDbCircle
 62
7
  6
CONTINUOUS
 10
41.5834983075
 20
72.0105515286
 40
0.5
100
AcDbArc
 50
90.0000033795
 51
180.0
  0
ARC
  5
443
100
AcDbEntity
  8
0
100
AcDbCircle
 62
7
  6
CONTINUOUS
 10
40.6584983075
 20
72.1305515286
 40
0.45
100
AcDbArc
 50
89.9999999993
 51
180.0
  0
ARC
  5
444
100
AcDbEntity
  8
0
100
AcDbCircle
 62
7
  6
CONTINUOUS
 10
41.4420215197
 20
72.0107517635
 40
0.2998640759
100
AcDbArc
 50
89.9894069996
 51
180.0381987188
  0
ARC
  5
445
100
AcDbEntity
  8
0
100
AcDbCircle
 62
7
  6
CONTINUOUS
 10
44.2405871937
 20
72.6805515286
 40
0.1
100
AcDbArc
 50
270.0
 51
360.0
  0
ARC
  5
446
100
AcDbEntity
  8
0
100
AcDbCircle
 62
7
  6
CONTINUOUS
 10
44.2162527029
 20
72.6701957755
 40
0.089655837
100
AcDbArc
 50
278.3596761307
 51
284.7259367579
  0
ARC
  5
447
100
AcDbEntity
  8
0
100
AcDbCircle
 62
7
  6
CONTINUOUS
 10
44.2164257188
 20
72.668918484
 40
0.0883669638
100
AcDbArc
 50
270.0249778701
 51
278.3690930492
  0
ARC
  5
448
100
AcDbEntity
  8
0
100
AcDbCircle
 62
7
  6
CONTINUOUS
 10
39.2573036453
 20
73.202086079
 40
0.9276431512
100
AcDbArc
 50
99.2308260953
 51
106.7790255444
  0
ARC
  5
449
100
AcDbEntity
  8
0
100
AcDbCircle
 62
7
  6
CONTINUOUS
 10
39.9084983075
 20
74.5805515286
 40
0.5
100
AcDbArc
 50
90.0
 51
180.0
  0
ARC
  5
44A
100
AcDbEntity
  8
0
100
AcDbCircle
 62
7
  6
CONTINUOUS
 10
43.8405871937
 20
73.5805515286
 40
0.5
100
AcDbArc
 50
359.9999643822
 51
89.9999998201
  0
ARC
  5
44B
100
AcDbEntity
  8
0
100
AcDbCircle
 62
7
  6
CONTINUOUS
 10
38.1984072713
 20
73.7805515286
 40
0.3
100
AcDbArc
 50
90.0
 51
180.0
  0
ARC
  5
44C
100
AcDbEntity
  8
0
100
AcDbCircle
 62
7
  6
CONTINUOUS
 10
44.1225352889
 20
73.5806059754
 40
0.1999416324
100
AcDbArc
 50
19.9893460863
 51
90.0111284468
  0
ARC
  5
44D
100
AcDbEntity
  8
0
100
AcDbCircle
 62
7
  6
CONTINUOUS
 10
39.308498307
 20
74.4305515286
 40
0.1499999997
100
AcDbArc
 50
90.0004864374
 51
179.9999347059
  0
ARC
  5
44E
100
AcDbEntity
  8
0
100
AcDbCircle
 62
7
  6
CONTINUOUS
 10
39.6084983077
 20
74.4305515286
 40
0.1499999997
100
AcDbArc
 50
0.0000652937
 51
89.9995135617
  0
ARC
  5
44F
100
AcDbEntity
  8
0
100
AcDbCircle
 62
7
  6
CONTINUOUS
 10
50.6084983075
 20
72.8305515286
 40
0.6
100
AcDbArc
 50
90.0
 51
180.0
  0
ARC
  5
450
100
AcDbEntity
  8
0
100
AcDbCircle
 62
7
  6
CONTINUOUS
 10
50.9084983075
 20
72.8305515286
 40
0.6
100
AcDbArc
 50
0.0
 51
90.0
  0
ARC
  5
451
100
AcDbEntity
  8
0
100
AcDbCircle
 62
7
  6
CONTINUOUS
 10
50.9084983075
 20
72.8305515286
 40
0.5
100
AcDbArc
 50
0.0
 51
90.0
  0
ARC
  5
452
100
AcDbEntity
  8
0
100
AcDbCircle
 62
7
  6
CONTINUOUS
 10
50.6084983075
 20
72.8305515286
 40
0.5
100
AcDbArc
 50
90.0
 51
180.0
  0
ARC
  5
453
100
AcDbEntity
  8
0
100
AcDbCircle
 62
7
  6
CONTINUOUS
 10
50.5584983075
 20
72.8305515286
 40
0.45
100
AcDbArc
 50
90.0
 51
180.0
  0
ARC
  5
454
100
AcDbEntity
  8
0
100
AcDbCircle
 62
7
  6
CONTINUOUS
 10
50.9584983075
 20
72.8305515286
 40
0.45
100
AcDbArc
 50
0.0
 51
90.0
  0
ARC
  5
455
100
AcDbEntity
  8
0
100
AcDbCircle
 62
7
  6
CONTINUOUS
 10
50.5584983075
 20
72.8305515286
 40
0.35
100
AcDbArc
 50
90.0
 51
180.0
  0
ARC
  5
456
100
AcDbEntity
  8
0
100
AcDbCircle
 62
7
  6
CONTINUOUS
 10
50.9584983075
 20
72.8305515286
 40
0.35
100
AcDbArc
 50
0.0
 51
90.0
  0
ARC
  5
457
100
AcDbEntity
  8
0
100
AcDbCircle
 62
7
  6
CONTINUOUS
 10
36.9584983075
 20
76.3805515286
 40
1.5
100
AcDbArc
 50
89.9997848191
 51
180.0
  0
ARC
  5
458
100
AcDbEntity
  8
0
100
AcDbCircle
 62
7
  6
CONTINUOUS
 10
36.9584983075
 20
76.3805515286
 40
1.3
100
AcDbArc
 50
90.0
 51
180.0
  0
ARC
  5
459
100
AcDbEntity
  8
0
100
AcDbCircle
 62
7
  6
CONTINUOUS
 10
35.6642637873
 20
77.6655383206
 40
0.2154531169
100
AcDbArc
 50
107.8903499458
 51
119.4695863658
  0
ARC
  5
45A
100
AcDbEntity
  8
0
100
AcDbCircle
 62
7
  6
CONTINUOUS
 10
53.6354822724
 20
63.2305515286
 40
1.0
100
AcDbArc
 50
90.0
 51
120.9637565323
  0
ARC
  5
45B
100
AcDbEntity
  8
0
100
AcDbCircle
 62
7
  6
CONTINUOUS
 10
64.4584983075
 20
63.8805515286
 40
0.2
100
AcDbArc
 50
180.0
 51
270.0
  0
ARC
  5
45C
100
AcDbEntity
  8
0
100
AcDbCircle
 62
7
  6
CONTINUOUS
 10
64.0738464129
 20
65.4646722139
 40
0.1779158575
100
AcDbArc
 50
310.0888284919
 51
315.960855446
  0
ARC
  5
45D
100
AcDbEntity
  8
0
100
AcDbCircle
 62
7
  6
CONTINUOUS
 10
62.7584983075
 20
66.7805515286
 40
1.5
100
AcDbArc
 50
269.9997848191
 51
360.0
  0
ARC
  5
45E
100
AcDbEntity
  8
0
100
AcDbCircle
 62
7
  6
CONTINUOUS
 10
56.8084983075
 20
66.7805515286
 40
1.5
100
AcDbArc
 50
270.0
 51
360.0
  0
ARC
  5
45F
100
AcDbEntity
  8
0
100
AcDbCircle
 62
7
  6
CONTINUOUS
 10
56.8084983075
 20
66.7805515286
 40
1.3
100
AcDbArc
 50
270.0
 51
360.0
  0
ARC
  5
460
100
AcDbEntity
  8
0
100
AcDbCircle
 62
7
  6
CONTINUOUS
 10
62.7584983075
 20
66.7805515286
 40
1.3
100
AcDbArc
 50
270.0
 51
360.0
  0
ARC
  5
461
100
AcDbEntity
  8
0
100
AcDbCircle
 62
7
  6
CONTINUOUS
 10
68.2701351817
 20
67.1396419903
 40
0.1
100
AcDbArc
 50
11.6859059475
 51
101.6859059524
  0
ARC
  5
462
100
AcDbEntity
  8
0
100
AcDbCircle
 62
7
  6
CONTINUOUS
 10
69.2494078458
 20
67.3421884028
 40
0.1
100
AcDbArc
 50
101.6859059482
 51
191.6859059586
  0
ARC
  5
463
100
AcDbEntity
  8
0
100
AcDbCircle
 62
7
  6
CONTINUOUS
 10
68.0675887691
 20
68.1189146544
 40
0.1
100
AcDbArc
 50
281.6859059504
 51
11.6859059586
  0
CIRCLE
  5
464
100
AcDbEntity
  8
0
100
AcDbCircle
 62
7
  6
CONTINUOUS
 10
68.6584983075
 20
67.7305515286
 40
2.65
  0
CIRCLE
  5
465
100
AcDbEntity
  8
0
100
AcDbCircle
 62
7
  6
CONTINUOUS
 10
68.6584983075
 20
67.7305515286
 40
2.5
  0
ARC
  5
466
100
AcDbEntity
  8
0
100
AcDbCircle
 62
7
  6
CONTINUOUS
 10
68.6584983075
 20
67.7305515286
 40
2.2
100
AcDbArc
 50
22.1615876458
 51
181.210224253
  0
ARC
  5
467
100
AcDbEntity
  8
0
100
AcDbCircle
 62
7
  6
CONTINUOUS
 10
68.6584983075
 20
67.7305515286
 40
2.2
100
AcDbArc
 50
202.1615876458
 51
1.2102242531
  0
ARC
  5
468
100
AcDbEntity
  8
0
100
AcDbCircle
 62
7
  6
CONTINUOUS
 10
68.6584983075
 20
67.7305515286
 40
1.3876815526
100
AcDbArc
 50
84.9326567337
 51
118.4391551652
  0
ARC
  5
469
100
AcDbEntity
  8
0
100
AcDbCircle
 62
7
  6
CONTINUOUS
 10
68.6584983075
 20
67.7305515286
 40
1.3876815526
100
AcDbArc
 50
264.9326567337
 51
298.4391551652
  0
ARC
  5
46A
100
AcDbEntity
  8
0
100
AcDbCircle
 62
7
  6
CONTINUOUS
 10
68.6584983075
 20
67.7305515286
 40
1.3876815526
100
AcDbArc
 50
354.9326567339
 51
28.439155165
  0
ARC
  5
46B
100
AcDbEntity
  8
0
100
AcDbCircle
 62
7
  6
CONTINUOUS
 10
68.6584983075
 20
67.7305515286
 40
1.3876815526
100
AcDbArc
 50
174.9326567338
 51
208.439155165
  0
ARC
  5
46C
100
AcDbEntity
  8
0
100
AcDbCircle
 62
7
  6
CONTINUOUS
 10
68.6584983075
 20
67.7305515286
 40
0.7597753402
100
AcDbArc
 50
69.918554704
 51
133.4532571948
  0
ARC
  5
46D
100
AcDbEntity
  8
0
100
AcDbCircle
 62
7
  6
CONTINUOUS
 10
68.6584983075
 20
67.7305515286
 40
0.7597753402
100
AcDbArc
 50
339.9185547044
 51
43.4532571947
  0
ARC
  5
46E
100
AcDbEntity
  8
0
100
AcDbCircle
 62
7
  6
CONTINUOUS
 10
68.6584983075
 20
67.7305515286
 40
0.7597753402
100
AcDbArc
 50
249.918554704
 51
313.4532571948
  0
ARC
  5
46F
100
AcDbEntity
  8
0
100
AcDbCircle
 62
7
  6
CONTINUOUS
 10
68.6584983075
 20
67.7305515286
 40
0.7597753402
100
AcDbArc
 50
159.9185547044
 51
223.4532571947
  0
CIRCLE
  5
470
100
AcDbEntity
  8
0
100
AcDbCircle
 62
7
  6
CONTINUOUS
 10
68.6584983075
 20
67.7305515286
 40
0.4
  0
ARC
  5
471
100
AcDbEntity
  8
0
100
AcDbCircle
 62
7
  6
CONTINUOUS
 10
69.0468614333
 20
68.321461067
 40
0.1
100
AcDbArc
 50
191.6859059475
 51
281.6859059523
  0
ARC
  5
472
100
AcDbEntity
  8
0
100
AcDbCircle
 62
7
  6
CONTINUOUS
 10
90.0584983075
 20
63.8805515286
 40
0.2
100
AcDbArc
 50
270.0
 51
360.0
  0
ARC
  5
473
100
AcDbEntity
  8
0
100
AcDbCircle
 62
7
  6
CONTINUOUS
 10
88.8584983075
 20
63.8805515286
 40
0.2
100
AcDbArc
 50
270.0
 51
360.0
  0
ARC
  5
474
100
AcDbEntity
  8
0
100
AcDbCircle
 62
7
  6
CONTINUOUS
 10
81.6584983075
 20
63.8805515286
 40
0.2
100
AcDbArc
 50
270.0
 51
360.0
  0
ARC
  5
475
100
AcDbEntity
  8
0
100
AcDbCircle
 62
7
  6
CONTINUOUS
 10
80.4584983075
 20
63.8805515286
 40
0.2
100
AcDbArc
 50
270.0
 51
360.0
  0
ARC
  5
476
100
AcDbEntity
  8
0
100
AcDbCircle
 62
7
  6
CONTINUOUS
 10
73.2584983075
 20
63.8805515286
 40
0.2
100
AcDbArc
 50
270.0
 51
360.0
  0
ARC
  5
477
100
AcDbEntity
  8
0
100
AcDbCircle
 62
7
  6
CONTINUOUS
 10
72.0584983075
 20
63.8805515286
 40
0.2
100
AcDbArc
 50
270.0
 51
360.0
  0
ARC
  5
478
100
AcDbEntity
  8
0
100
AcDbCircle
 62
7
  6
CONTINUOUS
 10
77.571243955
 20
67.2436306922
 40
0.1
100
AcDbArc
 50
91.4798171936
 51
181.4798171915
  0
ARC
  5
479
100
AcDbEntity
  8
0
100
AcDbCircle
 62
7
  6
CONTINUOUS
 10
76.571577471
 20
67.2178058811
 40
0.1
100
AcDbArc
 50
1.4798171921
 51
91.4798171976
  0
ARC
  5
47A
100
AcDbEntity
  8
0
100
AcDbCircle
 62
7
  6
CONTINUOUS
 10
76.54575266
 20
68.2174723651
 40
0.1
100
AcDbArc
 50
271.4798171937
 51
1.4798171872
  0
CIRCLE
  5
47B
100
AcDbEntity
  8
0
100
AcDbCircle
 62
7
  6
CONTINUOUS
 10
77.0584983075
 20
67.7305515286
 40
2.65
  0
CIRCLE
  5
47C
100
AcDbEntity
  8
0
100
AcDbCircle
 62
7
  6
CONTINUOUS
 10
77.0584983075
 20
67.7305515286
 40
2.5
  0
ARC
  5
47D
100
AcDbEntity
  8
0
100
AcDbCircle
 62
7
  6
CONTINUOUS
 10
77.0584983075
 20
67.7305515286
 40
2.2
100
AcDbArc
 50
281.9554988944
 51
81.0041355017
  0
ARC
  5
47E
100
AcDbEntity
  8
0
100
AcDbCircle
 62
7
  6
CONTINUOUS
 10
77.0584983075
 20
67.7305515286
 40
2.2
100
AcDbArc
 50
101.9554988945
 51
261.0041355016
  0
ARC
  5
47F
100
AcDbEntity
  8
0
100
AcDbCircle
 62
7
  6
CONTINUOUS
 10
77.0584983075
 20
67.7305515286
 40
1.3876815526
100
AcDbArc
 50
344.7265679824
 51
18.2330664136
  0
ARC
  5
480
100
AcDbEntity
  8
0
100
AcDbCircle
 62
7
  6
CONTINUOUS
 10
77.0584983075
 20
67.7305515286
 40
1.3876815526
100
AcDbArc
 50
164.7265679824
 51
198.2330664136
  0
ARC
  5
481
100
AcDbEntity
  8
0
100
AcDbCircle
 62
7
  6
CONTINUOUS
 10
77.0584983075
 20
67.7305515286
 40
1.3876815526
100
AcDbArc
 50
254.7265679825
 51
288.2330664137
  0
ARC
  5
482
100
AcDbEntity
  8
0
100
AcDbCircle
 62
7
  6
CONTINUOUS
 10
77.0584983075
 20
67.7305515286
 40
1.3876815526
100
AcDbArc
 50
74.7265679825
 51
108.2330664137
  0
ARC
  5
483
100
AcDbEntity
  8
0
100
AcDbCircle
 62
7
  6
CONTINUOUS
 10
77.0584983075
 20
67.7305515286
 40
0.7597753402
100
AcDbArc
 50
329.712465953
 51
33.2471684432
  0
ARC
  5
484
100
AcDbEntity
  8
0
100
AcDbCircle
 62
7
  6
CONTINUOUS
 10
77.0584983075
 20
67.7305515286
 40
0.7597753402
100
AcDbArc
 50
239.7124659532
 51
303.2471684434
  0
ARC
  5
485
100
AcDbEntity
  8
0
100
AcDbCircle
 62
7
  6
CONTINUOUS
 10
77.0584983075
 20
67.7305515286
 40
0.7597753402
100
AcDbArc
 50
149.712465953
 51
213.2471684432
  0
ARC
  5
486
100
AcDbEntity
  8
0
100
AcDbCircle
 62
7
  6
CONTINUOUS
 10
77.0584983075
 20
67.7305515286
 40
0.7597753402
100
AcDbArc
 50
59.7124659532
 51
123.2471684434
  0
CIRCLE
  5
487
100
AcDbEntity
  8
0
100
AcDbCircle
 62
7
  6
CONTINUOUS
 10
77.0584983075
 20
67.7305515286
 40
0.4
  0
ARC
  5
488
100
AcDbEntity
  8
0
100
AcDbCircle
 62
7
  6
CONTINUOUS
 10
77.5454191439
 20
68.2432971761
 40
0.1
100
AcDbArc
 50
181.4798171878
 51
271.4798171976
  0
ARC
  5
489
100
AcDbEntity
  8
0
100
AcDbCircle
 62
7
  6
CONTINUOUS
 10
86.076790315
 20
67.3874553418
 40
0.1
100
AcDbArc
 50
105.9736841343
 51
195.9736841283
  0
ARC
  5
48A
100
AcDbEntity
  8
0
100
AcDbCircle
 62
7
  6
CONTINUOUS
 10
85.1154021206
 20
67.1122595211
 40
0.1
100
AcDbArc
 50
15.9736841197
 51
105.9736841287
  0
ARC
  5
48B
100
AcDbEntity
  8
0
100
AcDbCircle
 62
7
  6
CONTINUOUS
 10
84.8402063
 20
68.0736477155
 40
0.1
100
AcDbArc
 50
285.9736841343
 51
15.9736841363
  0
CIRCLE
  5
48C
100
AcDbEntity
  8
0
100
AcDbCircle
 62
7
  6
CONTINUOUS
 10
85.4584983075
 20
67.7305515286
 40
2.65
  0
CIRCLE
  5
48D
100
AcDbEntity
  8
0
100
AcDbCircle
 62
7
  6
CONTINUOUS
 10
85.4584983075
 20
67.7305515286
 40
2.5
  0
ARC
  5
48E
100
AcDbEntity
  8
0
100
AcDbCircle
 62
7
  6
CONTINUOUS
 10
85.4584983075
 20
67.7305515286
 40
2.2
100
AcDbArc
 50
296.4493658284
 51
95.4980024356
  0
ARC
  5
48F
100
AcDbEntity
  8
0
100
AcDbCircle
 62
7
  6
CONTINUOUS
 10
85.4584983075
 20
67.7305515286
 40
2.2
100
AcDbArc
 50
116.4493658283
 51
275.4980024357
  0
ARC
  5
490
100
AcDbEntity
  8
0
100
AcDbCircle
 62
7
  6
CONTINUOUS
 10
85.4584983075
 20
67.7305515286
 40
1.3876815526
100
AcDbArc
 50
359.2204349165
 51
32.7269333476
  0
ARC
  5
491
100
AcDbEntity
  8
0
100
AcDbCircle
 62
7
  6
CONTINUOUS
 10
85.4584983075
 20
67.7305515286
 40
1.3876815526
100
AcDbArc
 50
179.2204349165
 51
212.7269333476
  0
ARC
  5
492
100
AcDbEntity
  8
0
100
AcDbCircle
 62
7
  6
CONTINUOUS
 10
85.4584983075
 20
67.7305515286
 40
1.3876815526
100
AcDbArc
 50
269.2204349164
 51
302.7269333475
  0
ARC
  5
493
100
AcDbEntity
  8
0
100
AcDbCircle
 62
7
  6
CONTINUOUS
 10
85.4584983075
 20
67.7305515286
 40
1.3876815526
100
AcDbArc
 50
89.2204349166
 51
122.7269333477
  0
ARC
  5
494
100
AcDbEntity
  8
0
100
AcDbCircle
 62
7
  6
CONTINUOUS
 10
85.4584983075
 20
67.7305515286
 40
0.7597753402
100
AcDbArc
 50
344.2063328869
 51
47.7410353769
  0
ARC
  5
495
100
AcDbEntity
  8
0
100
AcDbCircle
 62
7
  6
CONTINUOUS
 10
85.4584983075
 20
67.7305515286
 40
0.7597753402
100
AcDbArc
 50
254.2063328866
 51
317.7410353774
  0
ARC
  5
496
100
AcDbEntity
  8
0
100
AcDbCircle
 62
7
  6
CONTINUOUS
 10
85.4584983075
 20
67.7305515286
 40
0.7597753402
100
AcDbArc
 50
164.2063328869
 51
227.7410353769
  0
ARC
  5
497
100
AcDbEntity
  8
0
100
AcDbCircle
 62
7
  6
CONTINUOUS
 10
85.4584983075
 20
67.7305515286
 40
0.7597753402
100
AcDbArc
 50
74.2063328866
 51
137.7410353774
  0
CIRCLE
  5
498
100
AcDbEntity
  8
0
100
AcDbCircle
 62
7
  6
CONTINUOUS
 10
85.4584983075
 20
67.7305515286
 40
0.4
  0
ARC
  5
499
100
AcDbEntity
  8
0
100
AcDbCircle
 62
7
  6
CONTINUOUS
 10
85.8015944943
 20
68.3488435361
 40
0.1
100
AcDbArc
 50
195.9736841277
 51
285.9736841287
  0
CIRCLE
  5
49A
100
AcDbEntity
  8
0
100
AcDbCircle
 62
7
  6
CONTINUOUS
 10
56.2584983075
 20
71.5805515286
 40
1.35
  0
CIRCLE
  5
49B
100
AcDbEntity
  8
0
100
AcDbCircle
 62
7
  6
CONTINUOUS
 10
56.2584983075
 20
71.5805515286
 40
1.25
  0
ARC
  5
49C
100
AcDbEntity
  8
0
100
AcDbCircle
 62
7
  6
CONTINUOUS
 10
68.3154021206
 20
74.6122595211
 40
0.1
100
AcDbArc
 50
15.9736841197
 51
105.9736841287
  0
ARC
  5
49D
100
AcDbEntity
  8
0
100
AcDbCircle
 62
7
  6
CONTINUOUS
 10
68.0402063
 20
75.5736477155
 40
0.1
100
AcDbArc
 50
285.9736841343
 51
15.9736841363
  0
ARC
  5
49E
100
AcDbEntity
  8
0
100
AcDbCircle
 62
7
  6
CONTINUOUS
 10
69.276790315
 20
74.8874553418
 40
0.1
100
AcDbArc
 50
105.9736841343
 51
195.9736841283
  0
CIRCLE
  5
49F
100
AcDbEntity
  8
0
100
AcDbCircle
 62
7
  6
CONTINUOUS
 10
68.6584983075
 20
75.2305515286
 40
2.65
  0
CIRCLE
  5
4A0
100
AcDbEntity
  8
0
100
AcDbCircle
 62
7
  6
CONTINUOUS
 10
68.6584983075
 20
75.2305515286
 40
2.5
  0
ARC
  5
4A1
100
AcDbEntity
  8
0
100
AcDbCircle
 62
7
  6
CONTINUOUS
 10
68.6584983075
 20
75.2305515286
 40
2.2
100
AcDbArc
 50
296.4493658284
 51
95.4980024356
  0
ARC
  5
4A2
100
AcDbEntity
  8
0
100
AcDbCircle
 62
7
  6
CONTINUOUS
 10
68.6584983075
 20
75.2305515286
 40
2.2
100
AcDbArc
 50
116.4493658283
 51
275.4980024357
  0
ARC
  5
4A3
100
AcDbEntity
  8
0
100
AcDbCircle
 62
7
  6
CONTINUOUS
 10
68.6584983075
 20
75.2305515286
 40
1.3876815526
100
AcDbArc
 50
359.2204349165
 51
32.7269333476
  0
ARC
  5
4A4
100
AcDbEntity
  8
0
100
AcDbCircle
 62
7
  6
CONTINUOUS
 10
68.6584983075
 20
75.2305515286
 40
1.3876815526
100
AcDbArc
 50
179.2204349165
 51
212.7269333476
  0
ARC
  5
4A5
100
AcDbEntity
  8
0
100
AcDbCircle
 62
7
  6
CONTINUOUS
 10
68.6584983075
 20
75.2305515286
 40
1.3876815526
100
AcDbArc
 50
269.2204349164
 51
302.7269333475
  0
ARC
  5
4A6
100
AcDbEntity
  8
0
100
AcDbCircle
 62
7
  6
CONTINUOUS
 10
68.6584983075
 20
75.2305515286
 40
1.3876815526
100
AcDbArc
 50
89.2204349166
 51
122.7269333477
  0
ARC
  5
4A7
100
AcDbEntity
  8
0
100
AcDbCircle
 62
7
  6
CONTINUOUS
 10
68.6584983075
 20
75.2305515286
 40
0.7597753402
100
AcDbArc
 50
344.2063328869
 51
47.7410353769
  0
ARC
  5
4A8
100
AcDbEntity
  8
0
100
AcDbCircle
 62
7
  6
CONTINUOUS
 10
68.6584983075
 20
75.2305515286
 40
0.7597753402
100
AcDbArc
 50
254.2063328866
 51
317.7410353774
  0
ARC
  5
4A9
100
AcDbEntity
  8
0
100
AcDbCircle
 62
7
  6
CONTINUOUS
 10
68.6584983075
 20
75.2305515286
 40
0.7597753402
100
AcDbArc
 50
164.2063328869
 51
227.7410353769
  0
ARC
  5
4AA
100
AcDbEntity
  8
0
100
AcDbCircle
 62
7
  6
CONTINUOUS
 10
68.6584983075
 20
75.2305515286
 40
0.7597753402
100
AcDbArc
 50
74.2063328866
 51
137.7410353774
  0
CIRCLE
  5
4AB
100
AcDbEntity
  8
0
100
AcDbCircle
 62
7
  6
CONTINUOUS
 10
68.6584983075
 20
75.2305515286
 40
0.4
  0
ARC
  5
4AC
100
AcDbEntity
  8
0
100
AcDbCircle
 62
7
  6
CONTINUOUS
 10
62.7584983075
 20
76.3805515286
 40
1.5
100
AcDbArc
 50
359.9997848191
 51
90.0
  0
ARC
  5
4AD
100
AcDbEntity
  8
0
100
AcDbCircle
 62
7
  6
CONTINUOUS
 10
56.8084983075
 20
76.3805515286
 40
1.5
100
AcDbArc
 50
0.0
 51
90.0
  0
ARC
  5
4AE
100
AcDbEntity
  8
0
100
AcDbCircle
 62
7
  6
CONTINUOUS
 10
56.8084983075
 20
76.3805515286
 40
1.3
100
AcDbArc
 50
0.0
 51
90.0
  0
ARC
  5
4AF
100
AcDbEntity
  8
0
100
AcDbCircle
 62
7
  6
CONTINUOUS
 10
62.7584983075
 20
76.3805515286
 40
1.3
100
AcDbArc
 50
0.0
 51
90.0
  0
ARC
  5
4B0
100
AcDbEntity
  8
0
100
AcDbCircle
 62
7
  6
CONTINUOUS
 10
53.6354822724
 20
79.7305515286
 40
1.0
100
AcDbArc
 50
239.0362434677
 51
270.0
  0
ARC
  5
4B1
100
AcDbEntity
  8
0
100
AcDbCircle
 62
7
  6
CONTINUOUS
 10
64.4584983075
 20
79.0805515286
 40
0.2
100
AcDbArc
 50
90.0
 51
180.0
  0
ARC
  5
4B2
100
AcDbEntity
  8
0
100
AcDbCircle
 62
7
  6
CONTINUOUS
 10
64.0753293608
 20
77.6968188749
 40
0.1765934626
100
AcDbArc
 50
41.4262803753
 51
45.9879819548
  0
ARC
  5
4B3
100
AcDbEntity
  8
0
100
AcDbCircle
 62
7
  6
CONTINUOUS
 10
69.0015944943
 20
75.8488435361
 40
0.1
100
AcDbArc
 50
195.9736841277
 51
285.9736841287
  0
ARC
  5
4B4
100
AcDbEntity
  8
0
100
AcDbCircle
 62
7
  6
CONTINUOUS
 10
77.6867327
 20
74.9060187135
 40
0.1
100
AcDbArc
 50
107.6800647377
 51
197.6800647442
  0
ARC
  5
4B5
100
AcDbEntity
  8
0
100
AcDbCircle
 62
7
  6
CONTINUOUS
 10
76.7339654924
 20
74.6023171361
 40
0.1
100
AcDbArc
 50
17.6800647433
 51
107.6800647417
  0
ARC
  5
4B6
100
AcDbEntity
  8
0
100
AcDbCircle
 62
7
  6
CONTINUOUS
 10
76.430263915
 20
75.5550843437
 40
0.1
100
AcDbArc
 50
287.6800647377
 51
17.6800647424
  0
CIRCLE
  5
4B7
100
AcDbEntity
  8
0
100
AcDbCircle
 62
7
  6
CONTINUOUS
 10
77.0584983075
 20
75.2305515286
 40
2.65
  0
CIRCLE
  5
4B8
100
AcDbEntity
  8
0
100
AcDbCircle
 62
7
  6
CONTINUOUS
 10
77.0584983075
 20
75.2305515286
 40
2.5
  0
ARC
  5
4B9
100
AcDbEntity
  8
0
100
AcDbCircle
 62
7
  6
CONTINUOUS
 10
77.0584983075
 20
75.2305515286
 40
2.2
100
AcDbArc
 50
298.1557464389
 51
97.2043830461
  0
ARC
  5
4BA
100
AcDbEntity
  8
0
100
AcDbCircle
 62
7
  6
CONTINUOUS
 10
77.0584983075
 20
75.2305515286
 40
2.2
100
AcDbArc
 50
118.1557464389
 51
277.2043830461
  0
ARC
  5
4BB
100
AcDbEntity
  8
0
100
AcDbCircle
 62
7
  6
CONTINUOUS
 10
77.0584983075
 20
75.2305515286
 40
1.3876815526
100
AcDbArc
 50
0.9268155269
 51
34.433313958
  0
ARC
  5
4BC
100
AcDbEntity
  8
0
100
AcDbCircle
 62
7
  6
CONTINUOUS
 10
77.0584983075
 20
75.2305515286
 40
1.3876815526
100
AcDbArc
 50
180.9268155269
 51
214.433313958
  0
ARC
  5
4BD
100
AcDbEntity
  8
0
100
AcDbCircle
 62
7
  6
CONTINUOUS
 10
77.0584983075
 20
75.2305515286
 40
1.3876815526
100
AcDbArc
 50
270.926815527
 51
304.4333139579
  0
ARC
  5
4BE
100
AcDbEntity
  8
0
100
AcDbCircle
 62
7
  6
CONTINUOUS
 10
77.0584983075
 20
75.2305515286
 40
1.3876815526
100
AcDbArc
 50
90.9268155269
 51
124.4333139582
  0
ARC
  5
4BF
100
AcDbEntity
  8
0
100
AcDbCircle
 62
7
  6
CONTINUOUS
 10
77.0584983075
 20
75.2305515286
 40
0.7597753402
100
AcDbArc
 50
345.9127134973
 51
49.4474159876
  0
ARC
  5
4C0
100
AcDbEntity
  8
0
100
AcDbCircle
 62
7
  6
CONTINUOUS
 10
77.0584983075
 20
75.2305515286
 40
0.7597753402
100
AcDbArc
 50
255.9127134977
 51
319.4474159873
  0
ARC
  5
4C1
100
AcDbEntity
  8
0
100
AcDbCircle
 62
7
  6
CONTINUOUS
 10
77.0584983075
 20
75.2305515286
 40
0.7597753402
100
AcDbArc
 50
165.9127134973
 51
229.4474159876
  0
ARC
  5
4C2
100
AcDbEntity
  8
0
100
AcDbCircle
 62
7
  6
CONTINUOUS
 10
77.0584983075
 20
75.2305515286
 40
0.7597753402
100
AcDbArc
 50
75.9127134977
 51
139.4474159873
  0
CIRCLE
  5
4C3
100
AcDbEntity
  8
0
100
AcDbCircle
 62
7
  6
CONTINUOUS
 10
77.0584983075
 20
75.2305515286
 40
0.4
  0
ARC
  5
4C4
100
AcDbEntity
  8
0
100
AcDbCircle
 62
7
  6
CONTINUOUS
 10
86.076790315
 20
74.8874553418
 40
0.1
100
AcDbArc
 50
105.9736841343
 51
195.9736841283
  0
ARC
  5
4C5
100
AcDbEntity
  8
0
100
AcDbCircle
 62
7
  6
CONTINUOUS
 10
85.1154021206
 20
74.6122595211
 40
0.1
100
AcDbArc
 50
15.9736841197
 51
105.9736841287
  0
ARC
  5
4C6
100
AcDbEntity
  8
0
100
AcDbCircle
 62
7
  6
CONTINUOUS
 10
84.8402063
 20
75.5736477155
 40
0.1
100
AcDbArc
 50
285.9736841343
 51
15.9736841363
  0
CIRCLE
  5
4C7
100
AcDbEntity
  8
0
100
AcDbCircle
 62
7
  6
CONTINUOUS
 10
85.4584983075
 20
75.2305515286
 40
2.65
  0
CIRCLE
  5
4C8
100
AcDbEntity
  8
0
100
AcDbCircle
 62
7
  6
CONTINUOUS
 10
85.4584983075
 20
75.2305515286
 40
2.5
  0
ARC
  5
4C9
100
AcDbEntity
  8
0
100
AcDbCircle
 62
7
  6
CONTINUOUS
 10
85.4584983075
 20
75.2305515286
 40
2.2
100
AcDbArc
 50
296.4493658284
 51
95.4980024356
  0
ARC
  5
4CA
100
AcDbEntity
  8
0
100
AcDbCircle
 62
7
  6
CONTINUOUS
 10
85.4584983075
 20
75.2305515286
 40
2.2
100
AcDbArc
 50
116.4493658283
 51
275.4980024357
  0
ARC
  5
4CB
100
AcDbEntity
  8
0
100
AcDbCircle
 62
7
  6
CONTINUOUS
 10
85.4584983075
 20
75.2305515286
 40
1.3876815526
100
AcDbArc
 50
359.2204349165
 51
32.7269333476
  0
ARC
  5
4CC
100
AcDbEntity
  8
0
100
AcDbCircle
 62
7
  6
CONTINUOUS
 10
85.4584983075
 20
75.2305515286
 40
1.3876815526
100
AcDbArc
 50
179.2204349165
 51
212.7269333476
  0
ARC
  5
4CD
100
AcDbEntity
  8
0
100
AcDbCircle
 62
7
  6
CONTINUOUS
 10
85.4584983075
 20
75.2305515286
 40
1.3876815526
100
AcDbArc
 50
269.2204349164
 51
302.7269333475
  0
ARC
  5
4CE
100
AcDbEntity
  8
0
100
AcDbCircle
 62
7
  6
CONTINUOUS
 10
85.4584983075
 20
75.2305515286
 40
1.3876815526
100
AcDbArc
 50
89.2204349166
 51
122.7269333477
  0
ARC
  5
4CF
100
AcDbEntity
  8
0
100
AcDbCircle
 62
7
  6
CONTINUOUS
 10
85.4584983075
 20
75.2305515286
 40
0.7597753402
100
AcDbArc
 50
344.2063328869
 51
47.7410353769
  0
ARC
  5
4D0
100
AcDbEntity
  8
0
100
AcDbCircle
 62
7
  6
CONTINUOUS
 10
85.4584983075
 20
75.2305515286
 40
0.7597753402
100
AcDbArc
 50
254.2063328866
 51
317.7410353774
  0
ARC
  5
4D1
100
AcDbEntity
  8
0
100
AcDbCircle
 62
7
  6
CONTINUOUS
 10
85.4584983075
 20
75.2305515286
 40
0.7597753402
100
AcDbArc
 50
164.2063328869
 51
227.7410353769
  0
ARC
  5
4D2
100
AcDbEntity
  8
0
100
AcDbCircle
 62
7
  6
CONTINUOUS
 10
85.4584983075
 20
75.2305515286
 40
0.7597753402
100
AcDbArc
 50
74.2063328866
 51
137.7410353774
  0
CIRCLE
  5
4D3
100
AcDbEntity
  8
0
100
AcDbCircle
 62
7
  6
CONTINUOUS
 10
85.4584983075
 20
75.2305515286
 40
0.4
  0
ARC
  5
4D4
100
AcDbEntity
  8
0
100
AcDbCircle
 62
7
  6
CONTINUOUS
 10
72.0584983075
 20
79.0805515286
 40
0.2
100
AcDbArc
 50
0.0
 51
90.0
  0
ARC
  5
4D5
100
AcDbEntity
  8
0
100
AcDbCircle
 62
7
  6
CONTINUOUS
 10
73.2584983075
 20
79.0805515286
 40
0.2
100
AcDbArc
 50
0.0
 51
90.0
  0
ARC
  5
4D6
100
AcDbEntity
  8
0
100
AcDbCircle
 62
7
  6
CONTINUOUS
 10
80.4584983075
 20
79.0805515286
 40
0.2
100
AcDbArc
 50
0.0
 51
90.0
  0
ARC
  5
4D7
100
AcDbEntity
  8
0
100
AcDbCircle
 62
7
  6
CONTINUOUS
 10
81.6584983075
 20
79.0805515286
 40
0.2
100
AcDbArc
 50
0.0
 51
90.0
  0
ARC
  5
4D8
100
AcDbEntity
  8
0
100
AcDbCircle
 62
7
  6
CONTINUOUS
 10
88.8584983075
 20
79.0805515286
 40
0.2
100
AcDbArc
 50
0.0
 51
90.0
  0
ARC
  5
4D9
100
AcDbEntity
  8
0
100
AcDbCircle
 62
7
  6
CONTINUOUS
 10
90.0584983075
 20
79.0805515286
 40
0.2
100
AcDbArc
 50
0.0
 51
90.0
  0
ARC
  5
4DA
100
AcDbEntity
  8
0
100
AcDbCircle
 62
7
  6
CONTINUOUS
 10
77.3830311226
 20
75.8587859211
 40
0.1
100
AcDbArc
 50
197.6800647421
 51
287.6800647417
  0
ARC
  5
4DB
100
AcDbEntity
  8
0
100
AcDbCircle
 62
7
  6
CONTINUOUS
 10
85.8015944943
 20
75.8488435361
 40
0.1
100
AcDbArc
 50
195.9736841277
 51
285.9736841287
  0
SPLINE
  5
4DC
100
AcDbEntity
  8
0
100
AcDbSpline
 62
7
  6
CONTINUOUS
 70
0
 71
3
 72
14
 73
10
 74
0
 42
0.0000001
 43
0.0000001
 44
0.0000000001
 40
0.0
 40
0.0
 40
0.0
 40
0.0
 40
0.2756405183
 40
0.4172192744
 40
0.554016909
 40
0.6816547632
 40
0.7982867981
 40
0.9036153594
 40
1.0
 40
1.0
 40
1.0
 40
1.0
 10
41.4420769463
 20
72.3105515286
 30
0.0
 10
41.4420769497
 20
72.3353134394
 30
0.0
 10
41.4469357075
 20
72.3731104494
 30
0.0
 10
41.4640643778
 20
72.4200000228
 30
0.0
 10
41.4820405087
 20
72.4519820293
 30
0.0
 10
41.5045784173
 20
72.4780662532
 30
0.0
 10
41.5299197589
 20
72.4971118954
 30
0.0
 10
41.5566461422
 20
72.508127456
 30
0.0
 10
41.5748396808
 20
72.5105519255
 30
0.0
 10
41.5834983057
 20
72.5105519255
 30
0.0
  0
SPLINE
  5
4DD
100
AcDbEntity
  8
0
100
AcDbSpline
 62
7
  6
CONTINUOUS
 70
0
 71
3
 72
18
 73
14
 74
0
 42
0.0000001
 43
0.0000001
 44
0.0000000001
 40
0.0
 40
0.0
 40
0.0
 40
0.0
 40
0.1639700979
 40
0.3320530426
 40
0.4955329358
 40
0.6445230527
 40
0.7704276939
 40
0.8235539885
 40
0.8698216253
 40
0.9094157944
 40
0.9433578815
 40
0.973028027
 40
1.0
 40
1.0
 40
1.0
 40
1.0
 10
43.8495224271
 20
70.8605515286
 30
0.0
 10
43.8495222732
 20
70.848403634
 30
0.0
 10
43.84877626
 20
70.8237974657
 30
0.0
 10
43.8453879202
 20
70.7872144526
 30
0.0
 10
43.8394484973
 20
70.7520713858
 30
0.0
 10
43.8313078744
 20
70.7205830291
 30
0.0
 10
43.8223891887
 20
70.6978667106
 30
0.0
 10
43.8142582152
 20
70.6832623848
 30
0.0
 10
43.8082943991
 20
70.674835386
 30
0.0
 10
43.8021552867
 20
70.6683722467
 30
0.0
 10
43.7959323974
 20
70.6638396963
 30
0.0
 10
43.7897099409
 20
70.6611618822
 30
0.0
 10
43.785495783
 20
70.6605548218
 30
0.0
 10
43.7834975365
 20
70.6605547569
 30
0.0
  0
SPLINE
  5
4DE
100
AcDbEntity
  8
0
100
AcDbSpline
 62
7
  6
CONTINUOUS
 70
0
 71
3
 72
18
 73
14
 74
0
 42
0.0000001
 43
0.0000001
 44
0.0000000001
 40
0.0
 40
0.0
 40
0.0
 40
0.0
 40
0.0269718877
 40
0.0566419462
 40
0.0905839561
 40
0.1301780666
 40
0.1764456677
 40
0.2295719487
 40
0.3554766222
 40
0.504466831
 40
0.6679468332
 40
0.8360298638
 40
1.0
 40
1.0
 40
1.0
 40
1.0
 10
43.7834968304
 20
72.5105487746
 30
0.0
 10
43.7854950749
 20
72.5105487148
 30
0.0
 10
43.7897092305
 20
72.5099416629
 30
0.0
 10
43.7959316851
 20
72.5072638538
 30
0.0
 10
43.8021545731
 20
72.5027313017
 30
0.0
 10
43.8082936848
 20
72.4962681533
 30
0.0
 10
43.8142575013
 20
72.4878411379
 30
0.0
 10
43.8223884785
 20
72.4732367755
 30
0.0
 10
43.8313071688
 20
72.450520395
 30
0.0
 10
43.8394477972
 20
72.4190319515
 30
0.0
 10
43.8453872266
 20
72.3838887883
 30
0.0
 10
43.8487755724
 20
72.3473056808
 30
0.0
 10
43.8495215898
 20
72.3226994517
 30
0.0
 10
43.8495217457
 20
72.3105515286
 30
0.0
  0
SPLINE
  5
4DF
100
AcDbEntity
  8
0
100
AcDbSpline
 62
7
  6
CONTINUOUS
 70
0
 71
3
 72
14
 73
10
 74
0
 42
0.0000001
 43
0.0000001
 44
0.0000000001
 40
0.0
 40
0.0
 40
0.0
 40
0.0
 40
0.0963846471
 40
0.2017132151
 40
0.3183452537
 40
0.4459831085
 40
0.5827807403
 40
0.7243594919
 40
1.0
 40
1.0
 40
1.0
 40
1.0
 10
41.5834983356
 20
70.6605511752
 30
0.0
 10
41.5748397111
 20
70.6605511752
 30
0.0
 10
41.5566461737
 20
70.6629756439
 30
0.0
 10
41.529919791
 20
70.6739912004
 30
0.0
 10
41.5045784488
 20
70.6930368369
 30
0.0
 10
41.4820405385
 20
70.719121054
 30
0.0
 10
41.4640644053
 20
70.7511030533
 30
0.0
 10
41.4469357322
 20
70.7979926177
 30
0.0
 10
41.4420769728
 20
70.8357896217
 30
0.0
 10
41.4420769692
 20
70.8605515286
 30
0.0
  0
SPLINE
  5
4E0
100
AcDbEntity
  8
0
100
AcDbSpline
 62
7
  6
CONTINUOUS
 70
0
 71
3
 72
13
 73
9
 74
0
 42
0.0000001
 43
0.0000001
 44
0.0000000001
 40
0.0
 40
0.0
 40
0.0
 40
0.0
 40
0.1034245124
 40
0.2106827955
 40
0.3244923156
 40
0.4464288307
 40
0.7129290176
 40
1.0
 40
1.0
 40
1.0
 40
1.0
 10
41.6320264449
 20
72.5105515286
 30
0.0
 10
41.6227438905
 20
72.5105515286
 30
0.0
 10
41.6037397208
 20
72.5078507253
 30
0.0
 10
41.5767696572
 20
72.4960682963
 30
0.0
 10
41.5521425386
 20
72.4771467051
 30
0.0
 10
41.5227801245
 20
72.4425812255
 30
0.0
 10
41.4973148964
 20
72.3862536357
 30
0.0
 10
41.4906050887
 20
72.3363167166
 30
0.0
 10
41.4906050887
 20
72.3105515286
 30
0.0
  0
SPLINE
  5
4E1
100
AcDbEntity
  8
0
100
AcDbSpline
 62
7
  6
CONTINUOUS
 70
0
 71
3
 72
13
 73
9
 74
0
 42
0.0000001
 43
0.0000001
 44
0.0000000001
 40
0.0
 40
0.0
 40
0.0
 40
0.0
 40
0.2870709824
 40
0.5535711693
 40
0.6755076844
 40
0.7893172045
 40
0.8965754876
 40
1.0
 40
1.0
 40
1.0
 40
1.0
 10
41.4906050887
 20
70.8605515286
 30
0.0
 10
41.4906050887
 20
70.8347863407
 30
0.0
 10
41.4973148964
 20
70.7848494215
 30
0.0
 10
41.5227801245
 20
70.7285218318
 30
0.0
 10
41.5521425386
 20
70.6939563521
 30
0.0
 10
41.5767696572
 20
70.6750347609
 30
0.0
 10
41.6037397208
 20
70.663252332
 30
0.0
 10
41.6227438905
 20
70.6605515286
 30
0.0
 10
41.6320264449
 20
70.6605515286
 30
0.0
  0
SPLINE
  5
4E2
100
AcDbEntity
  8
0
100
AcDbSpline
 62
7
  6
CONTINUOUS
 70
0
 71
3
 72
14
 73
10
 74
0
 42
0.0000001
 43
0.0000001
 44
0.0000000001
 40
0.0
 40
0.0
 40
0.0
 40
0.0
 40
0.1207309836
 40
0.2406911119
 40
0.3605145921
 40
0.481694145
 40
0.6056910328
 40
0.7334781143
 40
1.0
 40
1.0
 40
1.0
 40
1.0
 10
44.2215436543
 20
72.0105484504
 30
0.0
 10
44.2215383029
 20
72.0317982512
 30
0.0
 10
44.2158642868
 20
72.0743652086
 30
0.0
 10
44.1915893715
 20
72.133643107
 30
0.0
 10
44.1544118595
 20
72.1857907464
 30
0.0
 10
44.1069353849
 20
72.2296520801
 30
0.0
 10
44.0510995413
 20
72.2648492283
 30
0.0
 10
43.9665328253
 20
72.2998557365
 30
0.0
 10
43.8964314944
 20
72.3105434411
 30
0.0
 10
43.849521108
 20
72.3105493578
 30
0.0
  0
SPLINE
  5
4E3
100
AcDbEntity
  8
0
100
AcDbSpline
 62
7
  6
CONTINUOUS
 70
0
 71
3
 72
20
 73
16
 74
0
 42
0.0000001
 43
0.0000001
 44
0.0000000001
 40
0.0
 40
0.0
 40
0.0
 40
0.0
 40
0.1277077073
 40
0.1903707606
 40
0.252238109
 40
0.3738654696
 40
0.4935689943
 40
0.5532869744
 40
0.6132736687
 40
0.6739021045
 40
0.7357774258
 40
0.7994635158
 40
0.8646322035
 40
0.9316806458
 40
1.0
 40
1.0
 40
1.0
 40
1.0
 10
43.8495224979
 20
70.8605515286
 30
0.0
 10
43.8720397542
 20
70.8607829642
 30
0.0
 10
43.9056605679
 20
70.8630350526
 30
0.0
 10
43.9494737509
 20
70.870917819
 30
0.0
 10
43.9914705525
 20
70.8820433482
 30
0.0
 10
44.0414389577
 20
70.9016593474
 30
0.0
 10
44.087455677
 20
70.9286325528
 30
0.0
 10
44.1208353697
 20
70.954558647
 30
0.0
 10
44.1440973816
 20
70.9763012556
 30
0.0
 10
44.1654711039
 20
71.0004390484
 30
0.0
 10
44.1840184553
 20
71.0276562793
 30
0.0
 10
44.1990898376
 20
71.0578048036
 30
0.0
 10
44.2113137278
 20
71.0901942843
 30
0.0
 10
44.2200110871
 20
71.1244865949
 30
0.0
 10
44.2224750395
 20
71.1485383578
 30
0.0
 10
44.2215470815
 20
71.1605491797
 30
0.0
  0
SPLINE
  5
4E4
100
AcDbEntity
  8
0
100
AcDbSpline
 62
7
  6
CONTINUOUS
 70
0
 71
3
 72
11
 73
7
 74
0
 42
0.0000001
 43
0.0000001
 44
0.0000000001
 40
0.0
 40
0.0
 40
0.0
 40
0.0
 40
0.2571486808
 40
0.5100715727
 40
0.7571249037
 40
1.0
 40
1.0
 40
1.0
 40
1.0
 10
43.8928162568
 20
70.4805515286
 30
0.0
 10
43.8928162568
 20
70.4935291126
 30
0.0
 10
43.8880296722
 20
70.5195306013
 30
0.0
 10
43.8673386532
 20
70.552727284
 30
0.0
 10
43.8361238963
 20
70.5752276318
 30
0.0
 10
43.8111042303
 20
70.5805515286
 30
0.0
 10
43.7988469947
 20
70.5805515286
 30
0.0
  0
SPLINE
  5
4E5
100
AcDbEntity
  8
0
100
AcDbSpline
 62
7
  6
CONTINUOUS
 70
0
 71
3
 72
11
 73
7
 74
0
 42
0.0000001
 43
0.0000001
 44
0.0000000001
 40
0.0
 40
0.0
 40
0.0
 40
0.0
 40
0.2427898897
 40
0.4897722637
 40
0.7427621216
 40
1.0
 40
1.0
 40
1.0
 40
1.0
 10
43.7988469947
 20
72.5805515286
 30
0.0
 10
43.8110999339
 20
72.5805515286
 30
0.0
 10
43.83611149
 20
72.5858715274
 30
0.0
 10
43.8673265643
 20
72.608362699
 30
0.0
 10
43.8880262967
 20
72.6415598353
 30
0.0
 10
43.8928162568
 20
72.6675694391
 30
0.0
 10
43.8928162568
 20
72.6805515286
 30
0.0
  0
SPLINE
  5
4E6
100
AcDbEntity
  8
0
100
AcDbSpline
 62
7
  6
CONTINUOUS
 70
0
 71
3
 72
11
 73
7
 74
0
 42
0.0000001
 43
0.0000001
 44
0.0000000001
 40
0.0
 40
0.0
 40
0.0
 40
0.0
 40
0.2433844775
 40
0.4913397949
 40
0.7441377962
 40
1.0
 40
1.0
 40
1.0
 40
1.0
 10
44.2390428475
 20
70.5776181715
 30
0.0
 10
44.2491619591
 20
70.5749584897
 30
0.0
 10
44.2687830055
 20
70.5658625371
 30
0.0
 10
44.2920203583
 20
70.5430502958
 30
0.0
 10
44.3070028842
 20
70.5135729129
 30
0.0
 10
44.3104335041
 20
70.4915507379
 30
0.0
 10
44.3104335041
 20
70.4805515286
 30
0.0
  0
SPLINE
  5
4E7
100
AcDbEntity
  8
0
100
AcDbSpline
 62
7
  6
CONTINUOUS
 70
0
 71
3
 72
19
 73
15
 74
0
 42
0.0000001
 43
0.0000001
 44
0.0000000001
 40
0.0
 40
0.0
 40
0.0
 40
0.0
 40
0.1857289977
 40
0.3642222412
 40
0.5286518547
 40
0.6732586468
 40
0.736691607
 40
0.7936172452
 40
0.8437741035
 40
0.8870222274
 40
0.9234522416
 40
0.9534849603
 40
0.9782284329
 40
1.0
 40
1.0
 40
1.0
 40
1.0
 10
43.7048776202
 20
73.7805513594
 30
0.0
 10
43.7048488015
 20
73.8003172995
 30
0.0
 10
43.7039324214
 20
73.8390846529
 30
0.0
 10
43.6999109035
 20
73.8952241993
 30
0.0
 10
43.6935957996
 20
73.9467459502
 30
0.0
 10
43.686319674
 20
73.9857556917
 30
0.0
 10
43.6792816133
 20
74.0130727242
 30
0.0
 10
43.6738187787
 20
74.0303887867
 30
0.0
 10
43.6680079076
 20
74.0453105741
 30
0.0
 10
43.6619041298
 20
74.0577312043
 30
0.0
 10
43.655566426
 20
74.0675788885
 30
0.0
 10
43.6490217732
 20
74.0748278102
 30
0.0
 10
43.6421619502
 20
74.0794435794
 30
0.0
 10
43.6371739897
 20
74.0805515286
 30
0.0
 10
43.6348569797
 20
74.0805515286
 30
0.0
  0
SPLINE
  5
4E8
100
AcDbEntity
  8
0
100
AcDbSpline
 62
7
  6
CONTINUOUS
 70
0
 71
3
 72
14
 73
10
 74
0
 42
0.0000001
 43
0.0000001
 44
0.0000000001
 40
0.0
 40
0.0
 40
0.0
 40
0.0
 40
0.2460710181
 40
0.377207165
 40
0.509483024
 40
0.6400639353
 40
0.7666018849
 40
0.8868391716
 40
1.0
 40
1.0
 40
1.0
 40
1.0
 10
44.1224950073
 20
69.3805515286
 30
0.0
 10
44.1224950378
 20
69.3431553701
 30
0.0
 10
44.1122521155
 20
69.2851091598
 30
0.0
 10
44.0780116966
 20
69.2152784493
 30
0.0
 10
44.0416682988
 20
69.1671349207
 30
0.0
 10
43.9964725463
 20
69.1282766764
 30
0.0
 10
43.9460201157
 20
69.1001446357
 30
0.0
 10
43.8933383468
 20
69.0840701848
 30
0.0
 10
43.8577845562
 20
69.080550828
 30
0.0
 10
43.8405871621
 20
69.0805508282
 30
0.0
  0
SPLINE
  5
4E9
100
AcDbEntity
  8
0
100
AcDbSpline
 62
7
  6
CONTINUOUS
 70
0
 71
3
 72
10
 73
6
 74
0
 42
0.0000001
 43
0.0000001
 44
0.0000000001
 40
0.0
 40
0.0
 40
0.0
 40
0.0
 40
0.252650933
 40
0.5029456315
 40
1.0
 40
1.0
 40
1.0
 40
1.0
 10
44.3104568209
 20
69.4095410986
 30
0.0
 10
44.3134561356
 20
69.4177925582
 30
0.0
 10
44.3178673026
 20
69.4348330386
 30
0.0
 10
44.3204280775
 20
69.469626245
 30
0.0
 10
44.3157177894
 20
69.4957006554
 30
0.0
 10
44.3104318243
 20
69.5121446677
 30
0.0
  0
SPLINE
  5
4EA
100
AcDbEntity
  8
0
100
AcDbSpline
 62
7
  6
CONTINUOUS
 70
0
 71
3
 72
15
 73
11
 74
0
 42
0.0000001
 43
0.0000001
 44
0.0000000001
 40
0.0
 40
0.0
 40
0.0
 40
0.0
 40
0.1357886785
 40
0.2699540552
 40
0.4011082201
 40
0.5283273392
 40
0.6512029717
 40
0.7700399565
 40
0.8858885672
 40
1.0
 40
1.0
 40
1.0
 40
1.0
 10
43.8928162837
 20
69.3805515286
 30
0.0
 10
43.8928261624
 20
69.3607194496
 30
0.0
 10
43.8894652528
 20
69.3212074973
 30
0.0
 10
43.8745236423
 20
69.2642690061
 30
0.0
 10
43.8502766026
 20
69.2119694493
 30
0.0
 10
43.8178082784
 20
69.1663267272
 30
0.0
 10
43.7784373543
 20
69.1290193407
 30
0.0
 10
43.7336761146
 20
69.1013635277
 30
0.0
 10
43.6852268339
 20
69.0843888254
 30
0.0
 10
43.6515230724
 20
69.0805515284
 30
0.0
 10
43.6348569758
 20
69.0805515286
 30
0.0
  0
SPLINE
  5
4EB
100
AcDbEntity
  8
0
100
AcDbSpline
 62
7
  6
CONTINUOUS
 70
0
 71
3
 72
19
 73
15
 74
0
 42
0.0000001
 43
0.0000001
 44
0.0000000001
 40
0.0
 40
0.0
 40
0.0
 40
0.0
 40
0.0217250942
 40
0.0464421822
 40
0.0764619692
 40
0.1128857015
 40
0.1561356297
 40
0.2062983834
 40
0.2632332127
 40
0.3266751115
 40
0.4712933442
 40
0.6357353709
 40
0.8142608087
 40
1.0
 40
1.0
 40
1.0
 40
1.0
 10
43.6348569779
 20
69.0805515286
 30
0.0
 10
43.6371689157
 20
69.0805515286
 30
0.0
 10
43.6421485189
 20
69.0816613716
 30
0.0
 10
43.6489959175
 20
69.086277842
 30
0.0
 10
43.6555327617
 20
69.093526228
 30
0.0
 10
43.6618657431
 20
69.1033738641
 30
0.0
 10
43.6679683378
 20
69.1157942231
 30
0.0
 10
43.6737838402
 20
69.130715072
 30
0.0
 10
43.6792557872
 20
69.1480298361
 30
0.0
 10
43.6863131751
 20
69.1753434433
 30
0.0
 10
43.6936226684
 20
69.214348364
 30
0.0
 10
43.6999546631
 20
69.2658722593
 30
0.0
 10
43.7039542904
 20
69.3220154035
 30
0.0
 10
43.7048874025
 20
69.3607858717
 30
0.0
 10
43.7048776965
 20
69.380551835
 30
0.0
  0
SPLINE
  5
4EC
100
AcDbEntity
  8
0
100
AcDbSpline
 62
7
  6
CONTINUOUS
 70
0
 71
3
 72
14
 73
10
 74
0
 42
0.0000001
 43
0.0000001
 44
0.0000000001
 40
0.0
 40
0.0
 40
0.0
 40
0.0
 40
0.1131608923
 40
0.2333982284
 40
0.3599362038
 40
0.4905171151
 40
0.6227929495
 40
0.7539290575
 40
1.0
 40
1.0
 40
1.0
 40
1.0
 10
43.8405871973
 20
74.0805517402
 30
0.0
 10
43.8577845835
 20
74.0805517401
 30
0.0
 10
43.8933383549
 20
74.0770323894
 30
0.0
 10
43.9460200955
 20
74.0609579685
 30
0.0
 10
43.9964725002
 20
74.0328259802
 30
0.0
 10
44.0416682336
 20
73.9939678072
 30
0.0
 10
44.0780116244
 20
73.9458243627
 30
0.0
 10
44.1122520485
 20
73.8759937665
 30
0.0
 10
44.1224949913
 20
73.8179476374
 30
0.0
 10
44.122494979
 20
73.7805515286
 30
0.0
  0
SPLINE
  5
4ED
100
AcDbEntity
  8
0
100
AcDbSpline
 62
7
  6
CONTINUOUS
 70
0
 71
3
 72
11
 73
7
 74
0
 42
0.0000001
 43
0.0000001
 44
0.0000000001
 40
0.0
 40
0.0
 40
0.0
 40
0.0
 40
0.2288841936
 40
0.4667038421
 40
0.7215629241
 40
1.0
 40
1.0
 40
1.0
 40
1.0
 10
44.3405871937
 20
73.5805509579
 30
0.0
 10
44.340586558
 20
73.5863805951
 30
0.0
 10
44.3392614857
 20
73.5983044187
 30
0.0
 10
44.3333898864
 20
73.6158446401
 30
0.0
 10
44.3237174809
 20
73.6330517715
 30
0.0
 10
44.3152055033
 20
73.6437100567
 30
0.0
 10
44.3104327973
 20
73.6489554405
 30
0.0
  0
SPLINE
  5
4EE
100
AcDbEntity
  8
0
100
AcDbSpline
 62
7
  6
CONTINUOUS
 70
0
 71
3
 72
11
 73
7
 74
0
 42
0.0000001
 43
0.0000001
 44
0.0000000001
 40
0.0
 40
0.0
 40
0.0
 40
0.0
 40
0.2784696429
 40
0.5333690109
 40
0.7711916527
 40
1.0
 40
1.0
 40
1.0
 40
1.0
 10
44.3104329045
 20
69.5121492112
 30
0.0
 10
44.315206103
 20
69.5173953087
 30
0.0
 10
44.3237187705
 20
69.5280555189
 30
0.0
 10
44.3333917411
 20
69.5452645937
 30
0.0
 10
44.3392635305
 20
69.5628039176
 30
0.0
 10
44.3405878962
 20
69.5747261922
 30
0.0
 10
44.3405871936
 20
69.5805539221
 30
0.0
  0
SPLINE
  5
4EF
100
AcDbEntity
  8
0
100
AcDbSpline
 62
7
  6
CONTINUOUS
 70
0
 71
3
 72
11
 73
7
 74
0
 42
0.0000001
 43
0.0000001
 44
0.0000000001
 40
0.0
 40
0.0
 40
0.0
 40
0.0
 40
0.2558622044
 40
0.5086602058
 40
0.7566155228
 40
1.0
 40
1.0
 40
1.0
 40
1.0
 10
44.3104335041
 20
72.6805515286
 30
0.0
 10
44.3104335041
 20
72.6695523185
 30
0.0
 10
44.3070028837
 20
72.6475301419
 30
0.0
 10
44.2920203556
 20
72.6180527574
 30
0.0
 10
44.2687829998
 20
72.5952405158
 30
0.0
 10
44.2491619511
 20
72.5861445643
 30
0.0
 10
44.2390428386
 20
72.5834848834
 30
0.0
  0
SPLINE
  5
4F0
100
AcDbEntity
  8
0
100
AcDbSpline
 62
7
  6
CONTINUOUS
 70
0
 71
3
 72
9
 73
5
 74
0
 42
0.0000001
 43
0.0000001
 44
0.0000000001
 40
0.0
 40
0.0
 40
0.0
 40
0.0
 40
0.4851246329
 40
1.0
 40
1.0
 40
1.0
 40
1.0
 10
44.3104352152
 20
73.7515561448
 30
0.0
 10
44.3161892124
 20
73.735745891
 30
0.0
 10
44.3220701204
 20
73.7007218128
 30
0.0
 10
44.3158976139
 20
73.6659531956
 30
0.0
 10
44.310433831
 20
73.6489530872
 30
0.0
  0
SPLINE
  5
4F1
100
AcDbEntity
  8
0
100
AcDbSpline
 62
7
  6
CONTINUOUS
 70
0
 71
3
 72
15
 73
11
 74
0
 42
0.0000001
 43
0.0000001
 44
0.0000000001
 40
0.0
 40
0.0
 40
0.0
 40
0.0
 40
0.1141434128
 40
0.2299979061
 40
0.348829306
 40
0.4716821711
 40
0.5988728882
 40
0.7300212724
 40
0.8642075298
 40
1.0
 40
1.0
 40
1.0
 40
1.0
 10
43.6348569799
 20
74.0805515286
 30
0.0
 10
43.6515277057
 20
74.0805515285
 30
0.0
 10
43.6852370814
 20
74.0767149672
 30
0.0
 10
43.7336909742
 20
74.0597393136
 30
0.0
 10
43.7784494602
 20
74.0320851251
 30
0.0
 10
43.8178103162
 20
73.9947788953
 30
0.0
 10
43.8502656729
 20
73.9491372471
 30
0.0
 10
43.8745062387
 20
73.8968382523
 30
0.0
 10
43.8894581443
 20
73.8398987811
 30
0.0
 10
43.8928130449
 20
73.8003841142
 30
0.0
 10
43.8928162654
 20
73.7805515286
 30
0.0
  0
SPLINE
  5
4F2
100
AcDbEntity
  8
0
100
AcDbSpline
 62
7
  6
CONTINUOUS
 70
0
 71
3
 72
9
 73
5
 74
0
 42
0.0000001
 43
0.0000001
 44
0.0000000001
 40
0.0
 40
0.0
 40
0.0
 40
0.0
 40
0.2383115642
 40
1.0
 40
1.0
 40
1.0
 40
1.0
 10
64.0584983075
 20
77.8805515286
 30
0.0
 10
64.0706143842
 20
77.8805515286
 30
0.0
 10
64.1212663874
 20
77.8750074718
 30
0.0
 10
64.1701706934
 20
77.8507238174
 30
0.0
 10
64.1980281304
 20
77.8238238472
 30
0.0
  0
SPLINE
  5
4F3
100
AcDbEntity
  8
0
100
AcDbSpline
 62
7
  6
CONTINUOUS
 70
0
 71
3
 72
8
 73
4
 74
0
 42
0.0000001
 43
0.0000001
 44
0.0000000001
 40
0.0
 40
0.0
 40
0.0
 40
0.0
 40
1.0
 40
1.0
 40
1.0
 40
1.0
 10
64.2077404919
 20
77.8136629736
 30
0.0
 10
64.2165522629
 20
77.8036814186
 30
0.0
 10
64.2242955167
 20
77.7926766039
 30
0.0
 10
64.2308789482
 20
77.7811034808
 30
0.0
  0
SPLINE
  5
4F4
100
AcDbEntity
  8
0
100
AcDbSpline
 62
7
  6
CONTINUOUS
 70
0
 71
3
 72
9
 73
5
 74
0
 42
0.0000001
 43
0.0000001
 44
0.0000000001
 40
0.0
 40
0.0
 40
0.0
 40
0.0
 40
0.2623251219
 40
1.0
 40
1.0
 40
1.0
 40
1.0
 10
64.2308789482
 20
77.7811034808
 30
0.0
 10
64.2354146137
 20
77.7731301595
 30
0.0
 10
64.2506525979
 20
77.7416443033
 30
0.0
 10
64.2584985188
 20
77.7063461945
 30
0.0
 10
64.2584983075
 20
77.6805508019
 30
0.0
  0
LINE
  5
4F5
100
AcDbEntity
  8
0
100
AcDbLine
 62
7
  6
CONTINUOUS
 10
58.8834970332
 20
66.7805515286
 11
58.8834977317
 21
66.7124199878
  0
LINE
  5
4F6
100
AcDbEntity
  8
0
100
AcDbLine
 62
7
  6
CONTINUOUS
 10
58.8834977211
 20
76.448653856
 11
58.8834970267
 21
76.3805515365
  0
SPLINE
  5
4F7
100
AcDbEntity
  8
0
100
AcDbSpline
 62
7
  6
CONTINUOUS
 70
0
 71
3
 72
11
 73
7
 74
0
 42
0.0000001
 43
0.0000001
 44
0.0000000001
 40
0.0
 40
0.0
 40
0.0
 40
0.0
 40
0.2500926035
 40
0.5000562263
 40
0.7499840333
 40
1.0
 40
1.0
 40
1.0
 40
1.0
 10
63.7335110769
 20
66.7124492119
 30
0.0
 10
63.733539799
 20
66.5835634104
 30
0.0
 10
63.683929113
 20
66.3230137362
 30
0.0
 10
63.4666920876
 20
65.9914770115
 30
0.0
 10
63.1382182891
 20
65.7692767274
 30
0.0
 10
62.8775984655
 20
65.7180515286
 30
0.0
 10
62.7487521558
 20
65.7180515286
 30
0.0
  0
SPLINE
  5
4F8
100
AcDbEntity
  8
0
100
AcDbSpline
 62
7
  6
CONTINUOUS
 70
0
 71
3
 72
11
 73
7
 74
0
 42
0.0000001
 43
0.0000001
 44
0.0000000001
 40
0.0
 40
0.0
 40
0.0
 40
0.0
 40
0.2500265756
 40
0.4999542776
 40
0.749912939
 40
1.0
 40
1.0
 40
1.0
 40
1.0
 10
59.8682444591
 20
65.7180515286
 30
0.0
 10
59.7393950528
 20
65.7180515286
 30
0.0
 10
59.478774049
 20
65.7692771912
 30
0.0
 10
59.1503062577
 20
65.9914778762
 30
0.0
 10
58.9330743197
 20
66.323001465
 30
0.0
 10
58.8834607256
 20
66.5835394131
 30
0.0
 10
58.883485776
 20
66.7124199878
 30
0.0
  0
LINE
  5
4F9
100
AcDbEntity
  8
0
100
AcDbLine
 62
7
  6
CONTINUOUS
 10
63.7334995561
 20
76.3805515286
 11
63.7334988579
 21
76.4486924867
  0
LINE
  5
4FA
100
AcDbEntity
  8
0
100
AcDbLine
 62
7
  6
CONTINUOUS
 10
63.733498893
 20
66.7124492119
 11
63.7334995814
 21
66.7805515278
  0
SPLINE
  5
4FB
100
AcDbEntity
  8
0
100
AcDbSpline
 62
7
  6
CONTINUOUS
 70
0
 71
3
 72
11
 73
7
 74
0
 42
0.0000001
 43
0.0000001
 44
0.0000000001
 40
0.0
 40
0.0
 40
0.0
 40
0.0
 40
0.2500926036
 40
0.5000562263
 40
0.7499840333
 40
1.0
 40
1.0
 40
1.0
 40
1.0
 10
58.8834855367
 20
76.448653856
 30
0.0
 10
58.8834568157
 20
76.5775396566
 30
0.0
 10
58.9330675063
 20
76.838089328
 30
0.0
 10
59.150304531
 20
77.1696260494
 30
0.0
 10
59.4787783285
 20
77.3918263304
 30
0.0
 10
59.7393981503
 20
77.4430515286
 30
0.0
 10
59.8682444591
 20
77.4430515286
 30
0.0
  0
SPLINE
  5
4FC
100
AcDbEntity
  8
0
100
AcDbSpline
 62
7
  6
CONTINUOUS
 70
0
 71
3
 72
11
 73
7
 74
0
 42
0.0000001
 43
0.0000001
 44
0.0000000001
 40
0.0
 40
0.0
 40
0.0
 40
0.0
 40
0.2500265897
 40
0.4999543018
 40
0.7499129905
 40
1.0
 40
1.0
 40
1.0
 40
1.0
 10
62.7487521558
 20
77.4430515286
 30
0.0
 10
62.8776007927
 20
77.4430515286
 30
0.0
 10
63.1382202322
 20
77.3918265106
 30
0.0
 10
63.4666866348
 20
77.1696283567
 30
0.0
 10
63.6839196293
 20
76.8381083112
 30
0.0
 10
63.733534186
 20
76.5775722581
 30
0.0
 10
63.7335103226
 20
76.4486924867
 30
0.0
  0
SPLINE
  5
4FD
100
AcDbEntity
  8
0
100
AcDbSpline
 62
7
  6
CONTINUOUS
 70
0
 71
3
 72
9
 73
5
 74
0
 42
0.0000001
 43
0.0000001
 44
0.0000000001
 40
0.0
 40
0.0
 40
0.0
 40
0.0
 40
0.2384265583
 40
1.0
 40
1.0
 40
1.0
 40
1.0
 10
35.4584983075
 20
77.6805515286
 30
0.0
 10
35.4584983075
 20
77.692871584
 30
0.0
 10
35.4642193418
 20
77.7443396245
 30
0.0
 10
35.4892861308
 20
77.7940250279
 30
0.0
 10
35.5170355337
 20
77.8219279314
 30
0.0
  0
SPLINE
  5
4FE
100
AcDbEntity
  8
0
100
AcDbSpline
 62
7
  6
CONTINUOUS
 70
0
 71
3
 72
8
 73
4
 74
0
 42
0.0000001
 43
0.0000001
 44
0.0000000001
 40
0.0
 40
0.0
 40
0.0
 40
0.0
 40
1.0
 40
1.0
 40
1.0
 40
1.0
 10
35.5170355337
 20
77.8219279314
 30
0.0
 10
35.5291876447
 20
77.834147264
 30
0.0
 10
35.5432746554
 20
77.8446212841
 30
0.0
 10
35.5582691508
 20
77.8531154584
 30
0.0
  0
SPLINE
  5
4FF
100
AcDbEntity
  8
0
100
AcDbSpline
 62
7
  6
CONTINUOUS
 70
0
 71
3
 72
9
 73
5
 74
0
 42
0.0000001
 43
0.0000001
 44
0.0000000001
 40
0.0
 40
0.0
 40
0.0
 40
0.0
 40
0.2604090908
 40
1.0
 40
1.0
 40
1.0
 40
1.0
 10
35.5980773781
 20
77.8705734513
 30
0.0
 10
35.6031465111
 20
77.8722128867
 30
0.0
 10
35.6228309231
 20
77.8777873332
 30
0.0
 10
35.6433686388
 20
77.880551615
 30
0.0
 10
35.6584997608
 20
77.8805515286
 30
0.0
  0
SPLINE
  5
500
100
AcDbEntity
  8
0
100
AcDbSpline
 62
7
  6
CONTINUOUS
 70
0
 71
3
 72
9
 73
5
 74
0
 42
0.0000001
 43
0.0000001
 44
0.0000000001
 40
0.0
 40
0.0
 40
0.0
 40
0.0
 40
0.2425996155
 40
1.0
 40
1.0
 40
1.0
 40
1.0
 10
64.2574023989
 20
65.4611859669
 30
0.0
 10
64.256210987
 20
65.4504406013
 30
0.0
 10
64.2475607274
 20
65.406688975
 30
0.0
 10
64.2251950333
 20
65.3652694919
 30
0.0
 10
64.2017439031
 20
65.3409940656
 30
0.0
  0
SPLINE
  5
501
100
AcDbEntity
  8
0
100
AcDbSpline
 62
7
  6
CONTINUOUS
 70
0
 71
3
 72
8
 73
4
 74
0
 42
0.0000001
 43
0.0000001
 44
0.0000000001
 40
0.0
 40
0.0
 40
0.0
 40
0.0
 40
1.0
 40
1.0
 40
1.0
 40
1.0
 10
64.1884196835
 20
65.3285582249
 30
0.0
 10
64.1795736707
 20
65.3211056056
 30
0.0
 10
64.169991035
 20
65.3144654942
 30
0.0
 10
64.1599663049
 20
65.3086950295
 30
0.0
  0
SPLINE
  5
502
100
AcDbEntity
  8
0
100
AcDbSpline
 62
7
  6
CONTINUOUS
 70
0
 71
3
 72
9
 73
5
 74
0
 42
0.0000001
 43
0.0000001
 44
0.0000000001
 40
0.0
 40
0.0
 40
0.0
 40
0.0
 40
0.2623338131
 40
1.0
 40
1.0
 40
1.0
 40
1.0
 10
64.1599663049
 20
65.3086950295
 30
0.0
 10
64.1519369235
 20
65.3040731334
 30
0.0
 10
64.1202030303
 20
65.2885483108
 30
0.0
 10
64.0845476116
 20
65.2805512659
 30
0.0
 10
64.0584961275
 20
65.2805515286
 30
0.0
  0
SPLINE
  5
503
100
AcDbEntity
  8
0
100
AcDbSpline
 62
7
  6
CONTINUOUS
 70
0
 71
3
 72
9
 73
5
 74
0
 42
0.0000001
 43
0.0000001
 44
0.0000000001
 40
0.0
 40
0.0
 40
0.0
 40
0.0
 40
0.2384265578
 40
1.0
 40
1.0
 40
1.0
 40
1.0
 10
35.6584983075
 20
65.2805515286
 30
0.0
 10
35.646178253
 20
65.2805515286
 30
0.0
 10
35.594710216
 20
65.2862725622
 30
0.0
 10
35.545024816
 20
65.3113393478
 30
0.0
 10
35.5171219126
 20
65.3390887469
 30
0.0
  0
SPLINE
  5
504
100
AcDbEntity
  8
0
100
AcDbSpline
 62
7
  6
CONTINUOUS
 70
0
 71
3
 72
8
 73
4
 74
0
 42
0.0000001
 43
0.0000001
 44
0.0000000001
 40
0.0
 40
0.0
 40
0.0
 40
0.0
 40
1.0
 40
1.0
 40
1.0
 40
1.0
 10
35.5171219126
 20
65.3390887469
 30
0.0
 10
35.5049025766
 20
65.3512408598
 30
0.0
 10
35.4944285538
 20
65.3653278734
 30
0.0
 10
35.4859343776
 20
65.3803223721
 30
0.0
  0
SPLINE
  5
505
100
AcDbEntity
  8
0
100
AcDbSpline
 62
7
  6
CONTINUOUS
 70
0
 71
3
 72
9
 73
5
 74
0
 42
0.0000001
 43
0.0000001
 44
0.0000000001
 40
0.0
 40
0.0
 40
0.0
 40
0.0
 40
0.2611554563
 40
1.0
 40
1.0
 40
1.0
 40
1.0
 10
35.4717700351
 20
65.4106924828
 30
0.0
 10
35.4695905947
 20
65.4165055849
 30
0.0
 10
35.4622053928
 20
65.4391011549
 30
0.0
 10
35.4584982072
 20
65.4629890502
 30
0.0
 10
35.4584983075
 20
65.4805529819
 30
0.0
  0
SPLINE
  5
506
100
AcDbEntity
  8
0
100
AcDbSpline
 62
7
  6
CONTINUOUS
 70
0
 71
3
 72
14
 73
10
 74
0
 42
0.0000001
 43
0.0000001
 44
0.0000000001
 40
0.0
 40
0.0
 40
0.0
 40
0.0
 40
0.2491295362
 40
0.3738946746
 40
0.4987611841
 40
0.6237767501
 40
0.7490146411
 40
0.8744743571
 40
1.0
 40
1.0
 40
1.0
 40
1.0
 10
37.467690968
 20
74.1305515282
 30
0.0
 10
37.3784829012
 20
74.1305536932
 30
0.0
 10
37.2440660572
 20
74.1182576513
 30
0.0
 10
37.07048949
 20
74.0751178893
 30
0.0
 10
36.9445891262
 20
74.0277227772
 30
0.0
 10
36.8262956622
 20
73.9629243191
 30
0.0
 10
36.7213833536
 20
73.8770806459
 30
0.0
 10
36.6411420107
 20
73.7662262452
 30
0.0
 10
36.6191415412
 20
73.6755193133
 30
0.0
 10
36.6191371402
 20
73.630571211
 30
0.0
  0
SPLINE
  5
507
100
AcDbEntity
  8
0
100
AcDbSpline
 62
7
  6
CONTINUOUS
 70
0
 71
3
 72
13
 73
9
 74
0
 42
0.0000001
 43
0.0000001
 44
0.0000000001
 40
0.0
 40
0.0
 40
0.0
 40
0.0
 40
0.124849435
 40
0.2498374238
 40
0.3749374294
 40
0.5001233007
 40
0.7499296582
 40
1.0
 40
1.0
 40
1.0
 40
1.0
 10
36.4778528359
 20
69.5306403423
 30
0.0
 10
36.477619219
 20
69.4751574124
 30
0.0
 10
36.4969249305
 20
69.3632680149
 30
0.0
 10
36.5759563542
 20
69.2141581445
 30
0.0
 10
36.6895691188
 20
69.0900565021
 30
0.0
 10
36.871031369
 20
68.9597053796
 30
0.0
 10
37.1336166925
 20
68.8567285032
 30
0.0
 10
37.3565715484
 20
68.8305780506
 30
0.0
 10
37.4677034742
 20
68.8305908667
 30
0.0
  0
SPLINE
  5
508
100
AcDbEntity
  8
0
100
AcDbSpline
 62
7
  6
CONTINUOUS
 70
0
 71
3
 72
14
 73
10
 74
0
 42
0.0000001
 43
0.0000001
 44
0.0000000001
 40
0.0
 40
0.0
 40
0.0
 40
0.0
 40
0.249129397
 40
0.3738952076
 40
0.4987604224
 40
0.6237772777
 40
0.7490180732
 40
0.874471683
 40
1.0
 40
1.0
 40
1.0
 40
1.0
 10
37.4676959351
 20
69.0305515292
 30
0.0
 10
37.3784844282
 20
69.0305489985
 30
0.0
 10
37.2440612026
 20
69.0428420826
 30
0.0
 10
37.0704804094
 20
69.0859917579
 30
0.0
 10
36.9445726798
 20
69.1333826673
 30
0.0
 10
36.8262775386
 20
69.1981938535
 30
0.0
 10
36.7213616117
 20
69.2840314923
 30
0.0
 10
36.6411206244
 20
69.394924865
 30
0.0
 10
36.6192216018
 20
69.4856234466
 30
0.0
 10
36.6191297063
 20
69.5305741713
 30
0.0
  0
SPLINE
  5
509
100
AcDbEntity
  8
0
100
AcDbSpline
 62
7
  6
CONTINUOUS
 70
0
 71
3
 72
11
 73
7
 74
0
 42
0.0000001
 43
0.0000001
 44
0.0000000001
 40
0.0
 40
0.0
 40
0.0
 40
0.0
 40
0.2485049776
 40
0.4980781655
 40
0.7487814535
 40
1.0
 40
1.0
 40
1.0
 40
1.0
 10
44.8418346823
 20
73.6305517148
 30
0.0
 10
44.8418410198
 20
73.6954233104
 30
0.0
 10
44.8156753632
 20
73.8268724437
 30
0.0
 10
44.7037280114
 20
73.9931103179
 30
0.0
 10
44.5362961226
 20
74.1045031139
 30
0.0
 10
44.4038464126
 20
74.1305540185
 30
0.0
 10
44.3382664469
 20
74.1305455544
 30
0.0
  0
SPLINE
  5
50A
100
AcDbEntity
  8
0
100
AcDbSpline
 62
7
  6
CONTINUOUS
 70
0
 71
3
 72
11
 73
7
 74
0
 42
0.0000001
 43
0.0000001
 44
0.0000000001
 40
0.0
 40
0.0
 40
0.0
 40
0.0
 40
0.2512185475
 40
0.5019218361
 40
0.7514950241
 40
1.0
 40
1.0
 40
1.0
 40
1.0
 10
44.3382664443
 20
69.030557503
 30
0.0
 10
44.4038464252
 20
69.0305490385
 30
0.0
 10
44.5362961386
 20
69.0565999548
 30
0.0
 10
44.7037281782
 20
69.1679928
 30
0.0
 10
44.8156750631
 20
69.3342307389
 30
0.0
 10
44.8418418126
 20
69.4656799119
 30
0.0
 10
44.8418346821
 20
69.5305515218
 30
0.0
  0
SPLINE
  5
50B
100
AcDbEntity
  8
0
100
AcDbSpline
 62
7
  6
CONTINUOUS
 70
0
 71
3
 72
13
 73
9
 74
0
 42
0.0000001
 43
0.0000001
 44
0.0000000001
 40
0.0
 40
0.0
 40
0.0
 40
0.0
 40
0.1248570083
 40
0.2498394942
 40
0.3749487285
 40
0.5001298615
 40
0.7499428914
 40
1.0
 40
1.0
 40
1.0
 40
1.0
 10
36.4778234544
 20
73.6306159688
 30
0.0
 10
36.4778245224
 20
73.6860965632
 30
0.0
 10
36.4970290402
 20
73.7979163387
 30
0.0
 10
36.5759434234
 20
73.9471306002
 30
0.0
 10
36.6897155016
 20
74.0710543567
 30
0.0
 10
36.8710684079
 20
74.2015009618
 30
0.0
 10
37.1336865862
 20
74.3043579005
 30
0.0
 10
37.3565977298
 20
74.3305380581
 30
0.0
 10
37.4677113687
 20
74.3305093473
 30
0.0
  0
SPLINE
  5
50C
100
AcDbEntity
  8
0
100
AcDbSpline
 62
7
  6
CONTINUOUS
 70
0
 71
3
 72
11
 73
7
 74
0
 42
0.0000001
 43
0.0000001
 44
0.0000000001
 40
0.0
 40
0.0
 40
0.0
 40
0.0
 40
0.2500434348
 40
0.5000177084
 40
0.7499819421
 40
1.0
 40
1.0
 40
1.0
 40
1.0
 10
44.3382672135
 20
74.3488135412
 30
0.0
 10
44.4318782926
 20
74.3488256007
 30
0.0
 10
44.6211206829
 20
74.3116135945
 30
0.0
 10
44.8606762397
 20
74.1520976622
 30
0.0
 10
45.0216041072
 20
73.9134195517
 30
0.0
 10
45.0592811789
 20
73.7241540077
 30
0.0
 10
45.0592721483
 20
73.6305524289
 30
0.0
  0
SPLINE
  5
50D
100
AcDbEntity
  8
0
100
AcDbSpline
 62
7
  6
CONTINUOUS
 70
0
 71
3
 72
11
 73
7
 74
0
 42
0.0000001
 43
0.0000001
 44
0.0000000001
 40
0.0
 40
0.0
 40
0.0
 40
0.0
 40
0.2499815571
 40
0.4999761734
 40
0.7499845379
 40
1.0
 40
1.0
 40
1.0
 40
1.0
 10
45.0593044264
 20
69.530551689
 30
0.0
 10
45.0593055802
 20
69.4369587466
 30
0.0
 10
45.0216173537
 20
69.2477013917
 30
0.0
 10
44.8607558108
 20
69.008934508
 30
0.0
 10
44.6211116339
 20
68.8494782892
 30
0.0
 10
44.4318726425
 20
68.812254504
 30
0.0
 10
44.338267006
 20
68.8122571545
 30
0.0
  0
SPLINE
  5
50E
100
AcDbEntity
  8
0
100
AcDbSpline
 62
7
  6
CONTINUOUS
 70
0
 71
3
 72
11
 73
7
 74
0
 42
0.0000001
 43
0.0000001
 44
0.0000000001
 40
0.0
 40
0.0
 40
0.0
 40
0.0
 40
0.2499035855
 40
0.5000184465
 40
0.7501106571
 40
1.0
 40
1.0
 40
1.0
 40
1.0
 10
63.6584983593
 20
76.3363531389
 30
0.0
 10
63.6585006291
 20
76.4175916857
 30
0.0
 10
63.6389221516
 20
76.5807950203
 30
0.0
 10
63.552048437
 20
76.8111777081
 30
0.0
 10
63.4112784764
 20
77.0132571992
 30
0.0
 10
63.2869167719
 20
77.1209797395
 30
0.0
 10
63.2193260675
 20
77.1660402092
 30
0.0
  0
SPLINE
  5
50F
100
AcDbEntity
  8
0
100
AcDbSpline
 62
7
  6
CONTINUOUS
 70
0
 71
3
 72
11
 73
7
 74
0
 42
0.0000001
 43
0.0000001
 44
0.0000000001
 40
0.0
 40
0.0
 40
0.0
 40
0.0
 40
0.2498895885
 40
0.4999820605
 40
0.7500966457
 40
1.0
 40
1.0
 40
1.0
 40
1.0
 10
59.3976705475
 20
77.1660402092
 30
0.0
 10
59.3300788922
 20
77.1209791057
 30
0.0
 10
59.2057156532
 20
77.0132547121
 30
0.0
 10
59.0649447573
 20
76.8111717862
 30
0.0
 10
58.9780718113
 20
76.58078538
 30
0.0
 10
58.9584949529
 20
76.4175798111
 30
0.0
 10
58.9584982422
 20
76.3363402766
 30
0.0
  0
SPLINE
  5
510
100
AcDbEntity
  8
0
100
AcDbSpline
 62
7
  6
CONTINUOUS
 70
0
 71
3
 72
11
 73
7
 74
0
 42
0.0000001
 43
0.0000001
 44
0.0000000001
 40
0.0
 40
0.0
 40
0.0
 40
0.0
 40
0.2499035625
 40
0.5000183947
 40
0.7501106309
 40
1.0
 40
1.0
 40
1.0
 40
1.0
 10
58.9584982533
 20
66.8247513742
 30
0.0
 10
58.958495868
 20
66.7435127146
 30
0.0
 10
58.9780741675
 20
66.580309126
 30
0.0
 10
59.0649477934
 20
66.349926017
 30
0.0
 10
59.2057178583
 20
66.147846137
 30
0.0
 10
59.3300797359
 20
66.0401233891
 30
0.0
 10
59.3976705475
 20
65.9950628481
 30
0.0
  0
SPLINE
  5
511
100
AcDbEntity
  8
0
100
AcDbSpline
 62
7
  6
CONTINUOUS
 70
0
 71
3
 72
11
 73
7
 74
0
 42
0.0000001
 43
0.0000001
 44
0.0000000001
 40
0.0
 40
0.0
 40
0.0
 40
0.0
 40
0.2498895885
 40
0.4999820606
 40
0.7500966457
 40
1.0
 40
1.0
 40
1.0
 40
1.0
 10
63.2193260675
 20
65.9950628481
 30
0.0
 10
63.2869177232
 20
66.0401239519
 30
0.0
 10
63.4112809631
 20
66.1478483464
 30
0.0
 10
63.5520518594
 20
66.3499312741
 30
0.0
 10
63.638924805
 20
66.5803176823
 30
0.0
 10
63.6585016626
 20
66.7435232525
 30
0.0
 10
63.6584983727
 20
66.8247627876
 30
0.0
  0
SPLINE
  5
512
100
AcDbEntity
  8
0
100
AcDbSpline
 62
7
  6
CONTINUOUS
 70
0
 71
3
 72
12
 73
8
 74
0
 42
0.0000001
 43
0.0000001
 44
0.0000000001
 40
0.0
 40
0.0
 40
0.0
 40
0.0
 40
0.3398004712
 40
0.6287399259
 40
0.7459800171
 40
0.8449215737
 40
1.0
 40
1.0
 40
1.0
 40
1.0
 10
45.7959658584
 20
65.2805515286
 30
0.0
 10
45.7959658584
 20
65.2538056805
 30
0.0
 10
45.7914754655
 20
65.2042317314
 30
0.0
 10
45.7747369528
 20
65.1472791338
 30
0.0
 10
45.7548003634
 20
65.1125701791
 30
0.0
 10
45.7358625801
 20
65.0903666098
 30
0.0
 10
45.716050554
 20
65.0805515286
 30
0.0
 10
45.7038442613
 20
65.0805515286
 30
0.0
  0
ELLIPSE
  5
513
100
AcDbEntity
  8
0
100
AcDbEllipse
 62
7
  6
CONTINUOUS
 10
44.1823843083
 20
73.6305515286
 30
0.0
 11
0.5019099188
 21
0.0
 31
0.0
 40
0.9961946981
 41
0.0000000004
 42
1.2704942844
  0
ELLIPSE
  5
514
100
AcDbEntity
  8
0
100
AcDbEllipse
 62
7
  6
CONTINUOUS
 10
44.1823843083
 20
69.5305515286
 30
0.0
 11
0.5019099188
 21
0.0
 31
0.0
 40
0.9961946981
 41
-1.2702681701
 42
-0.0000000158
  0
ELLIPSE
  5
515
100
AcDbEntity
  8
0
100
AcDbEllipse
 62
7
  6
CONTINUOUS
 10
62.6507160889
 20
76.3131252414
 30
0.0
 11
-0.5686099785
 21
-0.8529149678
 31
0.0
 40
0.9755372174
 41
3.1415926536
 42
3.7182196045
  0
ELLIPSE
  5
516
100
AcDbEntity
  8
0
100
AcDbEllipse
 62
7
  6
CONTINUOUS
 10
59.966280526
 20
76.3131252414
 30
0.0
 11
0.5686099785
 21
-0.8529149678
 31
0.0
 40
0.9755372174
 41
2.5649657027
 42
3.1415926536
  0
ELLIPSE
  5
517
100
AcDbEntity
  8
0
100
AcDbEllipse
 62
7
  6
CONTINUOUS
 10
59.966280526
 20
66.8479778159
 30
0.0
 11
0.5686099785
 21
0.8529149678
 31
0.0
 40
0.9755372174
 41
3.1415926536
 42
3.7182196045
  0
ELLIPSE
  5
518
100
AcDbEntity
  8
0
100
AcDbEllipse
 62
7
  6
CONTINUOUS
 10
62.6507160889
 20
66.8479778159
 30
0.0
 11
-0.5686099785
 21
0.8529149678
 31
0.0
 40
0.9755372174
 41
2.5649657027
 42
3.1415926536
  0
ENDSEC
  0
SECTION
  2
OBJECTS
  0
DICTIONARY
  5
C
100
AcDbDictionary
280
0
281
1
  3
ACAD_GROUP
350
D
  3
ACAD_MLINESTYLE
350
17
  3
ACAD_LAYOUT
350
1A
  3
ACAD_PLOTSETTINGS
350
19
  3
ACAD_PLOTSTYLENAME
350
E
  0
DICTIONARY
  5
D
102
{ACAD_REACTORS
330
C
102
}
100
AcDbDictionary
280
0
281
1
  0
ACDBDICTIONARYWDFLT
  5
E
102
{ACAD_REACTORS
330
C
102
}
100
AcDbDictionary
281
1
  3
Normal
350
F
100
AcDbDictionaryWithDefault
340
F
  0
DICTIONARY
  5
17
102
{ACAD_REACTORS
330
C
102
}
100
AcDbDictionary
280
0
281
1
  3
Standard
350
18
  0
DICTIONARY
  5
19
102
{ACAD_REACTORS
330
C
102
}
100
AcDbDictionary
281
1
  0
DICTIONARY
  5
1A
102
{ACAD_REACTORS
330
C
102
}
100
AcDbDictionary
281
1
  3
Model
350
519
  3
Layout1
350
51A
  0
ACDBPLACEHOLDER
  5
F
102
{ACAD_REACTORS
330
E
102
}
  0
MLINESTYLE
  5
18
102
{ACAD_REACTORS
330
17
102
}
100
AcDbMlineStyle
  2
STANDARD
 70
0
  3

 62
256
 51
90.0
 52
90.0
 71
2
 49
0.5
 62
256
  6
BYLAYER
 49
-0.5
 62
256
  6
BYLAYER
  0
LAYOUT
  5
519
102
{ACAD_REACTORS
330
1A
102
}
100
AcDbPlotSettings
  1

  2
none_device
  4

  6

 40
0.0
 41
0.0
 42
0.0
 43
0.0
 44
210.0
 45
297.0
 46
0.0
 47
0.0
 48
0.0
 49
0.0
140
0.0
141
0.0
142
1.0
143
1.0
 70
1024
 72
1
 73
0
 74
0
  7

 75
0
147
1.0
148
0.0
149
0.0
100
AcDbLayout
  1
Model
 70
0
 71
0
 10
0.0
 20
0.0
 11
210.0
 21
297.0
 12
0.0
 22
0.0
 32
0.0
 14
0.0
 24
0.0
 34
0.0
 15
0.0
 25
0.0
 35
0.0
146
0.0
 13
0.0
 23
0.0
 33
0.0
 16
1.0
 26
0.0
 36
0.0
 17
0.0
 27
1.0
 37
0.0
 76
0
330
210
345
0
346
0
  0
LAYOUT
  5
51A
102
{ACAD_REACTORS
330
1A
102
}
100
AcDbPlotSettings
  1

  2
none_device
  4

  6

 40
0.0
 41
0.0
 42
0.0
 43
0.0
 44
210.0
 45
297.0
 46
0.0
 47
0.0
 48
0.0
 49
0.0
140
0.0
141
0.0
142
1.0
143
1.0
 70
0
 72
1
 73
0
 74
0
  7

 75
0
147
1.0
148
0.0
149
0.0
100
AcDbLayout
  1
Layout1
 70
0
 71
1
 10
0.0
 20
0.0
 11
210.0
 21
297.0
 12
0.0
 22
0.0
 32
0.0
 14
0.0
 24
0.0
 34
0.0
 15
0.0
 25
0.0
 35
0.0
146
0.0
 13
0.0
 23
0.0
 33
0.0
 16
1.0
 26
0.0
 36
0.0
 17
0.0
 27
1.0
 37
0.0
 76
0
330
211
345
0
346
0
  0
ENDSEC
  0
EOF
