999
DXF file: C:\Users\sesa63760\Dev\_Creo\CAD\MCADID0000557_3D-CAD\drw0001_1.dxf
999
Pro/ENGINEER 2019471 by Parametric Technology Corporation
  0
SECTION
  2
HEADER
  9
$ACADVER
  1
AC1024
  9
$DWGCODEPAGE
  3
ANSI_1252
  9
$EXTMAX
 10
240.5099051035
 20
340.1497229321
 30
0.0
  9
$EXTMIN
 10
0.0
 20
0.0
 30
0.0
  9
$LIMMIN
 10
0.0
 20
0.0
  9
$LIMMAX
 10
240.5099051035
 20
340.1497229321
  9
$VIEWCTR
 10
120.2549525517
 20
170.074861466
  9
$VIEWSIZE
 40
340.1497229321
  9
$CLAYER
  8
0
  9
$LTSCALE
 40
22.17272268
  9
$CELTYPE
  6
BYLAYER
  9
$DIMSCALE
 40
1.0
  9
$DIMASZ
 40
2.863213156
  9
$DIMEXO
 40
1.0
  9
$DIMDLI
 40
15.3193356698
  9
$DIMEXE
 40
1.0
  9
$DIMCEN
 40
3.6282637113
  9
$DIMLFAC
 40
1.0
  9
$DIMBLK
  1
_FILLED
  9
$DIMALT
 70
0
  9
$DIMALTF
 40
0.0393700787
  9
$DIMTXT
 40
4.0084984184
  9
$DIMTOL
 70
1
  9
$DIMLIM
 70
0
  9
$DIMTFAC
 40
1.0
  9
$DIMTP
 40
0.01
  9
$DIMTM
 40
0.01
  9
$DIMGAP
 40
0.625
  9
$DIMDSEP
 70
46
  9
$AUNITS
 70
0
  9
$PDMODE
 70
3
  9
$PDSIZE
 40
0.3125
  9
$HANDSEED
  5
49C
  9
$TILEMODE
 70
1
  9
$MEASUREMENT
 70
1
  9
$INSUNITS
 70
4
  0
ENDSEC
  0
SECTION
  2
CLASSES
  0
CLASS
  1
ACDBDICTIONARYWDFLT
  2
AcDbDictionaryWithDefault
  3
AutoCAD 2000
 90
0
 91
1
280
0
281
0
  0
CLASS
  1
ACDBPLACEHOLDER
  2
AcDbPlaceHolder
  3
AutoCAD 2000
 90
0
 91
1
280
0
281
0
  0
CLASS
  1
LAYOUT
  2
AcDbLayout
  3
AutoCAD 2000
 90
0
 91
0
280
0
281
0
  0
ENDSEC
  0
SECTION
  2
TABLES
  0
TABLE
  2
VPORT
  5
8
100
AcDbSymbolTable
 70
2
  0
VPORT
  5
1F4
100
AcDbSymbolTableRecord
100
AcDbViewportTableRecord
  2
*ACTIVE
 70
0
 10
0.0
 20
0.0
 11
1.0
 21
1.0
 12
120.2549525517
 22
170.074861466
 13
0.0
 23
0.0
 14
1.0
 24
1.0
 15
0.0
 25
0.0
 16
0.0
 26
0.0
 36
1.0
 17
0.0
 27
0.0
 37
0.0
 40
340.1497229321
 41
0.7070707071
 42
50.0
 43
0.0
 44
0.0
 50
0.0
 51
0.0
 71
0
 72
100
 73
1
 74
1
 75
0
 76
0
 77
0
 78
0
  0
ENDTAB
  0
TABLE
  2
LTYPE
  5
5
100
AcDbSymbolTable
 70
6
  0
LTYPE
  5
14
100
AcDbSymbolTableRecord
100
AcDbLinetypeTableRecord
  2
BYBLOCK
 70
0
  3

 72
65
 73
0
 40
0.0
  0
LTYPE
  5
15
100
AcDbSymbolTableRecord
100
AcDbLinetypeTableRecord
  2
BYLAYER
 70
0
  3

 72
65
 73
0
 40
0.0
  0
LTYPE
  5
16
100
AcDbSymbolTableRecord
100
AcDbLinetypeTableRecord
  2
CONTINUOUS
 70
64
  3
Solid line
 72
65
 73
0
 40
0.0
  0
LTYPE
  5
1F5
100
AcDbSymbolTableRecord
100
AcDbLinetypeTableRecord
  2
CENTER
 70
64
  3
____ _ ____ _ ____ _ ____ _ ____ _ ____ _ ____
 72
65
 73
4
 40
0.6
 49
0.375
 74
0
 49
-0.075
 74
0
 49
0.075
 74
0
 49
-0.075
 74
0
  0
LTYPE
  5
1F6
100
AcDbSymbolTableRecord
100
AcDbLinetypeTableRecord
  2
HIDDEN
 70
64
  3
- - - - - - - - - - - - - - - - - - - -
 72
65
 73
2
 40
0.2
 49
0.1
 74
0
 49
-0.1
 74
0
  0
LTYPE
  5
1F7
100
AcDbSymbolTableRecord
100
AcDbLinetypeTableRecord
  2
PHANTOM
 70
64
  3
_____ _ _ _____ _ _ _____ _ _ _____
 72
65
 73
6
 40
0.8
 49
0.45
 74
0
 49
-0.05
 74
0
 49
0.1
 74
0
 49
-0.05
 74
0
 49
0.1
 74
0
 49
-0.05
 74
0
  0
LTYPE
  5
1F8
100
AcDbSymbolTableRecord
100
AcDbLinetypeTableRecord
  2
DOT
 70
64
  3
. . . . . . . . . . . . . . . . . . . .
 72
65
 73
2
 40
0.2
 49
0.1
 74
0
 49
-0.1
 74
0
  0
LTYPE
  5
1F9
100
AcDbSymbolTableRecord
100
AcDbLinetypeTableRecord
  2
DASHED
 70
64
  3
- - - - - - - - - - - - - - - - - - - -
 72
65
 73
2
 40
0.2
 49
0.1
 74
0
 49
-0.1
 74
0
  0
ENDTAB
  0
TABLE
  2
LAYER
  5
2
100
AcDbSymbolTable
 70
36
  0
LAYER
  5
10
100
AcDbSymbolTableRecord
100
AcDbLayerTableRecord
  2
0
 70
0
 62
7
  6
CONTINUOUS
370
-3
390
F
  0
LAYER
  5
1FA
100
AcDbSymbolTableRecord
100
AcDbLayerTableRecord
  2
DEFAULT_1
 70
0
 62
7
  6
CENTER
370
-3
390
F
  0
LAYER
  5
1FB
100
AcDbSymbolTableRecord
100
AcDbLayerTableRecord
  2
DEFAULT_2
 70
0
 62
8
  6
HIDDEN
370
-3
390
F
  0
LAYER
  5
1FC
100
AcDbSymbolTableRecord
100
AcDbLayerTableRecord
  2
DEFAULT_3
 70
0
 62
7
  6
PHANTOM
370
-3
390
F
  0
LAYER
  5
1FD
100
AcDbSymbolTableRecord
100
AcDbLayerTableRecord
  2
00_COMPONENTS
 70
0
 62
7
  6
CONTINUOUS
370
-3
390
F
  0
LAYER
  5
1FE
100
AcDbSymbolTableRecord
100
AcDbLayerTableRecord
  2
01_1_DEFAULT_DATUMS
 70
0
 62
7
  6
CONTINUOUS
370
-3
390
F
  0
LAYER
  5
1FF
100
AcDbSymbolTableRecord
100
AcDbLayerTableRecord
  2
01_PLANES
 70
0
 62
7
  6
CONTINUOUS
370
-3
390
F
  0
LAYER
  5
200
100
AcDbSymbolTableRecord
100
AcDbLayerTableRecord
  2
02_COORD_SYS
 70
0
 62
7
  6
CONTINUOUS
370
-3
390
F
  0
LAYER
  5
201
100
AcDbSymbolTableRecord
100
AcDbLayerTableRecord
  2
03_AXES
 70
0
 62
7
  6
CONTINUOUS
370
-3
390
F
  0
LAYER
  5
202
100
AcDbSymbolTableRecord
100
AcDbLayerTableRecord
  2
04_POINTS
 70
0
 62
7
  6
CONTINUOUS
370
-3
390
F
  0
LAYER
  5
203
100
AcDbSymbolTableRecord
100
AcDbLayerTableRecord
  2
05_CURVES
 70
0
 62
7
  6
CONTINUOUS
370
-3
390
F
  0
LAYER
  5
204
100
AcDbSymbolTableRecord
100
AcDbLayerTableRecord
  2
06_SURFS
 70
0
 62
7
  6
CONTINUOUS
370
-3
390
F
  0
LAYER
  5
205
100
AcDbSymbolTableRecord
100
AcDbLayerTableRecord
  2
07_COSMETICS
 70
0
 62
7
  6
CONTINUOUS
370
-3
390
F
  0
LAYER
  5
206
100
AcDbSymbolTableRecord
100
AcDbLayerTableRecord
  2
10_NOTES
 70
0
 62
7
  6
CONTINUOUS
370
-3
390
F
  0
LAYER
  5
207
100
AcDbSymbolTableRecord
100
AcDbLayerTableRecord
  2
11_NOTES_PUB
 70
0
 62
7
  6
CONTINUOUS
370
-3
390
F
  0
LAYER
  5
208
100
AcDbSymbolTableRecord
100
AcDbLayerTableRecord
  2
13_REF_GTOL
 70
0
 62
7
  6
CONTINUOUS
370
-3
390
F
  0
LAYER
  5
209
100
AcDbSymbolTableRecord
100
AcDbLayerTableRecord
  2
16_MISC
 70
0
 62
7
  6
CONTINUOUS
370
-3
390
F
  0
LAYER
  5
20A
100
AcDbSymbolTableRecord
100
AcDbLayerTableRecord
  2
17_NO_PRINT
 70
0
 62
7
  6
CONTINUOUS
370
-3
390
F
  0
LAYER
  5
20B
100
AcDbSymbolTableRecord
100
AcDbLayerTableRecord
  2
18_DATUM_CAMS_JOINTS
 70
0
 62
7
  6
CONTINUOUS
370
-3
390
F
  0
LAYER
  5
20C
100
AcDbSymbolTableRecord
100
AcDbLayerTableRecord
  2
19_DATUM_FUNCTIONAL
 70
0
 62
7
  6
CONTINUOUS
370
-3
390
F
  0
LAYER
  5
20D
100
AcDbSymbolTableRecord
100
AcDbLayerTableRecord
  2
20_DATUM_KINEMATIC_SCHEME
 70
0
 62
7
  6
CONTINUOUS
370
-3
390
F
  0
ENDTAB
  0
TABLE
  2
STYLE
  5
3
100
AcDbSymbolTable
 70
1
  0
STYLE
  5
11
100
AcDbSymbolTableRecord
100
AcDbTextStyleTableRecord
  2
STANDARD
 70
0
 40
0.0
 41
0.8
 50
0.0
 71
0
 42
0.2
  3
txt
  4

  0
STYLE
  5
20E
100
AcDbSymbolTableRecord
100
AcDbTextStyleTableRecord
  2
TEXTSTYLE_1
 70
0
 40
0.0
 41
0.8
 50
0.0
 71
0
 42
0.2
  3
gdt
  4

  0
ENDTAB
  0
TABLE
  2
VIEW
  5
6
100
AcDbSymbolTable
 70
0
  0
ENDTAB
  0
TABLE
  2
UCS
  5
7
100
AcDbSymbolTable
 70
0
  0
ENDTAB
  0
TABLE
  2
APPID
  5
9
100
AcDbSymbolTable
 70
1
  0
APPID
  5
20F
100
AcDbSymbolTableRecord
100
AcDbRegAppTableRecord
  2
ACAD
 70
0
  0
ENDTAB
  0
TABLE
  2
BLOCK_RECORD
  5
1
100
AcDbSymbolTable
 70
0
  0
BLOCK_RECORD
  5
210
100
AcDbSymbolTableRecord
100
AcDbBlockTableRecord
  2
*Model_Space
  0
BLOCK_RECORD
  5
211
100
AcDbSymbolTableRecord
100
AcDbBlockTableRecord
  2
*Paper_Space
  0
BLOCK_RECORD
  5
212
100
AcDbSymbolTableRecord
100
AcDbBlockTableRecord
  2
_FILLED
  0
ENDTAB
  0
TABLE
  2
DIMSTYLE
  5
A
100
AcDbSymbolTable
 70
1
100
AcDbDimStyleTable
 71
0
  0
DIMSTYLE
105
213
100
AcDbSymbolTableRecord
100
AcDbDimStyleTableRecord
  2
STANDARD
 70
0
  3

  4

 40
1.0
 41
2.863213156
 42
1.0
 43
0.38
 44
1.0
 45
0.0
 46
0.0
 47
0.01
 48
0.01
140
4.0084984184
141
0.09
142
0.0
143
25.4
144
1.0
145
0.0
146
1.0
147
0.625
 71
1
 72
0
 73
0
 74
0
 75
0
 76
0
 77
1
 78
8
 79
2
170
0
171
1
172
0
173
0
174
0
175
0
176
0
177
0
178
0
270
2
179
2
271
2
272
2
273
2
274
2
275
0
280
0
281
0
282
0
283
1
284
8
285
0
286
0
287
3
288
0
340
11
278
46
341
212
342
212
343
212
344
212
  0
ENDTAB
  0
ENDSEC
  0
SECTION
  2
BLOCKS
  0
BLOCK
  5
20
100
AcDbEntity
  8
0
100
AcDbBlockBegin
  2
*Model_Space
 70
0
 10
0.0
 20
0.0
 30
0.0
  3
*Model_Space
  1

  0
ENDBLK
  5
21
100
AcDbEntity
  8
0
100
AcDbBlockEnd
  0
BLOCK
  5
1C
100
AcDbEntity
  8
0
100
AcDbBlockBegin
  2
*Paper_Space
 70
0
 10
0.0
 20
0.0
 30
0.0
  3
*Paper_Space
  1

  0
ENDBLK
  5
1D
100
AcDbEntity
  8
0
100
AcDbBlockEnd
  0
BLOCK
  5
214
100
AcDbEntity
  8
0
100
AcDbBlockBegin
  2
_FILLED
 70
64
 10
0.0
 20
0.0
  3
_FILLED
  1

  0
SOLID
  5
215
100
AcDbEntity
  8
0
  6
BYBLOCK
 62
0
100
AcDbTrace
 10
0.0
 20
0.0
 11
-1.0
 21
0.25
 12
-1.0
 22
-0.25
 13
-1.0
 23
-0.25
  0
ENDBLK
  5
216
100
AcDbEntity
  8
0
  6
BYBLOCK
 62
0
100
AcDbBlockEnd
  0
ENDSEC
  0
SECTION
  2
ENTITIES
  0
LINE
  5
217
100
AcDbEntity
  8
0
100
AcDbLine
 62
7
  6
CONTINUOUS
 10
31.2582004811
 20
237.4223172211
 11
49.9006598333
 21
248.185481899
  0
LINE
  5
218
100
AcDbEntity
  8
0
100
AcDbLine
 62
7
  6
CONTINUOUS
 10
58.5480496144
 20
253.1780249154
 11
66.8901154858
 21
257.9942901427
  0
LINE
  5
219
100
AcDbEntity
  8
0
100
AcDbLine
 62
7
  6
CONTINUOUS
 10
70.2250643262
 20
259.9197122602
 11
71.7045399698
 21
260.7738828225
  0
LINE
  5
21A
100
AcDbEntity
  8
0
100
AcDbLine
 62
7
  6
CONTINUOUS
 10
31.2582004811
 20
237.4223172211
 11
30.5862294127
 21
232.9112566189
  0
LINE
  5
21B
100
AcDbEntity
  8
0
100
AcDbLine
 62
7
  6
CONTINUOUS
 10
48.3354662315
 20
242.9740599088
 11
46.0791691659
 21
238.1124039443
  0
LINE
  5
21C
100
AcDbEntity
  8
0
100
AcDbLine
 62
7
  6
CONTINUOUS
 10
33.2025353958
 20
236.2997803299
 11
35.677398826
 21
237.7286348685
  0
LINE
  5
21D
100
AcDbEntity
  8
0
100
AcDbLine
 62
7
  6
CONTINUOUS
 10
30.0998505114
 20
233.1920612558
 11
30.6777596459
 21
233.5257152585
  0
LINE
  5
21E
100
AcDbEntity
  8
0
100
AcDbLine
 62
7
  6
CONTINUOUS
 10
33.2025353958
 20
233.8502730785
 11
34.7987280015
 21
234.7718298081
  0
LINE
  5
21F
100
AcDbEntity
  8
0
100
AcDbLine
 62
7
  6
CONTINUOUS
 10
39.9200571769
 20
235.2791903413
 11
37.4451937467
 21
233.8503358028
  0
LINE
  5
220
100
AcDbEntity
  8
0
100
AcDbLine
 62
7
  6
CONTINUOUS
 10
33.2025353958
 20
236.2997803299
 11
33.2025353958
 21
233.8502730785
  0
LINE
  5
221
100
AcDbEntity
  8
0
100
AcDbLine
 62
7
  6
CONTINUOUS
 10
33.2025353958
 20
231.4007658271
 11
33.2025353958
 21
163.4677647219
  0
LINE
  5
222
100
AcDbEntity
  8
0
100
AcDbLine
 62
7
  6
CONTINUOUS
 10
34.7987280015
 20
235.3608092209
 11
34.7987280015
 21
234.0544053535
  0
LINE
  5
223
100
AcDbEntity
  8
0
100
AcDbLine
 62
7
  6
CONTINUOUS
 10
35.677398826
 20
237.7286348685
 11
35.677398826
 21
236.5855314845
  0
LINE
  5
224
100
AcDbEntity
  8
0
100
AcDbLine
 62
7
  6
CONTINUOUS
 10
65.3059583246
 20
252.7719196017
 11
63.049661259
 21
247.9102636372
  0
LINE
  5
225
100
AcDbEntity
  8
0
100
AcDbLine
 62
7
  6
CONTINUOUS
 10
38.1169597614
 20
228.9717788093
 11
39.5311674358
 21
229.788267117
  0
LINE
  5
226
100
AcDbEntity
  8
0
100
AcDbLine
 62
7
  6
CONTINUOUS
 10
77.0431764367
 20
243.6484687445
 11
67.850826553
 21
238.3412947442
  0
LINE
  5
227
100
AcDbEntity
  8
0
100
AcDbLine
 62
7
  6
CONTINUOUS
 10
37.4451937467
 20
233.8503358028
 11
37.4451937467
 21
231.4008285514
  0
LINE
  5
228
100
AcDbEntity
  8
0
100
AcDbLine
 62
7
  6
CONTINUOUS
 10
38.1169597614
 20
228.9717788093
 11
38.1169597614
 21
208.3142676559
  0
LINE
  5
229
100
AcDbEntity
  8
0
100
AcDbLine
 62
7
  6
CONTINUOUS
 10
43.9859528163
 20
215.9134015285
 11
43.9859528163
 21
217.734087258
  0
LINE
  5
22A
100
AcDbEntity
  8
0
100
AcDbLine
 62
7
  6
CONTINUOUS
 10
63.4658534351
 20
235.4227577722
 11
65.7221505007
 21
240.2844137367
  0
LINE
  5
22B
100
AcDbEntity
  8
0
100
AcDbLine
 62
7
  6
CONTINUOUS
 10
65.7221505007
 20
237.8349064853
 11
63.4658534351
 21
232.9732505208
  0
LINE
  5
22C
100
AcDbEntity
  8
0
100
AcDbLine
 62
7
  6
CONTINUOUS
 10
49.8187231061
 20
209.0815640256
 11
52.0584351234
 21
211.118049793
  0
LINE
  5
22D
100
AcDbEntity
  8
0
100
AcDbLine
 62
7
  6
CONTINUOUS
 10
67.8508353849
 20
232.2174964414
 11
65.0223964843
 21
230.5845062284
  0
LINE
  5
22E
100
AcDbEntity
  8
0
100
AcDbLine
 62
7
  6
CONTINUOUS
 10
44.6382244498
 20
218.1106742132
 11
43.9859528163
 21
217.734087258
  0
LINE
  5
22F
100
AcDbEntity
  8
0
100
AcDbLine
 62
7
  6
CONTINUOUS
 10
42.3395431284
 20
214.962852126
 11
45.5215103958
 21
216.7999508184
  0
LINE
  5
230
100
AcDbEntity
  8
0
100
AcDbLine
 62
7
  6
CONTINUOUS
 10
41.1753343347
 20
213.7133504701
 11
42.5895420092
 21
214.5298387779
  0
LINE
  5
231
100
AcDbEntity
  8
0
100
AcDbLine
 62
7
  6
CONTINUOUS
 10
46.0791691659
 20
238.1124039443
 11
46.0791691659
 21
235.6628966929
  0
LINE
  5
232
100
AcDbEntity
  8
0
100
AcDbLine
 62
7
  6
CONTINUOUS
 10
46.4545054645
 20
234.8541843979
 11
46.4545054645
 21
237.3036916492
  0
LINE
  5
233
100
AcDbEntity
  8
0
100
AcDbLine
 62
7
  6
CONTINUOUS
 10
48.4006598333
 20
239.1984088405
 11
48.4006598333
 21
241.6479160919
  0
LINE
  5
234
100
AcDbEntity
  8
0
100
AcDbLine
 62
7
  6
CONTINUOUS
 10
49.9006598333
 20
241.6479160919
 11
49.9006598333
 21
249.8129402632
  0
LINE
  5
235
100
AcDbEntity
  8
0
100
AcDbLine
 62
7
  6
CONTINUOUS
 10
50.6506598333
 20
249.8129402632
 11
50.6506598333
 21
250.6294426803
  0
LINE
  5
236
100
AcDbEntity
  8
0
100
AcDbLine
 62
7
  6
CONTINUOUS
 10
51.0570500678
 20
213.6516797128
 11
51.0570500678
 21
210.2075280841
  0
LINE
  5
237
100
AcDbEntity
  8
0
100
AcDbLine
 62
7
  6
CONTINUOUS
 10
52.4712577422
 20
211.4765764117
 11
52.4712577422
 21
213.7442379435
  0
LINE
  5
238
100
AcDbEntity
  8
0
100
AcDbLine
 62
7
  6
CONTINUOUS
 10
52.6189451323
 20
233.7447312621
 11
52.6189451323
 21
231.2952240107
  0
LINE
  5
239
100
AcDbEntity
  8
0
100
AcDbLine
 62
7
  6
CONTINUOUS
 10
80.4363455283
 20
245.2206174651
 11
82.6926425939
 21
250.0822734296
  0
LINE
  5
23A
100
AcDbEntity
  8
0
100
AcDbLine
 62
7
  6
CONTINUOUS
 10
79.8716918805
 20
231.4012019174
 11
89.0640417642
 21
236.7083759177
  0
LINE
  5
23B
100
AcDbEntity
  8
0
100
AcDbLine
 62
7
  6
CONTINUOUS
 10
51.8443069422
 20
214.106199968
 11
51.0570500678
 21
213.6516797128
  0
LINE
  5
23C
100
AcDbEntity
  8
0
100
AcDbLine
 62
7
  6
CONTINUOUS
 10
44.6753186656
 20
207.6511635971
 11
46.0895263401
 21
208.4676519049
  0
LINE
  5
23D
100
AcDbEntity
  8
0
100
AcDbLine
 62
7
  6
CONTINUOUS
 10
54.3191909802
 20
212.6773573272
 11
53.0401944462
 21
211.9389327418
  0
LINE
  5
23E
100
AcDbEntity
  8
0
100
AcDbLine
 62
7
  6
CONTINUOUS
 10
46.3395252209
 20
208.0346385568
 11
49.5214924883
 21
209.8717372492
  0
LINE
  5
23F
100
AcDbEntity
  8
0
100
AcDbLine
 62
7
  6
CONTINUOUS
 10
45.4001899304
 20
206.3955946523
 11
48.9357091165
 21
208.4368154216
  0
LINE
  5
240
100
AcDbEntity
  8
0
100
AcDbLine
 62
7
  6
CONTINUOUS
 10
54.0196990663
 20
231.0785333296
 11
54.0196990663
 21
233.5280405809
  0
LINE
  5
241
100
AcDbEntity
  8
0
100
AcDbLine
 62
7
  6
CONTINUOUS
 10
61.1506598333
 20
249.8129402632
 11
61.1506598333
 21
250.6294426803
  0
LINE
  5
242
100
AcDbEntity
  8
0
100
AcDbLine
 62
7
  6
CONTINUOUS
 10
61.9006598333
 20
241.6479160919
 11
61.9006598333
 21
249.8129402632
  0
LINE
  5
243
100
AcDbEntity
  8
0
100
AcDbLine
 62
7
  6
CONTINUOUS
 10
62.0172390317
 20
205.9653262257
 11
62.0172390317
 21
208.2329877575
  0
LINE
  5
244
100
AcDbEntity
  8
0
100
AcDbLine
 62
7
  6
CONTINUOUS
 10
82.6926425939
 20
247.6327661782
 11
80.488715873
 21
242.8839528897
  0
LINE
  5
245
100
AcDbEntity
  8
0
100
AcDbLine
 62
7
  6
CONTINUOUS
 10
59.3647043956
 20
203.5703138395
 11
61.6044164129
 21
205.606799607
  0
LINE
  5
246
100
AcDbEntity
  8
0
100
AcDbLine
 62
7
  6
CONTINUOUS
 10
51.3248664236
 20
207.973209013
 11
51.7979309664
 21
208.2463313238
  0
LINE
  5
247
100
AcDbEntity
  8
0
100
AcDbLine
 62
7
  6
CONTINUOUS
 10
79.8716918805
 20
223.2361777461
 11
89.0640417642
 21
228.5433517464
  0
LINE
  5
248
100
AcDbEntity
  8
0
100
AcDbLine
 62
7
  6
CONTINUOUS
 10
80.5788104375
 20
221.603209629
 11
91.8924718329
 21
228.1351160909
  0
LINE
  5
249
100
AcDbEntity
  8
0
100
AcDbLine
 62
7
  6
CONTINUOUS
 10
61.3902882316
 20
208.594949782
 11
60.1112916977
 21
207.8565251966
  0
LINE
  5
24A
100
AcDbEntity
  8
0
100
AcDbLine
 62
7
  6
CONTINUOUS
 10
80.5788104375
 20
219.5619535861
 11
91.8924718329
 21
226.0938600481
  0
LINE
  5
24B
100
AcDbEntity
  8
0
100
AcDbLine
 62
7
  6
CONTINUOUS
 10
54.324852993
 20
202.7770488361
 11
54.8401958929
 21
203.0745804221
  0
LINE
  5
24C
100
AcDbEntity
  8
0
100
AcDbLine
 62
7
  6
CONTINUOUS
 10
63.8651722697
 20
207.1661071412
 11
62.5861757357
 21
206.4276825558
  0
LINE
  5
24D
100
AcDbEntity
  8
0
100
AcDbLine
 62
7
  6
CONTINUOUS
 10
74.9220091795
 20
212.2135758132
 11
77.3968726097
 21
213.6424303518
  0
LINE
  5
24E
100
AcDbEntity
  8
0
100
AcDbLine
 62
7
  6
CONTINUOUS
 10
112.8934852378
 20
234.1362868761
 11
115.3683486681
 21
235.5651414147
  0
LINE
  5
24F
100
AcDbEntity
  8
0
100
AcDbLine
 62
7
  6
CONTINUOUS
 10
142.1750111334
 20
107.8285327555
 11
131.4199259433
 21
106.7631479545
  0
LINE
  5
250
100
AcDbEntity
  8
0
100
AcDbLine
 62
7
  6
CONTINUOUS
 10
62.4404357997
 20
234.8307361583
 11
62.4404357997
 21
232.3812289069
  0
LINE
  5
251
100
AcDbEntity
  8
0
100
AcDbLine
 62
7
  6
CONTINUOUS
 10
63.049661259
 20
247.9102636372
 11
63.049661259
 21
245.4607563858
  0
LINE
  5
252
100
AcDbEntity
  8
0
100
AcDbLine
 62
7
  6
CONTINUOUS
 10
63.4006598333
 20
239.1984088405
 11
63.4006598333
 21
241.6479160919
  0
LINE
  5
253
100
AcDbEntity
  8
0
100
AcDbLine
 62
7
  6
CONTINUOUS
 10
63.4249975576
 20
244.6520440908
 11
63.4249975576
 21
247.1015513422
  0
LINE
  5
254
100
AcDbEntity
  8
0
100
AcDbLine
 62
7
  6
CONTINUOUS
 10
63.4658534351
 20
232.9732505208
 11
63.4658534351
 21
235.4227577722
  0
LINE
  5
255
100
AcDbEntity
  8
0
100
AcDbLine
 62
7
  6
CONTINUOUS
 10
65.0223964843
 20
230.5845062284
 11
65.0223964843
 21
228.5432501856
  0
LINE
  5
256
100
AcDbEntity
  8
0
100
AcDbLine
 62
7
  6
CONTINUOUS
 10
65.3711519264
 20
248.9962685334
 11
65.3711519264
 21
251.0375245762
  0
LINE
  5
257
100
AcDbEntity
  8
0
100
AcDbLine
 62
7
  6
CONTINUOUS
 10
65.7221505007
 20
240.2844137367
 11
65.7221505007
 21
237.8349064853
  0
LINE
  5
258
100
AcDbEntity
  8
0
100
AcDbLine
 62
7
  6
CONTINUOUS
 10
65.9876170545
 20
224.2582404443
 11
65.9876170545
 21
222.2169844015
  0
LINE
  5
259
100
AcDbEntity
  8
0
100
AcDbLine
 62
7
  6
CONTINUOUS
 10
66.0831376151
 20
188.249141011
 11
66.0831376151
 21
144.4845696368
  0
LINE
  5
25A
100
AcDbEntity
  8
0
100
AcDbLine
 62
7
  6
CONTINUOUS
 10
66.1211519264
 20
251.0375245762
 11
66.1211519264
 21
256.3447902876
  0
LINE
  5
25B
100
AcDbEntity
  8
0
100
AcDbLine
 62
7
  6
CONTINUOUS
 10
66.972188112
 20
225.7672851806
 11
66.972188112
 21
224.4608813132
  0
LINE
  5
25C
100
AcDbEntity
  8
0
100
AcDbLine
 62
7
  6
CONTINUOUS
 10
67.850826553
 20
238.3412947442
 11
67.8508353849
 21
228.9515432103
  0
LINE
  5
25D
100
AcDbEntity
  8
0
100
AcDbLine
 62
7
  6
CONTINUOUS
 10
68.8711519264
 20
256.3447902876
 11
68.8711519264
 21
257.9777951218
  0
LINE
  5
25E
100
AcDbEntity
  8
0
100
AcDbLine
 62
7
  6
CONTINUOUS
 10
69.4031109863
 20
245.1569357944
 11
69.4031109863
 21
247.1981918372
  0
LINE
  5
25F
100
AcDbEntity
  8
0
100
AcDbLine
 62
7
  6
CONTINUOUS
 10
69.5894372254
 20
243.542590955
 11
69.5894372254
 21
241.0930837036
  0
LINE
  5
260
100
AcDbEntity
  8
0
100
AcDbLine
 62
7
  6
CONTINUOUS
 10
69.6212319925
 20
220.119163298
 11
69.6212319925
 21
222.1604193408
  0
LINE
  5
261
100
AcDbEntity
  8
0
100
AcDbLine
 62
7
  6
CONTINUOUS
 10
70.9901911594
 20
240.8763930225
 11
70.9901911594
 21
243.3259002739
  0
LINE
  5
262
100
AcDbEntity
  8
0
100
AcDbLine
 62
7
  6
CONTINUOUS
 10
66.0831376151
 20
186.2894933938
 11
66.9316911909
 21
187.7592394587
  0
LINE
  5
263
100
AcDbEntity
  8
0
100
AcDbLine
 62
7
  6
CONTINUOUS
 10
71.7753826784
 20
209.5395188941
 11
73.1895903528
 21
210.3560072018
  0
LINE
  5
264
100
AcDbEntity
  8
0
100
AcDbLine
 62
7
  6
CONTINUOUS
 10
60.8708477131
 20
202.461958827
 11
61.3439122559
 21
202.7350811378
  0
LINE
  5
265
100
AcDbEntity
  8
0
100
AcDbLine
 62
7
  6
CONTINUOUS
 10
74.9220091795
 20
209.7640685618
 11
76.5182017851
 21
210.6856252914
  0
LINE
  5
266
100
AcDbEntity
  8
0
100
AcDbLine
 62
7
  6
CONTINUOUS
 10
84.1143973348
 20
212.213597909
 11
115.3683869397
 21
230.2579895101
  0
LINE
  5
267
100
AcDbEntity
  8
0
100
AcDbLine
 62
7
  6
CONTINUOUS
 10
81.6395339046
 20
208.3352361191
 11
84.1143973348
 21
209.7640906576
  0
LINE
  5
268
100
AcDbEntity
  8
0
100
AcDbLine
 62
7
  6
CONTINUOUS
 10
115.3683869397
 20
227.8084822587
 11
117.8432503699
 21
229.2373367973
  0
LINE
  5
269
100
AcDbEntity
  8
0
100
AcDbLine
 62
7
  6
CONTINUOUS
 10
82.9123208115
 20
208.6618243875
 11
116.5704634629
 21
228.0942461117
  0
LINE
  5
26A
100
AcDbEntity
  8
0
100
AcDbLine
 62
7
  6
CONTINUOUS
 10
63.8708342824
 20
197.2657986501
 11
64.3861771824
 21
197.5633302361
  0
LINE
  5
26B
100
AcDbEntity
  8
0
100
AcDbLine
 62
7
  6
CONTINUOUS
 10
117.9846829132
 20
227.2777646027
 11
84.3265402618
 21
207.8453428784
  0
LINE
  5
26C
100
AcDbEntity
  8
0
100
AcDbLine
 62
7
  6
CONTINUOUS
 10
30.6319295169
 20
163.9372336467
 11
66.7044745773
 21
143.1112111933
  0
LINE
  5
26D
100
AcDbEntity
  8
0
100
AcDbLine
 62
7
  6
CONTINUOUS
 10
71.7135959228
 20
247.1981973909
 11
71.7135959228
 21
252.5054631023
  0
LINE
  5
26E
100
AcDbEntity
  8
0
100
AcDbLine
 62
7
  6
CONTINUOUS
 10
71.7753826784
 20
188.8820077407
 11
71.7753826784
 21
209.5395188941
  0
LINE
  5
26F
100
AcDbEntity
  8
0
100
AcDbLine
 62
7
  6
CONTINUOUS
 10
72.972188112
 20
225.7672851806
 11
72.972188112
 21
224.4608813132
  0
LINE
  5
270
100
AcDbEntity
  8
0
100
AcDbLine
 62
7
  6
CONTINUOUS
 10
73.1542348666
 20
182.2070858486
 11
73.1542348666
 21
140.4021620916
  0
LINE
  5
271
100
AcDbEntity
  8
0
100
AcDbLine
 62
7
  6
CONTINUOUS
 10
73.1895903528
 20
210.3560072018
 11
73.1895903528
 21
189.6984960485
  0
LINE
  5
272
100
AcDbEntity
  8
0
100
AcDbLine
 62
7
  6
CONTINUOUS
 10
74.0287633033
 20
252.5054686673
 11
74.0287633033
 21
247.1982029559
  0
LINE
  5
273
100
AcDbEntity
  8
0
100
AcDbLine
 62
7
  6
CONTINUOUS
 10
74.9220091795
 20
212.2135758132
 11
74.9220091795
 21
209.7640685618
  0
LINE
  5
274
100
AcDbEntity
  8
0
100
AcDbLine
 62
7
  6
CONTINUOUS
 10
76.3392482398
 20
247.1982085096
 11
76.3392482398
 21
245.1569524668
  0
LINE
  5
275
100
AcDbEntity
  8
0
100
AcDbLine
 62
7
  6
CONTINUOUS
 10
76.5182017851
 20
211.2746047042
 11
76.5182017851
 21
209.9682008368
  0
LINE
  5
276
100
AcDbEntity
  8
0
100
AcDbLine
 62
7
  6
CONTINUOUS
 10
76.8711519264
 20
256.3447902876
 11
76.8711519264
 21
257.9777951218
  0
LINE
  5
277
100
AcDbEntity
  8
0
100
AcDbLine
 62
7
  6
CONTINUOUS
 10
77.3968726097
 20
213.6424303518
 11
77.3968726097
 21
212.4993269678
  0
LINE
  5
278
100
AcDbEntity
  8
0
100
AcDbLine
 62
7
  6
CONTINUOUS
 10
77.3968932175
 20
208.335225921
 11
77.3968932175
 21
182.7787002648
  0
LINE
  5
279
100
AcDbEntity
  8
0
100
AcDbLine
 62
7
  6
CONTINUOUS
 10
77.7503715369
 20
231.4011968183
 11
77.7503715369
 21
223.236172647
  0
LINE
  5
27A
100
AcDbEntity
  8
0
100
AcDbLine
 62
7
  6
CONTINUOUS
 10
79.4109278929
 20
244.6285958512
 11
79.4109278929
 21
243.506199993
  0
LINE
  5
27B
100
AcDbEntity
  8
0
100
AcDbLine
 62
7
  6
CONTINUOUS
 10
79.6211519264
 20
251.0375245762
 11
79.6211519264
 21
256.3447902876
  0
LINE
  5
27C
100
AcDbEntity
  8
0
100
AcDbLine
 62
7
  6
CONTINUOUS
 10
74.4623937144
 20
184.4728960151
 11
73.1542348666
 21
182.2070858486
  0
LINE
  5
27D
100
AcDbEntity
  8
0
100
AcDbLine
 62
7
  6
CONTINUOUS
 10
82.9123208115
 20
206.6205683446
 11
81.6395339046
 21
205.8857288677
  0
LINE
  5
27E
100
AcDbEntity
  8
0
100
AcDbLine
 62
7
  6
CONTINUOUS
 10
65.1384725448
 20
195.7462450992
 11
64.4921525094
 21
195.3730942802
  0
LINE
  5
27F
100
AcDbEntity
  8
0
100
AcDbLine
 62
7
  6
CONTINUOUS
 10
110.7015133899
 20
216.1325792722
 11
91.6097097851
 21
205.1099871177
  0
LINE
  5
280
100
AcDbEntity
  8
0
100
AcDbLine
 62
7
  6
CONTINUOUS
 10
54.5316353239
 20
200.9185118861
 11
55.8521080974
 21
201.3404526379
  0
LINE
  5
281
100
AcDbEntity
  8
0
100
AcDbLine
 62
7
  6
CONTINUOUS
 10
176.9328395341
 20
80.4288545549
 11
172.8316031282
 21
82.7966509311
  0
LINE
  5
282
100
AcDbEntity
  8
0
100
AcDbLine
 62
7
  6
CONTINUOUS
 10
91.5390700566
 20
129.7878499478
 11
29.8028194592
 21
165.430547229
  0
LINE
  5
283
100
AcDbEntity
  8
0
100
AcDbLine
 62
7
  6
CONTINUOUS
 10
93.3068620333
 20
128.7673005877
 11
131.4199259433
 21
106.7631479545
  0
LINE
  5
284
100
AcDbEntity
  8
0
100
AcDbLine
 62
7
  6
CONTINUOUS
 10
93.3068620333
 20
129.093897373
 11
89.2056244498
 21
131.461694429
  0
LINE
  5
285
100
AcDbEntity
  8
0
100
AcDbLine
 62
7
  6
CONTINUOUS
 10
175.8972779304
 20
82.717785294
 11
171.7960415246
 21
85.0855816702
  0
LINE
  5
286
100
AcDbEntity
  8
0
100
AcDbLine
 62
7
  6
CONTINUOUS
 10
142.1750111334
 20
107.8285327555
 11
133.7535383117
 21
112.6908113733
  0
LINE
  5
287
100
AcDbEntity
  8
0
100
AcDbLine
 62
7
  6
CONTINUOUS
 10
134.5819875946
 20
112.2397104595
 11
171.7960415246
 21
90.7546524623
  0
LINE
  5
288
100
AcDbEntity
  8
0
100
AcDbLine
 62
7
  6
CONTINUOUS
 10
171.7960415246
 20
92.1075024575
 11
133.7535383117
 21
114.0708550507
  0
LINE
  5
289
100
AcDbEntity
  8
0
100
AcDbLine
 62
7
  6
CONTINUOUS
 10
65.9876170545
 20
222.2169844015
 11
65.0223964843
 21
228.5432501856
  0
LINE
  5
28A
100
AcDbEntity
  8
0
100
AcDbLine
 62
7
  6
CONTINUOUS
 10
65.0223964843
 20
230.5845062284
 11
65.9876170545
 21
224.2582404443
  0
LINE
  5
28B
100
AcDbEntity
  8
0
100
AcDbLine
 62
7
  6
CONTINUOUS
 10
79.8716918805
 20
231.4012019174
 11
79.8716918805
 21
223.2361777461
  0
LINE
  5
28C
100
AcDbEntity
  8
0
100
AcDbLine
 62
7
  6
CONTINUOUS
 10
80.3711519264
 20
248.9962685334
 11
80.3711519264
 21
251.0375245762
  0
LINE
  5
28D
100
AcDbEntity
  8
0
100
AcDbLine
 62
7
  6
CONTINUOUS
 10
80.4363455283
 20
242.9141882383
 11
80.4363455283
 21
245.2206174651
  0
LINE
  5
28E
100
AcDbEntity
  8
0
100
AcDbLine
 62
7
  6
CONTINUOUS
 10
80.5788104375
 20
221.603209629
 11
80.5788104375
 21
219.5619535861
  0
LINE
  5
28F
100
AcDbEntity
  8
0
100
AcDbLine
 62
7
  6
CONTINUOUS
 10
81.6395132968
 20
212.4993371658
 11
81.6395132968
 21
213.6424405498
  0
LINE
  5
290
100
AcDbEntity
  8
0
100
AcDbLine
 62
7
  6
CONTINUOUS
 10
81.6395339046
 20
182.7787104629
 11
81.6395339046
 21
208.3352361191
  0
LINE
  5
291
100
AcDbEntity
  8
0
100
AcDbLine
 62
7
  6
CONTINUOUS
 10
82.5182017851
 20
211.2746047042
 11
82.5182017851
 21
209.9682008368
  0
LINE
  5
292
100
AcDbEntity
  8
0
100
AcDbLine
 62
7
  6
CONTINUOUS
 10
82.678965947
 20
189.3392654984
 11
82.678965947
 21
206.485841655
  0
LINE
  5
293
100
AcDbEntity
  8
0
100
AcDbLine
 62
7
  6
CONTINUOUS
 10
82.6926425939
 20
250.0822734296
 11
82.6926425939
 21
247.6327661782
  0
LINE
  5
294
100
AcDbEntity
  8
0
100
AcDbLine
 62
7
  6
CONTINUOUS
 10
82.9123208115
 20
188.0043132341
 11
82.9123208115
 21
208.6618243875
  0
LINE
  5
295
100
AcDbEntity
  8
0
100
AcDbLine
 62
7
  6
CONTINUOUS
 10
84.1143973348
 20
212.213597909
 11
84.1143973348
 21
209.7640906576
  0
LINE
  5
296
100
AcDbEntity
  8
0
100
AcDbLine
 62
7
  6
CONTINUOUS
 10
84.3265402618
 20
207.8453428784
 11
84.3265402618
 21
187.187831725
  0
LINE
  5
297
100
AcDbEntity
  8
0
100
AcDbLine
 62
7
  6
CONTINUOUS
 10
89.4883806097
 20
195.9051135581
 11
89.5407057754
 21
195.9702071647
  0
LINE
  5
298
100
AcDbEntity
  8
0
100
AcDbLine
 62
7
  6
CONTINUOUS
 10
73.1895903528
 20
189.6984960485
 11
71.7753826784
 21
188.8820077407
  0
LINE
  5
299
100
AcDbEntity
  8
0
100
AcDbLine
 62
7
  6
CONTINUOUS
 10
72.1954529276
 20
187.5011235287
 11
70.7812452532
 21
186.6846352209
  0
LINE
  5
29A
100
AcDbEntity
  8
0
100
AcDbLine
 62
7
  6
CONTINUOUS
 10
97.1092108966
 20
200.936514311
 11
96.2621815276
 21
200.4474845958
  0
LINE
  5
29B
100
AcDbEntity
  8
0
100
AcDbLine
 62
7
  6
CONTINUOUS
 10
88.5410834266
 20
195.989733138
 11
88.0741611594
 21
195.7201570505
  0
LINE
  5
29C
100
AcDbEntity
  8
0
100
AcDbLine
 62
7
  6
CONTINUOUS
 10
91.6097097851
 20
193.6789532779
 11
101.3414100024
 21
199.2975194797
  0
LINE
  5
29D
100
AcDbEntity
  8
0
100
AcDbLine
 62
7
  6
CONTINUOUS
 10
105.8575750737
 20
201.9049130352
 11
110.7015133899
 21
204.7015454324
  0
LINE
  5
29E
100
AcDbEntity
  8
0
100
AcDbLine
 62
7
  6
CONTINUOUS
 10
64.0776166134
 20
195.4072617001
 11
65.3980893868
 21
195.8292024519
  0
LINE
  5
29F
100
AcDbEntity
  8
0
100
AcDbLine
 62
7
  6
CONTINUOUS
 10
183.6206597626
 20
92.0122675968
 11
184.7520353228
 21
91.3590823896
  0
LINE
  5
2A0
100
AcDbEntity
  8
0
100
AcDbLine
 62
7
  6
CONTINUOUS
 10
47.4691866746
 20
208.6868450081
 11
47.5215014421
 21
208.6217651306
  0
LINE
  5
2A1
100
AcDbEntity
  8
0
100
AcDbLine
 62
7
  6
CONTINUOUS
 10
89.0640417642
 20
228.5433517464
 11
89.0640329323
 21
237.9331032803
  0
LINE
  5
2A2
100
AcDbEntity
  8
0
100
AcDbLine
 62
7
  6
CONTINUOUS
 10
89.417758545
 20
172.8175484946
 11
89.417758545
 21
131.0126247376
  0
LINE
  5
2A3
100
AcDbEntity
  8
0
100
AcDbLine
 62
7
  6
CONTINUOUS
 10
89.9426802052
 20
235.5651448735
 11
89.9426802052
 21
234.2587410061
  0
LINE
  5
2A4
100
AcDbEntity
  8
0
100
AcDbLine
 62
7
  6
CONTINUOUS
 10
91.8924718329
 20
228.1351160909
 11
91.8924718329
 21
226.0938600481
  0
LINE
  5
2A5
100
AcDbEntity
  8
0
100
AcDbLine
 62
7
  6
CONTINUOUS
 10
93.0238997958
 20
205.0174526823
 11
93.0238997958
 21
203.1967817169
  0
LINE
  5
2A6
100
AcDbEntity
  8
0
100
AcDbLine
 62
7
  6
CONTINUOUS
 10
93.3068620333
 20
128.7673005877
 11
93.3068620333
 21
170.5722243448
  0
LINE
  5
2A7
100
AcDbEntity
  8
0
100
AcDbLine
 62
7
  6
CONTINUOUS
 10
94.0845437757
 20
206.5388246593
 11
94.0845437757
 21
202.5844324827
  0
LINE
  5
2A8
100
AcDbEntity
  8
0
100
AcDbLine
 62
7
  6
CONTINUOUS
 10
91.5390700566
 20
176.4917882076
 11
89.417758545
 21
172.8175484946
  0
LINE
  5
2A9
100
AcDbEntity
  8
0
100
AcDbLine
 62
7
  6
CONTINUOUS
 10
93.3068620333
 20
170.5722243448
 11
95.4281735449
 21
174.2464640578
  0
LINE
  5
2AA
100
AcDbEntity
  8
0
100
AcDbLine
 62
7
  6
CONTINUOUS
 10
117.8432503699
 20
203.6808111411
 11
116.8785158976
 21
203.1238247586
  0
LINE
  5
2AB
100
AcDbEntity
  8
0
100
AcDbLine
 62
7
  6
CONTINUOUS
 10
85.4326863645
 20
184.9686749844
 11
81.6395339046
 21
182.7787104629
  0
LINE
  5
2AC
100
AcDbEntity
  8
0
100
AcDbLine
 62
7
  6
CONTINUOUS
 10
87.7206386805
 20
185.2281920614
 11
114.5905844946
 21
200.7414699085
  0
LINE
  5
2AD
100
AcDbEntity
  8
0
100
AcDbLine
 62
7
  6
CONTINUOUS
 10
51.0570500678
 20
213.6516797128
 11
49.6935047256
 21
215.3479381148
  0
LINE
  5
2AE
100
AcDbEntity
  8
0
100
AcDbLine
 62
7
  6
CONTINUOUS
 10
103.095207277
 20
237.3206253621
 11
103.095207277
 21
234.4628669021
  0
LINE
  5
2AF
100
AcDbEntity
  8
0
100
AcDbLine
 62
7
  6
CONTINUOUS
 10
103.6304455781
 20
212.0501207366
 11
103.6304455781
 21
209.7824362105
  0
LINE
  5
2B0
100
AcDbEntity
  8
0
100
AcDbLine
 62
7
  6
CONTINUOUS
 10
127.742786522
 20
197.3938888858
 11
91.5390700566
 21
176.4917882076
  0
LINE
  5
2B1
100
AcDbEntity
  8
0
100
AcDbLine
 62
7
  6
CONTINUOUS
 10
95.4281735449
 20
174.2464640578
 11
131.6318900103
 21
195.148564736
  0
LINE
  5
2B2
100
AcDbEntity
  8
0
100
AcDbLine
 62
7
  6
CONTINUOUS
 10
131.4199259433
 20
153.4670862143
 11
142.1750111334
 21
154.5324710153
  0
LINE
  5
2B3
100
AcDbEntity
  8
0
100
AcDbLine
 62
7
  6
CONTINUOUS
 10
133.7535383117
 20
138.5659275646
 11
171.7960415246
 21
116.6025749714
  0
LINE
  5
2B4
100
AcDbEntity
  8
0
100
AcDbLine
 62
7
  6
CONTINUOUS
 10
195.0018614108
 20
109.1127035742
 11
208.0126803535
 21
101.601073691
  0
LINE
  5
2B5
100
AcDbEntity
  8
0
100
AcDbLine
 62
7
  6
CONTINUOUS
 10
91.8924718329
 20
228.1351160909
 11
90.9272512627
 21
234.461381875
  0
LINE
  5
2B6
100
AcDbEntity
  8
0
100
AcDbLine
 62
7
  6
CONTINUOUS
 10
111.095207277
 20
237.3206253621
 11
111.095207277
 21
234.4628669021
  0
LINE
  5
2B7
100
AcDbEntity
  8
0
100
AcDbLine
 62
7
  6
CONTINUOUS
 10
112.8934852378
 20
232.9931834921
 11
112.8934852378
 21
234.1362868761
  0
LINE
  5
2B8
100
AcDbEntity
  8
0
100
AcDbLine
 62
7
  6
CONTINUOUS
 10
171.7960415246
 20
123.1345106762
 11
136.5819536605
 21
143.4649138486
  0
LINE
  5
2B9
100
AcDbEntity
  8
0
100
AcDbLine
 62
7
  6
CONTINUOUS
 10
171.7960415246
 20
123.6244957587
 11
175.8972779304
 21
121.2566993825
  0
LINE
  5
2BA
100
AcDbEntity
  8
0
100
AcDbLine
 62
7
  6
CONTINUOUS
 10
137.2890574978
 20
143.8731580025
 11
171.8429978559
 21
123.9238825481
  0
LINE
  5
2BB
100
AcDbEntity
  8
0
100
AcDbLine
 62
7
  6
CONTINUOUS
 10
89.417758545
 20
172.8175484946
 11
66.0831376151
 21
186.2894933938
  0
LINE
  5
2BC
100
AcDbEntity
  8
0
100
AcDbLine
 62
7
  6
CONTINUOUS
 10
93.3068620333
 20
170.5722243448
 11
129.2986144317
 21
149.7928465013
  0
LINE
  5
2BD
100
AcDbEntity
  8
0
100
AcDbLine
 62
7
  6
CONTINUOUS
 10
41.5110864421
 20
202.435500432
 11
68.3812559977
 21
186.9223517602
  0
LINE
  5
2BE
100
AcDbEntity
  8
0
100
AcDbLine
 62
7
  6
CONTINUOUS
 10
77.3968932175
 20
182.7787002648
 11
70.7437946575
 21
186.6197816125
  0
LINE
  5
2BF
100
AcDbEntity
  8
0
100
AcDbLine
 62
7
  6
CONTINUOUS
 10
91.5390700566
 20
176.4917882076
 11
81.0117601108
 21
182.5695959403
  0
LINE
  5
2C0
100
AcDbEntity
  8
0
100
AcDbLine
 62
7
  6
CONTINUOUS
 10
95.4281735449
 20
174.2464640578
 11
131.4199259433
 21
153.4670862143
  0
LINE
  5
2C1
100
AcDbEntity
  8
0
100
AcDbLine
 62
7
  6
CONTINUOUS
 10
175.0956145956
 20
129.5577519412
 11
140.5417351489
 21
149.5069922291
  0
LINE
  5
2C2
100
AcDbEntity
  8
0
100
AcDbLine
 62
7
  6
CONTINUOUS
 10
179.4327971165
 20
127.3804322375
 11
175.3315607107
 21
129.7482286137
  0
LINE
  5
2C3
100
AcDbEntity
  8
0
100
AcDbLine
 62
7
  6
CONTINUOUS
 10
140.5417351489
 20
150.3234946462
 11
175.7557505843
 21
129.9931332896
  0
LINE
  5
2C4
100
AcDbEntity
  8
0
100
AcDbLine
 62
7
  6
CONTINUOUS
 10
199.5017850592
 20
116.9069762894
 11
212.5126040019
 21
109.3953464062
  0
LINE
  5
2C5
100
AcDbEntity
  8
0
100
AcDbLine
 62
7
  6
CONTINUOUS
 10
115.3683486681
 20
235.5651414147
 11
115.3683486681
 21
233.486031194
  0
LINE
  5
2C6
100
AcDbEntity
  8
0
100
AcDbLine
 62
7
  6
CONTINUOUS
 10
115.3683869397
 20
230.2579895101
 11
115.3683869397
 21
227.8084822587
  0
LINE
  5
2C7
100
AcDbEntity
  8
0
100
AcDbLine
 62
7
  6
CONTINUOUS
 10
117.8432503699
 20
229.2373367973
 11
117.8432503699
 21
227.3594188724
  0
LINE
  5
2C8
100
AcDbEntity
  8
0
100
AcDbLine
 62
7
  6
CONTINUOUS
 10
117.8432503699
 20
205.7184738227
 11
117.8432503699
 21
203.6808111411
  0
LINE
  5
2C9
100
AcDbEntity
  8
0
100
AcDbLine
 62
7
  6
CONTINUOUS
 10
117.9846829132
 20
206.6202534493
 11
117.9846829132
 21
227.2777646027
  0
LINE
  5
2CA
100
AcDbEntity
  8
0
100
AcDbLine
 62
7
  6
CONTINUOUS
 10
118.0148144133
 20
231.7684612286
 11
118.0148144133
 21
230.4620573612
  0
LINE
  5
2CB
100
AcDbEntity
  8
0
100
AcDbLine
 62
7
  6
CONTINUOUS
 10
118.7219211945
 20
204.9055334047
 11
118.7219211945
 21
230.4620590608
  0
LINE
  5
2CC
100
AcDbEntity
  8
0
100
AcDbLine
 62
7
  6
CONTINUOUS
 10
121.5912510392
 20
154.2425941639
 11
121.5912510392
 21
112.4376704069
  0
LINE
  5
2CD
100
AcDbEntity
  8
0
100
AcDbLine
 62
7
  6
CONTINUOUS
 10
45.4001899304
 20
206.3955946523
 11
50.2466404862
 21
203.5975584194
  0
LINE
  5
2CE
100
AcDbEntity
  8
0
100
AcDbLine
 62
7
  6
CONTINUOUS
 10
54.7603847171
 20
200.9916059271
 11
59.7926217756
 21
198.0863082333
  0
LINE
  5
2CF
100
AcDbEntity
  8
0
100
AcDbLine
 62
7
  6
CONTINUOUS
 10
64.3063660066
 20
195.480355741
 11
64.4921525094
 21
195.3730942802
  0
LINE
  5
2D0
100
AcDbEntity
  8
0
100
AcDbLine
 62
7
  6
CONTINUOUS
 10
83.906459951
 20
185.8069397246
 11
85.3206794013
 21
184.9904582155
  0
LINE
  5
2D1
100
AcDbEntity
  8
0
100
AcDbLine
 62
7
  6
CONTINUOUS
 10
84.3265402618
 20
187.187831725
 11
82.9123208115
 21
188.0043132341
  0
LINE
  5
2D2
100
AcDbEntity
  8
0
100
AcDbLine
 62
7
  6
CONTINUOUS
 10
49.3246736144
 20
208.2122517444
 11
48.9357091165
 21
208.4368154216
  0
LINE
  5
2D3
100
AcDbEntity
  8
0
100
AcDbLine
 62
7
  6
CONTINUOUS
 10
181.4126537107
 20
133.259128337
 11
143.3701504978
 21
155.2224809302
  0
LINE
  5
2D4
100
AcDbEntity
  8
0
100
AcDbLine
 62
7
  6
CONTINUOUS
 10
129.2986144317
 20
149.7928465013
 11
133.7535383117
 21
139.9459712421
  0
LINE
  5
2D5
100
AcDbEntity
  8
0
100
AcDbLine
 62
7
  6
CONTINUOUS
 10
129.8640980336
 20
195.842580035
 11
129.8640980336
 21
196.1691140961
  0
LINE
  5
2D6
100
AcDbEntity
  8
0
100
AcDbLine
 62
7
  6
CONTINUOUS
 10
123.7125625508
 20
157.9168338769
 11
121.5912510392
 21
154.2425941639
  0
LINE
  5
2D7
100
AcDbEntity
  8
0
100
AcDbLine
 62
7
  6
CONTINUOUS
 10
64.4921525094
 20
206.80412812
 11
45.4001899304
 21
217.8266284921
  0
LINE
  5
2D8
100
AcDbEntity
  8
0
100
AcDbLine
 62
7
  6
CONTINUOUS
 10
91.6097097851
 20
193.6789532779
 11
88.0741611594
 21
195.7201570505
  0
LINE
  5
2D9
100
AcDbEntity
  8
0
100
AcDbLine
 62
7
  6
CONTINUOUS
 10
90.6704083069
 20
195.3179878593
 11
87.4884145437
 21
197.1550712546
  0
LINE
  5
2DA
100
AcDbEntity
  8
0
100
AcDbLine
 62
7
  6
CONTINUOUS
 10
92.3346235154
 20
194.9345215011
 11
90.9204040652
 21
195.7510030101
  0
LINE
  5
2DB
100
AcDbEntity
  8
0
100
AcDbLine
 62
7
  6
CONTINUOUS
 10
77.3968932175
 20
205.8857186696
 11
73.1895903528
 21
208.314751159
  0
LINE
  5
2DC
100
AcDbEntity
  8
0
100
AcDbLine
 62
7
  6
CONTINUOUS
 10
38.1169597614
 20
228.5634857846
 11
30.0998505114
 21
233.1920612558
  0
LINE
  5
2DD
100
AcDbEntity
  8
0
100
AcDbLine
 62
7
  6
CONTINUOUS
 10
71.7753826784
 20
209.5395188941
 11
38.1169597614
 21
228.9717788093
  0
LINE
  5
2DE
100
AcDbEntity
  8
0
100
AcDbLine
 62
7
  6
CONTINUOUS
 10
133.7535383117
 20
139.9459712421
 11
133.7535383117
 21
112.6908113733
  0
LINE
  5
2DF
100
AcDbEntity
  8
0
100
AcDbLine
 62
7
  6
CONTINUOUS
 10
140.5417351489
 20
149.5069922291
 11
140.5417351489
 21
150.3234946462
  0
LINE
  5
2E0
100
AcDbEntity
  8
0
100
AcDbLine
 62
7
  6
CONTINUOUS
 10
131.4199259433
 20
153.4670862143
 11
129.2986144317
 21
149.7928465013
  0
LINE
  5
2E1
100
AcDbEntity
  8
0
100
AcDbLine
 62
7
  6
CONTINUOUS
 10
159.9162790161
 20
178.8189345552
 11
123.7125625508
 21
157.9168338769
  0
LINE
  5
2E2
100
AcDbEntity
  8
0
100
AcDbLine
 62
7
  6
CONTINUOUS
 10
39.5311674358
 20
229.788267117
 11
73.1895903528
 21
210.3560072018
  0
LINE
  5
2E3
100
AcDbEntity
  8
0
100
AcDbLine
 62
7
  6
CONTINUOUS
 10
33.2025353958
 20
233.8502730785
 11
37.4451937467
 21
231.4008285514
  0
LINE
  5
2E4
100
AcDbEntity
  8
0
100
AcDbLine
 62
7
  6
CONTINUOUS
 10
74.9220091795
 20
209.7640685618
 11
77.3968932175
 21
208.335225921
  0
LINE
  5
2E5
100
AcDbEntity
  8
0
100
AcDbLine
 62
7
  6
CONTINUOUS
 10
31.2582004811
 20
237.4223172211
 11
33.2025353958
 21
236.2997803299
  0
LINE
  5
2E6
100
AcDbEntity
  8
0
100
AcDbLine
 62
7
  6
CONTINUOUS
 10
37.4451937467
 20
233.8503358028
 11
74.9220091795
 21
212.2135758132
  0
LINE
  5
2E7
100
AcDbEntity
  8
0
100
AcDbLine
 62
7
  6
CONTINUOUS
 10
208.6202355869
 20
135.3137826812
 11
209.7516111472
 21
134.660597474
  0
LINE
  5
2E8
100
AcDbEntity
  8
0
100
AcDbLine
 62
7
  6
CONTINUOUS
 10
95.8345641308
 20
200.9967336129
 11
94.4203446806
 21
201.8132151219
  0
LINE
  5
2E9
100
AcDbEntity
  8
0
100
AcDbLine
 62
7
  6
CONTINUOUS
 10
84.3265402618
 20
207.8453428784
 11
82.9123208115
 21
208.6618243875
  0
LINE
  5
2EA
100
AcDbEntity
  8
0
100
AcDbLine
 62
7
  6
CONTINUOUS
 10
94.7327178405
 20
202.1744948218
 11
95.9905069802
 21
201.4483263515
  0
LINE
  5
2EB
100
AcDbEntity
  8
0
100
AcDbLine
 62
7
  6
CONTINUOUS
 10
94.6703404388
 20
202.2462302728
 11
91.4883466756
 21
204.0833136681
  0
LINE
  5
2EC
100
AcDbEntity
  8
0
100
AcDbLine
 62
7
  6
CONTINUOUS
 10
82.5182017851
 20
210.6856337398
 11
84.1143973348
 21
209.7640906576
  0
LINE
  5
2ED
100
AcDbEntity
  8
0
100
AcDbLine
 62
7
  6
CONTINUOUS
 10
92.2366605852
 20
205.4719551702
 11
93.0238997958
 21
205.0174526823
  0
LINE
  5
2EE
100
AcDbEntity
  8
0
100
AcDbLine
 62
7
  6
CONTINUOUS
 10
101.7769662135
 20
201.0829531064
 11
101.2611225054
 21
201.3807688727
  0
LINE
  5
2EF
100
AcDbEntity
  8
0
100
AcDbLine
 62
7
  6
CONTINUOUS
 10
81.6395132968
 20
213.6424405498
 11
84.1143973348
 21
212.213597909
  0
LINE
  5
2F0
100
AcDbEntity
  8
0
100
AcDbLine
 62
7
  6
CONTINUOUS
 10
94.7115240155
 20
206.9008097088
 11
95.9905069802
 21
206.1624052547
  0
LINE
  5
2F1
100
AcDbEntity
  8
0
100
AcDbLine
 62
7
  6
CONTINUOUS
 10
46.4545054645
 20
234.8541843979
 11
52.6189451323
 21
231.2952240107
  0
LINE
  5
2F2
100
AcDbEntity
  8
0
100
AcDbLine
 62
7
  6
CONTINUOUS
 10
106.2830464097
 20
207.3875043043
 11
104.0433516115
 21
209.4239412041
  0
LINE
  5
2F3
100
AcDbEntity
  8
0
100
AcDbLine
 62
7
  6
CONTINUOUS
 10
133.7535383117
 20
139.9459712421
 11
142.1750111334
 21
154.5324710153
  0
LINE
  5
2F4
100
AcDbEntity
  8
0
100
AcDbLine
 62
7
  6
CONTINUOUS
 10
91.5390700566
 20
129.7878499478
 11
91.8219695344
 21
129.9511810625
  0
LINE
  5
2F5
100
AcDbEntity
  8
0
100
AcDbLine
 62
7
  6
CONTINUOUS
 10
165.7784049786
 20
168.1598154613
 11
142.1750111334
 21
154.5324710153
  0
LINE
  5
2F6
100
AcDbEntity
  8
0
100
AcDbLine
 62
7
  6
CONTINUOUS
 10
86.7344442804
 20
196.1511154879
 11
89.4883806097
 21
195.9051135581
  0
LINE
  5
2F7
100
AcDbEntity
  8
0
100
AcDbLine
 62
7
  6
CONTINUOUS
 10
101.5701921275
 20
199.2244165694
 11
100.2497189431
 21
199.646348277
  0
LINE
  5
2F8
100
AcDbEntity
  8
0
100
AcDbLine
 62
7
  6
CONTINUOUS
 10
164.5832656142
 20
167.4698055464
 11
202.6257688271
 21
145.5064529532
  0
LINE
  5
2F9
100
AcDbEntity
  8
0
100
AcDbLine
 62
7
  6
CONTINUOUS
 10
166.5832316802
 20
167.6679170846
 11
203.7973156111
 21
146.1828417668
  0
LINE
  5
2FA
100
AcDbEntity
  8
0
100
AcDbLine
 62
7
  6
CONTINUOUS
 10
165.7784049786
 20
168.1598154613
 11
174.1998778003
 21
163.2975368435
  0
LINE
  5
2FB
100
AcDbEntity
  8
0
100
AcDbLine
 62
7
  6
CONTINUOUS
 10
52.6189451323
 20
233.7447312621
 11
46.4545054645
 21
237.3036916492
  0
LINE
  5
2FC
100
AcDbEntity
  8
0
100
AcDbLine
 62
7
  6
CONTINUOUS
 10
104.7769153124
 20
206.2791349166
 11
104.3036831671
 21
206.5523494421
  0
LINE
  5
2FD
100
AcDbEntity
  8
0
100
AcDbLine
 62
7
  6
CONTINUOUS
 10
67.8508353849
 20
228.9515432103
 11
70.4787215972
 21
227.4343667213
  0
LINE
  5
2FE
100
AcDbEntity
  8
0
100
AcDbLine
 62
7
  6
CONTINUOUS
 10
72.9014445829
 20
226.0356385968
 11
77.7503715369
 21
223.236172647
  0
LINE
  5
2FF
100
AcDbEntity
  8
0
100
AcDbLine
 62
7
  6
CONTINUOUS
 10
110.0551433084
 20
205.0747189307
 11
110.7015133899
 21
204.7015454324
  0
LINE
  5
300
100
AcDbEntity
  8
0
100
AcDbLine
 62
7
  6
CONTINUOUS
 10
208.7068618272
 20
149.0173526765
 11
212.808098233
 21
146.6495563003
  0
LINE
  5
301
100
AcDbEntity
  8
0
100
AcDbLine
 62
7
  6
CONTINUOUS
 10
101.7825623876
 20
210.9832512475
 11
103.0615453524
 21
210.2448467934
  0
LINE
  5
302
100
AcDbEntity
  8
0
100
AcDbLine
 62
7
  6
CONTINUOUS
 10
131.3490448539
 20
194.9852649836
 11
127.2478108919
 21
197.3530599489
  0
LINE
  5
303
100
AcDbEntity
  8
0
100
AcDbLine
 62
7
  6
CONTINUOUS
 10
111.3228680159
 20
206.5942491837
 11
110.8070243077
 21
206.89206495
  0
LINE
  5
304
100
AcDbEntity
  8
0
100
AcDbLine
 62
7
  6
CONTINUOUS
 10
129.8640980336
 20
196.1691140961
 11
117.3482650088
 21
203.3950329155
  0
LINE
  5
305
100
AcDbEntity
  8
0
100
AcDbLine
 62
7
  6
CONTINUOUS
 10
169.7449539203
 20
173.1444121027
 11
131.6318900103
 21
195.148564736
  0
LINE
  5
306
100
AcDbEntity
  8
0
100
AcDbLine
 62
7
  6
CONTINUOUS
 10
215.3080558154
 20
146.8971957231
 11
211.2068194096
 21
149.2649920993
  0
LINE
  5
307
100
AcDbEntity
  8
0
100
AcDbLine
 62
7
  6
CONTINUOUS
 10
115.8289482121
 20
212.8988003816
 11
113.5892534139
 21
214.9352372813
  0
LINE
  5
308
100
AcDbEntity
  8
0
100
AcDbLine
 62
7
  6
CONTINUOUS
 10
136.5819536605
 20
143.4649138486
 11
137.2890574978
 21
143.8731580025
  0
LINE
  5
309
100
AcDbEntity
  8
0
100
AcDbLine
 62
7
  6
CONTINUOUS
 10
93.0238997958
 20
205.0174526823
 11
91.6603964013
 21
205.1392508745
  0
LINE
  5
30A
100
AcDbEntity
  8
0
100
AcDbLine
 62
7
  6
CONTINUOUS
 10
111.1160939299
 20
204.7357126467
 11
109.7956207455
 21
205.1576443542
  0
LINE
  5
30B
100
AcDbEntity
  8
0
100
AcDbLine
 62
7
  6
CONTINUOUS
 10
104.2574258178
 20
212.412105786
 11
105.5364087826
 21
211.673701332
  0
LINE
  5
30C
100
AcDbEntity
  8
0
100
AcDbLine
 62
7
  6
CONTINUOUS
 10
67.8508353849
 20
237.1165673816
 11
77.7503715369
 21
231.4011968183
  0
LINE
  5
30D
100
AcDbEntity
  8
0
100
AcDbLine
 62
7
  6
CONTINUOUS
 10
84.8821032397
 20
227.4237347195
 11
85.2356581022
 21
227.2196143422
  0
LINE
  5
30E
100
AcDbEntity
  8
0
100
AcDbLine
 62
7
  6
CONTINUOUS
 10
83.7178795476
 20
228.6732313794
 11
84.4977084491
 21
228.2230071386
  0
LINE
  5
30F
100
AcDbEntity
  8
0
100
AcDbLine
 62
7
  6
CONTINUOUS
 10
114.3228171148
 20
211.7904309938
 11
113.8495849695
 21
212.0636455194
  0
LINE
  5
310
100
AcDbEntity
  8
0
100
AcDbLine
 62
7
  6
CONTINUOUS
 10
63.1557784417
 20
242.3580925005
 11
65.3468142021
 21
241.0931260318
  0
LINE
  5
311
100
AcDbEntity
  8
0
100
AcDbLine
 62
7
  6
CONTINUOUS
 10
85.2178540971
 20
231.2713222844
 11
85.9993502886
 21
230.8201354551
  0
LINE
  5
312
100
AcDbEntity
  8
0
100
AcDbLine
 62
7
  6
CONTINUOUS
 10
111.4626731364
 20
216.4170635064
 11
112.6074471548
 21
215.7561428707
  0
LINE
  5
313
100
AcDbEntity
  8
0
100
AcDbLine
 62
7
  6
CONTINUOUS
 10
86.8820693056
 20
230.8878559262
 11
87.2356241682
 21
230.683735549
  0
LINE
  5
314
100
AcDbEntity
  8
0
100
AcDbLine
 62
7
  6
CONTINUOUS
 10
63.4249975576
 20
244.6520440908
 11
69.5894372254
 21
241.0930837036
  0
LINE
  5
315
100
AcDbEntity
  8
0
100
AcDbLine
 62
7
  6
CONTINUOUS
 10
162.7450370427
 20
121.8280566293
 11
162.7450370427
 21
97.3329841154
  0
LINE
  5
316
100
AcDbEntity
  8
0
100
AcDbLine
 62
7
  6
CONTINUOUS
 10
167.6236424087
 20
174.3691868925
 11
165.7784049786
 21
168.1598154613
  0
LINE
  5
317
100
AcDbEntity
  8
0
100
AcDbLine
 62
7
  6
CONTINUOUS
 10
47.5215014421
 20
208.6217651306
 11
49.6250640702
 21
208.8096794266
  0
LINE
  5
318
100
AcDbEntity
  8
0
100
AcDbLine
 62
7
  6
CONTINUOUS
 10
69.5894372254
 20
243.542590955
 11
63.4249975576
 21
247.1015513422
  0
LINE
  5
319
100
AcDbEntity
  8
0
100
AcDbLine
 62
7
  6
CONTINUOUS
 10
89.0640329323
 20
237.9331032803
 11
79.1644967803
 21
243.6484738436
  0
LINE
  5
31A
100
AcDbEntity
  8
0
100
AcDbLine
 62
7
  6
CONTINUOUS
 10
169.7449539203
 20
173.1444121027
 11
174.1998778003
 21
163.2975368435
  0
LINE
  5
31B
100
AcDbEntity
  8
0
100
AcDbLine
 62
7
  6
CONTINUOUS
 10
169.53323388
 20
133.5856237109
 11
169.53323388
 21
132.7691212938
  0
LINE
  5
31C
100
AcDbEntity
  8
0
100
AcDbLine
 62
7
  6
CONTINUOUS
 10
171.7960415246
 20
85.0855816702
 11
171.7960415246
 21
92.1075024575
  0
LINE
  5
31D
100
AcDbEntity
  8
0
100
AcDbLine
 62
7
  6
CONTINUOUS
 10
171.7960415246
 20
116.6025749714
 11
171.7960415246
 21
123.6244957587
  0
LINE
  5
31E
100
AcDbEntity
  8
0
100
AcDbLine
 62
7
  6
CONTINUOUS
 10
174.1998778003
 20
163.2705438787
 11
174.1998778003
 21
163.2975368435
  0
LINE
  5
31F
100
AcDbEntity
  8
0
100
AcDbLine
 62
7
  6
CONTINUOUS
 10
133.7535383117
 20
112.6908113733
 11
129.2986144317
 21
107.9879227442
  0
LINE
  5
320
100
AcDbEntity
  8
0
100
AcDbLine
 62
7
  6
CONTINUOUS
 10
193.5747643452
 20
150.731934611
 11
172.3616492288
 21
138.4846099949
  0
LINE
  5
321
100
AcDbEntity
  8
0
100
AcDbLine
 62
7
  6
CONTINUOUS
 10
79.8716918805
 20
223.2361777461
 11
77.7503715369
 21
223.236172647
  0
LINE
  5
322
100
AcDbEntity
  8
0
100
AcDbLine
 62
7
  6
CONTINUOUS
 10
80.5788104375
 20
219.5619535861
 11
69.6212319925
 21
220.119163298
  0
LINE
  5
323
100
AcDbEntity
  8
0
100
AcDbLine
 62
7
  6
CONTINUOUS
 10
69.6212319925
 20
222.1604193408
 11
80.5788104375
 21
221.603209629
  0
LINE
  5
324
100
AcDbEntity
  8
0
100
AcDbLine
 62
7
  6
CONTINUOUS
 10
117.9846829132
 20
227.2777646027
 11
116.5704634629
 21
228.0942461117
  0
LINE
  5
325
100
AcDbEntity
  8
0
100
AcDbLine
 62
7
  6
CONTINUOUS
 10
115.3683869397
 20
230.2579895101
 11
112.8935029016
 21
231.6868321509
  0
LINE
  5
326
100
AcDbEntity
  8
0
100
AcDbLine
 62
7
  6
CONTINUOUS
 10
80.02123114
 20
252.2165953443
 11
82.3173062953
 21
250.8909857247
  0
LINE
  5
327
100
AcDbEntity
  8
0
100
AcDbLine
 62
7
  6
CONTINUOUS
 10
115.3683486681
 20
235.5651414147
 11
110.6341888666
 21
238.298348017
  0
LINE
  5
328
100
AcDbEntity
  8
0
100
AcDbLine
 62
7
  6
CONTINUOUS
 10
108.7886673325
 20
239.363836267
 11
79.6211519264
 21
256.203328178
  0
LINE
  5
329
100
AcDbEntity
  8
0
100
AcDbLine
 62
7
  6
CONTINUOUS
 10
72.6489998752
 20
260.2286109776
 11
71.7045399698
 21
260.7738828225
  0
LINE
  5
32A
100
AcDbEntity
  8
0
100
AcDbLine
 62
7
  6
CONTINUOUS
 10
175.8972779304
 20
121.2566993825
 11
175.8972779304
 21
82.717785294
  0
LINE
  5
32B
100
AcDbEntity
  8
0
100
AcDbLine
 62
7
  6
CONTINUOUS
 10
166.2805562288
 20
127.1352870672
 11
165.5734523916
 21
126.7270429133
  0
LINE
  5
32C
100
AcDbEntity
  8
0
100
AcDbLine
 62
7
  6
CONTINUOUS
 10
175.3315607107
 20
129.7482286137
 11
181.4126537107
 21
133.259128337
  0
LINE
  5
32D
100
AcDbEntity
  8
0
100
AcDbLine
 62
7
  6
CONTINUOUS
 10
202.6257688271
 20
145.5064529532
 11
208.7068618272
 21
149.0173526765
  0
LINE
  5
32E
100
AcDbEntity
  8
0
100
AcDbLine
 62
7
  6
CONTINUOUS
 10
45.3270591011
 20
217.8538902247
 11
43.9859528163
 21
217.734087258
  0
LINE
  5
32F
100
AcDbEntity
  8
0
100
AcDbLine
 62
7
  6
CONTINUOUS
 10
77.7503715369
 20
231.4011968183
 11
79.8716918805
 21
231.4012019174
  0
LINE
  5
330
100
AcDbEntity
  8
0
100
AcDbLine
 62
7
  6
CONTINUOUS
 10
142.1750111334
 20
107.8285327555
 11
142.1986037138
 21
107.8421538568
  0
LINE
  5
331
100
AcDbEntity
  8
0
100
AcDbLine
 62
7
  6
CONTINUOUS
 10
212.808098233
 20
146.6495563003
 11
179.4327971165
 21
127.3804322375
  0
LINE
  5
332
100
AcDbEntity
  8
0
100
AcDbLine
 62
7
  6
CONTINUOUS
 10
62.4404357997
 20
232.3812289069
 11
54.0196990663
 21
231.0785333296
  0
LINE
  5
333
100
AcDbEntity
  8
0
100
AcDbLine
 62
7
  6
CONTINUOUS
 10
54.0196990663
 20
233.5280405809
 11
62.4404357997
 21
234.8307361583
  0
LINE
  5
334
100
AcDbEntity
  8
0
100
AcDbLine
 62
7
  6
CONTINUOUS
 10
72.6998872974
 20
241.140884559
 11
70.9901911594
 21
240.8763930225
  0
LINE
  5
335
100
AcDbEntity
  8
0
100
AcDbLine
 62
7
  6
CONTINUOUS
 10
79.1644967803
 20
243.6484738436
 11
77.0431764367
 21
243.6484687445
  0
LINE
  5
336
100
AcDbEntity
  8
0
100
AcDbLine
 62
7
  6
CONTINUOUS
 10
76.3392482398
 20
245.1569524668
 11
69.4031109863
 21
245.1569357944
  0
LINE
  5
337
100
AcDbEntity
  8
0
100
AcDbLine
 62
7
  6
CONTINUOUS
 10
69.4031109863
 20
247.1981918372
 11
71.7135959228
 21
247.1981973909
  0
LINE
  5
338
100
AcDbEntity
  8
0
100
AcDbLine
 62
7
  6
CONTINUOUS
 10
74.0287633033
 20
247.1982029559
 11
76.3392482398
 21
247.1982085096
  0
LINE
  5
339
100
AcDbEntity
  8
0
100
AcDbLine
 62
7
  6
CONTINUOUS
 10
70.9901911594
 20
243.3259002739
 11
79.4109278929
 21
244.6285958512
  0
LINE
  5
33A
100
AcDbEntity
  8
0
100
AcDbLine
 62
7
  6
CONTINUOUS
 10
71.7135959228
 20
252.5054631023
 11
74.0287633033
 21
252.5054686673
  0
LINE
  5
33B
100
AcDbEntity
  8
0
100
AcDbLine
 62
7
  6
CONTINUOUS
 10
216.3436174191
 20
106.0693508955
 11
216.3436174191
 21
144.608264984
  0
LINE
  5
33C
100
AcDbEntity
  8
0
100
AcDbLine
 62
7
  6
CONTINUOUS
 10
210.2626421777
 20
107.661941454
 11
210.9231090838
 21
107.9043944019
  0
LINE
  5
33D
100
AcDbEntity
  8
0
100
AcDbLine
 62
7
  6
CONTINUOUS
 10
179.4327971165
 20
80.6764939777
 11
212.808098233
 21
99.9456180405
  0
ARC
  5
33E
100
AcDbEntity
  8
0
100
AcDbCircle
 62
7
  6
CONTINUOUS
 10
55.8025448145
 20
247.2391794403
 40
16.2586906508
100
AcDbArc
 50
258.708006814
 51
263.704575237
  0
ARC
  5
33F
100
AcDbEntity
  8
0
100
AcDbCircle
 62
7
  6
CONTINUOUS
 10
72.7730369077
 20
257.0370391332
 40
16.2586906507
100
AcDbArc
 50
258.708006814
 51
263.704575237
  0
ARC
  5
340
100
AcDbEntity
  8
0
100
AcDbCircle
 62
7
  6
CONTINUOUS
 10
55.7712468595
 20
249.4863672686
 40
16.0541617764
100
AcDbArc
 50
258.6761582775
 51
263.7364237736
  0
ARC
  5
341
100
AcDbEntity
  8
0
100
AcDbCircle
 62
7
  6
CONTINUOUS
 10
72.7417389527
 20
259.2842269615
 40
16.0541617763
100
AcDbArc
 50
258.6761582775
 51
263.7364237736
  0
ARC
  5
342
100
AcDbEntity
  8
0
100
AcDbCircle
 62
7
  6
CONTINUOUS
 10
57.9635310362
 20
243.8066456291
 40
10.0304350399
100
AcDbArc
 50
296.5085953077
 51
299.9538958529
  0
ARC
  5
343
100
AcDbEntity
  8
0
100
AcDbCircle
 62
7
  6
CONTINUOUS
 10
74.9340231293
 20
253.604505322
 40
10.03043504
100
AcDbArc
 50
296.5085953077
 51
299.9538958529
  0
ARC
  5
344
100
AcDbEntity
  8
0
100
AcDbCircle
 62
7
  6
CONTINUOUS
 10
58.045679348
 20
241.2041328368
 40
9.8568513242
100
AcDbArc
 50
296.4782492513
 51
299.9842419093
  0
ARC
  5
345
100
AcDbEntity
  8
0
100
AcDbCircle
 62
7
  6
CONTINUOUS
 10
70.6953480122
 20
244.5936983934
 40
9.7958533664
100
AcDbArc
 50
117.8384397393
 51
119.9822164381
  0
ARC
  5
346
100
AcDbEntity
  8
0
100
AcDbCircle
 62
7
  6
CONTINUOUS
 10
53.7222148831
 20
234.8005893014
 40
9.7904186806
100
AcDbArc
 50
117.8696895449
 51
119.982722126
  0
ARC
  5
347
100
AcDbEntity
  8
0
100
AcDbCircle
 62
7
  6
CONTINUOUS
 10
53.3284438379
 20
235.4831124768
 40
9.0024507112
100
AcDbArc
 50
119.9827745882
 51
123.6848389692
  0
ARC
  5
348
100
AcDbEntity
  8
0
100
AcDbCircle
 62
7
  6
CONTINUOUS
 10
70.298935931
 20
245.2809721697
 40
9.0024507111
100
AcDbArc
 50
119.9827745882
 51
123.6848389693
  0
ARC
  5
349
100
AcDbEntity
  8
0
100
AcDbCircle
 62
7
  6
CONTINUOUS
 10
58.4728758287
 20
242.9137052042
 40
9.0024507112
100
AcDbArc
 50
299.9827745882
 51
303.6848389692
  0
ARC
  5
34A
100
AcDbEntity
  8
0
100
AcDbCircle
 62
7
  6
CONTINUOUS
 10
75.4433679219
 20
252.7115648971
 40
9.0024507111
100
AcDbArc
 50
299.9827745882
 51
303.6848389693
  0
ARC
  5
34B
100
AcDbEntity
  8
0
100
AcDbCircle
 62
7
  6
CONTINUOUS
 10
58.5612129331
 20
240.3219123153
 40
8.8350624572
100
AcDbArc
 50
299.9476925529
 51
303.7199210045
  0
ARC
  5
34C
100
AcDbEntity
  8
0
100
AcDbCircle
 62
7
  6
CONTINUOUS
 10
161.6709206626
 20
133.5525124766
 40
7.9785220502
100
AcDbArc
 50
328.9517320484
 51
331.0489209581
  0
ARC
  5
34D
100
AcDbEntity
  8
0
100
AcDbCircle
 62
7
  6
CONTINUOUS
 10
161.7843052849
 20
133.4825235189
 40
7.8452843253
100
AcDbArc
 50
322.5615793381
 51
328.9625598263
  0
ARC
  5
34E
100
AcDbEntity
  8
0
100
AcDbCircle
 62
7
  6
CONTINUOUS
 10
161.8399438295
 20
133.4643572956
 40
7.7879499186
100
AcDbArc
 50
331.0144970451
 51
337.4617376817
  0
ARC
  5
34F
100
AcDbEntity
  8
0
100
AcDbCircle
 62
7
  6
CONTINUOUS
 10
52.4533091112
 20
214.5173469327
 40
7.0246973729
100
AcDbArc
 50
236.4866183773
 51
239.9505301939
  0
ARC
  5
350
100
AcDbEntity
  8
0
100
AcDbCircle
 62
7
  6
CONTINUOUS
 10
107.3200382223
 20
210.5562454729
 40
6.7610566388
100
AcDbArc
 50
300.0092656966
 51
301.508732225
  0
ARC
  5
351
100
AcDbEntity
  8
0
100
AcDbCircle
 62
7
  6
CONTINUOUS
 10
79.5182047919
 20
210.534630254
 40
5.1562245781
100
AcDbArc
 50
263.5258730156
 51
276.4737961813
  0
ARC
  5
352
100
AcDbEntity
  8
0
100
AcDbCircle
 62
7
  6
CONTINUOUS
 10
37.7944335141
 20
238.7356969848
 40
5.1068003925
100
AcDbArc
 50
266.0731906646
 51
266.2771437936
  0
ARC
  5
353
100
AcDbEntity
  8
0
100
AcDbCircle
 62
7
  6
CONTINUOUS
 10
115.0191097471
 20
235.1433378339
 40
5.106789203
100
AcDbArc
 50
273.7231339532
 51
273.9272435418
  0
ARC
  5
354
100
AcDbEntity
  8
0
100
AcDbCircle
 62
7
  6
CONTINUOUS
 10
37.7939727511
 20
238.7290688661
 40
5.1001562804
100
AcDbArc
 50
265.6065755674
 51
266.0732555267
  0
ARC
  5
355
100
AcDbEntity
  8
0
100
AcDbCircle
 62
7
  6
CONTINUOUS
 10
115.0195707623
 20
235.1367067742
 40
5.1001421394
100
AcDbArc
 50
273.9271786809
 51
274.3938670821
  0
ARC
  5
356
100
AcDbEntity
  8
0
100
AcDbCircle
 62
7
  6
CONTINUOUS
 10
53.8905304448
 20
249.5873171098
 40
3.6024865403
100
AcDbArc
 50
129.8108218451
 51
131.6285498659
  0
ARC
  5
357
100
AcDbEntity
  8
0
100
AcDbCircle
 62
7
  6
CONTINUOUS
 10
88.1537012242
 20
233.0506897017
 40
3.2685552594
100
AcDbArc
 50
54.1481884919
 51
56.193020084
  0
ARC
  5
358
100
AcDbEntity
  8
0
100
AcDbCircle
 62
7
  6
CONTINUOUS
 10
87.6870106472
 20
234.4044704621
 40
2.7543134927
100
AcDbArc
 50
58.7062448429
 51
60.0042197212
  0
ARC
  5
359
100
AcDbEntity
  8
0
100
AcDbCircle
 62
7
  6
CONTINUOUS
 10
112.7715669102
 20
207.9012850705
 40
2.0660341192
100
AcDbArc
 50
189.5582097365
 51
191.6454332383
  0
ARC
  5
35A
100
AcDbEntity
  8
0
100
AcDbCircle
 62
7
  6
CONTINUOUS
 10
103.2256651078
 20
202.3899889932
 40
2.0660341191
100
AcDbArc
 50
189.5582097365
 51
191.6454332383
  0
ARC
  5
35B
100
AcDbEntity
  8
0
100
AcDbCircle
 62
7
  6
CONTINUOUS
 10
52.8778605106
 20
204.0837714371
 40
2.0642975999
100
AcDbArc
 50
348.2951726533
 51
350.4397728068
  0
ARC
  5
35C
100
AcDbEntity
  8
0
100
AcDbCircle
 62
7
  6
CONTINUOUS
 10
62.4238418002
 20
198.572521251
 40
2.0642975998
100
AcDbArc
 50
348.2951726533
 51
350.4397728069
  0
ARC
  5
35D
100
AcDbEntity
  8
0
100
AcDbCircle
 62
7
  6
CONTINUOUS
 10
41.95964546
 20
212.3548611965
 40
0.9686216449
100
AcDbArc
 50
119.9994246278
 51
121.1501284933
  0
ARC
  5
35E
100
AcDbEntity
  8
0
100
AcDbCircle
 62
7
  6
CONTINUOUS
 10
95.0502922019
 20
199.6382614335
 40
0.9685859774
100
AcDbArc
 50
58.8593659045
 51
60.0018216584
  0
ARC
  5
35F
100
AcDbEntity
  8
0
100
AcDbCircle
 62
7
  6
CONTINUOUS
 10
85.6787594635
 20
227.8973548813
 40
0.8162385304
100
AcDbArc
 50
213.2929199836
 51
214.5333680427
  0
SPLINE
  5
360
100
AcDbEntity
  8
0
100
AcDbSpline
 62
7
  6
CONTINUOUS
 70
0
 71
3
 72
14
 73
10
 74
0
 42
0.0000001
 43
0.0000001
 44
0.0000000001
 40
0.0
 40
0.0
 40
0.0
 40
0.0
 40
0.2892788785
 40
0.4225377813
 40
0.5484922121
 40
0.6678919699
 40
0.7818652625
 40
0.8919497476
 40
1.0
 40
1.0
 40
1.0
 40
1.0
 10
197.251823235
 20
116.6841008088
 30
0.0
 10
197.4493493665
 20
116.7981418933
 30
0.0
 10
197.7526001176
 20
116.9424736299
 30
0.0
 10
198.1684805577
 20
117.0637422683
 30
0.0
 10
198.4636720559
 20
117.113244195
 30
0.0
 10
198.7477082817
 20
117.1231449759
 30
0.0
 10
199.017901829
 20
117.0930056027
 30
0.0
 10
199.2713547107
 20
117.0229122989
 30
0.0
 10
199.4280044316
 20
116.9495698764
 30
0.0
 10
199.5017840177
 20
116.9069744853
 30
0.0
  0
SPLINE
  5
361
100
AcDbEntity
  8
0
100
AcDbSpline
 62
7
  6
CONTINUOUS
 70
0
 71
3
 72
23
 73
19
 74
0
 42
0.0000001
 43
0.0000001
 44
0.0000000001
 40
0.0
 40
0.0
 40
0.0
 40
0.0
 40
0.0623916983
 40
0.1287423442
 40
0.1983450203
 40
0.2703325552
 40
0.3437219147
 40
0.4174665113
 40
0.4905033157
 40
0.5618018359
 40
0.6304104097
 40
0.6955086082
 40
0.75646609
 40
0.812912539
 40
0.8648215158
 40
0.912604092
 40
0.957185771
 40
1.0
 40
1.0
 40
1.0
 40
1.0
 10
210.2626421777
 20
101.8239491715
 30
0.0
 10
210.4243158684
 20
101.9172909632
 30
0.0
 10
210.7454972516
 20
102.1319315066
 30
0.0
 10
211.2003344272
 20
102.5146996654
 30
0.0
 10
211.6351099665
 20
102.9611039848
 30
0.0
 10
212.0405364642
 20
103.4615788972
 30
0.0
 10
212.4080232023
 20
104.0055160526
 30
0.0
 10
212.729734413
 20
104.5813023161
 30
0.0
 10
212.9988017805
 20
105.1766573362
 30
0.0
 10
213.2094911086
 20
105.7788914308
 30
0.0
 10
213.3573140001
 20
106.3752183309
 30
0.0
 10
213.4391043355
 20
106.9530555713
 30
0.0
 10
213.4530314504
 20
107.5003289005
 30
0.0
 10
213.398509492
 20
108.0057472908
 30
0.0
 10
213.2760556326
 20
108.4589224116
 30
0.0
 10
213.0869390045
 20
108.8503004521
 30
0.0
 10
212.8338534395
 20
109.17032596
 30
0.0
 10
212.6235467308
 20
109.331292895
 30
0.0
 10
212.5126030155
 20
109.3953446973
 30
0.0
  0
SPLINE
  5
362
100
AcDbEntity
  8
0
100
AcDbSpline
 62
7
  6
CONTINUOUS
 70
0
 71
3
 72
23
 73
19
 74
0
 42
0.0000001
 43
0.0000001
 44
0.0000000001
 40
0.0
 40
0.0
 40
0.0
 40
0.0
 40
0.0428149581
 40
0.0873974424
 40
0.1351808469
 40
0.1870905525
 40
0.243537527
 40
0.3044952463
 40
0.3695933208
 40
0.4382013601
 40
0.509498991
 40
0.5825347113
 40
0.656278212
 40
0.7296666734
 40
0.8016536994
 40
0.8712562238
 40
0.9376075212
 40
1.0
 40
1.0
 40
1.0
 40
1.0
 10
195.0018624523
 20
109.1127053782
 30
0.0
 10
194.8909167115
 20
109.1767580176
 30
0.0
 10
194.6806069805
 20
109.3377289345
 30
0.0
 10
194.4275191
 20
109.6577616761
 30
0.0
 10
194.2384028569
 20
110.0491478437
 30
0.0
 10
194.1159514315
 20
110.5023300489
 30
0.0
 10
194.0614331649
 20
111.007753287
 30
0.0
 10
194.0753642159
 20
111.5550283666
 30
0.0
 10
194.1571577657
 20
112.1328638101
 30
0.0
 10
194.3049822635
 20
112.7291854628
 30
0.0
 10
194.5156711327
 20
113.3314116855
 30
0.0
 10
194.7847360063
 20
113.9267576681
 30
0.0
 10
195.1064432899
 20
114.5025354812
 30
0.0
 10
195.473925735
 20
115.0464664206
 30
0.0
 10
195.8793488981
 20
115.5469379215
 30
0.0
 10
196.314123245
 20
115.9933433122
 30
0.0
 10
196.7689630326
 20
116.3761142647
 30
0.0
 10
197.090147533
 20
116.590757856
 30
0.0
 10
197.251823235
 20
116.6841008088
 30
0.0
  0
SPLINE
  5
363
100
AcDbEntity
  8
0
100
AcDbSpline
 62
7
  6
CONTINUOUS
 70
0
 71
3
 72
14
 73
10
 74
0
 42
0.0000001
 43
0.0000001
 44
0.0000000001
 40
0.0
 40
0.0
 40
0.0
 40
0.0
 40
0.1080488667
 40
0.2181321678
 40
0.3321045072
 40
0.4515036959
 40
0.5774576959
 40
0.710717211
 40
1.0
 40
1.0
 40
1.0
 40
1.0
 10
208.0126813399
 20
101.6010753998
 30
0.0
 10
208.0864598838
 20
101.5584803895
 30
0.0
 10
208.2431077165
 20
101.4851387015
 30
0.0
 10
208.4965577632
 20
101.4150457959
 30
0.0
 10
208.7667490123
 20
101.3849053005
 30
0.0
 10
209.0507837428
 20
101.3948050229
 30
0.0
 10
209.345975143
 20
101.4443055614
 30
0.0
 10
209.7618592229
 20
101.5655733539
 30
0.0
 10
210.0651133773
 20
101.7099065461
 30
0.0
 10
210.2626421777
 20
101.8239491715
 30
0.0
  0
SPLINE
  5
364
100
AcDbEntity
  8
0
100
AcDbSpline
 62
7
  6
CONTINUOUS
 70
0
 71
3
 72
16
 73
12
 74
0
 42
0.0000001
 43
0.0000001
 44
0.0000000001
 40
0.0
 40
0.0
 40
0.0
 40
0.0
 40
0.0994019373
 40
0.1544800457
 40
0.2129740543
 40
0.3388344208
 40
0.4734917711
 40
0.6121085057
 40
0.7493638734
 40
0.8800999342
 40
1.0
 40
1.0
 40
1.0
 40
1.0
 10
208.5090928116
 20
103.72310157
 30
0.0
 10
208.4522769178
 20
103.8644589447
 30
0.0
 10
208.4001849833
 20
104.0993206028
 30
0.0
 10
208.3843208184
 20
104.425525481
 30
0.0
 10
208.4045570115
 20
104.7926101423
 30
0.0
 10
208.5003779079
 20
105.2746581824
 30
0.0
 10
208.7107803287
 20
105.8512538709
 30
0.0
 10
209.0077742017
 20
106.4082188368
 30
0.0
 10
209.3748611165
 20
106.9144177488
 30
0.0
 10
209.7913545049
 20
107.3415905458
 30
0.0
 10
210.1034971827
 20
107.5700595967
 30
0.0
 10
210.2626421777
 20
107.661941454
 30
0.0
  0
SPLINE
  5
365
100
AcDbEntity
  8
0
100
AcDbSpline
 62
7
  6
CONTINUOUS
 70
0
 71
3
 72
11
 73
7
 74
0
 42
0.0000001
 43
0.0000001
 44
0.0000000001
 40
0.0
 40
0.0
 40
0.0
 40
0.0
 40
0.2413210729
 40
0.5005937448
 40
0.7595557827
 40
1.0
 40
1.0
 40
1.0
 40
1.0
 10
208.5687719482
 20
105.3474521631
 30
0.0
 10
208.7001141177
 20
105.4428172849
 30
0.0
 10
208.9468296334
 20
105.6768821667
 30
0.0
 10
209.2424184002
 20
106.0970027034
 30
0.0
 10
209.4553596526
 20
106.5638293035
 30
0.0
 10
209.532209001
 20
106.894335319
 30
0.0
 10
209.5477314693
 20
107.0553111503
 30
0.0
  0
SPLINE
  5
366
100
AcDbEntity
  8
0
100
AcDbSpline
 62
7
  6
CONTINUOUS
 70
0
 71
3
 72
23
 73
19
 74
0
 42
0.0000001
 43
0.0000001
 44
0.0000000001
 40
0.0
 40
0.0
 40
0.0
 40
0.0
 40
0.0623916983
 40
0.1287423442
 40
0.1983450203
 40
0.2703325552
 40
0.3437219147
 40
0.4174665113
 40
0.4905033157
 40
0.5618018359
 40
0.6304104097
 40
0.6955086082
 40
0.75646609
 40
0.812912539
 40
0.8648215158
 40
0.912604092
 40
0.957185771
 40
1.0
 40
1.0
 40
1.0
 40
1.0
 10
210.2626421777
 20
109.1724709257
 30
0.0
 10
210.100968487
 20
109.079129134
 30
0.0
 10
209.7797871038
 20
108.8644885906
 30
0.0
 10
209.3249499282
 20
108.4817204317
 30
0.0
 10
208.8901743889
 20
108.0353161124
 30
0.0
 10
208.4847478912
 20
107.5348412
 30
0.0
 10
208.1172611531
 20
106.9909040446
 30
0.0
 10
207.7955499424
 20
106.4151177811
 30
0.0
 10
207.5264825749
 20
105.8197627609
 30
0.0
 10
207.3157932468
 20
105.2175286664
 30
0.0
 10
207.1679703553
 20
104.6212017663
 30
0.0
 10
207.0861800199
 20
104.0433645259
 30
0.0
 10
207.072252905
 20
103.4960911967
 30
0.0
 10
207.1267748634
 20
102.9906728064
 30
0.0
 10
207.2492287228
 20
102.5374976855
 30
0.0
 10
207.4383453509
 20
102.1461196451
 30
0.0
 10
207.6914309159
 20
101.8260941372
 30
0.0
 10
207.9017376246
 20
101.6651272022
 30
0.0
 10
208.0126813399
 20
101.6010753998
 30
0.0
  0
SPLINE
  5
367
100
AcDbEntity
  8
0
100
AcDbSpline
 62
7
  6
CONTINUOUS
 70
0
 71
3
 72
15
 73
11
 74
0
 42
0.0000001
 43
0.0000001
 44
0.0000000001
 40
0.0
 40
0.0
 40
0.0
 40
0.0
 40
0.2002179243
 40
0.2604127387
 40
0.3240209674
 40
0.4591968942
 40
0.6005416587
 40
0.7417999937
 40
0.8767185635
 40
1.0
 40
1.0
 40
1.0
 40
1.0
 10
209.9749458833
 20
107.444245413
 30
0.0
 10
210.0849231586
 20
107.2828740976
 30
0.0
 10
210.1334240684
 20
107.011505532
 30
0.0
 10
210.113110992
 20
106.697738458
 30
0.0
 10
210.0722632458
 20
106.4476893158
 30
0.0
 10
209.9743873425
 20
106.1291594913
 30
0.0
 10
209.7958863054
 20
105.7611912193
 30
0.0
 10
209.5652035881
 20
105.423683887
 30
0.0
 10
209.2975124193
 20
105.1384760173
 30
0.0
 10
209.0939785133
 20
104.9867608815
 30
0.0
 10
208.9898446724
 20
104.9266395393
 30
0.0
  0
SPLINE
  5
368
100
AcDbEntity
  8
0
100
AcDbSpline
 62
7
  6
CONTINUOUS
 70
0
 71
3
 72
15
 73
11
 74
0
 42
0.0000001
 43
0.0000001
 44
0.0000000001
 40
0.0
 40
0.0
 40
0.0
 40
0.0
 40
0.1514262642
 40
0.2905956316
 40
0.4182190328
 40
0.5364945931
 40
0.6490587531
 40
0.7606659999
 40
0.876265557
 40
1.0
 40
1.0
 40
1.0
 40
1.0
 10
210.2626421777
 20
103.3344786432
 30
0.0
 10
210.1718511679
 20
103.2820607422
 30
0.0
 10
209.9909953073
 20
103.19218629
 30
0.0
 10
209.7138965247
 20
103.1038582085
 30
0.0
 10
209.4476813423
 20
103.0700442772
 30
0.0
 10
209.1982682648
 20
103.0926399042
 30
0.0
 10
208.9722082591
 20
103.1725622999
 30
0.0
 10
208.776654994
 20
103.3082568543
 30
0.0
 10
208.6175440599
 20
103.495009546
 30
0.0
 10
208.5410400761
 20
103.6436170959
 30
0.0
 10
208.5090928116
 20
103.72310157
 30
0.0
  0
SPLINE
  5
369
100
AcDbEntity
  8
0
100
AcDbSpline
 62
7
  6
CONTINUOUS
 70
0
 71
3
 72
14
 73
10
 74
0
 42
0.0000001
 43
0.0000001
 44
0.0000000001
 40
0.0
 40
0.0
 40
0.0
 40
0.0
 40
0.1080488667
 40
0.2181321678
 40
0.3321045072
 40
0.4515036959
 40
0.5774576959
 40
0.710717211
 40
1.0
 40
1.0
 40
1.0
 40
1.0
 10
212.5126030155
 20
109.3953446973
 30
0.0
 10
212.4388244716
 20
109.4379397077
 30
0.0
 10
212.2821766389
 20
109.5112813957
 30
0.0
 10
212.0287265922
 20
109.5813743012
 30
0.0
 10
211.7585353431
 20
109.6115147966
 30
0.0
 10
211.4745006126
 20
109.6016150743
 30
0.0
 10
211.1793092124
 20
109.5521145358
 30
0.0
 10
210.7634251325
 20
109.4308467433
 30
0.0
 10
210.4601709781
 20
109.286513551
 30
0.0
 10
210.2626421777
 20
109.1724709257
 30
0.0
  0
SPLINE
  5
36A
100
AcDbEntity
  8
0
100
AcDbSpline
 62
7
  6
CONTINUOUS
 70
0
 71
3
 72
11
 73
7
 74
0
 42
0.0000001
 43
0.0000001
 44
0.0000000001
 40
0.0
 40
0.0
 40
0.0
 40
0.0
 40
0.278937078
 40
0.5378689226
 40
0.7773049567
 40
1.0
 40
1.0
 40
1.0
 40
1.0
 10
208.9898446724
 20
104.9266395393
 30
0.0
 10
208.9406138377
 20
104.8982162733
 30
0.0
 10
208.8424595825
 20
104.8486836339
 30
0.0
 10
208.6922404407
 20
104.7966911211
 30
0.0
 10
208.5469130145
 20
104.7708164419
 30
0.0
 10
208.4520026534
 20
104.7715881191
 30
0.0
 10
208.4069238782
 20
104.7768495054
 30
0.0
  0
SPLINE
  5
36B
100
AcDbEntity
  8
0
100
AcDbSpline
 62
7
  6
CONTINUOUS
 70
0
 71
3
 72
23
 73
19
 74
0
 42
0.0000001
 43
0.0000001
 44
0.0000000001
 40
0.0
 40
0.0
 40
0.0
 40
0.0
 40
0.0491585562
 40
0.0948360355
 40
0.1393418639
 40
0.1852978286
 40
0.2349400869
 40
0.2896740522
 40
0.3500289584
 40
0.4158140311
 40
0.486303281
 40
0.5603923499
 40
0.6367256574
 40
0.7138037319
 40
0.7900804643
 40
0.864062465
 40
0.9344005313
 40
1.0
 40
1.0
 40
1.0
 40
1.0
 10
210.9231098099
 20
107.9043970468
 30
0.0
 10
211.0199436283
 20
107.9181828203
 30
0.0
 10
211.2107488323
 20
107.9248974165
 30
0.0
 10
211.4840206683
 20
107.8592383653
 30
0.0
 10
211.7200117515
 20
107.7176638213
 30
0.0
 10
211.9080001411
 20
107.5066755829
 30
0.0
 10
212.0426368462
 20
107.2363203914
 30
0.0
 10
212.1220996529
 20
106.9161631986
 30
0.0
 10
212.1456449133
 20
106.5554905342
 30
0.0
 10
212.1132983322
 20
106.1643919957
 30
0.0
 10
212.0262488549
 20
105.7539830656
 30
0.0
 10
211.8871098669
 20
105.3361467002
 30
0.0
 10
211.6999846314
 20
104.9231270096
 30
0.0
 10
211.4703928507
 20
104.5271003056
 30
0.0
 10
211.2051228174
 20
104.1597668914
 30
0.0
 10
210.9119574306
 20
103.8319355756
 30
0.0
 10
210.5995873945
 20
103.5533080146
 30
0.0
 10
210.3756781424
 20
103.3997395983
 30
0.0
 10
210.2626421777
 20
103.3344786432
 30
0.0
  0
SPLINE
  5
36C
100
AcDbEntity
  8
0
100
AcDbSpline
 62
7
  6
CONTINUOUS
 70
0
 71
3
 72
17
 73
13
 74
0
 42
0.0000001
 43
0.0000001
 44
0.0000000001
 40
0.0
 40
0.0
 40
0.0
 40
0.0
 40
0.1260498773
 40
0.264422025
 40
0.4087760662
 40
0.5517630061
 40
0.6862496507
 40
0.8065756051
 40
0.8605710923
 40
0.9104105026
 40
0.9565781574
 40
1.0
 40
1.0
 40
1.0
 40
1.0
 10
58.6585178847
 20
201.5989002456
 30
0.0
 10
58.6585178847
 20
201.2155538588
 30
0.0
 10
58.7598730593
 20
200.4104664393
 30
0.0
 10
59.1421814284
 20
199.2218182815
 30
0.0
 10
59.7354954597
 20
198.0647948887
 30
0.0
 10
60.4965880091
 20
197.0249697826
 30
0.0
 10
61.3692639303
 20
196.1784616296
 30
0.0
 10
62.1678763198
 20
195.6661529701
 30
0.0
 10
62.8065285027
 20
195.4213585192
 30
0.0
 10
63.2549769147
 20
195.3261461192
 30
0.0
 10
63.6814942232
 20
195.3153993131
 30
0.0
 10
63.951818811
 20
195.3670803603
 30
0.0
 10
64.0776060743
 20
195.4072832935
 30
0.0
  0
SPLINE
  5
36D
100
AcDbEntity
  8
0
100
AcDbSpline
 62
7
  6
CONTINUOUS
 70
0
 71
3
 72
11
 73
7
 74
0
 42
0.0000001
 43
0.0000001
 44
0.0000000001
 40
0.0
 40
0.0
 40
0.0
 40
0.0
 40
0.2897894332
 40
0.5490567506
 40
0.7822291216
 40
1.0
 40
1.0
 40
1.0
 40
1.0
 10
64.4921731172
 20
198.2309140208
 30
0.0
 10
64.4921731172
 20
198.0535202535
 30
0.0
 10
64.4653727085
 20
197.7162576841
 30
0.0
 10
64.3286572951
 20
197.2529133526
 30
0.0
 10
64.0987964325
 20
196.8768902543
 30
0.0
 10
63.8827165191
 20
196.695339095
 30
0.0
 10
63.7672751572
 20
196.628673768
 30
0.0
  0
SPLINE
  5
36E
100
AcDbEntity
  8
0
100
AcDbSpline
 62
7
  6
CONTINUOUS
 70
0
 71
3
 72
11
 73
7
 74
0
 42
0.0000001
 43
0.0000001
 44
0.0000000001
 40
0.0
 40
0.0
 40
0.0
 40
0.0
 40
0.2177689138
 40
0.4509403876
 40
0.7102101045
 40
1.0
 40
1.0
 40
1.0
 40
1.0
 10
60.8708536521
 20
202.4619485413
 30
0.0
 10
60.77190473
 20
202.4048076314
 30
0.0
 10
60.5866956284
 20
202.2491926136
 30
0.0
 10
60.3896686387
 20
201.9268899362
 30
0.0
 10
60.2724850112
 20
201.5297361789
 30
0.0
 10
60.2495118223
 20
201.240652944
 30
0.0
 10
60.2495118223
 20
201.0886010021
 30
0.0
  0
SPLINE
  5
36F
100
AcDbEntity
  8
0
100
AcDbSpline
 62
7
  6
CONTINUOUS
 70
0
 71
3
 72
12
 73
8
 74
0
 42
0.0000001
 43
0.0000001
 44
0.0000000001
 40
0.0
 40
0.0
 40
0.0
 40
0.0
 40
0.24598788
 40
0.4949046066
 40
0.7473667995
 40
0.8745375055
 40
1.0
 40
1.0
 40
1.0
 40
1.0
 10
69.3681397559
 20
197.4976517588
 30
0.0
 10
69.0472706915
 20
197.3498795911
 30
0.0
 10
68.4006010189
 20
197.0549631671
 30
0.0
 10
67.4192004251
 20
196.6204311554
 30
0.0
 10
66.5874721147
 20
196.2693354234
 30
0.0
 10
65.9117116061
 20
196.0056412976
 30
0.0
 10
65.5697147916
 20
195.8840451858
 30
0.0
 10
65.3980888195
 20
195.8292015644
 30
0.0
  0
SPLINE
  5
370
100
AcDbEntity
  8
0
100
AcDbSpline
 62
7
  6
CONTINUOUS
 70
0
 71
3
 72
9
 73
5
 74
0
 42
0.0000001
 43
0.0000001
 44
0.0000000001
 40
0.0
 40
0.0
 40
0.0
 40
0.0
 40
0.5164118446
 40
1.0
 40
1.0
 40
1.0
 40
1.0
 10
62.5861757357
 20
206.4276825558
 30
0.0
 10
62.4134585692
 20
206.2909033143
 30
0.0
 10
62.0813866537
 20
206.0230347991
 30
0.0
 10
61.7570610403
 20
205.7455976197
 30
0.0
 10
61.604416068
 20
205.6067995168
 30
0.0
  0
SPLINE
  5
371
100
AcDbEntity
  8
0
100
AcDbSpline
 62
7
  6
CONTINUOUS
 70
0
 71
3
 72
17
 73
13
 74
0
 42
0.0000001
 43
0.0000001
 44
0.0000000001
 40
0.0
 40
0.0
 40
0.0
 40
0.0
 40
0.0428585896
 40
0.0874886164
 40
0.1353233296
 40
0.1872868727
 40
0.3045519755
 40
0.4382202868
 40
0.5825647604
 40
0.7297203277
 40
0.8713075678
 40
1.0
 40
1.0
 40
1.0
 40
1.0
 10
41.4753430615
 20
213.1937170111
 30
0.0
 10
41.5468370049
 20
213.2349930256
 30
0.0
 10
41.7044318694
 20
213.3005085839
 30
0.0
 10
41.9645863867
 20
213.3386315844
 30
0.0
 10
42.2439655432
 20
213.3180685668
 30
0.0
 10
42.6499046092
 20
213.210101361
 30
0.0
 10
43.168817899
 20
212.9263324862
 30
0.0
 10
43.7421500062
 20
212.4185965318
 30
0.0
 10
44.2489367029
 20
211.7699209639
 30
0.0
 10
44.6477590506
 20
211.0327167286
 30
0.0
 10
44.9065975631
 20
210.2674477306
 30
0.0
 10
44.9759447031
 20
209.7462442959
 30
0.0
 10
44.9759447031
 20
209.4983588455
 30
0.0
  0
SPLINE
  5
372
100
AcDbEntity
  8
0
100
AcDbSpline
 62
7
  6
CONTINUOUS
 70
0
 71
3
 72
11
 73
7
 74
0
 42
0.0000001
 43
0.0000001
 44
0.0000000001
 40
0.0
 40
0.0
 40
0.0
 40
0.0
 40
0.2177697614
 40
0.4509415368
 40
0.7102113243
 40
1.0
 40
1.0
 40
1.0
 40
1.0
 10
41.175341305
 20
213.7133383981
 30
0.0
 10
41.0599004893
 20
213.6466736583
 30
0.0
 10
40.8438222872
 20
213.4651226628
 30
0.0
 10
40.6139581957
 20
213.0891014524
 30
0.0
 10
40.4772438962
 20
212.6257560283
 30
0.0
 10
40.4504424622
 20
212.2884928677
 30
0.0
 10
40.4504424622
 20
212.1110996745
 30
0.0
  0
SPLINE
  5
373
100
AcDbEntity
  8
0
100
AcDbSpline
 62
7
  6
CONTINUOUS
 70
0
 71
3
 72
12
 73
8
 74
0
 42
0.0000001
 43
0.0000001
 44
0.0000000001
 40
0.0
 40
0.0
 40
0.0
 40
0.0
 40
0.2895802184
 40
0.5486333627
 40
0.7816359182
 40
0.8918377609
 40
1.0
 40
1.0
 40
1.0
 40
1.0
 10
68.3812559977
 20
186.9223517602
 30
0.0
 10
68.5919482881
 20
186.8007112615
 30
0.0
 10
69.0109832445
 20
186.6013495522
 30
0.0
 10
69.6545867174
 20
186.4457509902
 30
0.0
 10
70.1685243391
 20
186.4593734041
 30
0.0
 10
70.5354259892
 20
186.5610043608
 30
0.0
 10
70.7025449786
 20
186.6392073393
 30
0.0
 10
70.7812411559
 20
186.6846423177
 30
0.0
  0
SPLINE
  5
374
100
AcDbEntity
  8
0
100
AcDbSpline
 62
7
  6
CONTINUOUS
 70
0
 71
3
 72
15
 73
11
 74
0
 42
0.0000001
 43
0.0000001
 44
0.0000000001
 40
0.0
 40
0.0
 40
0.0
 40
0.0
 40
0.1141555516
 40
0.2373276756
 40
0.3669773296
 40
0.5000011
 40
0.6330247168
 40
0.7626739247
 40
0.885845342
 40
1.0
 40
1.0
 40
1.0
 40
1.0
 10
38.1169597614
 20
208.3142676559
 30
0.0
 10
38.1169597614
 20
208.0459664962
 30
0.0
 10
38.166102936
 20
207.4876514205
 30
0.0
 10
38.3620112148
 20
206.6453725041
 30
0.0
 10
38.6758449747
 20
205.7922115099
 30
0.0
 10
39.0958756224
 20
204.9602500224
 30
0.0
 10
39.6063632283
 20
204.1805153737
 30
0.0
 10
40.1883071839
 20
203.4821522858
 30
0.0
 10
40.8197882526
 20
202.8913585608
 30
0.0
 10
41.278731327
 20
202.5696476854
 30
0.0
 10
41.5110864421
 20
202.435500432
 30
0.0
  0
SPLINE
  5
375
100
AcDbEntity
  8
0
100
AcDbSpline
 62
7
  6
CONTINUOUS
 70
0
 71
3
 72
21
 73
17
 74
0
 42
0.0000001
 43
0.0000001
 44
0.0000000001
 40
0.0
 40
0.0
 40
0.0
 40
0.0
 40
0.0624059336
 40
0.1287802775
 40
0.198399858
 40
0.2704081466
 40
0.4174472014
 40
0.5616807736
 40
0.6303080181
 40
0.6954238822
 40
0.7563980741
 40
0.812860221
 40
0.8647836888
 40
0.9125795186
 40
0.9571736294
 40
1.0
 40
1.0
 40
1.0
 40
1.0
 10
64.4921525094
 20
206.80412812
 30
0.0
 10
64.7436339115
 20
206.6589385495
 30
0.0
 10
65.2432549891
 20
206.3250382752
 30
0.0
 10
65.9507883868
 20
205.7296489394
 30
0.0
 10
66.6271481598
 20
205.0351948971
 30
0.0
 10
67.47353858
 20
203.9902412912
 30
0.0
 10
68.3630753667
 20
202.5428919522
 30
0.0
 10
68.9943287998
 20
200.9816793838
 30
0.0
 10
69.3061309934
 20
199.7244506616
 30
0.0
 10
69.4333444937
 20
198.8255543966
 30
0.0
 10
69.4550182998
 20
197.9742522711
 30
0.0
 10
69.3702127795
 20
197.1880420593
 30
0.0
 10
69.1797332868
 20
196.4831002402
 30
0.0
 10
68.8855454558
 20
195.8742908766
 30
0.0
 10
68.491851905
 20
195.3764740375
 30
0.0
 10
68.16470449
 20
195.1260833366
 30
0.0
 10
67.9921250846
 20
195.0264447223
 30
0.0
  0
SPLINE
  5
376
100
AcDbEntity
  8
0
100
AcDbSpline
 62
7
  6
CONTINUOUS
 70
0
 71
3
 72
10
 73
6
 74
0
 42
0.0000001
 43
0.0000001
 44
0.0000000001
 40
0.0
 40
0.0
 40
0.0
 40
0.0
 40
0.2352955031
 40
0.4771460935
 40
1.0
 40
1.0
 40
1.0
 40
1.0
 10
42.3395455668
 20
214.9628479017
 30
0.0
 10
42.2593621457
 20
214.9165546824
 30
0.0
 10
42.1061972952
 20
214.8051506769
 30
0.0
 10
41.8399406878
 20
214.5126042018
 30
0.0
 10
41.7057873188
 20
214.2347425533
 30
0.0
 10
41.6422698045
 20
214.0390526664
 30
0.0
  0
SPLINE
  5
377
100
AcDbEntity
  8
0
100
AcDbSpline
 62
7
  6
CONTINUOUS
 70
0
 71
3
 72
12
 73
8
 74
0
 42
0.0000001
 43
0.0000001
 44
0.0000000001
 40
0.0
 40
0.0
 40
0.0
 40
0.0
 40
0.289581202
 40
0.5486347013
 40
0.7816368512
 40
0.8918382666
 40
1.0
 40
1.0
 40
1.0
 40
1.0
 10
73.1895903528
 20
189.6984960485
 30
0.0
 10
73.1895903528
 20
189.4552035862
 30
0.0
 10
73.152728496
 20
188.9926139241
 30
0.0
 10
72.9656790495
 20
188.3574183089
 30
0.0
 10
72.6969080138
 20
187.9191334945
 30
0.0
 10
72.4254357795
 20
187.6521963351
 30
0.0
 10
72.2741467416
 20
187.5465666145
 30
0.0
 10
72.1954488303
 20
187.5011306254
 30
0.0
  0
SPLINE
  5
378
100
AcDbEntity
  8
0
100
AcDbSpline
 62
7
  6
CONTINUOUS
 70
0
 71
3
 72
11
 73
7
 74
0
 42
0.0000001
 43
0.0000001
 44
0.0000000001
 40
0.0
 40
0.0
 40
0.0
 40
0.0
 40
0.2177689138
 40
0.4509403876
 40
0.7102101045
 40
1.0
 40
1.0
 40
1.0
 40
1.0
 10
51.3248723626
 20
207.9731987274
 30
0.0
 10
51.2259234405
 20
207.9160578175
 30
0.0
 10
51.0407143389
 20
207.7604427996
 30
0.0
 10
50.8436873492
 20
207.4381401222
 30
0.0
 10
50.7265037217
 20
207.0409863649
 30
0.0
 10
50.7035305328
 20
206.7519031301
 30
0.0
 10
50.7035305328
 20
206.5998511881
 30
0.0
  0
SPLINE
  5
379
100
AcDbEntity
  8
0
100
AcDbSpline
 62
7
  6
CONTINUOUS
 70
0
 71
3
 72
17
 73
13
 74
0
 42
0.0000001
 43
0.0000001
 44
0.0000000001
 40
0.0
 40
0.0
 40
0.0
 40
0.0
 40
0.0428597109
 40
0.0874892491
 40
0.1353237344
 40
0.1872891656
 40
0.3045518404
 40
0.4382210379
 40
0.5825664504
 40
0.7297206488
 40
0.8713092571
 40
1.0
 40
1.0
 40
1.0
 40
1.0
 10
50.7213217116
 20
208.2020897412
 30
0.0
 10
50.8076043856
 20
208.2519164461
 30
0.0
 10
50.9978281596
 20
208.3309407937
 30
0.0
 10
51.3117958024
 20
208.3769850975
 30
0.0
 10
51.6489883612
 20
208.3521859215
 30
0.0
 10
52.1388949635
 20
208.2218169552
 30
0.0
 10
52.7652009939
 20
207.879408465
 30
0.0
 10
53.4571257842
 20
207.2665767771
 30
0.0
 10
54.0687633466
 20
206.4836982876
 30
0.0
 10
54.5501292728
 20
205.5939770174
 30
0.0
 10
54.8624900887
 20
204.6703689724
 30
0.0
 10
54.9461918277
 20
204.0413326898
 30
0.0
 10
54.9461918277
 20
203.7421642068
 30
0.0
  0
SPLINE
  5
37A
100
AcDbEntity
  8
0
100
AcDbSpline
 62
7
  6
CONTINUOUS
 70
0
 71
3
 72
11
 73
7
 74
0
 42
0.0000001
 43
0.0000001
 44
0.0000000001
 40
0.0
 40
0.0
 40
0.0
 40
0.0
 40
0.2190098651
 40
0.4554836677
 40
0.7151567722
 40
1.0
 40
1.0
 40
1.0
 40
1.0
 10
49.8187320858
 20
209.0815507901
 30
0.0
 10
49.7025444791
 20
208.9759204159
 30
0.0
 10
49.4919458058
 20
208.7203986894
 30
0.0
 10
49.2710749183
 20
208.2531228377
 30
0.0
 10
49.1390574138
 20
207.705668604
 30
0.0
 10
49.1125365952
 20
207.3143784373
 30
0.0
 10
49.1125365952
 20
207.1101504316
 30
0.0
  0
SPLINE
  5
37B
100
AcDbEntity
  8
0
100
AcDbSpline
 62
7
  6
CONTINUOUS
 70
0
 71
3
 72
13
 73
9
 74
0
 42
0.0000001
 43
0.0000001
 44
0.0000000001
 40
0.0
 40
0.0
 40
0.0
 40
0.0
 40
0.1080954013
 40
0.2182277661
 40
0.3322536475
 40
0.4517064024
 40
0.7105885478
 40
1.0
 40
1.0
 40
1.0
 40
1.0
 10
41.9002173553
 20
218.1732780501
 30
0.0
 10
42.014982427
 20
218.2395375941
 30
0.0
 10
42.2586367311
 20
218.3536710051
 30
0.0
 10
42.6529071061
 20
218.4626679912
 30
0.0
 10
43.0732197978
 20
218.5095643778
 30
0.0
 10
43.6783017427
 20
218.4884818787
 30
0.0
 10
44.4823315272
 20
218.2948726775
 30
0.0
 10
45.0929196779
 20
218.0040270418
 30
0.0
 10
45.4001899304
 20
217.8266284921
 30
0.0
  0
SPLINE
  5
37C
100
AcDbEntity
  8
0
100
AcDbSpline
 62
7
  6
CONTINUOUS
 70
0
 71
3
 72
11
 73
7
 74
0
 42
0.0000001
 43
0.0000001
 44
0.0000000001
 40
0.0
 40
0.0
 40
0.0
 40
0.0
 40
0.2190098651
 40
0.4554836677
 40
0.7151567722
 40
1.0
 40
1.0
 40
1.0
 40
1.0
 10
59.3647133753
 20
203.5703006041
 30
0.0
 10
59.2485257686
 20
203.4646702299
 30
0.0
 10
59.0379270953
 20
203.2091485034
 30
0.0
 10
58.8170562078
 20
202.7418726516
 30
0.0
 10
58.6850387033
 20
202.194418418
 30
0.0
 10
58.6585178847
 20
201.8031282513
 30
0.0
 10
58.6585178847
 20
201.5989002456
 30
0.0
  0
SPLINE
  5
37D
100
AcDbEntity
  8
0
100
AcDbSpline
 62
7
  6
CONTINUOUS
 70
0
 71
3
 72
17
 73
13
 74
0
 42
0.0000001
 43
0.0000001
 44
0.0000000001
 40
0.0
 40
0.0
 40
0.0
 40
0.0
 40
0.0428597109
 40
0.0874892491
 40
0.1353237344
 40
0.1872891656
 40
0.3045518404
 40
0.4382210379
 40
0.5825664504
 40
0.7297206488
 40
0.8713092571
 40
1.0
 40
1.0
 40
1.0
 40
1.0
 10
60.2673030011
 20
202.6908395552
 30
0.0
 10
60.3535856751
 20
202.7406662601
 30
0.0
 10
60.5438094491
 20
202.8196906077
 30
0.0
 10
60.8577770918
 20
202.8657349115
 30
0.0
 10
61.1949696507
 20
202.8409357355
 30
0.0
 10
61.684876253
 20
202.7105667692
 30
0.0
 10
62.3111822833
 20
202.368158279
 30
0.0
 10
63.0031070737
 20
201.755326591
 30
0.0
 10
63.6147446361
 20
200.9724481016
 30
0.0
 10
64.0961105622
 20
200.0827268314
 30
0.0
 10
64.4084713782
 20
199.1591187863
 30
0.0
 10
64.4921731172
 20
198.5300825037
 30
0.0
 10
64.4921731172
 20
198.2309140208
 30
0.0
  0
SPLINE
  5
37E
100
AcDbEntity
  8
0
100
AcDbSpline
 62
7
  6
CONTINUOUS
 70
0
 71
3
 72
17
 73
13
 74
0
 42
0.0000001
 43
0.0000001
 44
0.0000000001
 40
0.0
 40
0.0
 40
0.0
 40
0.0
 40
0.1286894184
 40
0.2702754234
 40
0.4174277438
 40
0.5617747655
 40
0.6954471371
 40
0.8127114826
 40
0.8646769314
 40
0.9125112108
 40
0.9571404173
 40
1.0
 40
1.0
 40
1.0
 40
1.0
 10
60.2495118223
 20
201.0886010021
 30
0.0
 10
60.2495118223
 20
200.8321735163
 30
0.0
 10
60.3212543049
 20
200.2930074796
 30
0.0
 10
60.5889841223
 20
199.5013529824
 30
0.0
 10
61.0015786268
 20
198.7387388346
 30
0.0
 10
61.5258374795
 20
198.0676912122
 30
0.0
 10
62.1189243171
 20
197.5423967402
 30
0.0
 10
62.6557663671
 20
197.2488977503
 30
0.0
 10
63.0756896878
 20
197.1371542046
 30
0.0
 10
63.3647106746
 20
197.1158972096
 30
0.0
 10
63.6338247089
 20
197.1553639354
 30
0.0
 10
63.796871882
 20
197.2231006432
 30
0.0
 10
63.8708283435
 20
197.2658089357
 30
0.0
  0
SPLINE
  5
37F
100
AcDbEntity
  8
0
100
AcDbSpline
 62
7
  6
CONTINUOUS
 70
0
 71
3
 72
11
 73
7
 74
0
 42
0.0000001
 43
0.0000001
 44
0.0000000001
 40
0.0
 40
0.0
 40
0.0
 40
0.0
 40
0.2897733987
 40
0.5490669313
 40
0.782226121
 40
1.0
 40
1.0
 40
1.0
 40
1.0
 10
44.9759447031
 20
209.4983588455
 30
0.0
 10
44.9759447031
 20
209.3513843976
 30
0.0
 10
44.9537241637
 20
209.0719387014
 30
0.0
 10
44.8404723858
 20
208.6880156616
 30
0.0
 10
44.6499805972
 20
208.3764741147
 30
0.0
 10
44.4709681949
 20
208.2260239938
 30
0.0
 10
44.3753099389
 20
208.1707970561
 30
0.0
  0
SPLINE
  5
380
100
AcDbEntity
  8
0
100
AcDbSpline
 62
7
  6
CONTINUOUS
 70
0
 71
3
 72
17
 73
13
 74
0
 42
0.0000001
 43
0.0000001
 44
0.0000000001
 40
0.0
 40
0.0
 40
0.0
 40
0.0
 40
0.1286888685
 40
0.2702755193
 40
0.417429359
 40
0.5617771341
 40
0.6954484291
 40
0.8127114624
 40
0.8646765362
 40
0.912510719
 40
0.9571401177
 40
1.0
 40
1.0
 40
1.0
 40
1.0
 10
40.4504424622
 20
212.1110996745
 30
0.0
 10
40.4504424622
 20
211.8119355566
 30
0.0
 10
40.5341420488
 20
211.1829083596
 30
0.0
 10
40.8464940634
 20
210.2593076267
 30
0.0
 10
41.3278586437
 20
209.3695855692
 30
0.0
 10
41.9394977852
 20
208.5866960435
 30
0.0
 10
42.6314310057
 20
207.9738568175
 30
0.0
 10
43.2577413814
 20
207.6314452384
 30
0.0
 10
43.7476478624
 20
207.501079131
 30
0.0
 10
44.0848382934
 20
207.4762781948
 30
0.0
 10
44.3988055621
 20
207.5223229004
 30
0.0
 10
44.5890285905
 20
207.6013489187
 30
0.0
 10
44.6753116953
 20
207.6511756692
 30
0.0
  0
SPLINE
  5
381
100
AcDbEntity
  8
0
100
AcDbSpline
 62
7
  6
CONTINUOUS
 70
0
 71
3
 72
10
 73
6
 74
0
 42
0.0000001
 43
0.0000001
 44
0.0000000001
 40
0.0
 40
0.0
 40
0.0
 40
0.0
 40
0.5229464116
 40
0.7647587228
 40
1.0
 40
1.0
 40
1.0
 40
1.0
 10
45.1880790807
 20
207.8932980958
 30
0.0
 10
45.3897709175
 20
207.8500925437
 30
0.0
 10
45.698236945
 20
207.8268983872
 30
0.0
 10
46.0856976267
 20
207.9111879967
 30
0.0
 10
46.2591665436
 20
207.9882497869
 30
0.0
 10
46.3395227824
 20
208.034642781
 30
0.0
  0
SPLINE
  5
382
100
AcDbEntity
  8
0
100
AcDbSpline
 62
7
  6
CONTINUOUS
 70
0
 71
3
 72
17
 73
13
 74
0
 42
0.0000001
 43
0.0000001
 44
0.0000000001
 40
0.0
 40
0.0
 40
0.0
 40
0.0
 40
0.1286894184
 40
0.2702754234
 40
0.4174277438
 40
0.5617747655
 40
0.6954471371
 40
0.8127114826
 40
0.8646769314
 40
0.9125112108
 40
0.9571404173
 40
1.0
 40
1.0
 40
1.0
 40
1.0
 10
50.7035305328
 20
206.5998511881
 30
0.0
 10
50.7035305328
 20
206.3434237023
 30
0.0
 10
50.7752730154
 20
205.8042576656
 30
0.0
 10
51.0430028328
 20
205.0126031684
 30
0.0
 10
51.4555973373
 20
204.2499890206
 30
0.0
 10
51.97985619
 20
203.5789413982
 30
0.0
 10
52.5729430277
 20
203.0536469262
 30
0.0
 10
53.1097850776
 20
202.7601479363
 30
0.0
 10
53.5297083983
 20
202.6484043906
 30
0.0
 10
53.8187293851
 20
202.6271473957
 30
0.0
 10
54.0878434194
 20
202.6666141214
 30
0.0
 10
54.2508905925
 20
202.7343508293
 30
0.0
 10
54.324847054
 20
202.7770591217
 30
0.0
  0
SPLINE
  5
383
100
AcDbEntity
  8
0
100
AcDbSpline
 62
7
  6
CONTINUOUS
 70
0
 71
3
 72
11
 73
7
 74
0
 42
0.0000001
 43
0.0000001
 44
0.0000000001
 40
0.0
 40
0.0
 40
0.0
 40
0.0
 40
0.2897894332
 40
0.5490567506
 40
0.7822291216
 40
1.0
 40
1.0
 40
1.0
 40
1.0
 10
54.9461918277
 20
203.7421642068
 30
0.0
 10
54.9461918277
 20
203.5647704396
 30
0.0
 10
54.919391419
 20
203.2275078701
 30
0.0
 10
54.7826760056
 20
202.7641635386
 30
0.0
 10
54.552815143
 20
202.3881404403
 30
0.0
 10
54.3367352297
 20
202.206589281
 30
0.0
 10
54.2212938677
 20
202.139923954
 30
0.0
  0
SPLINE
  5
384
100
AcDbEntity
  8
0
100
AcDbSpline
 62
7
  6
CONTINUOUS
 70
0
 71
3
 72
17
 73
13
 74
0
 42
0.0000001
 43
0.0000001
 44
0.0000000001
 40
0.0
 40
0.0
 40
0.0
 40
0.0
 40
0.1260498773
 40
0.264422025
 40
0.4087760662
 40
0.5517630061
 40
0.6862496507
 40
0.8065756051
 40
0.8605710923
 40
0.9104105026
 40
0.9565781574
 40
1.0
 40
1.0
 40
1.0
 40
1.0
 10
49.1125365952
 20
207.1101504316
 30
0.0
 10
49.1125365952
 20
206.7268040448
 30
0.0
 10
49.2138917698
 20
205.9217166253
 30
0.0
 10
49.5962001389
 20
204.7330684675
 30
0.0
 10
50.1895141702
 20
203.5760450747
 30
0.0
 10
50.9506067196
 20
202.5362199686
 30
0.0
 10
51.8232826408
 20
201.6897118157
 30
0.0
 10
52.6218950303
 20
201.1774031562
 30
0.0
 10
53.2605472132
 20
200.9326087053
 30
0.0
 10
53.7089956253
 20
200.8373963052
 30
0.0
 10
54.1355129337
 20
200.8266494991
 30
0.0
 10
54.4058375215
 20
200.8783305463
 30
0.0
 10
54.5316247848
 20
200.9185334795
 30
0.0
  0
SPLINE
  5
385
100
AcDbEntity
  8
0
100
AcDbSpline
 62
7
  6
CONTINUOUS
 70
0
 71
3
 72
9
 73
5
 74
0
 42
0.0000001
 43
0.0000001
 44
0.0000000001
 40
0.0
 40
0.0
 40
0.0
 40
0.0
 40
0.5164118446
 40
1.0
 40
1.0
 40
1.0
 40
1.0
 10
53.0401944462
 20
211.9389327418
 30
0.0
 10
52.8674772797
 20
211.8021535004
 30
0.0
 10
52.5354053643
 20
211.5342849851
 30
0.0
 10
52.2110797508
 20
211.2568478057
 30
0.0
 10
52.0584347785
 20
211.1180497028
 30
0.0
  0
SPLINE
  5
386
100
AcDbEntity
  8
0
100
AcDbSpline
 62
7
  6
CONTINUOUS
 70
0
 71
3
 72
12
 73
8
 74
0
 42
0.0000001
 43
0.0000001
 44
0.0000000001
 40
0.0
 40
0.0
 40
0.0
 40
0.0
 40
0.2471893105
 40
0.4969673726
 40
0.7493019648
 40
0.875661122
 40
1.0
 40
1.0
 40
1.0
 40
1.0
 10
58.845457809
 20
202.5642497821
 30
0.0
 10
58.6023060964
 20
202.4550048689
 30
0.0
 10
58.1125395715
 20
202.2373918945
 30
0.0
 10
57.3702339332
 20
201.9181295343
 30
0.0
 10
56.7427502232
 20
201.6617663228
 30
0.0
 10
56.2353148136
 20
201.4699220692
 30
0.0
 10
55.9798302091
 20
201.3812659359
 30
0.0
 10
55.85210753
 20
201.3404517504
 30
0.0
  0
SPLINE
  5
387
100
AcDbEntity
  8
0
100
AcDbSpline
 62
7
  6
CONTINUOUS
 70
0
 71
3
 72
25
 73
21
 74
0
 42
0.0000001
 43
0.0000001
 44
0.0000000001
 40
0.0
 40
0.0
 40
0.0
 40
0.0
 40
0.1126239774
 40
0.169070395
 40
0.2257163751
 40
0.2827664456
 40
0.3406922377
 40
0.3703523309
 40
0.4008204909
 40
0.4325300379
 40
0.4658932086
 40
0.5008001946
 40
0.5363953763
 40
0.57183295
 40
0.6067641445
 40
0.675020243
 40
0.7416958751
 40
0.8072696517
 40
0.8720572579
 40
1.0
 40
1.0
 40
1.0
 40
1.0
 10
65.5784357537
 20
205.9556603674
 30
0.0
 10
65.4296944081
 20
205.7266242714
 30
0.0
 10
65.2153416272
 20
205.3766263048
 30
0.0
 10
64.9601583902
 20
204.8922136117
 30
0.0
 10
64.7892348005
 20
204.5163345846
 30
0.0
 10
64.6480451797
 20
204.1243192234
 30
0.0
 10
64.5695242662
 20
203.7807892113
 30
0.0
 10
64.5476529003
 20
203.4947578171
 30
0.0
 10
64.5603484575
 20
203.2715668336
 30
0.0
 10
64.6142377238
 20
203.0446508347
 30
0.0
 10
64.722518431
 20
202.8250408273
 30
0.0
 10
64.887918632
 20
202.631750045
 30
0.0
 10
65.0956023514
 20
202.4776729451
 30
0.0
 10
65.325968939
 20
202.3618118717
 30
0.0
 10
65.6434555858
 20
202.2495223005
 30
0.0
 10
66.048359828
 20
202.1657149091
 30
0.0
 10
66.532659729
 20
202.1182175106
 30
0.0
 10
67.0105663166
 20
202.1050360363
 30
0.0
 10
67.6369145348
 20
202.1189868293
 30
0.0
 10
68.1032332625
 20
202.1551189862
 30
0.0
 10
68.4119211669
 20
202.1861318359
 30
0.0
  0
SPLINE
  5
388
100
AcDbEntity
  8
0
100
AcDbSpline
 62
7
  6
CONTINUOUS
 70
0
 71
3
 72
12
 73
8
 74
0
 42
0.0000001
 43
0.0000001
 44
0.0000000001
 40
0.0
 40
0.0
 40
0.0
 40
0.0
 40
0.1081617394
 40
0.2183631591
 40
0.4513653165
 40
0.7104188067
 40
1.0
 40
1.0
 40
1.0
 40
1.0
 10
70.7812411559
 20
186.6846423177
 30
0.0
 10
70.8599390757
 20
186.7300783021
 30
0.0
 10
71.0112281146
 20
186.8357080384
 30
0.0
 10
71.2827003635
 20
187.1026452033
 30
0.0
 10
71.5514713841
 20
187.5409300325
 30
0.0
 10
71.7385208308
 20
188.1761256367
 30
0.0
 10
71.7753826784
 20
188.6387152855
 30
0.0
 10
71.7753826784
 20
188.8820077407
 30
0.0
  0
SPLINE
  5
389
100
AcDbEntity
  8
0
100
AcDbSpline
 62
7
  6
CONTINUOUS
 70
0
 71
3
 72
11
 73
7
 74
0
 42
0.0000001
 43
0.0000001
 44
0.0000000001
 40
0.0
 40
0.0
 40
0.0
 40
0.0
 40
0.217767291
 40
0.4509467114
 40
0.7101996185
 40
1.0
 40
1.0
 40
1.0
 40
1.0
 10
46.3395227824
 20
208.034642781
 30
0.0
 10
46.4714619814
 20
208.1108167605
 30
0.0
 10
46.7184081145
 20
208.3183205241
 30
0.0
 10
46.9810856858
 20
208.7480609358
 30
0.0
 10
47.1373536715
 20
209.277594742
 30
0.0
 10
47.1679730752
 20
209.6630383876
 30
0.0
 10
47.1679730752
 20
209.8657823233
 30
0.0
  0
SPLINE
  5
38A
100
AcDbEntity
  8
0
100
AcDbSpline
 62
7
  6
CONTINUOUS
 70
0
 71
3
 72
33
 73
29
 74
0
 42
0.0000001
 43
0.0000001
 44
0.0000000001
 40
0.0
 40
0.0
 40
0.0
 40
0.0
 40
0.0436717847
 40
0.0844294618
 40
0.1211836099
 40
0.1375573078
 40
0.1522205019
 40
0.1648559062
 40
0.1703632426
 40
0.1753655915
 40
0.1800240383
 40
0.1846836724
 40
0.1961258111
 40
0.2041569841
 40
0.2142254745
 40
0.2408864904
 40
0.2750660235
 40
0.3140750363
 40
0.3556366652
 40
0.3984191641
 40
0.4417384292
 40
0.4852516178
 40
0.5722551245
 40
0.6588455631
 40
0.744895556
 40
0.8304089863
 40
0.9154274248
 40
1.0
 40
1.0
 40
1.0
 40
1.0
 10
61.604416068
 20
205.6067995168
 30
0.0
 10
61.5461960295
 20
205.5538607873
 30
0.0
 10
61.4348596472
 20
205.4501437058
 30
0.0
 10
61.2806213692
 20
205.2955252768
 30
0.0
 10
61.1678948686
 20
205.1691088532
 30
0.0
 10
61.094402659
 20
205.0714039458
 30
0.0
 10
61.0524315752
 20
205.0047540331
 30
0.0
 10
61.0275361496
 20
204.9506829947
 30
0.0
 10
61.0176250162
 20
204.9100157985
 30
0.0
 10
61.0160299277
 20
204.88252734
 30
0.0
 10
61.021092984
 20
204.8568493389
 30
0.0
 10
61.040505712
 20
204.8238796787
 30
0.0
 10
61.0819023448
 20
204.8028478927
 30
0.0
 10
61.1340085895
 20
204.7930674594
 30
0.0
 10
61.2149409424
 20
204.7893232931
 30
0.0
 10
61.3423634707
 20
204.8037506694
 30
0.0
 10
61.5184901251
 20
204.8409111858
 30
0.0
 10
61.7179782674
 20
204.8956400362
 30
0.0
 10
61.930009921
 20
204.9623842638
 30
0.0
 10
62.1475999497
 20
205.0370656716
 30
0.0
 10
62.367071453
 20
205.116942209
 30
0.0
 10
62.6598908955
 20
205.2281704781
 30
0.0
 10
63.0233107413
 20
205.3730039603
 30
0.0
 10
63.4553911843
 20
205.55241374
 30
0.0
 10
63.8831064484
 20
205.7352616138
 30
0.0
 10
64.3067616143
 20
205.9203564602
 30
0.0
 10
64.7268147343
 20
206.107020925
 30
0.0
 10
65.0054250438
 20
206.2325365842
 30
0.0
 10
65.1442306037
 20
206.2954230852
 30
0.0
  0
SPLINE
  5
38B
100
AcDbEntity
  8
0
100
AcDbSpline
 62
7
  6
CONTINUOUS
 70
0
 71
3
 72
17
 73
13
 74
0
 42
0.0000001
 43
0.0000001
 44
0.0000000001
 40
0.0
 40
0.0
 40
0.0
 40
0.0
 40
0.1315535964
 40
0.2612959226
 40
0.3887710009
 40
0.5133483891
 40
0.6341801245
 40
0.7504535095
 40
0.807364842
 40
0.8649188589
 40
0.9269665502
 40
1.0
 40
1.0
 40
1.0
 40
1.0
 10
69.3649668717
 20
197.5838387288
 30
0.0
 10
69.2267125067
 20
197.5626267814
 30
0.0
 10
68.9515666083
 20
197.5238959876
 30
0.0
 10
68.5405088969
 20
197.4794625806
 30
0.0
 10
68.1352841392
 20
197.453201443
 30
0.0
 10
67.7383792403
 20
197.4514756243
 30
0.0
 10
67.3548588918
 20
197.4849395737
 30
0.0
 10
67.0481084429
 20
197.559469839
 30
0.0
 10
66.8279547851
 20
197.6707566703
 30
0.0
 10
66.6824637947
 20
197.7932757144
 30
0.0
 10
66.576032571
 20
197.9737485309
 30
0.0
 10
66.555383989
 20
198.1197182175
 30
0.0
 10
66.555383989
 20
198.1973698009
 30
0.0
  0
SPLINE
  5
38C
100
AcDbEntity
  8
0
100
AcDbSpline
 62
7
  6
CONTINUOUS
 70
0
 71
3
 72
14
 73
10
 74
0
 42
0.0000001
 43
0.0000001
 44
0.0000000001
 40
0.0
 40
0.0
 40
0.0
 40
0.0
 40
0.1103473166
 40
0.2204132181
 40
0.3329880888
 40
0.4505624516
 40
0.5750610322
 40
0.7078342453
 40
1.0
 40
1.0
 40
1.0
 40
1.0
 10
64.0776060743
 20
195.4072832935
 30
0.0
 10
64.1771034829
 20
195.4390837124
 30
0.0
 10
64.3703882131
 20
195.5217605215
 30
0.0
 10
64.6314817248
 20
195.7018738354
 30
0.0
 10
64.8575679873
 20
195.9339452456
 30
0.0
 10
65.0454202746
 20
196.2141698104
 30
0.0
 10
65.1931956191
 20
196.538333813
 30
0.0
 10
65.3392240549
 20
197.0389094689
 30
0.0
 10
65.3760602736
 20
197.444046414
 30
0.0
 10
65.3760602736
 20
197.7206130776
 30
0.0
  0
SPLINE
  5
38D
100
AcDbEntity
  8
0
100
AcDbSpline
 62
7
  6
CONTINUOUS
 70
0
 71
3
 72
17
 73
13
 74
0
 42
0.0000001
 43
0.0000001
 44
0.0000000001
 40
0.0
 40
0.0
 40
0.0
 40
0.0
 40
0.0428597109
 40
0.0874892491
 40
0.1353237344
 40
0.1872891656
 40
0.3045518404
 40
0.4382210379
 40
0.5825664504
 40
0.7297206488
 40
0.8713092571
 40
1.0
 40
1.0
 40
1.0
 40
1.0
 10
63.7672751572
 20
196.628673768
 30
0.0
 10
63.6809924832
 20
196.5788470631
 30
0.0
 10
63.4907687092
 20
196.4998227155
 30
0.0
 10
63.1768010665
 20
196.4537784117
 30
0.0
 10
62.8396085076
 20
196.4785775877
 30
0.0
 10
62.3497019053
 20
196.608946554
 30
0.0
 10
61.723395875
 20
196.9513550442
 30
0.0
 10
61.0314710847
 20
197.5641867321
 30
0.0
 10
60.4198335222
 20
198.3470652216
 30
0.0
 10
59.9384675961
 20
199.2367864918
 30
0.0
 10
59.6261067801
 20
200.1603945368
 30
0.0
 10
59.5424050411
 20
200.7894308194
 30
0.0
 10
59.5424050411
 20
201.0885993024
 30
0.0
  0
SPLINE
  5
38E
100
AcDbEntity
  8
0
100
AcDbSpline
 62
7
  6
CONTINUOUS
 70
0
 71
3
 72
9
 73
5
 74
0
 42
0.0000001
 43
0.0000001
 44
0.0000000001
 40
0.0
 40
0.0
 40
0.0
 40
0.0
 40
0.2565793853
 40
1.0
 40
1.0
 40
1.0
 40
1.0
 10
68.6729090006
 20
197.0905873631
 30
0.0
 10
68.7218090848
 20
197.0697748004
 30
0.0
 10
68.9135780703
 20
196.9914923765
 30
0.0
 10
69.1101880607
 20
196.9248973767
 30
0.0
 10
69.2584342625
 20
196.8832558842
 30
0.0
  0
SPLINE
  5
38F
100
AcDbEntity
  8
0
100
AcDbSpline
 62
7
  6
CONTINUOUS
 70
0
 71
3
 72
11
 73
7
 74
0
 42
0.0000001
 43
0.0000001
 44
0.0000000001
 40
0.0
 40
0.0
 40
0.0
 40
0.0
 40
0.2833571739
 40
0.540436489
 40
0.7762631212
 40
1.0
 40
1.0
 40
1.0
 40
1.0
 10
62.1459534575
 20
202.4294123366
 30
0.0
 10
62.0322415421
 20
202.4810622606
 30
0.0
 10
61.8070292961
 20
202.5630371326
 30
0.0
 10
61.466126924
 20
202.6149380254
 30
0.0
 10
61.1480601971
 20
202.5863424274
 30
0.0
 10
60.9562512908
 20
202.5112638717
 30
0.0
 10
60.8708536521
 20
202.4619485413
 30
0.0
  0
SPLINE
  5
390
100
AcDbEntity
  8
0
100
AcDbSpline
 62
7
  6
CONTINUOUS
 70
0
 71
3
 72
11
 73
7
 74
0
 42
0.0000001
 43
0.0000001
 44
0.0000000001
 40
0.0
 40
0.0
 40
0.0
 40
0.0
 40
0.2296517625
 40
0.4683644036
 40
0.7234838883
 40
1.0
 40
1.0
 40
1.0
 40
1.0
 10
54.324847054
 20
202.7770591217
 30
0.0
 10
54.3969749674
 20
202.8187114663
 30
0.0
 10
54.5338670223
 20
202.9227333274
 30
0.0
 10
54.6998279033
 20
203.1288282305
 30
0.0
 10
54.8254765522
 20
203.3804063369
 30
0.0
 10
54.8788671624
 20
203.5667896848
 30
0.0
 10
54.8992325317
 20
203.6649878017
 30
0.0
  0
SPLINE
  5
391
100
AcDbEntity
  8
0
100
AcDbSpline
 62
7
  6
CONTINUOUS
 70
0
 71
3
 72
9
 73
5
 74
0
 42
0.0000001
 43
0.0000001
 44
0.0000000001
 40
0.0
 40
0.0
 40
0.0
 40
0.0
 40
0.2453100136
 40
1.0
 40
1.0
 40
1.0
 40
1.0
 10
54.913488247
 20
203.7409240952
 30
0.0
 10
54.9163478558
 20
203.7578820071
 30
0.0
 10
54.9271681059
 20
203.8271500609
 30
0.0
 10
54.9347107477
 20
203.8969216211
 30
0.0
 10
54.9387218752
 20
203.9496764956
 30
0.0
  0
SPLINE
  5
392
100
AcDbEntity
  8
0
100
AcDbSpline
 62
7
  6
CONTINUOUS
 70
0
 71
3
 72
14
 73
10
 74
0
 42
0.0000001
 43
0.0000001
 44
0.0000000001
 40
0.0
 40
0.0
 40
0.0
 40
0.0
 40
0.0946116218
 40
0.1941452176
 40
0.3023707623
 40
0.4214080764
 40
0.5518281297
 40
0.692970665
 40
1.0
 40
1.0
 40
1.0
 40
1.0
 10
44.3753099389
 20
208.1707970561
 30
0.0
 10
44.2944499634
 20
208.1241136958
 30
0.0
 10
44.1133782495
 20
208.0525452221
 30
0.0
 10
43.8132575246
 20
208.022975906
 30
0.0
 10
43.4913674233
 20
208.068223482
 30
0.0
 10
43.156390171
 20
208.1851727752
 30
0.0
 10
42.8163690138
 20
208.369808292
 30
0.0
 10
42.3552602151
 20
208.7086575861
 30
0.0
 10
42.0482771206
 20
209.0334663126
 30
0.0
 10
41.8615628297
 20
209.2720953542
 30
0.0
  0
SPLINE
  5
393
100
AcDbEntity
  8
0
100
AcDbSpline
 62
7
  6
CONTINUOUS
 70
0
 71
3
 72
11
 73
7
 74
0
 42
0.0000001
 43
0.0000001
 44
0.0000000001
 40
0.0
 40
0.0
 40
0.0
 40
0.0
 40
0.2618132365
 40
0.5229084363
 40
0.7721130537
 40
1.0
 40
1.0
 40
1.0
 40
1.0
 10
41.8615628297
 20
209.2720953542
 30
0.0
 10
41.7099151479
 20
209.4659077335
 30
0.0
 10
41.4364952319
 20
209.8768991995
 30
0.0
 10
41.1253017133
 20
210.5353912614
 30
0.0
 10
40.9265676913
 20
211.203013574
 30
0.0
 10
40.8747082973
 20
211.6519541168
 30
0.0
 10
40.8747082973
 20
211.8661552217
 30
0.0
  0
SPLINE
  5
394
100
AcDbEntity
  8
0
100
AcDbSpline
 62
7
  6
CONTINUOUS
 70
0
 71
3
 72
17
 73
13
 74
0
 42
0.0000001
 43
0.0000001
 44
0.0000000001
 40
0.0
 40
0.0
 40
0.0
 40
0.0
 40
0.0428597109
 40
0.0874892491
 40
0.1353237344
 40
0.1872891656
 40
0.3045518404
 40
0.4382210379
 40
0.5825664504
 40
0.7297206488
 40
0.8713092571
 40
1.0
 40
1.0
 40
1.0
 40
1.0
 10
42.5895480966
 20
214.529828235
 30
0.0
 10
42.6758307706
 20
214.5796549399
 30
0.0
 10
42.8660545446
 20
214.6586792875
 30
0.0
 10
43.1800221873
 20
214.7047235913
 30
0.0
 10
43.5172147462
 20
214.6799244153
 30
0.0
 10
44.0071213484
 20
214.549555449
 30
0.0
 10
44.6334273788
 20
214.2071469588
 30
0.0
 10
45.3253521691
 20
213.5943152708
 30
0.0
 10
45.9369897316
 20
212.8114367814
 30
0.0
 10
46.4183556577
 20
211.9217155112
 30
0.0
 10
46.7307164737
 20
210.9981074661
 30
0.0
 10
46.8144182126
 20
210.3690711835
 30
0.0
 10
46.8144182126
 20
210.0699027006
 30
0.0
  0
SPLINE
  5
395
100
AcDbEntity
  8
0
100
AcDbSpline
 62
7
  6
CONTINUOUS
 70
0
 71
3
 72
11
 73
7
 74
0
 42
0.0000001
 43
0.0000001
 44
0.0000000001
 40
0.0
 40
0.0
 40
0.0
 40
0.0
 40
0.2893797247
 40
0.5487755386
 40
0.7822455452
 40
1.0
 40
1.0
 40
1.0
 40
1.0
 10
40.8747082973
 20
211.8661552217
 30
0.0
 10
40.8747082973
 20
212.0110746213
 30
0.0
 10
40.8963402841
 20
212.2868070854
 30
0.0
 10
41.0063220346
 20
212.666286256
 30
0.0
 10
41.1911990195
 20
212.9757949109
 30
0.0
 10
41.3652680594
 20
213.1274123918
 30
0.0
 10
41.4585946419
 20
213.1838219728
 30
0.0
  0
SPLINE
  5
396
100
AcDbEntity
  8
0
100
AcDbSpline
 62
7
  6
CONTINUOUS
 70
0
 71
3
 72
17
 73
13
 74
0
 42
0.0000001
 43
0.0000001
 44
0.0000000001
 40
0.0
 40
0.0
 40
0.0
 40
0.0
 40
0.1286888685
 40
0.2702755193
 40
0.417429359
 40
0.5617771341
 40
0.6954484291
 40
0.8127114624
 40
0.8646765362
 40
0.912510719
 40
0.9571401177
 40
1.0
 40
1.0
 40
1.0
 40
1.0
 10
45.4002105382
 20
209.2534143928
 30
0.0
 10
45.4002105382
 20
209.5525785106
 30
0.0
 10
45.3165109516
 20
210.1816057077
 30
0.0
 10
45.004158937
 20
211.1052064406
 30
0.0
 10
44.5227943566
 20
211.9949284981
 30
0.0
 10
43.9111552151
 20
212.7778180238
 30
0.0
 10
43.2192219947
 20
213.3906572498
 30
0.0
 10
42.5929116189
 20
213.7330688288
 30
0.0
 10
42.1030051379
 20
213.8634349363
 30
0.0
 10
41.765814707
 20
213.8882358725
 30
0.0
 10
41.4518474383
 20
213.8421911669
 30
0.0
 10
41.2616244099
 20
213.7631651486
 30
0.0
 10
41.175341305
 20
213.7133383981
 30
0.0
  0
SPLINE
  5
397
100
AcDbEntity
  8
0
100
AcDbSpline
 62
7
  6
CONTINUOUS
 70
0
 71
3
 72
17
 73
13
 74
0
 42
0.0000001
 43
0.0000001
 44
0.0000000001
 40
0.0
 40
0.0
 40
0.0
 40
0.0
 40
0.0428597109
 40
0.0874892491
 40
0.1353237344
 40
0.1872891656
 40
0.3045518404
 40
0.4382210379
 40
0.5825664504
 40
0.7297206488
 40
0.8713092571
 40
1.0
 40
1.0
 40
1.0
 40
1.0
 10
54.2212938677
 20
202.139923954
 30
0.0
 10
54.1350111937
 20
202.0900972491
 30
0.0
 10
53.9447874197
 20
202.0110729015
 30
0.0
 10
53.630819777
 20
201.9650285977
 30
0.0
 10
53.2936272181
 20
201.9898277737
 30
0.0
 10
52.8037206158
 20
202.12019674
 30
0.0
 10
52.1774145855
 20
202.4626052302
 30
0.0
 10
51.4854897952
 20
203.0754369182
 30
0.0
 10
50.8738522327
 20
203.8583154076
 30
0.0
 10
50.3924863066
 20
204.7480366778
 30
0.0
 10
50.0801254906
 20
205.6716447229
 30
0.0
 10
49.9964237517
 20
206.3006810055
 30
0.0
 10
49.9964237517
 20
206.5998494884
 30
0.0
  0
SPLINE
  5
398
100
AcDbEntity
  8
0
100
AcDbSpline
 62
7
  6
CONTINUOUS
 70
0
 71
3
 72
11
 73
7
 74
0
 42
0.0000001
 43
0.0000001
 44
0.0000000001
 40
0.0
 40
0.0
 40
0.0
 40
0.0
 40
0.2897894332
 40
0.5490567506
 40
0.7822291216
 40
1.0
 40
1.0
 40
1.0
 40
1.0
 10
46.8144182126
 20
210.0699027006
 30
0.0
 10
46.8144182126
 20
209.8925089333
 30
0.0
 10
46.787617804
 20
209.5552463639
 30
0.0
 10
46.6509023906
 20
209.0919020324
 30
0.0
 10
46.4210415279
 20
208.7158789341
 30
0.0
 10
46.2049616146
 20
208.5343277748
 30
0.0
 10
46.0895202527
 20
208.4676624478
 30
0.0
  0
SPLINE
  5
399
100
AcDbEntity
  8
0
100
AcDbSpline
 62
7
  6
CONTINUOUS
 70
0
 71
3
 72
18
 73
14
 74
0
 42
0.0000001
 43
0.0000001
 44
0.0000000001
 40
0.0
 40
0.0
 40
0.0
 40
0.0
 40
0.128653193
 40
0.2702040856
 40
0.4173190292
 40
0.5616287656
 40
0.6952634159
 40
0.7562696782
 40
0.8127618161
 40
0.8647121797
 40
0.9125329512
 40
0.95715095
 40
1.0
 40
1.0
 40
1.0
 40
1.0
 10
47.1679730752
 20
209.8657823233
 30
0.0
 10
47.1679730752
 20
210.2076801583
 30
0.0
 10
47.0723051705
 20
210.9265739413
 30
0.0
 10
46.7153875
 20
211.9820954255
 30
0.0
 10
46.1650865805
 20
212.999033764
 30
0.0
 10
45.4666077573
 20
213.8933436212
 30
0.0
 10
44.7868790364
 20
214.4953164495
 30
0.0
 10
44.2163121354
 20
214.844555464
 30
0.0
 10
43.8029888703
 20
215.0272139153
 30
0.0
 10
43.3997185244
 20
215.1343522517
 30
0.0
 10
43.0143858975
 20
215.1627080221
 30
0.0
 10
42.6555502995
 20
215.1101233475
 30
0.0
 10
42.4381619916
 20
215.0197832597
 30
0.0
 10
42.3395455668
 20
214.9628479017
 30
0.0
  0
SPLINE
  5
39A
100
AcDbEntity
  8
0
100
AcDbSpline
 62
7
  6
CONTINUOUS
 70
0
 71
3
 72
14
 73
10
 74
0
 42
0.0000001
 43
0.0000001
 44
0.0000000001
 40
0.0
 40
0.0
 40
0.0
 40
0.0
 40
0.1103473166
 40
0.2204132181
 40
0.3329880888
 40
0.4505624516
 40
0.5750610322
 40
0.7078342453
 40
1.0
 40
1.0
 40
1.0
 40
1.0
 10
54.5316247848
 20
200.9185334795
 30
0.0
 10
54.6311221935
 20
200.9503338984
 30
0.0
 10
54.8244069236
 20
201.0330107075
 30
0.0
 10
55.0855004353
 20
201.2131240214
 30
0.0
 10
55.3115866979
 20
201.4451954316
 30
0.0
 10
55.4994389851
 20
201.7254199964
 30
0.0
 10
55.6472143296
 20
202.049583999
 30
0.0
 10
55.7932427654
 20
202.5501596549
 30
0.0
 10
55.8300789841
 20
202.9552966
 30
0.0
 10
55.8300789841
 20
203.2318632636
 30
0.0
  0
SPLINE
  5
39B
100
AcDbEntity
  8
0
100
AcDbSpline
 62
7
  6
CONTINUOUS
 70
0
 71
3
 72
33
 73
29
 74
0
 42
0.0000001
 43
0.0000001
 44
0.0000000001
 40
0.0
 40
0.0
 40
0.0
 40
0.0
 40
0.0433556081
 40
0.0837422187
 40
0.120018137
 40
0.1360855868
 40
0.1503765175
 40
0.1625698508
 40
0.1678512762
 40
0.1726639084
 40
0.177238242
 40
0.1820188765
 40
0.1876145999
 40
0.1946300033
 40
0.2145713117
 40
0.2432164662
 40
0.2787908176
 40
0.3184901223
 40
0.3602664269
 40
0.4029986476
 40
0.4461263851
 40
0.4893727253
 40
0.575736446
 40
0.6616346371
 40
0.7469800355
 40
0.8317909599
 40
0.9161140534
 40
1.0
 40
1.0
 40
1.0
 40
1.0
 10
52.0584347785
 20
211.1180497028
 30
0.0
 10
51.9991210069
 20
211.0641164559
 30
0.0
 10
51.8858160964
 20
210.9585221195
 30
0.0
 10
51.7292442817
 20
210.8011878661
 30
0.0
 10
51.6153811848
 20
210.672676993
 30
0.0
 10
51.5420560685
 20
210.5734934612
 30
0.0
 10
51.5010884189
 20
210.5062293713
 30
0.0
 10
51.4778436941
 20
210.4517098637
 30
0.0
 10
51.4703299067
 20
210.4109849175
 30
0.0
 10
51.471074703
 20
210.383596898
 30
0.0
 10
51.4794713269
 20
210.3582658086
 30
0.0
 10
51.4973164728
 20
210.3363670206
 30
0.0
 10
51.5252176475
 20
210.3194152861
 30
0.0
 10
51.583347184
 20
210.3021717876
 30
0.0
 10
51.687518388
 20
210.30108603
 30
0.0
 10
51.8415698037
 20
210.3229478945
 30
0.0
 10
52.0289767095
 20
210.3665820338
 30
0.0
 10
52.2369668896
 20
210.4265091795
 30
0.0
 10
52.4554268808
 20
210.4975209227
 30
0.0
 10
52.6781308125
 20
210.5756808544
 30
0.0
 10
52.9020242379
 20
210.6585505689
 30
0.0
 10
53.2001135377
 20
210.7732986936
 30
0.0
 10
53.5698112029
 20
210.9220834909
 30
0.0
 10
54.0092602149
 20
211.1059035308
 30
0.0
 10
54.4442231873
 20
211.2929405342
 30
0.0
 10
54.8750855565
 20
211.482099688
 30
0.0
 10
55.3023351794
 20
211.6727506158
 30
0.0
 10
55.585746614
 20
211.8008902654
 30
0.0
 10
55.7269520127
 20
211.8650834125
 30
0.0
  0
SPLINE
  5
39C
100
AcDbEntity
  8
0
100
AcDbSpline
 62
7
  6
CONTINUOUS
 70
0
 71
3
 72
19
 73
15
 74
0
 42
0.0000001
 43
0.0000001
 44
0.0000000001
 40
0.0
 40
0.0
 40
0.0
 40
0.0
 40
0.131107089
 40
0.2756392075
 40
0.4251920776
 40
0.5703286853
 40
0.6385802482
 40
0.7027214201
 40
0.7621789063
 40
0.8167402766
 40
0.8666657354
 40
0.9127978056
 40
0.956599002
 40
1.0
 40
1.0
 40
1.0
 40
1.0
 10
65.3760602736
 20
197.7206130776
 30
0.0
 10
65.3760602736
 20
198.1493744576
 30
0.0
 10
65.2495175245
 20
199.0517907911
 30
0.0
 10
64.7823493108
 20
200.36906782
 30
0.0
 10
64.0676604097
 20
201.6233599169
 30
0.0
 10
63.3029490797
 20
202.5413423117
 30
0.0
 10
62.6207356145
 20
203.1423300419
 30
0.0
 10
62.1046293089
 20
203.5018376017
 30
0.0
 10
61.5856250112
 20
203.770792765
 30
0.0
 10
61.0750995422
 20
203.9425868012
 30
0.0
 10
60.5841341334
 20
204.0121722946
 30
0.0
 10
60.1238250641
 20
203.9755707857
 30
0.0
 10
59.7071720128
 20
203.8309908605
 30
0.0
 10
59.4697343227
 20
203.6657789626
 30
0.0
 10
59.3647133753
 20
203.5703006041
 30
0.0
  0
SPLINE
  5
39D
100
AcDbEntity
  8
0
100
AcDbSpline
 62
7
  6
CONTINUOUS
 70
0
 71
3
 72
11
 73
7
 74
0
 42
0.0000001
 43
0.0000001
 44
0.0000000001
 40
0.0
 40
0.0
 40
0.0
 40
0.0
 40
0.2898001634
 40
0.549051226
 40
0.7822312005
 40
1.0
 40
1.0
 40
1.0
 40
1.0
 10
50.3499403427
 20
211.7028810157
 30
0.0
 10
50.3499403427
 20
211.5001371847
 30
0.0
 10
50.319321763
 20
211.1146948395
 30
0.0
 10
50.1630536362
 20
210.5851619066
 30
0.0
 10
49.9003775821
 20
210.1554211702
 30
0.0
 10
49.6534318369
 20
209.9479131563
 30
0.0
 10
49.5214903805
 20
209.8717409041
 30
0.0
  0
SPLINE
  5
39E
100
AcDbEntity
  8
0
100
AcDbSpline
 62
7
  6
CONTINUOUS
 70
0
 71
3
 72
11
 73
7
 74
0
 42
0.0000001
 43
0.0000001
 44
0.0000000001
 40
0.0
 40
0.0
 40
0.0
 40
0.0
 40
0.2177697614
 40
0.4509415368
 40
0.7102113243
 40
1.0
 40
1.0
 40
1.0
 40
1.0
 10
44.6753116953
 20
207.6511756692
 30
0.0
 10
44.7907525111
 20
207.717840409
 30
0.0
 10
45.0068307132
 20
207.8993914045
 30
0.0
 10
45.2366948046
 20
208.2754126149
 30
0.0
 10
45.3734091041
 20
208.7387580389
 30
0.0
 10
45.4002105382
 20
209.0760211995
 30
0.0
 10
45.4002105382
 20
209.2534143928
 30
0.0
  0
SPLINE
  5
39F
100
AcDbEntity
  8
0
100
AcDbSpline
 62
7
  6
CONTINUOUS
 70
0
 71
3
 72
9
 73
5
 74
0
 42
0.0000001
 43
0.0000001
 44
0.0000000001
 40
0.0
 40
0.0
 40
0.0
 40
0.0
 40
0.2444735579
 40
1.0
 40
1.0
 40
1.0
 40
1.0
 10
44.1365230611
 20
218.3220588472
 30
0.0
 10
44.1258977416
 20
218.2795960674
 30
0.0
 10
44.0850272152
 20
218.105262539
 30
0.0
 10
44.0543426479
 20
217.9285788941
 30
0.0
 10
44.036356509
 20
217.7945061071
 30
0.0
  0
SPLINE
  5
3A0
100
AcDbEntity
  8
0
100
AcDbSpline
 62
7
  6
CONTINUOUS
 70
0
 71
3
 72
11
 73
7
 74
0
 42
0.0000001
 43
0.0000001
 44
0.0000000001
 40
0.0
 40
0.0
 40
0.0
 40
0.0
 40
0.2296517625
 40
0.4683644036
 40
0.7234838883
 40
1.0
 40
1.0
 40
1.0
 40
1.0
 10
63.8708283435
 20
197.2658089357
 30
0.0
 10
63.9429562569
 20
197.3074612803
 30
0.0
 10
64.0798483118
 20
197.4114831414
 30
0.0
 10
64.2458091928
 20
197.6175780444
 30
0.0
 10
64.3714578417
 20
197.8691561509
 30
0.0
 10
64.4248484519
 20
198.0555394988
 30
0.0
 10
64.4452138211
 20
198.1537376156
 30
0.0
  0
SPLINE
  5
3A1
100
AcDbEntity
  8
0
100
AcDbSpline
 62
7
  6
CONTINUOUS
 70
0
 71
3
 72
9
 73
5
 74
0
 42
0.0000001
 43
0.0000001
 44
0.0000000001
 40
0.0
 40
0.0
 40
0.0
 40
0.0
 40
0.2453100136
 40
1.0
 40
1.0
 40
1.0
 40
1.0
 10
64.4594695364
 20
198.2296739092
 30
0.0
 10
64.4623291453
 20
198.2466318211
 30
0.0
 10
64.4731493954
 20
198.3158998749
 30
0.0
 10
64.4806920372
 20
198.3856714351
 30
0.0
 10
64.4847031647
 20
198.4384263096
 30
0.0
  0
SPLINE
  5
3A2
100
AcDbEntity
  8
0
100
AcDbSpline
 62
7
  6
CONTINUOUS
 70
0
 71
3
 72
13
 73
9
 74
0
 42
0.0000001
 43
0.0000001
 44
0.0000000001
 40
0.0
 40
0.0
 40
0.0
 40
0.0
 40
0.1080954013
 40
0.2182277661
 40
0.3322536475
 40
0.4517064024
 40
0.7105885478
 40
1.0
 40
1.0
 40
1.0
 40
1.0
 10
67.9921250846
 20
195.0264447223
 30
0.0
 10
67.8773600129
 20
194.9601851782
 30
0.0
 10
67.6337057087
 20
194.8460517672
 30
0.0
 10
67.2394353338
 20
194.7370547812
 30
0.0
 10
66.819122642
 20
194.6901583946
 30
0.0
 10
66.2140406971
 20
194.7112408936
 30
0.0
 10
65.4100109126
 20
194.9048500948
 30
0.0
 10
64.7994227619
 20
195.1956957305
 30
0.0
 10
64.4921525094
 20
195.3730942802
 30
0.0
  0
SPLINE
  5
3A3
100
AcDbEntity
  8
0
100
AcDbSpline
 62
7
  6
CONTINUOUS
 70
0
 71
3
 72
11
 73
7
 74
0
 42
0.0000001
 43
0.0000001
 44
0.0000000001
 40
0.0
 40
0.0
 40
0.0
 40
0.0
 40
0.2833571739
 40
0.540436489
 40
0.7762631212
 40
1.0
 40
1.0
 40
1.0
 40
1.0
 10
52.599972168
 20
207.9406625227
 30
0.0
 10
52.4862602526
 20
207.9923124466
 30
0.0
 10
52.2610480066
 20
208.0742873186
 30
0.0
 10
51.9201456345
 20
208.1261882115
 30
0.0
 10
51.6020789076
 20
208.0975926134
 30
0.0
 10
51.4102700013
 20
208.0225140577
 30
0.0
 10
51.3248723626
 20
207.9731987274
 30
0.0
  0
SPLINE
  5
3A4
100
AcDbEntity
  8
0
100
AcDbSpline
 62
7
  6
CONTINUOUS
 70
0
 71
3
 72
11
 73
7
 74
0
 42
0.0000001
 43
0.0000001
 44
0.0000000001
 40
0.0
 40
0.0
 40
0.0
 40
0.0
 40
0.2897894332
 40
0.5490567506
 40
0.7822291216
 40
1.0
 40
1.0
 40
1.0
 40
1.0
 10
49.9964237517
 20
206.5998494884
 30
0.0
 10
49.9964237517
 20
206.7772432557
 30
0.0
 10
50.0232241603
 20
207.1145058251
 30
0.0
 10
50.1599395737
 20
207.5778501566
 30
0.0
 10
50.3898004363
 20
207.9538732549
 30
0.0
 10
50.6058803497
 20
208.1354244142
 30
0.0
 10
50.7213217116
 20
208.2020897412
 30
0.0
  0
SPLINE
  5
3A5
100
AcDbEntity
  8
0
100
AcDbSpline
 62
7
  6
CONTINUOUS
 70
0
 71
3
 72
19
 73
15
 74
0
 42
0.0000001
 43
0.0000001
 44
0.0000000001
 40
0.0
 40
0.0
 40
0.0
 40
0.0
 40
0.131107089
 40
0.2756392075
 40
0.4251920776
 40
0.5703286853
 40
0.6385802482
 40
0.7027214201
 40
0.7621789063
 40
0.8167402766
 40
0.8666657354
 40
0.9127978056
 40
0.956599002
 40
1.0
 40
1.0
 40
1.0
 40
1.0
 10
55.8300789841
 20
203.2318632636
 30
0.0
 10
55.8300789841
 20
203.6606246436
 30
0.0
 10
55.7035362351
 20
204.5630409772
 30
0.0
 10
55.2363680213
 20
205.880318006
 30
0.0
 10
54.5216791203
 20
207.1346101029
 30
0.0
 10
53.7569677903
 20
208.0525924978
 30
0.0
 10
53.074754325
 20
208.6535802279
 30
0.0
 10
52.5586480195
 20
209.0130877877
 30
0.0
 10
52.0396437217
 20
209.282042951
 30
0.0
 10
51.5291182527
 20
209.4538369872
 30
0.0
 10
51.0381528439
 20
209.5234224806
 30
0.0
 10
50.5778437746
 20
209.4868209717
 30
0.0
 10
50.1611907233
 20
209.3422410465
 30
0.0
 10
49.9237530332
 20
209.1770291486
 30
0.0
 10
49.8187320858
 20
209.0815507901
 30
0.0
  0
SPLINE
  5
3A6
100
AcDbEntity
  8
0
100
AcDbSpline
 62
7
  6
CONTINUOUS
 70
0
 71
3
 72
11
 73
7
 74
0
 42
0.0000001
 43
0.0000001
 44
0.0000000001
 40
0.0
 40
0.0
 40
0.0
 40
0.0
 40
0.2897894332
 40
0.5490567506
 40
0.7822291216
 40
1.0
 40
1.0
 40
1.0
 40
1.0
 10
59.5424050411
 20
201.0885993024
 30
0.0
 10
59.5424050411
 20
201.2659930696
 30
0.0
 10
59.5692054498
 20
201.603255639
 30
0.0
 10
59.7059208632
 20
202.0665999706
 30
0.0
 10
59.9357817258
 20
202.4426230689
 30
0.0
 10
60.1518616392
 20
202.6241742282
 30
0.0
 10
60.2673030011
 20
202.6908395552
 30
0.0
  0
SPLINE
  5
3A7
100
AcDbEntity
  8
0
100
AcDbSpline
 62
7
  6
CONTINUOUS
 70
0
 71
3
 72
26
 73
22
 74
0
 42
0.0000001
 43
0.0000001
 44
0.0000000001
 40
0.0
 40
0.0
 40
0.0
 40
0.0
 40
0.0563453067
 40
0.1127398616
 40
0.1692508358
 40
0.2260257317
 40
0.2834276262
 40
0.3126750778
 40
0.3426163419
 40
0.3737469798
 40
0.4067034736
 40
0.4415486564
 40
0.4771632905
 40
0.5124591281
 40
0.5471123249
 40
0.6146849059
 40
0.6806923036
 40
0.7456671326
 40
0.8099248018
 40
0.8736576633
 40
1.0
 40
1.0
 40
1.0
 40
1.0
 10
56.1382519452
 20
211.6276120194
 30
0.0
 10
56.0473515704
 20
211.4913466157
 30
0.0
 10
55.8695051821
 20
211.2159624602
 30
0.0
 10
55.6185094372
 20
210.792602124
 30
0.0
 10
55.3888119356
 20
210.3556952776
 30
0.0
 10
55.1899893373
 20
209.9005567663
 30
0.0
 10
55.0651203271
 20
209.5009721786
 30
0.0
 10
55.0098008106
 20
209.1659164337
 30
0.0
 10
55.0008565269
 20
208.9025052731
 30
0.0
 10
55.0414201385
 20
208.6300724579
 30
0.0
 10
55.1549987585
 20
208.3615614708
 30
0.0
 10
55.3517762357
 20
208.128392
 30
0.0
 10
55.6071675221
 20
207.9524446649
 30
0.0
 10
55.8892977458
 20
207.8286533512
 30
0.0
 10
56.2738749166
 20
207.7167248612
 30
0.0
 10
56.7592650934
 20
207.6437687077
 30
0.0
 10
57.3361957867
 20
207.6153066727
 30
0.0
 10
57.9040166913
 20
207.6241405929
 30
0.0
 10
58.4640779017
 20
207.658273942
 30
0.0
 10
59.2002421717
 20
207.7281251929
 30
0.0
 10
59.7481296362
 20
207.8016047346
 30
0.0
 10
60.1112916977
 20
207.8565251966
 30
0.0
  0
SPLINE
  5
3A8
100
AcDbEntity
  8
0
100
AcDbSpline
 62
7
  6
CONTINUOUS
 70
0
 71
3
 72
17
 73
13
 74
0
 42
0.0000001
 43
0.0000001
 44
0.0000000001
 40
0.0
 40
0.0
 40
0.0
 40
0.0
 40
0.1295503716
 40
0.2570291158
 40
0.3820068075
 40
0.5039799714
 40
0.6225289004
 40
0.7381867188
 40
0.7964786473
 40
0.8572482457
 40
0.9238584741
 40
1.0
 40
1.0
 40
1.0
 40
1.0
 10
58.9543804636
 20
202.9902778472
 30
0.0
 10
58.8545259738
 20
202.9820811495
 30
0.0
 10
58.6561247856
 20
202.9690392446
 30
0.0
 10
58.3606563558
 20
202.9621610328
 30
0.0
 10
58.0710544805
 20
202.9717715656
 30
0.0
 10
57.7896976135
 20
203.0035726097
 30
0.0
 10
57.5208390276
 20
203.0666322248
 30
0.0
 10
57.3118639903
 20
203.1609106735
 30
0.0
 10
57.1699657324
 20
203.2760003959
 30
0.0
 10
57.080934665
 20
203.3906695497
 30
0.0
 10
57.0212210876
 20
203.5385270306
 30
0.0
 10
57.0094026996
 20
203.649734431
 30
0.0
 10
57.0094026996
 20
203.708619987
 30
0.0
  0
SPLINE
  5
3A9
100
AcDbEntity
  8
0
100
AcDbSpline
 62
7
  6
CONTINUOUS
 70
0
 71
3
 72
16
 73
12
 74
0
 42
0.0000001
 43
0.0000001
 44
0.0000000001
 40
0.0
 40
0.0
 40
0.0
 40
0.0
 40
0.2450111448
 40
0.3689264915
 40
0.4940953359
 40
0.6208473344
 40
0.7494895757
 40
0.814455243
 40
0.8793300264
 40
0.9425037136
 40
1.0
 40
1.0
 40
1.0
 40
1.0
 10
60.1112916977
 20
207.8565251966
 30
0.0
 10
59.8055374567
 20
207.5554914501
 30
0.0
 10
59.3504583262
 20
207.0966780371
 30
0.0
 10
58.7589084775
 20
206.4651034517
 30
0.0
 10
58.3214474503
 20
205.9731788127
 30
0.0
 10
57.8969550295
 20
205.4592075519
 30
0.0
 10
57.563794867
 20
205.0070066225
 30
0.0
 10
57.3231647983
 20
204.6233200913
 30
0.0
 10
57.1651282417
 20
204.3238992207
 30
0.0
 10
57.0470277441
 20
204.0204037964
 30
0.0
 10
57.0094026996
 20
203.8093106207
 30
0.0
 10
57.0094026996
 20
203.708619987
 30
0.0
  0
SPLINE
  5
3AA
100
AcDbEntity
  8
0
100
AcDbSpline
 62
7
  6
CONTINUOUS
 70
0
 71
3
 72
15
 73
11
 74
0
 42
0.0000001
 43
0.0000001
 44
0.0000000001
 40
0.0
 40
0.0
 40
0.0
 40
0.0
 40
0.2466740477
 40
0.4975549114
 40
0.6250758178
 40
0.7539347521
 40
0.8184923497
 40
0.8823100621
 40
0.9437468532
 40
1.0
 40
1.0
 40
1.0
 40
1.0
 10
68.7824321034
 20
201.4600110459
 30
0.0
 10
68.5544357259
 20
201.2218654601
 30
0.0
 10
68.101495733
 20
200.7348498761
 30
0.0
 10
67.5595191488
 20
200.0982078712
 30
0.0
 10
67.1526922673
 20
199.555600753
 30
0.0
 10
66.9173290615
 20
199.1962646969
 30
0.0
 10
66.7531362047
 20
198.893950056
 30
0.0
 10
66.6497286431
 20
198.6618526596
 30
0.0
 10
66.576532927
 20
198.4299191545
 30
0.0
 10
66.555383989
 20
198.2725545025
 30
0.0
 10
66.555383989
 20
198.1973698009
 30
0.0
  0
SPLINE
  5
3AB
100
AcDbEntity
  8
0
100
AcDbSpline
 62
7
  6
CONTINUOUS
 70
0
 71
3
 72
9
 73
5
 74
0
 42
0.0000001
 43
0.0000001
 44
0.0000000001
 40
0.0
 40
0.0
 40
0.0
 40
0.0
 40
0.2380458411
 40
1.0
 40
1.0
 40
1.0
 40
1.0
 10
45.4001899304
 20
206.3955946523
 30
0.0
 10
45.2733588322
 20
206.4688189645
 30
0.0
 10
44.7508761188
 20
206.7942073432
 30
0.0
 10
44.2697350614
 20
207.1839517582
 30
0.0
 10
43.9276856258
 20
207.5044959991
 30
0.0
  0
SPLINE
  5
3AC
100
AcDbEntity
  8
0
100
AcDbSpline
 62
7
  6
CONTINUOUS
 70
0
 71
3
 72
14
 73
10
 74
0
 42
0.0000001
 43
0.0000001
 44
0.0000000001
 40
0.0
 40
0.0
 40
0.0
 40
0.0
 40
0.3024185634
 40
0.440270599
 40
0.5682941054
 40
0.6867221483
 40
0.7966369766
 40
0.9000799381
 40
1.0
 40
1.0
 40
1.0
 40
1.0
 10
40.670650902
 20
213.1558095643
 30
0.0
 10
40.5454457637
 20
213.6965072073
 30
0.0
 10
40.4293309568
 20
214.5037671847
 30
0.0
 10
40.4613014383
 20
215.5483610463
 30
0.0
 10
40.574871346
 20
216.246867673
 30
0.0
 10
40.7774359901
 20
216.871789187
 30
0.0
 10
41.0669366578
 20
217.4118019684
 30
0.0
 10
41.4394158072
 20
217.8554816929
 30
0.0
 10
41.7414095872
 20
218.0815904821
 30
0.0
 10
41.9002173553
 20
218.1732780501
 30
0.0
  0
SPLINE
  5
3AD
100
AcDbEntity
  8
0
100
AcDbSpline
 62
7
  6
CONTINUOUS
 70
0
 71
3
 72
11
 73
7
 74
0
 42
0.0000001
 43
0.0000001
 44
0.0000000001
 40
0.0
 40
0.0
 40
0.0
 40
0.0
 40
0.2848443418
 40
0.5445152259
 40
0.7809897299
 40
1.0
 40
1.0
 40
1.0
 40
1.0
 10
116.5351406547
 20
210.9273794424
 30
0.0
 10
116.5351406547
 20
211.1316092656
 30
0.0
 10
116.5086212104
 20
211.5229008241
 30
0.0
 10
116.3766015668
 20
212.0703569173
 30
0.0
 10
116.1557315502
 20
212.5376355296
 30
0.0
 10
115.9451281681
 20
212.7931566894
 30
0.0
 10
115.8289393885
 20
212.8987873694
 30
0.0
  0
SPLINE
  5
3AE
100
AcDbEntity
  8
0
100
AcDbSpline
 62
7
  6
CONTINUOUS
 70
0
 71
3
 72
17
 73
13
 74
0
 42
0.0000001
 43
0.0000001
 44
0.0000000001
 40
0.0
 40
0.0
 40
0.0
 40
0.0
 40
0.1286891379
 40
0.2702760981
 40
0.4174302086
 40
0.5617781567
 40
0.6954494801
 40
0.8127123572
 40
0.8646772739
 40
0.912511248
 40
0.9571403949
 40
1.0
 40
1.0
 40
1.0
 40
1.0
 10
110.7015339977
 20
207.5593651729
 30
0.0
 10
110.7015339977
 20
207.8585288679
 30
0.0
 10
110.7852326096
 20
208.4875551852
 30
0.0
 10
111.0975808595
 20
209.4111555656
 30
0.0
 10
111.5789397659
 20
210.3008785459
 30
0.0
 10
112.190571896
 20
211.0837704161
 30
0.0
 10
112.8824974621
 20
211.696613408
 30
0.0
 10
113.5088015742
 20
212.0390296787
 30
0.0
 10
113.9987037965
 20
212.1694001267
 30
0.0
 10
114.335891356
 20
212.1942043464
 30
0.0
 10
114.6498562785
 20
212.1481630589
 30
0.0
 10
114.8400781625
 20
212.0691393278
 30
0.0
 10
114.9263607658
 20
212.019313696
 30
0.0
  0
SPLINE
  5
3AF
100
AcDbEntity
  8
0
100
AcDbSpline
 62
7
  6
CONTINUOUS
 70
0
 71
3
 72
17
 73
13
 74
0
 42
0.0000001
 43
0.0000001
 44
0.0000000001
 40
0.0
 40
0.0
 40
0.0
 40
0.0
 40
0.0428588778
 40
0.0874877443
 40
0.1353219067
 40
0.1872874161
 40
0.3045509819
 40
0.4382211777
 40
0.582566321
 40
0.7297199338
 40
0.8713085832
 40
1.0
 40
1.0
 40
1.0
 40
1.0
 10
111.3228730665
 20
206.5942579268
 30
0.0
 10
111.3968282925
 20
206.5515508953
 30
0.0
 10
111.5598741443
 20
206.4838177374
 30
0.0
 10
111.8289850641
 20
206.4443545265
 30
0.0
 10
112.1180043437
 20
206.4656112356
 30
0.0
 10
112.5379231395
 20
206.5773601385
 30
0.0
 10
113.0747558999
 20
206.8708585963
 30
0.0
 10
113.6678295003
 20
207.3961491419
 30
0.0
 10
114.1920832718
 20
208.0671897473
 30
0.0
 10
114.6046756453
 20
208.8298063198
 30
0.0
 10
114.8724105826
 20
209.6214684228
 30
0.0
 10
114.944154077
 20
210.1606419712
 30
0.0
 10
114.944154077
 20
210.4170725504
 30
0.0
  0
SPLINE
  5
3B0
100
AcDbEntity
  8
0
100
AcDbSpline
 62
7
  6
CONTINUOUS
 70
0
 71
3
 72
11
 73
7
 74
0
 42
0.0000001
 43
0.0000001
 44
0.0000000001
 40
0.0
 40
0.0
 40
0.0
 40
0.0
 40
0.2177727241
 40
0.4509313669
 40
0.7102281898
 40
1.0
 40
1.0
 40
1.0
 40
1.0
 10
92.6346291253
 20
195.4541582211
 30
0.0
 10
92.5389701403
 20
195.5093828184
 30
0.0
 10
92.3599598877
 20
195.6598348909
 30
0.0
 10
92.1694642593
 20
195.9713745454
 30
0.0
 10
92.0562141565
 20
196.355299461
 30
0.0
 10
92.0339926952
 20
196.634745806
 30
0.0
 10
92.0339926952
 20
196.7817195107
 30
0.0
  0
SPLINE
  5
3B1
100
AcDbEntity
  8
0
100
AcDbSpline
 62
7
  6
CONTINUOUS
 70
0
 71
3
 72
17
 73
13
 74
0
 42
0.0000001
 43
0.0000001
 44
0.0000000001
 40
0.0
 40
0.0
 40
0.0
 40
0.0
 40
0.0428594337
 40
0.0874887201
 40
0.1353229967
 40
0.1872882708
 40
0.3045507894
 40
0.4382200153
 40
0.5825656009
 40
0.72972007
 40
0.8713089876
 40
1.0
 40
1.0
 40
1.0
 40
1.0
 10
92.3346296024
 20
194.9345320433
 30
0.0
 10
92.4209117749
 20
194.8847064572
 30
0.0
 10
92.6111344045
 20
194.8056843964
 30
0.0
 10
92.9250997012
 20
194.7596435111
 30
0.0
 10
93.2622893885
 20
194.7844459706
 30
0.0
 10
93.752191732
 20
194.9148192774
 30
0.0
 10
94.3784914987
 20
195.2572324593
 30
0.0
 10
95.0704086347
 20
195.8700679129
 30
0.0
 10
95.6820391858
 20
196.6529487469
 30
0.0
 10
96.163399438
 20
197.5426709401
 30
0.0
 10
96.4757564892
 20
198.4662786326
 30
0.0
 10
96.5594572534
 20
199.0953140354
 30
0.0
 10
96.5594572534
 20
199.3944820955
 30
0.0
  0
SPLINE
  5
3B2
100
AcDbEntity
  8
0
100
AcDbSpline
 62
7
  6
CONTINUOUS
 70
0
 71
3
 72
15
 73
11
 74
0
 42
0.0000001
 43
0.0000001
 44
0.0000000001
 40
0.0
 40
0.0
 40
0.0
 40
0.0
 40
0.1141543519
 40
0.237325601
 40
0.366974755
 40
0.4999984147
 40
0.6330222943
 40
0.7626720931
 40
0.8858443543
 40
1.0
 40
1.0
 40
1.0
 40
1.0
 10
114.5905844946
 20
200.7414699085
 30
0.0
 10
114.8229378805
 20
200.8756183976
 30
0.0
 10
115.2818774186
 20
201.1973317692
 30
0.0
 10
115.9133531638
 20
201.788128572
 30
0.0
 10
116.4952921885
 20
202.4864944763
 30
0.0
 10
117.0057754498
 20
203.2662315415
 30
0.0
 10
117.425802504
 20
204.0981949628
 30
0.0
 10
117.7396335505
 20
204.9513573131
 30
0.0
 10
117.935540139
 20
205.7936369548
 30
0.0
 10
117.9846829132
 20
206.3519522291
 30
0.0
 10
117.9846829132
 20
206.6202534493
 30
0.0
  0
SPLINE
  5
3B3
100
AcDbEntity
  8
0
100
AcDbSpline
 62
7
  6
CONTINUOUS
 70
0
 71
3
 72
13
 73
9
 74
0
 42
0.0000001
 43
0.0000001
 44
0.0000000001
 40
0.0
 40
0.0
 40
0.0
 40
0.0
 40
0.2894091221
 40
0.5482905172
 40
0.6677437784
 40
0.7817700881
 40
0.8919033495
 40
1.0
 40
1.0
 40
1.0
 40
1.0
 10
110.7015133899
 20
216.1325792722
 30
0.0
 10
111.0087763305
 20
216.3099765547
 30
0.0
 10
111.6193513345
 20
216.6008230388
 30
0.0
 10
112.4233664494
 20
216.7944359238
 30
0.0
 10
113.0284413893
 20
216.8155292544
 30
0.0
 10
113.4487516891
 20
216.768635425
 30
0.0
 10
113.8430223193
 20
216.6596451441
 30
0.0
 10
114.0866765723
 20
216.5455125156
 30
0.0
 10
114.2014422659
 20
216.4792540557
 30
0.0
  0
SPLINE
  5
3B4
100
AcDbEntity
  8
0
100
AcDbSpline
 62
7
  6
CONTINUOUS
 70
0
 71
3
 72
10
 73
6
 74
0
 42
0.0000001
 43
0.0000001
 44
0.0000000001
 40
0.0
 40
0.0
 40
0.0
 40
0.0
 40
0.235261379
 40
0.4770848103
 40
1.0
 40
1.0
 40
1.0
 40
1.0
 10
90.6704104148
 20
195.3179915143
 30
0.0
 10
90.7506966097
 20
195.2716415778
 30
0.0
 10
90.9239978554
 20
195.1946330892
 30
0.0
 10
91.3110584658
 20
195.1103307793
 30
0.0
 10
91.6192181841
 20
195.1333587049
 30
0.0
 10
91.8207235072
 20
195.176419755
 30
0.0
  0
SPLINE
  5
3B5
100
AcDbEntity
  8
0
100
AcDbSpline
 62
7
  6
CONTINUOUS
 70
0
 71
3
 72
17
 73
13
 74
0
 42
0.0000001
 43
0.0000001
 44
0.0000000001
 40
0.0
 40
0.0
 40
0.0
 40
0.0
 40
0.0428588778
 40
0.0874877443
 40
0.1353219067
 40
0.1872874161
 40
0.3045509819
 40
0.4382211777
 40
0.582566321
 40
0.7297199338
 40
0.8713085832
 40
1.0
 40
1.0
 40
1.0
 40
1.0
 10
101.7769712642
 20
201.0829618496
 30
0.0
 10
101.8509264901
 20
201.0402548181
 30
0.0
 10
102.0139723419
 20
200.9725216601
 30
0.0
 10
102.2830832618
 20
200.9330584493
 30
0.0
 10
102.5721025413
 20
200.9543151584
 30
0.0
 10
102.9920213371
 20
201.0660640612
 30
0.0
 10
103.5288540975
 20
201.359562519
 30
0.0
 10
104.1219276979
 20
201.8848530647
 30
0.0
 10
104.6461814694
 20
202.5558936701
 30
0.0
 10
105.0587738429
 20
203.3185102425
 30
0.0
 10
105.3265087803
 20
204.1101723455
 30
0.0
 10
105.3982522746
 20
204.6493458939
 30
0.0
 10
105.3982522746
 20
204.9057764731
 30
0.0
  0
SPLINE
  5
3B6
100
AcDbEntity
  8
0
100
AcDbSpline
 62
7
  6
CONTINUOUS
 70
0
 71
3
 72
11
 73
7
 74
0
 42
0.0000001
 43
0.0000001
 44
0.0000000001
 40
0.0
 40
0.0
 40
0.0
 40
0.0
 40
0.217768911
 40
0.450940292
 40
0.7102103638
 40
1.0
 40
1.0
 40
1.0
 40
1.0
 10
101.8805322876
 20
200.4458296497
 30
0.0
 10
101.7650913041
 20
200.512493377
 30
0.0
 10
101.5490124749
 20
200.6940431905
 30
0.0
 10
101.3191480347
 20
201.0700642232
 30
0.0
 10
101.1824336023
 20
201.533410774
 30
0.0
 10
101.1556321953
 20
201.8706751023
 30
0.0
 10
101.1556321953
 20
202.0480690957
 30
0.0
  0
SPLINE
  5
3B7
100
AcDbEntity
  8
0
100
AcDbSpline
 62
7
  6
CONTINUOUS
 70
0
 71
3
 72
12
 73
8
 74
0
 42
0.0000001
 43
0.0000001
 44
0.0000000001
 40
0.0
 40
0.0
 40
0.0
 40
0.0
 40
0.1257677768
 40
0.2531262668
 40
0.5055784715
 40
0.7542790428
 40
1.0
 40
1.0
 40
1.0
 40
1.0
 10
100.2497193617
 20
199.6463476401
 30
0.0
 10
100.064957046
 20
199.7053878195
 30
0.0
 10
99.697226848
 20
199.8370296502
 30
0.0
 10
98.9716032092
 20
200.1224806216
 30
0.0
 10
98.0795190685
 20
200.5020520587
 30
0.0
 10
97.0274513976
 20
200.9710658636
 30
0.0
 10
96.3343783202
 20
201.2890570701
 30
0.0
 10
95.9905069802
 20
201.4483263515
 30
0.0
  0
SPLINE
  5
3B8
100
AcDbEntity
  8
0
100
AcDbSpline
 62
7
  6
CONTINUOUS
 70
0
 71
3
 72
17
 73
13
 74
0
 42
0.0000001
 43
0.0000001
 44
0.0000000001
 40
0.0
 40
0.0
 40
0.0
 40
0.0
 40
0.0434220322
 40
0.0895900228
 40
0.1394298134
 40
0.193425515
 40
0.3137509829
 40
0.4482356303
 40
0.5912204204
 40
0.7355743443
 40
0.8739479834
 40
1.0
 40
1.0
 40
1.0
 40
1.0
 10
101.5702023542
 20
199.2244374624
 30
0.0
 10
101.6959898517
 20
199.1842346103
 30
0.0
 10
101.9663163922
 20
199.132558327
 30
0.0
 10
102.3928349415
 20
199.1433085438
 30
0.0
 10
102.8412836538
 20
199.2385279257
 30
0.0
 10
103.4799308011
 20
199.4833306383
 30
0.0
 10
104.2785288023
 20
199.9956435307
 30
0.0
 10
105.1511842927
 20
200.8421468316
 30
0.0
 10
105.912263077
 20
201.8819611017
 30
0.0
 10
106.5055699481
 20
203.0389811108
 30
0.0
 10
106.8878823516
 20
204.2276352873
 30
0.0
 10
106.9892388523
 20
205.0327315697
 30
0.0
 10
106.9892388523
 20
205.4160833651
 30
0.0
  0
SPLINE
  5
3B9
100
AcDbEntity
  8
0
100
AcDbSpline
 62
7
  6
CONTINUOUS
 70
0
 71
3
 72
9
 73
5
 74
0
 42
0.0000001
 43
0.0000001
 44
0.0000000001
 40
0.0
 40
0.0
 40
0.0
 40
0.0
 40
0.4835873803
 40
1.0
 40
1.0
 40
1.0
 40
1.0
 10
104.0433521774
 20
209.4239410563
 30
0.0
 10
103.8907006441
 20
209.5627436133
 30
0.0
 10
103.5663588117
 20
209.8401879354
 30
0.0
 10
103.2342710732
 20
210.1080637485
 30
0.0
 10
103.0615453524
 20
210.2448467934
 30
0.0
  0
SPLINE
  5
3BA
100
AcDbEntity
  8
0
100
AcDbSpline
 62
7
  6
CONTINUOUS
 70
0
 71
3
 72
21
 73
17
 74
0
 42
0.0000001
 43
0.0000001
 44
0.0000000001
 40
0.0
 40
0.0
 40
0.0
 40
0.0
 40
0.0428266218
 40
0.0874211752
 40
0.1352175795
 40
0.1871416192
 40
0.2436041526
 40
0.3045784502
 40
0.3696940666
 40
0.4383206792
 40
0.5825522947
 40
0.7295900821
 40
0.8015983809
 40
0.8712181601
 40
0.9375934885
 40
1.0
 40
1.0
 40
1.0
 40
1.0
 10
88.1097809091
 20
193.3322784944
 30
0.0
 10
87.9371995759
 20
193.4319160515
 30
0.0
 10
87.6100490639
 20
193.6823084797
 30
0.0
 10
87.2163517797
 20
194.1801298973
 30
0.0
 10
86.9221634783
 20
194.7889474653
 30
0.0
 10
86.7316869642
 20
195.4938973838
 30
0.0
 10
86.6468848531
 20
196.2801127625
 30
0.0
 10
86.6685613082
 20
197.131415779
 30
0.0
 10
86.7957753401
 20
198.0303081355
 30
0.0
 10
87.1075739103
 20
199.287523905
 30
0.0
 10
87.7388152869
 20
200.8487210609
 30
0.0
 10
88.6283331947
 20
202.296063842
 30
0.0
 10
89.4747120594
 20
203.3410201373
 30
0.0
 10
90.151068384
 20
204.0354851427
 30
0.0
 10
90.8586034933
 20
204.6308849869
 30
0.0
 10
91.3582271366
 20
204.9647944095
 30
0.0
 10
91.6097097851
 20
205.1099871177
 30
0.0
  0
SPLINE
  5
3BB
100
AcDbEntity
  8
0
100
AcDbSpline
 62
7
  6
CONTINUOUS
 70
0
 71
3
 72
12
 73
8
 74
0
 42
0.0000001
 43
0.0000001
 44
0.0000000001
 40
0.0
 40
0.0
 40
0.0
 40
0.0
 40
0.1081620389
 40
0.2183637051
 40
0.4513660653
 40
0.7104193096
 40
1.0
 40
1.0
 40
1.0
 40
1.0
 10
85.3206834985
 20
184.9904653123
 30
0.0
 10
85.3993789354
 20
184.9450315108
 30
0.0
 10
85.5664962793
 20
184.8668308365
 30
0.0
 10
85.9333939945
 20
184.7652041102
 30
0.0
 10
86.447325515
 20
184.7515862543
 30
0.0
 10
87.0909204492
 20
184.9071884576
 30
0.0
 10
87.5099493851
 20
185.1065512661
 30
0.0
 10
87.7206386805
 20
185.2281920614
 30
0.0
  0
SPLINE
  5
3BC
100
AcDbEntity
  8
0
100
AcDbSpline
 62
7
  6
CONTINUOUS
 70
0
 71
3
 72
12
 73
8
 74
0
 42
0.0000001
 43
0.0000001
 44
0.0000000001
 40
0.0
 40
0.0
 40
0.0
 40
0.0
 40
0.1081612896
 40
0.2183623225
 40
0.4513640816
 40
0.710417852
 40
1.0
 40
1.0
 40
1.0
 40
1.0
 10
83.9064640483
 20
185.8069468213
 30
0.0
 10
83.8277660316
 20
185.8523821027
 30
0.0
 10
83.6764767317
 20
185.9580106702
 30
0.0
 10
83.4050038506
 20
186.2249464246
 30
0.0
 10
83.1362322379
 20
186.6632312844
 30
0.0
 10
82.9491826272
 20
187.2984284308
 30
0.0
 10
82.9123208115
 20
187.7610196819
 30
0.0
 10
82.9123208115
 20
188.0043132341
 30
0.0
  0
SPLINE
  5
3BD
100
AcDbEntity
  8
0
100
AcDbSpline
 62
7
  6
CONTINUOUS
 70
0
 71
3
 72
9
 73
5
 74
0
 42
0.0000001
 43
0.0000001
 44
0.0000000001
 40
0.0
 40
0.0
 40
0.0
 40
0.0
 40
0.4835873803
 40
1.0
 40
1.0
 40
1.0
 40
1.0
 10
113.5892539798
 20
214.9352371336
 30
0.0
 10
113.4366024465
 20
215.0740396906
 30
0.0
 10
113.1122606141
 20
215.3514840127
 30
0.0
 10
112.7801728756
 20
215.6193598258
 30
0.0
 10
112.6074471548
 20
215.7561428707
 30
0.0
  0
SPLINE
  5
3BE
100
AcDbEntity
  8
0
100
AcDbSpline
 62
7
  6
CONTINUOUS
 70
0
 71
3
 72
12
 73
8
 74
0
 42
0.0000001
 43
0.0000001
 44
0.0000000001
 40
0.0
 40
0.0
 40
0.0
 40
0.0
 40
0.1243363243
 40
0.2506944523
 40
0.5030288512
 40
0.7528084875
 40
1.0
 40
1.0
 40
1.0
 40
1.0
 10
109.7956211641
 20
205.1576437173
 30
0.0
 10
109.6679531854
 20
205.1984395925
 30
0.0
 10
109.4125754097
 20
205.287053738
 30
0.0
 10
108.9053479514
 20
205.4788081665
 30
0.0
 10
108.2781150753
 20
205.7350521298
 30
0.0
 10
107.5361032755
 20
206.0541697349
 30
0.0
 10
107.0465292543
 20
206.2716853191
 30
0.0
 10
106.8034728573
 20
206.3808817334
 30
0.0
  0
SPLINE
  5
3BF
100
AcDbEntity
  8
0
100
AcDbSpline
 62
7
  6
CONTINUOUS
 70
0
 71
3
 72
17
 73
13
 74
0
 42
0.0000001
 43
0.0000001
 44
0.0000000001
 40
0.0
 40
0.0
 40
0.0
 40
0.0
 40
0.0434220322
 40
0.0895900228
 40
0.1394298134
 40
0.193425515
 40
0.3137509829
 40
0.4482356303
 40
0.5912204204
 40
0.7355743443
 40
0.8739479834
 40
1.0
 40
1.0
 40
1.0
 40
1.0
 10
111.1161041566
 20
204.7357335397
 30
0.0
 10
111.2418916541
 20
204.6955306875
 30
0.0
 10
111.5122181946
 20
204.6438544042
 30
0.0
 10
111.9387367439
 20
204.654604621
 30
0.0
 10
112.3871854562
 20
204.7498240029
 30
0.0
 10
113.0258326035
 20
204.9946267156
 30
0.0
 10
113.8244306047
 20
205.506939608
 30
0.0
 10
114.6970860951
 20
206.3534429089
 30
0.0
 10
115.4581648794
 20
207.3932571789
 30
0.0
 10
116.0514717505
 20
208.5502771881
 30
0.0
 10
116.4337841539
 20
209.7389313646
 30
0.0
 10
116.5351406547
 20
210.5440276469
 30
0.0
 10
116.5351406547
 20
210.9273794424
 30
0.0
  0
SPLINE
  5
3C0
100
AcDbEntity
  8
0
100
AcDbSpline
 62
7
  6
CONTINUOUS
 70
0
 71
3
 72
11
 73
7
 74
0
 42
0.0000001
 43
0.0000001
 44
0.0000000001
 40
0.0
 40
0.0
 40
0.0
 40
0.0
 40
0.217768911
 40
0.450940292
 40
0.7102103638
 40
1.0
 40
1.0
 40
1.0
 40
1.0
 10
111.42643409
 20
205.957125727
 30
0.0
 10
111.3109931065
 20
206.0237894543
 30
0.0
 10
111.0949142773
 20
206.2053392677
 30
0.0
 10
110.8650498371
 20
206.5813603004
 30
0.0
 10
110.7283354047
 20
207.0447068512
 30
0.0
 10
110.7015339977
 20
207.3819711795
 30
0.0
 10
110.7015339977
 20
207.5593651729
 30
0.0
  0
SPLINE
  5
3C1
100
AcDbEntity
  8
0
100
AcDbSpline
 62
7
  6
CONTINUOUS
 70
0
 71
3
 72
11
 73
7
 74
0
 42
0.0000001
 43
0.0000001
 44
0.0000000001
 40
0.0
 40
0.0
 40
0.0
 40
0.0
 40
0.2897925309
 40
0.5490601265
 40
0.782231448
 40
1.0
 40
1.0
 40
1.0
 40
1.0
 10
114.944154077
 20
210.4170725504
 30
0.0
 10
114.944154077
 20
210.5691261616
 30
0.0
 10
114.9211816428
 20
210.8582104371
 30
0.0
 10
114.8039965103
 20
211.2553644714
 30
0.0
 10
114.6069720495
 20
211.5776680898
 30
0.0
 10
114.4217613255
 20
211.7332818773
 30
0.0
 10
114.3228120641
 20
211.7904222507
 30
0.0
  0
SPLINE
  5
3C2
100
AcDbEntity
  8
0
100
AcDbSpline
 62
7
  6
CONTINUOUS
 70
0
 71
3
 72
17
 73
13
 74
0
 42
0.0000001
 43
0.0000001
 44
0.0000000001
 40
0.0
 40
0.0
 40
0.0
 40
0.0
 40
0.1286908751
 40
0.27027556
 40
0.4174299496
 40
0.5617767589
 40
0.6954477755
 40
0.8127135225
 40
0.8646767793
 40
0.9125110269
 40
0.9571410396
 40
1.0
 40
1.0
 40
1.0
 40
1.0
 10
92.0339926952
 20
196.7817195107
 30
0.0
 10
92.0339926952
 20
197.0296010925
 30
0.0
 10
92.1033369676
 20
197.5507946803
 30
0.0
 10
92.3621635736
 20
198.3160536514
 30
0.0
 10
92.760975088
 20
199.053257408
 30
0.0
 10
93.2677576721
 20
199.7019417933
 30
0.0
 10
93.841088598
 20
200.2096918887
 30
0.0
 10
94.360001744
 20
200.4934685161
 30
0.0
 10
94.7659381013
 20
200.6014412415
 30
0.0
 10
95.0453142615
 20
200.6220034634
 30
0.0
 10
95.3054694833
 20
200.5838901599
 30
0.0
 10
95.4630633163
 20
200.5183715717
 30
0.0
 10
95.534558521
 20
200.4770968928
 30
0.0
  0
SPLINE
  5
3C3
100
AcDbEntity
  8
0
100
AcDbSpline
 62
7
  6
CONTINUOUS
 70
0
 71
3
 72
11
 73
7
 74
0
 42
0.0000001
 43
0.0000001
 44
0.0000000001
 40
0.0
 40
0.0
 40
0.0
 40
0.0
 40
0.2897903937
 40
0.5490579954
 40
0.7822299719
 40
1.0
 40
1.0
 40
1.0
 40
1.0
 10
96.5594572534
 20
199.3944820955
 30
0.0
 10
96.5594572534
 20
199.5718766629
 30
0.0
 10
96.5326568718
 20
199.9091403999
 30
0.0
 10
96.3959413255
 20
200.3724858582
 30
0.0
 10
96.1660801141
 20
200.7485087788
 30
0.0
 10
95.9499995737
 20
200.9300587563
 30
0.0
 10
95.8345580439
 20
200.9967230707
 30
0.0
  0
SPLINE
  5
3C4
100
AcDbEntity
  8
0
100
AcDbSpline
 62
7
  6
CONTINUOUS
 70
0
 71
3
 72
10
 73
6
 74
0
 42
0.0000001
 43
0.0000001
 44
0.0000000001
 40
0.0
 40
0.0
 40
0.0
 40
0.0
 40
0.5228926002
 40
0.7647292793
 40
1.0
 40
1.0
 40
1.0
 40
1.0
 10
95.3680344832
 20
201.321140588
 30
0.0
 10
95.3045572488
 20
201.5171067127
 30
0.0
 10
95.1703983256
 20
201.795380641
 30
0.0
 10
94.9039227714
 20
202.0883443927
 30
0.0
 10
94.7506060573
 20
202.1998873432
 30
0.0
 10
94.6703383309
 20
202.2462266177
 30
0.0
  0
SPLINE
  5
3C5
100
AcDbEntity
  8
0
100
AcDbSpline
 62
7
  6
CONTINUOUS
 70
0
 71
3
 72
11
 73
7
 74
0
 42
0.0000001
 43
0.0000001
 44
0.0000000001
 40
0.0
 40
0.0
 40
0.0
 40
0.0
 40
0.2897925309
 40
0.5490601265
 40
0.782231448
 40
1.0
 40
1.0
 40
1.0
 40
1.0
 10
105.3982522746
 20
204.9057764731
 30
0.0
 10
105.3982522746
 20
205.0578300843
 30
0.0
 10
105.3752798404
 20
205.3469143598
 30
0.0
 10
105.2580947079
 20
205.7440683941
 30
0.0
 10
105.0610702471
 20
206.0663720125
 30
0.0
 10
104.8758595231
 20
206.2219858
 30
0.0
 10
104.7769102618
 20
206.2791261734
 30
0.0
  0
SPLINE
  5
3C6
100
AcDbEntity
  8
0
100
AcDbSpline
 62
7
  6
CONTINUOUS
 70
0
 71
3
 72
17
 73
13
 74
0
 42
0.0000001
 43
0.0000001
 44
0.0000000001
 40
0.0
 40
0.0
 40
0.0
 40
0.0
 40
0.1286891379
 40
0.2702760981
 40
0.4174302086
 40
0.5617781567
 40
0.6954494801
 40
0.8127123572
 40
0.8646772739
 40
0.912511248
 40
0.9571403949
 40
1.0
 40
1.0
 40
1.0
 40
1.0
 10
101.1556321953
 20
202.0480690957
 30
0.0
 10
101.1556321953
 20
202.3472327907
 30
0.0
 10
101.2393308072
 20
202.9762591079
 30
0.0
 10
101.5516790571
 20
203.8998594883
 30
0.0
 10
102.0330379635
 20
204.7895824686
 30
0.0
 10
102.6446700936
 20
205.5724743388
 30
0.0
 10
103.3365956597
 20
206.1853173307
 30
0.0
 10
103.9628997718
 20
206.5277336014
 30
0.0
 10
104.4528019941
 20
206.6581040494
 30
0.0
 10
104.7899895536
 20
206.6829082691
 30
0.0
 10
105.1039544761
 20
206.6368669817
 30
0.0
 10
105.2941763601
 20
206.5578432505
 30
0.0
 10
105.3804589634
 20
206.5080176187
 30
0.0
  0
SPLINE
  5
3C7
100
AcDbEntity
  8
0
100
AcDbSpline
 62
7
  6
CONTINUOUS
 70
0
 71
3
 72
11
 73
7
 74
0
 42
0.0000001
 43
0.0000001
 44
0.0000000001
 40
0.0
 40
0.0
 40
0.0
 40
0.0
 40
0.2848443418
 40
0.5445152259
 40
0.7809897299
 40
1.0
 40
1.0
 40
1.0
 40
1.0
 10
106.9892388523
 20
205.4160833651
 30
0.0
 10
106.9892388523
 20
205.6203131883
 30
0.0
 10
106.962719408
 20
206.0116047468
 30
0.0
 10
106.8306997644
 20
206.55906084
 30
0.0
 10
106.6098297478
 20
207.0263394523
 30
0.0
 10
106.3992263657
 20
207.2818606122
 30
0.0
 10
106.2830375861
 20
207.3874912922
 30
0.0
  0
SPLINE
  5
3C8
100
AcDbEntity
  8
0
100
AcDbSpline
 62
7
  6
CONTINUOUS
 70
0
 71
3
 72
13
 73
9
 74
0
 42
0.0000001
 43
0.0000001
 44
0.0000000001
 40
0.0
 40
0.0
 40
0.0
 40
0.0
 40
0.2894091221
 40
0.5482905172
 40
0.6677437784
 40
0.7817700881
 40
0.8919033495
 40
1.0
 40
1.0
 40
1.0
 40
1.0
 10
91.6097097851
 20
193.6789532779
 30
0.0
 10
91.3024468446
 20
193.5015559954
 30
0.0
 10
90.6918718405
 20
193.2107095113
 30
0.0
 10
89.8878567257
 20
193.0170966263
 30
0.0
 10
89.2827817857
 20
192.9960032957
 30
0.0
 10
88.862471486
 20
193.0428971251
 30
0.0
 10
88.4682008557
 20
193.151887406
 30
0.0
 10
88.2245466028
 20
193.2660200345
 30
0.0
 10
88.1097809091
 20
193.3322784944
 30
0.0
  0
SPLINE
  5
3C9
100
AcDbEntity
  8
0
100
AcDbSpline
 62
7
  6
CONTINUOUS
 70
0
 71
3
 72
17
 73
13
 74
0
 42
0.0000001
 43
0.0000001
 44
0.0000000001
 40
0.0
 40
0.0
 40
0.0
 40
0.0
 40
0.1286891379
 40
0.2702760981
 40
0.4174302086
 40
0.5617781567
 40
0.6954494801
 40
0.8127123572
 40
0.8646772739
 40
0.912511248
 40
0.9571403949
 40
1.0
 40
1.0
 40
1.0
 40
1.0
 10
115.6512608582
 20
210.41707425
 30
0.0
 10
115.6512608582
 20
210.1179105551
 30
0.0
 10
115.5675622463
 20
209.4888842378
 30
0.0
 10
115.2552139963
 20
208.5652838574
 30
0.0
 10
114.77385509
 20
207.6755608771
 30
0.0
 10
114.1622229598
 20
206.8926690069
 30
0.0
 10
113.4702973938
 20
206.279826015
 30
0.0
 10
112.8439932816
 20
205.9374097443
 30
0.0
 10
112.3540910594
 20
205.8070392963
 30
0.0
 10
112.0169034999
 20
205.7822350766
 30
0.0
 10
111.7029385774
 20
205.828276364
 30
0.0
 10
111.5127166933
 20
205.9073000952
 30
0.0
 10
111.42643409
 20
205.957125727
 30
0.0
  0
SPLINE
  5
3CA
100
AcDbEntity
  8
0
100
AcDbSpline
 62
7
  6
CONTINUOUS
 70
0
 71
3
 72
10
 73
6
 74
0
 42
0.0000001
 43
0.0000001
 44
0.0000000001
 40
0.0
 40
0.0
 40
0.0
 40
0.0
 40
0.2372719105
 40
0.4801594835
 40
1.0
 40
1.0
 40
1.0
 40
1.0
 10
87.4884169822
 20
197.1550754789
 30
0.0
 10
87.4147209592
 20
197.1976225432
 30
0.0
 10
87.2735508478
 20
197.2984580088
 30
0.0
 10
87.02459958
 20
197.5588332283
 30
0.0
 10
86.891992789
 20
197.8051585599
 30
0.0
 10
86.8260062726
 20
197.9795282813
 30
0.0
  0
SPLINE
  5
3CB
100
AcDbEntity
  8
0
100
AcDbSpline
 62
7
  6
CONTINUOUS
 70
0
 71
3
 72
11
 73
7
 74
0
 42
0.0000001
 43
0.0000001
 44
0.0000000001
 40
0.0
 40
0.0
 40
0.0
 40
0.0
 40
0.2177534441
 40
0.4512207062
 40
0.7106191132
 40
1.0
 40
1.0
 40
1.0
 40
1.0
 10
95.5511872022
 20
200.4672746989
 30
0.0
 10
95.6445313498
 20
200.4108756063
 30
0.0
 10
95.8186336685
 20
200.2592639846
 30
0.0
 10
96.0035543579
 20
199.9497419664
 30
0.0
 10
96.1135578259
 20
199.5702288763
 30
0.0
 10
96.1351949511
 20
199.2944690265
 30
0.0
 10
96.1351949511
 20
199.1495356032
 30
0.0
  0
SPLINE
  5
3CC
100
AcDbEntity
  8
0
100
AcDbSpline
 62
7
  6
CONTINUOUS
 70
0
 71
3
 72
19
 73
15
 74
0
 42
0.0000001
 43
0.0000001
 44
0.0000000001
 40
0.0
 40
0.0
 40
0.0
 40
0.0
 40
0.0434006466
 40
0.0872018722
 40
0.1333343017
 40
0.1832602462
 40
0.2378219629
 40
0.2972794978
 40
0.3614203107
 40
0.4296710103
 40
0.5748052454
 40
0.7243572779
 40
0.8688906733
 40
1.0
 40
1.0
 40
1.0
 40
1.0
 10
115.8289393885
 20
212.8987873694
 30
0.0
 10
115.7239193819
 20
212.9942641852
 30
0.0
 10
115.4864809604
 20
213.1594711568
 30
0.0
 10
115.0698287537
 20
213.3040481177
 30
0.0
 10
114.60951769
 20
213.3406418692
 30
0.0
 10
114.1185517484
 20
213.2710476183
 30
0.0
 10
113.6080283836
 20
213.0992452293
 30
0.0
 10
113.0890302386
 20
212.8302832373
 30
0.0
 10
112.5729340857
 20
212.470772503
 30
0.0
 10
111.8907384185
 20
211.8697881176
 30
0.0
 10
111.1260465923
 20
210.951813902
 30
0.0
 10
110.4113665742
 20
209.6975312471
 30
0.0
 10
109.9441989458
 20
208.3802509098
 30
0.0
 10
109.8176542012
 20
207.4778269125
 30
0.0
 10
109.8176542012
 20
207.0490599806
 30
0.0
  0
SPLINE
  5
3CD
100
AcDbEntity
  8
0
100
AcDbSpline
 62
7
  6
CONTINUOUS
 70
0
 71
3
 72
11
 73
7
 74
0
 42
0.0000001
 43
0.0000001
 44
0.0000000001
 40
0.0
 40
0.0
 40
0.0
 40
0.0
 40
0.2238748563
 40
0.4597670349
 40
0.7167994583
 40
1.0
 40
1.0
 40
1.0
 40
1.0
 10
104.7769102618
 20
206.2791261734
 30
0.0
 10
104.6918286192
 20
206.3282583929
 30
0.0
 10
104.5008278044
 20
206.4031442326
 30
0.0
 10
104.1841280852
 20
206.4320991261
 30
0.0
 10
103.8446615987
 20
206.3811324673
 30
0.0
 10
103.6203190144
 20
206.30006706
 30
0.0
 10
103.5070383143
 20
206.2489387243
 30
0.0
  0
SPLINE
  5
3CE
100
AcDbEntity
  8
0
100
AcDbSpline
 62
7
  6
CONTINUOUS
 70
0
 71
3
 72
33
 73
29
 74
0
 42
0.0000001
 43
0.0000001
 44
0.0000000001
 40
0.0
 40
0.0
 40
0.0
 40
0.0
 40
0.0838858666
 40
0.168208859
 40
0.2530196556
 40
0.3383648896
 40
0.4242628337
 40
0.5106262478
 40
0.5538723664
 40
0.5969999762
 40
0.6397320766
 40
0.6815086681
 40
0.72120858
 40
0.7567835903
 40
0.7854296535
 40
0.8053716782
 40
0.8123875163
 40
0.8179833835
 40
0.8227640428
 40
0.8273383213
 40
0.8321506249
 40
0.8374319825
 40
0.8496249343
 40
0.8639154972
 40
0.8799825159
 40
0.9162582248
 40
0.9566445093
 40
1.0
 40
1.0
 40
1.0
 40
1.0
 10
109.9207439592
 20
215.6822709668
 30
0.0
 10
110.0619480709
 20
215.6180794187
 30
0.0
 10
110.3453568152
 20
215.4899428367
 30
0.0
 10
110.7726023405
 20
215.2992966041
 30
0.0
 10
111.203460391
 20
215.1101421441
 30
0.0
 10
111.6384186832
 20
214.9231098049
 30
0.0
 10
112.0778626641
 20
214.7392945922
 30
0.0
 10
112.4475556955
 20
214.5905137233
 30
0.0
 10
112.7456411198
 20
214.4757685719
 30
0.0
 10
112.9695315207
 20
214.392900668
 30
0.0
 10
113.1922332921
 20
214.3147420994
 30
0.0
 10
113.410692325
 20
214.2437309107
 30
0.0
 10
113.6186830195
 20
214.1838035125
 30
0.0
 10
113.8060913963
 20
214.1401679879
 30
0.0
 10
113.9601454302
 20
214.1183037935
 30
0.0
 10
114.0643185048
 20
214.1193880479
 30
0.0
 10
114.1224513633
 20
214.1366274279
 30
0.0
 10
114.150353499
 20
214.153578346
 30
0.0
 10
114.1682025474
 20
214.1754740673
 30
0.0
 10
114.1765988622
 20
214.2008043212
 30
0.0
 10
114.1773481055
 20
214.2281909486
 30
0.0
 10
114.1698335695
 20
214.2689142089
 30
0.0
 10
114.1465919348
 20
214.3234322219
 30
0.0
 10
114.1056256495
 20
214.3906938797
 30
0.0
 10
114.0323036181
 20
214.4898755765
 30
0.0
 10
113.9184409751
 20
214.618382183
 30
0.0
 10
113.7618715579
 20
214.7757135966
 30
0.0
 10
113.6485672385
 20
214.8813049405
 30
0.0
 10
113.5892539798
 20
214.9352371336
 30
0.0
  0
SPLINE
  5
3CF
100
AcDbEntity
  8
0
100
AcDbSpline
 62
7
  6
CONTINUOUS
 70
0
 71
3
 72
26
 73
22
 74
0
 42
0.0000001
 43
0.0000001
 44
0.0000000001
 40
0.0
 40
0.0
 40
0.0
 40
0.0
 40
0.1263424991
 40
0.1900754286
 40
0.2543331486
 40
0.3193079975
 40
0.3853153705
 40
0.4528878535
 40
0.4875412094
 40
0.5228371935
 40
0.5584520379
 40
0.5932971172
 40
0.6262531979
 40
0.6573835621
 40
0.6873245809
 40
0.716572025
 40
0.7739739936
 40
0.8307489773
 40
0.8872599967
 40
0.943654623
 40
1.0
 40
1.0
 40
1.0
 40
1.0
 10
105.5364087826
 20
211.673701332
 30
0.0
 10
105.8995724993
 20
211.6187826088
 30
0.0
 10
106.4474623871
 20
211.5453058445
 30
0.0
 10
107.1836296061
 20
211.4754579242
 30
0.0
 10
107.7436927751
 20
211.4413268237
 30
0.0
 10
108.3115152232
 20
211.4324971422
 30
0.0
 10
108.8884470709
 20
211.4609605347
 30
0.0
 10
109.3738377475
 20
211.5339210352
 30
0.0
 10
109.7584167062
 20
211.6458492275
 30
0.0
 10
110.0405479962
 20
211.7696437833
 30
0.0
 10
110.295939866
 20
211.9455931618
 30
0.0
 10
110.492714057
 20
212.17876519
 30
0.0
 10
110.6062901242
 20
212.4472756293
 30
0.0
 10
110.6468480981
 20
212.7197071035
 30
0.0
 10
110.6379048348
 20
212.983117289
 30
0.0
 10
110.58258099
 20
213.3181728085
 30
0.0
 10
110.4577084451
 20
213.7177577614
 30
0.0
 10
110.2588783989
 20
214.1728950524
 30
0.0
 10
110.0291775896
 20
214.6098021413
 30
0.0
 10
109.7781760574
 20
215.0331611311
 30
0.0
 10
109.6003267345
 20
215.3085448271
 30
0.0
 10
109.5094245831
 20
215.4448097763
 30
0.0
  0
SPLINE
  5
3D0
100
AcDbEntity
  8
0
100
AcDbSpline
 62
7
  6
CONTINUOUS
 70
0
 71
3
 72
11
 73
7
 74
0
 42
0.0000001
 43
0.0000001
 44
0.0000000001
 40
0.0
 40
0.0
 40
0.0
 40
0.0
 40
0.217768911
 40
0.450940292
 40
0.7102103638
 40
1.0
 40
1.0
 40
1.0
 40
1.0
 10
105.3804589634
 20
206.5080176187
 30
0.0
 10
105.4958999469
 20
206.4413538915
 30
0.0
 10
105.7119787762
 20
206.259804078
 30
0.0
 10
105.9418432164
 20
205.8837830453
 30
0.0
 10
106.0785576488
 20
205.4204364945
 30
0.0
 10
106.1053590558
 20
205.0831721662
 30
0.0
 10
106.1053590558
 20
204.9057781728
 30
0.0
  0
SPLINE
  5
3D1
100
AcDbEntity
  8
0
100
AcDbSpline
 62
7
  6
CONTINUOUS
 70
0
 71
3
 72
11
 73
7
 74
0
 42
0.0000001
 43
0.0000001
 44
0.0000000001
 40
0.0
 40
0.0
 40
0.0
 40
0.0
 40
0.217768911
 40
0.450940292
 40
0.7102103638
 40
1.0
 40
1.0
 40
1.0
 40
1.0
 10
114.9263607658
 20
212.019313696
 30
0.0
 10
115.0418017493
 20
211.9526499687
 30
0.0
 10
115.2578805786
 20
211.7711001553
 30
0.0
 10
115.4877450188
 20
211.3950791226
 30
0.0
 10
115.6244594512
 20
210.9317325718
 30
0.0
 10
115.6512608582
 20
210.5944682434
 30
0.0
 10
115.6512608582
 20
210.41707425
 30
0.0
  0
SPLINE
  5
3D2
100
AcDbEntity
  8
0
100
AcDbSpline
 62
7
  6
CONTINUOUS
 70
0
 71
3
 72
11
 73
7
 74
0
 42
0.0000001
 43
0.0000001
 44
0.0000000001
 40
0.0
 40
0.0
 40
0.0
 40
0.0
 40
0.2238748563
 40
0.4597670349
 40
0.7167994583
 40
1.0
 40
1.0
 40
1.0
 40
1.0
 10
114.3228120641
 20
211.7904222507
 30
0.0
 10
114.2377304215
 20
211.8395544701
 30
0.0
 10
114.0467296068
 20
211.9144403098
 30
0.0
 10
113.7300298876
 20
211.9433952034
 30
0.0
 10
113.390563401
 20
211.8924285446
 30
0.0
 10
113.1662208168
 20
211.8113631373
 30
0.0
 10
113.0529401167
 20
211.7602348015
 30
0.0
  0
SPLINE
  5
3D3
100
AcDbEntity
  8
0
100
AcDbSpline
 62
7
  6
CONTINUOUS
 70
0
 71
3
 72
9
 73
5
 74
0
 42
0.0000001
 43
0.0000001
 44
0.0000000001
 40
0.0
 40
0.0
 40
0.0
 40
0.0
 40
0.2547243066
 40
1.0
 40
1.0
 40
1.0
 40
1.0
 10
110.7089977099
 20
207.7668773758
 30
0.0
 10
110.7103508672
 20
207.7490797948
 30
0.0
 10
110.7164144933
 20
207.6792700802
 30
0.0
 10
110.7255333431
 20
207.6097171042
 30
0.0
 10
110.7342146911
 20
207.5582210576
 30
0.0
  0
SPLINE
  5
3D4
100
AcDbEntity
  8
0
100
AcDbSpline
 62
7
  6
CONTINUOUS
 70
0
 71
3
 72
11
 73
7
 74
0
 42
0.0000001
 43
0.0000001
 44
0.0000000001
 40
0.0
 40
0.0
 40
0.0
 40
0.0
 40
0.2765802428
 40
0.5317166743
 40
0.7704016399
 40
1.0
 40
1.0
 40
1.0
 40
1.0
 10
110.7480610807
 20
207.4842465355
 30
0.0
 10
110.7683673159
 20
207.3858151992
 30
0.0
 10
110.8216794031
 20
207.1989889292
 30
0.0
 10
110.9473627897
 20
206.9467969123
 30
0.0
 10
111.1135086467
 20
206.7402191992
 30
0.0
 10
111.2506228447
 20
206.6359803672
 30
0.0
 10
111.3228730665
 20
206.5942579268
 30
0.0
  0
SPLINE
  5
3D5
100
AcDbEntity
  8
0
100
AcDbSpline
 62
7
  6
CONTINUOUS
 70
0
 71
3
 72
9
 73
5
 74
0
 42
0.0000001
 43
0.0000001
 44
0.0000000001
 40
0.0
 40
0.0
 40
0.0
 40
0.0
 40
0.2556422403
 40
1.0
 40
1.0
 40
1.0
 40
1.0
 10
112.065045058
 20
216.1021844309
 30
0.0
 10
112.0589581618
 20
216.1474445479
 30
0.0
 10
112.0328415404
 20
216.324166804
 30
0.0
 10
111.9972783037
 20
216.4995294503
 30
0.0
 10
111.9649852907
 20
216.6285196332
 30
0.0
  0
SPLINE
  5
3D6
100
AcDbEntity
  8
0
100
AcDbSpline
 62
7
  6
CONTINUOUS
 70
0
 71
3
 72
17
 73
13
 74
0
 42
0.0000001
 43
0.0000001
 44
0.0000000001
 40
0.0
 40
0.0
 40
0.0
 40
0.0
 40
0.1286908751
 40
0.27027556
 40
0.4174299496
 40
0.5617767589
 40
0.6954477755
 40
0.8127135225
 40
0.8646767793
 40
0.9125110269
 40
0.9571410396
 40
1.0
 40
1.0
 40
1.0
 40
1.0
 10
96.1351949511
 20
199.1495356032
 30
0.0
 10
96.1351949511
 20
198.9016540214
 30
0.0
 10
96.0658506787
 20
198.3804604336
 30
0.0
 10
95.8070240727
 20
197.6152014626
 30
0.0
 10
95.4082125583
 20
196.8779977059
 30
0.0
 10
94.9014299742
 20
196.2293133206
 30
0.0
 10
94.3280990483
 20
195.7215632252
 30
0.0
 10
93.8091859023
 20
195.4377865978
 30
0.0
 10
93.4032495449
 20
195.3298138725
 30
0.0
 10
93.1238733848
 20
195.3092516505
 30
0.0
 10
92.863718163
 20
195.347364954
 30
0.0
 10
92.70612433
 20
195.4128835423
 30
0.0
 10
92.6346291253
 20
195.4541582211
 30
0.0
  0
SPLINE
  5
3D7
100
AcDbEntity
  8
0
100
AcDbSpline
 62
7
  6
CONTINUOUS
 70
0
 71
3
 72
17
 73
13
 74
0
 42
0.0000001
 43
0.0000001
 44
0.0000000001
 40
0.0
 40
0.0
 40
0.0
 40
0.0
 40
0.0428594337
 40
0.0874887201
 40
0.1353229967
 40
0.1872882708
 40
0.3045507894
 40
0.4382200153
 40
0.5825656009
 40
0.72972007
 40
0.8713089876
 40
1.0
 40
1.0
 40
1.0
 40
1.0
 10
95.8345580439
 20
200.9967230707
 30
0.0
 10
95.7482758714
 20
201.0465486567
 30
0.0
 10
95.5580532418
 20
201.1255707175
 30
0.0
 10
95.2440879451
 20
201.1716116028
 30
0.0
 10
94.9068982578
 20
201.1468091433
 30
0.0
 10
94.4169959143
 20
201.0164358365
 30
0.0
 10
93.7906961476
 20
200.6740226546
 30
0.0
 10
93.0987790116
 20
200.061187201
 30
0.0
 10
92.4871484605
 20
199.278306367
 30
0.0
 10
92.0057882083
 20
198.3885841739
 30
0.0
 10
91.6934311571
 20
197.4649764813
 30
0.0
 10
91.6097303929
 20
196.8359410785
 30
0.0
 10
91.6097303929
 20
196.5367730184
 30
0.0
  0
SPLINE
  5
3D8
100
AcDbEntity
  8
0
100
AcDbSpline
 62
7
  6
CONTINUOUS
 70
0
 71
3
 72
11
 73
7
 74
0
 42
0.0000001
 43
0.0000001
 44
0.0000000001
 40
0.0
 40
0.0
 40
0.0
 40
0.0
 40
0.2897903937
 40
0.5490579954
 40
0.7822299719
 40
1.0
 40
1.0
 40
1.0
 40
1.0
 10
91.6097303929
 20
196.5367730184
 30
0.0
 10
91.6097303929
 20
196.3593784511
 30
0.0
 10
91.6365307745
 20
196.022114714
 30
0.0
 10
91.7732463208
 20
195.5587692557
 30
0.0
 10
92.0031075322
 20
195.1827463352
 30
0.0
 10
92.2191880726
 20
195.0011963576
 30
0.0
 10
92.3346296024
 20
194.9345320433
 30
0.0
  0
SPLINE
  5
3D9
100
AcDbEntity
  8
0
100
AcDbSpline
 62
7
  6
CONTINUOUS
 70
0
 71
3
 72
17
 73
13
 74
0
 42
0.0000001
 43
0.0000001
 44
0.0000000001
 40
0.0
 40
0.0
 40
0.0
 40
0.0
 40
0.1286891379
 40
0.2702760981
 40
0.4174302086
 40
0.5617781567
 40
0.6954494801
 40
0.8127123572
 40
0.8646772739
 40
0.912511248
 40
0.9571403949
 40
1.0
 40
1.0
 40
1.0
 40
1.0
 10
90.1955109426
 20
197.3532545275
 30
0.0
 10
90.1955109426
 20
197.6524182224
 30
0.0
 10
90.2792095545
 20
198.2814445397
 30
0.0
 10
90.5915578044
 20
199.2050449201
 30
0.0
 10
91.0729167108
 20
200.0947679004
 30
0.0
 10
91.684548841
 20
200.8776597706
 30
0.0
 10
92.376474407
 20
201.4905027625
 30
0.0
 10
93.0027785191
 20
201.8329190332
 30
0.0
 10
93.4926807414
 20
201.9632894812
 30
0.0
 10
93.8298683009
 20
201.9880937009
 30
0.0
 10
94.1438332234
 20
201.9420524134
 30
0.0
 10
94.3340551074
 20
201.8630286823
 30
0.0
 10
94.4203377107
 20
201.8132030505
 30
0.0
  0
SPLINE
  5
3DA
100
AcDbEntity
  8
0
100
AcDbSpline
 62
7
  6
CONTINUOUS
 70
0
 71
3
 72
19
 73
15
 74
0
 42
0.0000001
 43
0.0000001
 44
0.0000000001
 40
0.0
 40
0.0
 40
0.0
 40
0.0
 40
0.0434006466
 40
0.0872018722
 40
0.1333343017
 40
0.1832602462
 40
0.2378219629
 40
0.2972794978
 40
0.3614203107
 40
0.4296710103
 40
0.5748052454
 40
0.7243572779
 40
0.8688906733
 40
1.0
 40
1.0
 40
1.0
 40
1.0
 10
106.2830375861
 20
207.3874912922
 30
0.0
 10
106.1780175795
 20
207.482968108
 30
0.0
 10
105.940579158
 20
207.6481750795
 30
0.0
 10
105.5239269513
 20
207.7927520404
 30
0.0
 10
105.0636158876
 20
207.8293457919
 30
0.0
 10
104.572649946
 20
207.759751541
 30
0.0
 10
104.0621265812
 20
207.587949152
 30
0.0
 10
103.5431284362
 20
207.31898716
 30
0.0
 10
103.0270322833
 20
206.9594764258
 30
0.0
 10
102.3448366161
 20
206.3584920404
 30
0.0
 10
101.5801447899
 20
205.4405178247
 30
0.0
 10
100.8654647718
 20
204.1862351699
 30
0.0
 10
100.3982971434
 20
202.8689548325
 30
0.0
 10
100.2717523988
 20
201.9665308352
 30
0.0
 10
100.2717523988
 20
201.5377639033
 30
0.0
  0
SPLINE
  5
3DB
100
AcDbEntity
  8
0
100
AcDbSpline
 62
7
  6
CONTINUOUS
 70
0
 71
3
 72
11
 73
7
 74
0
 42
0.0000001
 43
0.0000001
 44
0.0000000001
 40
0.0
 40
0.0
 40
0.0
 40
0.0
 40
0.2898011236
 40
0.549052471
 40
0.7822320507
 40
1.0
 40
1.0
 40
1.0
 40
1.0
 10
89.841959024
 20
197.1491324505
 30
0.0
 10
89.841959024
 20
196.9463877052
 30
0.0
 10
89.8725775732
 20
196.5609440258
 30
0.0
 10
90.0288458511
 20
196.0314098046
 30
0.0
 10
90.2915223057
 20
195.601669274
 30
0.0
 10
90.5384687648
 20
195.3941626059
 30
0.0
 10
90.6704104148
 20
195.3179915143
 30
0.0
  0
SPLINE
  5
3DC
100
AcDbEntity
  8
0
100
AcDbSpline
 62
7
  6
CONTINUOUS
 70
0
 71
3
 72
9
 73
5
 74
0
 42
0.0000001
 43
0.0000001
 44
0.0000000001
 40
0.0
 40
0.0
 40
0.0
 40
0.0
 40
0.2372766727
 40
1.0
 40
1.0
 40
1.0
 40
1.0
 10
86.8442897929
 20
195.1893395439
 30
0.0
 10
86.9464358897
 20
195.2180554823
 30
0.0
 10
87.3724926783
 20
195.3547752579
 30
0.0
 10
87.7787804118
 20
195.5496199143
 30
0.0
 10
88.0741611594
 20
195.7201570505
 30
0.0
  0
SPLINE
  5
3DD
100
AcDbEntity
  8
0
100
AcDbSpline
 62
7
  6
CONTINUOUS
 70
0
 71
3
 72
11
 73
7
 74
0
 42
0.0000001
 43
0.0000001
 44
0.0000000001
 40
0.0
 40
0.0
 40
0.0
 40
0.0
 40
0.217768911
 40
0.450940292
 40
0.7102103638
 40
1.0
 40
1.0
 40
1.0
 40
1.0
 10
90.920411035
 20
195.7510150815
 30
0.0
 10
90.8049700515
 20
195.8176788088
 30
0.0
 10
90.5888912222
 20
195.9992286222
 30
0.0
 10
90.359026782
 20
196.3752496549
 30
0.0
 10
90.2223123496
 20
196.8385962057
 30
0.0
 10
90.1955109426
 20
197.175860534
 30
0.0
 10
90.1955109426
 20
197.3532545275
 30
0.0
  0
SPLINE
  5
3DE
100
AcDbEntity
  8
0
100
AcDbSpline
 62
7
  6
CONTINUOUS
 70
0
 71
3
 72
10
 73
6
 74
0
 42
0.0000001
 43
0.0000001
 44
0.0000000001
 40
0.0
 40
0.0
 40
0.0
 40
0.0
 40
0.5183517103
 40
0.7617532443
 40
1.0
 40
1.0
 40
1.0
 40
1.0
 10
90.4950900041
 20
204.2525346153
 30
0.0
 10
90.6703235554
 20
204.2766510375
 30
0.0
 10
90.9357941781
 20
204.2785227178
 30
0.0
 10
91.2676064395
 20
204.1931235264
 30
0.0
 10
91.41793523
 20
204.1239588091
 30
0.0
 10
91.4883442372
 20
204.0833094438
 30
0.0
  0
SPLINE
  5
3DF
100
AcDbEntity
  8
0
100
AcDbSpline
 62
7
  6
CONTINUOUS
 70
0
 71
3
 72
13
 73
9
 74
0
 42
0.0000001
 43
0.0000001
 44
0.0000000001
 40
0.0
 40
0.0
 40
0.0
 40
0.0
 40
0.1075613484
 40
0.217244825
 40
0.3309690445
 40
0.450310735
 40
0.7095806239
 40
1.0
 40
1.0
 40
1.0
 40
1.0
 10
114.2014422659
 20
216.4792540557
 30
0.0
 10
114.318897164
 20
216.411443019
 30
0.0
 10
114.5445775426
 20
216.2533231619
 30
0.0
 10
114.841584417
 20
215.9575302334
 30
0.0
 10
115.0957335593
 20
215.6057889851
 30
0.0
 10
115.3818263803
 20
215.0526542787
 30
0.0
 10
115.6117871161
 20
214.23184987
 30
0.0
 10
115.6561639394
 20
213.5358597446
 30
0.0
 10
115.6504041733
 20
213.1697143362
 30
0.0
  0
SPLINE
  5
3E0
100
AcDbEntity
  8
0
100
AcDbSpline
 62
7
  6
CONTINUOUS
 70
0
 71
3
 72
16
 73
12
 74
0
 42
0.0000001
 43
0.0000001
 44
0.0000000001
 40
0.0
 40
0.0
 40
0.0
 40
0.0
 40
0.2450113438
 40
0.3689267636
 40
0.4940956562
 40
0.6208476679
 40
0.7494898734
 40
0.8144554983
 40
0.8793302285
 40
0.9425038301
 40
1.0
 40
1.0
 40
1.0
 40
1.0
 10
105.5364087826
 20
211.673701332
 30
0.0
 10
105.8421655339
 20
211.3726690905
 30
0.0
 10
106.2972484152
 20
210.9138579093
 30
0.0
 10
106.8888032214
 20
210.282286136
 30
0.0
 10
107.3262678757
 20
209.7903636164
 30
0.0
 10
107.750763813
 20
209.2763944257
 30
0.0
 10
108.0839267865
 20
208.8241950716
 30
0.0
 10
108.324558905
 20
208.4405096148
 30
0.0
 10
108.4825968109
 20
208.1410894621
 30
0.0
 10
108.6006982757
 20
207.837594563
 30
0.0
 10
108.6383236097
 20
207.6265015543
 30
0.0
 10
108.6383236097
 20
207.5258110344
 30
0.0
  0
SPLINE
  5
3E1
100
AcDbEntity
  8
0
100
AcDbSpline
 62
7
  6
CONTINUOUS
 70
0
 71
3
 72
17
 73
13
 74
0
 42
0.0000001
 43
0.0000001
 44
0.0000000001
 40
0.0
 40
0.0
 40
0.0
 40
0.0
 40
0.129555105
 40
0.257038974
 40
0.382022043
 40
0.5040004067
 40
0.6225532766
 40
0.7382106571
 40
0.79649883
 40
0.8572616333
 40
0.9238636967
 40
1.0
 40
1.0
 40
1.0
 40
1.0
 10
106.6920341317
 20
206.8075659725
 30
0.0
 10
106.7919477346
 20
206.7993506704
 30
0.0
 10
106.9904670176
 20
206.7862720732
 30
0.0
 10
107.28611342
 20
206.7793406857
 30
0.0
 10
107.5758932038
 20
206.7889009488
 30
0.0
 10
107.8574276778
 20
206.8206562416
 30
0.0
 10
108.1264621972
 20
206.8836764487
 30
0.0
 10
108.3355881217
 20
206.9779327726
 30
0.0
 10
108.477604461
 20
207.0930276525
 30
0.0
 10
108.5667176783
 20
207.2077198307
 30
0.0
 10
108.6264934592
 20
207.355635024
 30
0.0
 10
108.6383236097
 20
207.4668961509
 30
0.0
 10
108.6383236097
 20
207.5258110344
 30
0.0
  0
SPLINE
  5
3E2
100
AcDbEntity
  8
0
100
AcDbSpline
 62
7
  6
CONTINUOUS
 70
0
 71
3
 72
18
 73
14
 74
0
 42
0.0000001
 43
0.0000001
 44
0.0000000001
 40
0.0
 40
0.0
 40
0.0
 40
0.0
 40
0.0428487902
 40
0.0874668805
 40
0.1352879169
 40
0.1872385004
 40
0.2437306642
 40
0.3047366468
 40
0.4383695117
 40
0.5826771303
 40
0.7297921214
 40
0.8713447434
 40
1.0
 40
1.0
 40
1.0
 40
1.0
 10
94.6703383309
 20
202.2462266177
 30
0.0
 10
94.5717214553
 20
202.3031590197
 30
0.0
 10
94.3543354318
 20
202.3935006078
 30
0.0
 10
93.9954991099
 20
202.4460781371
 30
0.0
 10
93.6101669968
 20
202.4177176601
 30
0.0
 10
93.2068979513
 20
202.3105743025
 30
0.0
 10
92.7935786439
 20
202.1279110871
 30
0.0
 10
92.223022705
 20
201.7786690972
 30
0.0
 10
91.5433102473
 20
201.1767000972
 30
0.0
 10
90.8448445038
 20
200.2823983748
 30
0.0
 10
90.2945483852
 20
199.2654632398
 30
0.0
 10
89.9376283624
 20
198.2099359426
 30
0.0
 10
89.841959024
 20
197.4910345774
 30
0.0
 10
89.841959024
 20
197.1491324505
 30
0.0
  0
SPLINE
  5
3E3
100
AcDbEntity
  8
0
100
AcDbSpline
 62
7
  6
CONTINUOUS
 70
0
 71
3
 72
9
 73
5
 74
0
 42
0.0000001
 43
0.0000001
 44
0.0000000001
 40
0.0
 40
0.0
 40
0.0
 40
0.0
 40
0.2547243066
 40
1.0
 40
1.0
 40
1.0
 40
1.0
 10
101.1630959075
 20
202.2555812986
 30
0.0
 10
101.1644490648
 20
202.2377837175
 30
0.0
 10
101.1705126909
 20
202.167974003
 30
0.0
 10
101.1796315408
 20
202.098421027
 30
0.0
 10
101.1883128887
 20
202.0469249803
 30
0.0
  0
SPLINE
  5
3E4
100
AcDbEntity
  8
0
100
AcDbSpline
 62
7
  6
CONTINUOUS
 70
0
 71
3
 72
11
 73
7
 74
0
 42
0.0000001
 43
0.0000001
 44
0.0000000001
 40
0.0
 40
0.0
 40
0.0
 40
0.0
 40
0.2765802428
 40
0.5317166743
 40
0.7704016399
 40
1.0
 40
1.0
 40
1.0
 40
1.0
 10
101.2021592783
 20
201.9729504582
 30
0.0
 10
101.2224655135
 20
201.8745191219
 30
0.0
 10
101.2757776007
 20
201.6876928519
 30
0.0
 10
101.4014609873
 20
201.435500835
 30
0.0
 10
101.5676068443
 20
201.228923122
 30
0.0
 10
101.7047210423
 20
201.1246842899
 30
0.0
 10
101.7769712642
 20
201.0829618496
 30
0.0
  0
SPLINE
  5
3E5
100
AcDbEntity
  8
0
100
AcDbSpline
 62
7
  6
CONTINUOUS
 70
0
 71
3
 72
14
 73
10
 74
0
 42
0.0000001
 43
0.0000001
 44
0.0000000001
 40
0.0
 40
0.0
 40
0.0
 40
0.0
 40
0.2921644645
 40
0.4249366609
 40
0.5494353046
 40
0.6670097899
 40
0.7795847644
 40
0.8896513228
 40
1.0
 40
1.0
 40
1.0
 40
1.0
 10
109.8176542012
 20
207.0490599806
 30
0.0
 10
109.8176542012
 20
206.7724948857
 30
0.0
 10
109.8544899985
 20
206.3673608969
 30
0.0
 10
110.0005145435
 20
205.8667869167
 30
0.0
 10
110.148288857
 20
205.5426239573
 30
0.0
 10
110.3361372627
 20
205.2623969031
 30
0.0
 10
110.5622243761
 20
205.030325472
 30
0.0
 10
110.8233190381
 20
204.8502110246
 30
0.0
 10
111.0166056103
 20
204.7675341989
 30
0.0
 10
111.1161041566
 20
204.7357335397
 30
0.0
  0
SPLINE
  5
3E6
100
AcDbEntity
  8
0
100
AcDbSpline
 62
7
  6
CONTINUOUS
 70
0
 71
3
 72
17
 73
13
 74
0
 42
0.0000001
 43
0.0000001
 44
0.0000000001
 40
0.0
 40
0.0
 40
0.0
 40
0.0
 40
0.1286891379
 40
0.2702760981
 40
0.4174302086
 40
0.5617781567
 40
0.6954494801
 40
0.8127123572
 40
0.8646772739
 40
0.912511248
 40
0.9571403949
 40
1.0
 40
1.0
 40
1.0
 40
1.0
 10
106.1053590558
 20
204.9057781728
 30
0.0
 10
106.1053590558
 20
204.6066144778
 30
0.0
 10
106.0216604439
 20
203.9775881605
 30
0.0
 10
105.709312194
 20
203.0539877802
 30
0.0
 10
105.2279532876
 20
202.1642647998
 30
0.0
 10
104.6163211574
 20
201.3813729296
 30
0.0
 10
103.9243955914
 20
200.7685299378
 30
0.0
 10
103.2980914792
 20
200.426113667
 30
0.0
 10
102.808189257
 20
200.295743219
 30
0.0
 10
102.4710016975
 20
200.2709389993
 30
0.0
 10
102.157036775
 20
200.3169802868
 30
0.0
 10
101.9668148909
 20
200.396004018
 30
0.0
 10
101.8805322876
 20
200.4458296497
 30
0.0
  0
SPLINE
  5
3E7
100
AcDbEntity
  8
0
100
AcDbSpline
 62
7
  6
CONTINUOUS
 70
0
 71
3
 72
12
 73
8
 74
0
 42
0.0000001
 43
0.0000001
 44
0.0000000001
 40
0.0
 40
0.0
 40
0.0
 40
0.0
 40
0.2895821567
 40
0.5486359363
 40
0.7816376878
 40
0.8918387163
 40
1.0
 40
1.0
 40
1.0
 40
1.0
 10
84.3265402618
 20
187.187831725
 30
0.0
 10
84.3265402618
 20
186.9445381657
 30
0.0
 10
84.3634020867
 20
186.4819469014
 30
0.0
 10
84.5504516972
 20
185.846749744
 30
0.0
 10
84.819223325
 20
185.408464899
 30
0.0
 10
85.0906961915
 20
185.1415291501
 30
0.0
 10
85.2419854904
 20
185.0359005983
 30
0.0
 10
85.3206834985
 20
184.9904653123
 30
0.0
  0
SPLINE
  5
3E8
100
AcDbEntity
  8
0
100
AcDbSpline
 62
7
  6
CONTINUOUS
 70
0
 71
3
 72
14
 73
10
 74
0
 42
0.0000001
 43
0.0000001
 44
0.0000000001
 40
0.0
 40
0.0
 40
0.0
 40
0.0
 40
0.2921644645
 40
0.4249366609
 40
0.5494353046
 40
0.6670097899
 40
0.7795847644
 40
0.8896513228
 40
1.0
 40
1.0
 40
1.0
 40
1.0
 10
100.2717523988
 20
201.5377639033
 30
0.0
 10
100.2717523988
 20
201.2611988084
 30
0.0
 10
100.3085881961
 20
200.8560648196
 30
0.0
 10
100.4546127411
 20
200.3554908394
 30
0.0
 10
100.6023870546
 20
200.03132788
 30
0.0
 10
100.7902354603
 20
199.7511008258
 30
0.0
 10
101.0163225737
 20
199.5190293948
 30
0.0
 10
101.2774172357
 20
199.3389149473
 30
0.0
 10
101.4707038079
 20
199.2562381217
 30
0.0
 10
101.5702023542
 20
199.2244374624
 30
0.0
  0
SPLINE
  5
3E9
100
AcDbEntity
  8
0
100
AcDbSpline
 62
7
  6
CONTINUOUS
 70
0
 71
3
 72
33
 73
29
 74
0
 42
0.0000001
 43
0.0000001
 44
0.0000000001
 40
0.0
 40
0.0
 40
0.0
 40
0.0
 40
0.0838858666
 40
0.168208859
 40
0.2530196556
 40
0.3383648896
 40
0.4242628337
 40
0.5106262478
 40
0.5538723664
 40
0.5969999762
 40
0.6397320766
 40
0.6815086681
 40
0.72120858
 40
0.7567835903
 40
0.7854296535
 40
0.8053716782
 40
0.8123875163
 40
0.8179833835
 40
0.8227640428
 40
0.8273383213
 40
0.8321506249
 40
0.8374319825
 40
0.8496249343
 40
0.8639154972
 40
0.8799825159
 40
0.9162582248
 40
0.9566445093
 40
1.0
 40
1.0
 40
1.0
 40
1.0
 10
100.3748421569
 20
210.1709748896
 30
0.0
 10
100.5160462685
 20
210.1067833415
 30
0.0
 10
100.7994550128
 20
209.9786467595
 30
0.0
 10
101.2267005381
 20
209.7880005268
 30
0.0
 10
101.6575585887
 20
209.5988460668
 30
0.0
 10
102.0925168808
 20
209.4118137276
 30
0.0
 10
102.5319608617
 20
209.227998515
 30
0.0
 10
102.9016538931
 20
209.079217646
 30
0.0
 10
103.1997393174
 20
208.9644724947
 30
0.0
 10
103.4236297183
 20
208.8816045908
 30
0.0
 10
103.6463314897
 20
208.8034460221
 30
0.0
 10
103.8647905226
 20
208.7324348334
 30
0.0
 10
104.0727812171
 20
208.6725074352
 30
0.0
 10
104.2601895939
 20
208.6288719107
 30
0.0
 10
104.4142436278
 20
208.6070077162
 30
0.0
 10
104.5184167024
 20
208.6080919707
 30
0.0
 10
104.5765495609
 20
208.6253313506
 30
0.0
 10
104.6044516966
 20
208.6422822687
 30
0.0
 10
104.622300745
 20
208.6641779901
 30
0.0
 10
104.6306970598
 20
208.6895082439
 30
0.0
 10
104.6314463031
 20
208.7168948714
 30
0.0
 10
104.6239317671
 20
208.7576181316
 30
0.0
 10
104.6006901324
 20
208.8121361446
 30
0.0
 10
104.5597238472
 20
208.8793978025
 30
0.0
 10
104.4864018157
 20
208.9785794992
 30
0.0
 10
104.3725391728
 20
209.1070861057
 30
0.0
 10
104.2159697555
 20
209.2644175194
 30
0.0
 10
104.1026654361
 20
209.3700088632
 30
0.0
 10
104.0433521774
 20
209.4239410563
 30
0.0
  0
SPLINE
  5
3EA
100
AcDbEntity
  8
0
100
AcDbSpline
 62
7
  6
CONTINUOUS
 70
0
 71
3
 72
16
 73
12
 74
0
 42
0.0000001
 43
0.0000001
 44
0.0000000001
 40
0.0
 40
0.0
 40
0.0
 40
0.0
 40
0.2450113438
 40
0.3689267636
 40
0.4940956562
 40
0.6208476679
 40
0.7494898734
 40
0.8144554983
 40
0.8793302285
 40
0.9425038301
 40
1.0
 40
1.0
 40
1.0
 40
1.0
 10
95.9905069802
 20
206.1624052547
 30
0.0
 10
96.2962637315
 20
205.8613730132
 30
0.0
 10
96.7513466128
 20
205.402561832
 30
0.0
 10
97.342901419
 20
204.7709900588
 30
0.0
 10
97.7803660733
 20
204.2790675391
 30
0.0
 10
98.2048620106
 20
203.7650983484
 30
0.0
 10
98.5380249841
 20
203.3128989943
 30
0.0
 10
98.7786571026
 20
202.9292135376
 30
0.0
 10
98.9366950085
 20
202.6297933849
 30
0.0
 10
99.0547964733
 20
202.3262984857
 30
0.0
 10
99.0924218073
 20
202.115205477
 30
0.0
 10
99.0924218073
 20
202.0145149572
 30
0.0
  0
SPLINE
  5
3EB
100
AcDbEntity
  8
0
100
AcDbSpline
 62
7
  6
CONTINUOUS
 70
0
 71
3
 72
26
 73
22
 74
0
 42
0.0000001
 43
0.0000001
 44
0.0000000001
 40
0.0
 40
0.0
 40
0.0
 40
0.0
 40
0.1263424991
 40
0.1900754286
 40
0.2543331486
 40
0.3193079975
 40
0.3853153705
 40
0.4528878535
 40
0.4875412094
 40
0.5228371935
 40
0.5584520379
 40
0.5932971172
 40
0.6262531979
 40
0.6573835621
 40
0.6873245809
 40
0.716572025
 40
0.7739739936
 40
0.8307489773
 40
0.8872599967
 40
0.943654623
 40
1.0
 40
1.0
 40
1.0
 40
1.0
 10
95.9905069802
 20
206.1624052547
 30
0.0
 10
96.3536706969
 20
206.1074865316
 30
0.0
 10
96.9015605847
 20
206.0340097672
 30
0.0
 10
97.6377278037
 20
205.9641618469
 30
0.0
 10
98.1977909727
 20
205.9300307464
 30
0.0
 10
98.7656134208
 20
205.9212010649
 30
0.0
 10
99.3425452685
 20
205.9496644574
 30
0.0
 10
99.8279359451
 20
206.0226249579
 30
0.0
 10
100.2125149038
 20
206.1345531503
 30
0.0
 10
100.4946461938
 20
206.2583477061
 30
0.0
 10
100.7500380636
 20
206.4342970845
 30
0.0
 10
100.9468122546
 20
206.6674691128
 30
0.0
 10
101.0603883219
 20
206.935979552
 30
0.0
 10
101.1009462957
 20
207.2084110263
 30
0.0
 10
101.0920030324
 20
207.4718212117
 30
0.0
 10
101.0366791876
 20
207.8068767312
 30
0.0
 10
100.9118066427
 20
208.2064616842
 30
0.0
 10
100.7129765965
 20
208.6615989752
 30
0.0
 10
100.4832757872
 20
209.0985060641
 30
0.0
 10
100.232274255
 20
209.5218650539
 30
0.0
 10
100.0544249321
 20
209.7972487499
 30
0.0
 10
99.9635227807
 20
209.933513699
 30
0.0
  0
SPLINE
  5
3EC
100
AcDbEntity
  8
0
100
AcDbSpline
 62
7
  6
CONTINUOUS
 70
0
 71
3
 72
19
 73
15
 74
0
 42
0.0000001
 43
0.0000001
 44
0.0000000001
 40
0.0
 40
0.0
 40
0.0
 40
0.0
 40
0.1318501306
 40
0.2619737461
 40
0.3899207637
 40
0.5150519871
 40
0.6364689662
 40
0.6954942172
 40
0.7532749965
 40
0.8100292134
 40
0.8669192804
 40
0.8965479413
 40
0.9279892261
 40
1.0
 40
1.0
 40
1.0
 40
1.0
 10
95.9905069802
 20
201.4483263515
 30
0.0
 10
96.1415807151
 20
201.4226247399
 30
0.0
 10
96.4423587368
 20
201.3750113848
 30
0.0
 10
96.8919653629
 20
201.3175216985
 30
0.0
 10
97.3358284502
 20
201.2786226571
 30
0.0
 10
97.7711101024
 20
201.2650214204
 30
0.0
 10
98.1266567188
 20
201.2837828834
 30
0.0
 10
98.4002043603
 20
201.328620682
 30
0.0
 10
98.5953675767
 20
201.3816212253
 30
0.0
 10
98.7787531361
 20
201.4618927276
 30
0.0
 10
98.9142711772
 20
201.5628747068
 30
0.0
 10
99.0007446572
 20
201.6702457805
 30
0.0
 10
99.0731738362
 20
201.8079806597
 30
0.0
 10
99.0924218073
 20
201.9308195691
 30
0.0
 10
99.0924218073
 20
202.0145149572
 30
0.0
  0
SPLINE
  5
3ED
100
AcDbEntity
  8
0
100
AcDbSpline
 62
7
  6
CONTINUOUS
 70
0
 71
3
 72
11
 73
7
 74
0
 42
0.0000001
 43
0.0000001
 44
0.0000000001
 40
0.0
 40
0.0
 40
0.0
 40
0.0
 40
0.22364517
 40
0.4615142525
 40
0.719615073
 40
1.0
 40
1.0
 40
1.0
 40
1.0
 10
30.6318491395
 20
163.9370662795
 30
0.0
 10
30.5177096688
 20
164.0029639368
 30
0.0
 10
30.3023010647
 20
164.1763462919
 30
0.0
 10
30.0542004484
 20
164.5255657051
 30
0.0
 10
29.8808219744
 20
164.9526501831
 30
0.0
 10
29.8207932383
 20
165.266293852
 30
0.0
 10
29.8028194592
 20
165.430547229
 30
0.0
  0
SPLINE
  5
3EE
100
AcDbEntity
  8
0
100
AcDbSpline
 62
7
  6
CONTINUOUS
 70
0
 71
3
 72
11
 73
7
 74
0
 42
0.0000001
 43
0.0000001
 44
0.0000000001
 40
0.0
 40
0.0
 40
0.0
 40
0.0
 40
0.2368169205
 40
0.4825917025
 40
0.7371052518
 40
1.0
 40
1.0
 40
1.0
 40
1.0
 10
30.0998505114
 20
233.1920612558
 30
0.0
 10
29.3796335084
 20
227.8792604014
 30
0.0
 10
28.2985864179
 20
216.9973307921
 30
0.0
 10
27.7299645941
 20
200.3090771378
 30
0.0
 10
28.1854988467
 20
183.0274581373
 30
0.0
 10
29.1553975324
 20
171.3470124077
 30
0.0
 10
29.8028194592
 20
165.430547229
 30
0.0
  0
SPLINE
  5
3EF
100
AcDbEntity
  8
0
100
AcDbSpline
 62
7
  6
CONTINUOUS
 70
0
 71
3
 72
9
 73
5
 74
0
 42
0.0000001
 43
0.0000001
 44
0.0000000001
 40
0.0
 40
0.0
 40
0.0
 40
0.0
 40
0.2603782916
 40
1.0
 40
1.0
 40
1.0
 40
1.0
 10
33.3749612066
 20
162.5999719315
 30
0.0
 10
33.3905945241
 20
162.5670007256
 30
0.0
 10
33.4553666258
 20
162.4427283858
 30
0.0
 10
33.540570689
 20
162.3286596285
 30
0.0
 10
33.6140267163
 20
162.2555306503
 30
0.0
  0
SPLINE
  5
3F0
100
AcDbEntity
  8
0
100
AcDbSpline
 62
7
  6
CONTINUOUS
 70
0
 71
3
 72
9
 73
5
 74
0
 42
0.0000001
 43
0.0000001
 44
0.0000000001
 40
0.0
 40
0.0
 40
0.0
 40
0.0
 40
0.2527452273
 40
1.0
 40
1.0
 40
1.0
 40
1.0
 10
33.6140267163
 20
162.2555306503
 30
0.0
 10
33.6298476986
 20
162.2397801079
 30
0.0
 10
33.6943680918
 20
162.1794280258
 30
0.0
 10
33.7667223006
 20
162.1274265998
 30
0.0
 10
33.823883384
 20
162.0944253765
 30
0.0
  0
SPLINE
  5
3F1
100
AcDbEntity
  8
0
100
AcDbSpline
 62
7
  6
CONTINUOUS
 70
0
 71
3
 72
11
 73
7
 74
0
 42
0.0000001
 43
0.0000001
 44
0.0000000001
 40
0.0
 40
0.0
 40
0.0
 40
0.0
 40
0.2177798312
 40
0.4509239181
 40
0.7102597115
 40
1.0
 40
1.0
 40
1.0
 40
1.0
 10
178.1540400088
 20
82.5440830389
 30
0.0
 10
178.0682668033
 20
82.5935829964
 30
0.0
 10
177.9078095389
 20
82.7285096054
 30
0.0
 10
177.7369815738
 20
83.0078037776
 30
0.0
 10
177.6354841426
 20
83.3520242108
 30
0.0
 10
177.6155402549
 20
83.6025590841
 30
0.0
 10
177.6155402549
 20
83.7343136604
 30
0.0
  0
SPLINE
  5
3F2
100
AcDbEntity
  8
0
100
AcDbSpline
 62
7
  6
CONTINUOUS
 70
0
 71
3
 72
11
 73
7
 74
0
 42
0.0000001
 43
0.0000001
 44
0.0000000001
 40
0.0
 40
0.0
 40
0.0
 40
0.0
 40
0.2177798312
 40
0.4509239181
 40
0.7102597115
 40
1.0
 40
1.0
 40
1.0
 40
1.0
 10
211.486914895
 20
140.2786363958
 30
0.0
 10
211.4011416895
 20
140.3281363534
 30
0.0
 10
211.2406844252
 20
140.4630629624
 30
0.0
 10
211.0698564601
 20
140.7423571346
 30
0.0
 10
210.9683590289
 20
141.0865775678
 30
0.0
 10
210.9484151411
 20
141.3371124411
 30
0.0
 10
210.9484151411
 20
141.4688670174
 30
0.0
  0
SPLINE
  5
3F3
100
AcDbEntity
  8
0
100
AcDbSpline
 62
7
  6
CONTINUOUS
 70
0
 71
3
 72
11
 73
7
 74
0
 42
0.0000001
 43
0.0000001
 44
0.0000000001
 40
0.0
 40
0.0
 40
0.0
 40
0.0
 40
0.2177798312
 40
0.4509239181
 40
0.7102597115
 40
1.0
 40
1.0
 40
1.0
 40
1.0
 10
178.1540400088
 20
121.0340069823
 30
0.0
 10
178.0682668033
 20
121.0835069399
 30
0.0
 10
177.9078095389
 20
121.2184335489
 30
0.0
 10
177.7369815738
 20
121.4977277211
 30
0.0
 10
177.6354841426
 20
121.8419481543
 30
0.0
 10
177.6155402549
 20
122.0924830276
 30
0.0
 10
177.6155402549
 20
122.2242376039
 30
0.0
  0
SPLINE
  5
3F4
100
AcDbEntity
  8
0
100
AcDbSpline
 62
7
  6
CONTINUOUS
 70
0
 71
3
 72
14
 73
10
 74
0
 42
0.0000001
 43
0.0000001
 44
0.0000000001
 40
0.0
 40
0.0
 40
0.0
 40
0.0
 40
0.1080475137
 40
0.2181321489
 40
0.3321060709
 40
0.4515035024
 40
0.5774632158
 40
0.7107208695
 40
1.0
 40
1.0
 40
1.0
 40
1.0
 10
184.7520527323
 20
91.3591125369
 30
0.0
 10
185.1619277547
 20
91.1224750676
 30
0.0
 10
186.0321591828
 20
90.7149480351
 30
0.0
 10
187.4402429885
 20
90.3255812485
 30
0.0
 10
188.9413092033
 20
90.1581883621
 30
0.0
 10
190.5193101354
 20
90.2130819295
 30
0.0
 10
192.1592600818
 20
90.4881833494
 30
0.0
 10
194.4697309774
 20
91.1618656993
 30
0.0
 10
196.1544544588
 20
91.9637171271
 30
0.0
 10
197.251823235
 20
92.5972795035
 30
0.0
  0
SPLINE
  5
3F5
100
AcDbEntity
  8
0
100
AcDbSpline
 62
7
  6
CONTINUOUS
 70
0
 71
3
 72
11
 73
7
 74
0
 42
0.0000001
 43
0.0000001
 44
0.0000000001
 40
0.0
 40
0.0
 40
0.0
 40
0.0
 40
0.2177709505
 40
0.4509489942
 40
0.7101987597
 40
1.0
 40
1.0
 40
1.0
 40
1.0
 10
172.8316073962
 20
82.7966583236
 30
0.0
 10
172.6666802328
 20
82.8918768869
 30
0.0
 10
172.3579944736
 20
83.151257149
 30
0.0
 10
172.0296513017
 20
83.688434385
 30
0.0
 10
171.8343152592
 20
84.3503478584
 30
0.0
 10
171.7960415246
 20
84.8321508867
 30
0.0
 10
171.7960415246
 20
85.0855816702
 30
0.0
  0
SPLINE
  5
3F6
100
AcDbEntity
  8
0
100
AcDbSpline
 62
7
  6
CONTINUOUS
 70
0
 71
3
 72
11
 73
7
 74
0
 42
0.0000001
 43
0.0000001
 44
0.0000000001
 40
0.0
 40
0.0
 40
0.0
 40
0.0
 40
0.2177723674
 40
0.4509510027
 40
0.7102002307
 40
1.0
 40
1.0
 40
1.0
 40
1.0
 10
176.932843802
 20
80.4288619474
 30
0.0
 10
177.0977654964
 20
80.3336465216
 30
0.0
 10
177.476726268
 20
80.1960170718
 30
0.0
 10
178.1060830391
 20
80.1802554168
 30
0.0
 10
178.776957045
 20
80.3420392843
 30
0.0
 10
179.2133291006
 20
80.549784816
 30
0.0
 10
179.4327971165
 20
80.6764939777
 30
0.0
  0
SPLINE
  5
3F7
100
AcDbEntity
  8
0
100
AcDbSpline
 62
7
  6
CONTINUOUS
 70
0
 71
3
 72
9
 73
5
 74
0
 42
0.0000001
 43
0.0000001
 44
0.0000000001
 40
0.0
 40
0.0
 40
0.0
 40
0.0
 40
0.4754156759
 40
1.0
 40
1.0
 40
1.0
 40
1.0
 10
211.486914895
 20
101.7887124524
 30
0.0
 10
211.3804501104
 20
101.8501535783
 30
0.0
 10
211.1838685571
 20
102.0308693595
 30
0.0
 10
211.0714871662
 20
102.2697351482
 30
0.0
 10
211.0305105137
 20
102.3990319781
 30
0.0
  0
SPLINE
  5
3F8
100
AcDbEntity
  8
0
100
AcDbSpline
 62
7
  6
CONTINUOUS
 70
0
 71
3
 72
15
 73
11
 74
0
 42
0.0000001
 43
0.0000001
 44
0.0000000001
 40
0.0
 40
0.0
 40
0.0
 40
0.0
 40
0.1141543519
 40
0.237325601
 40
0.366974755
 40
0.4999984147
 40
0.6330222943
 40
0.7626720931
 40
0.8858443543
 40
1.0
 40
1.0
 40
1.0
 40
1.0
 10
166.2805562288
 20
127.1352870672
 30
0.0
 10
166.5032282236
 20
127.2638460359
 30
0.0
 10
166.943045281
 20
127.5721546836
 30
0.0
 10
167.5482095368
 20
128.138334953
 30
0.0
 10
168.1059011021
 20
128.8076022779
 30
0.0
 10
168.5951142276
 20
129.5548502988
 30
0.0
 10
168.9976401545
 20
130.3521485775
 30
0.0
 10
169.2983949074
 20
131.1697624966
 30
0.0
 10
169.4861387214
 20
131.9769471532
 30
0.0
 10
169.53323388
 20
132.5119992911
 30
0.0
 10
169.53323388
 20
132.7691212938
 30
0.0
  0
SPLINE
  5
3F9
100
AcDbEntity
  8
0
100
AcDbSpline
 62
7
  6
CONTINUOUS
 70
0
 71
3
 72
15
 73
11
 74
0
 42
0.0000001
 43
0.0000001
 44
0.0000000001
 40
0.0
 40
0.0
 40
0.0
 40
0.0
 40
0.114155658
 40
0.2373279333
 40
0.3669777387
 40
0.5000016213
 40
0.633025278
 40
0.7626744253
 40
0.8858456604
 40
1.0
 40
1.0
 40
1.0
 40
1.0
 10
171.7960415246
 20
123.6244957587
 30
0.0
 10
171.7960415246
 20
123.9039762266
 30
0.0
 10
171.8472319312
 20
124.4855547013
 30
0.0
 10
172.0513013239
 20
125.3629294045
 30
0.0
 10
172.3782087138
 20
126.2516402303
 30
0.0
 10
172.8157369246
 20
127.118268797
 30
0.0
 10
173.3474903339
 20
127.9304948798
 30
0.0
 10
173.9536768047
 20
128.6579592982
 30
0.0
 10
174.6114639879
 20
129.2733725705
 30
0.0
 10
175.0895259598
 20
129.6084906193
 30
0.0
 10
175.3315607107
 20
129.7482286137
 30
0.0
  0
SPLINE
  5
3FA
100
AcDbEntity
  8
0
100
AcDbSpline
 62
7
  6
CONTINUOUS
 70
0
 71
3
 72
11
 73
7
 74
0
 42
0.0000001
 43
0.0000001
 44
0.0000000001
 40
0.0
 40
0.0
 40
0.0
 40
0.0
 40
0.2305508528
 40
0.4760044413
 40
0.7336255892
 40
1.0
 40
1.0
 40
1.0
 40
1.0
 10
197.251823235
 20
92.5972795035
 30
0.0
 10
198.1730570489
 20
93.1291509191
 30
0.0
 10
200.0024552311
 20
94.3560615157
 30
0.0
 10
202.5880340734
 20
96.5498043147
 30
0.0
 10
205.0537088594
 20
99.1116262692
 30
0.0
 10
206.5633672562
 20
101.0049976216
 30
0.0
 10
207.2867329917
 20
101.9986121355
 30
0.0
  0
SPLINE
  5
3FB
100
AcDbEntity
  8
0
100
AcDbSpline
 62
7
  6
CONTINUOUS
 70
0
 71
3
 72
18
 73
14
 74
0
 42
0.0000001
 43
0.0000001
 44
0.0000000001
 40
0.0
 40
0.0
 40
0.0
 40
0.0
 40
0.156861925
 40
0.3074024484
 40
0.44907166
 40
0.5799832602
 40
0.6992101801
 40
0.7545790853
 40
0.8073123282
 40
0.8577280829
 40
0.9062661171
 40
0.953477232
 40
1.0
 40
1.0
 40
1.0
 40
1.0
 10
211.815651415
 20
109.8484892759
 30
0.0
 10
212.3868981935
 20
111.1370418325
 30
0.0
 10
213.3803162722
 20
113.7207790151
 30
0.0
 10
214.4162086579
 20
117.6291799587
 30
0.0
 10
214.9470113487
 20
121.4046366318
 30
0.0
 10
214.956089937
 20
124.9373634913
 30
0.0
 10
214.5138878604
 20
127.6640197011
 30
0.0
 10
213.8813757952
 20
129.6100197156
 30
0.0
 10
213.2924904757
 20
130.9105560067
 30
0.0
 10
212.581279155
 20
132.0775906482
 30
0.0
 10
211.752459569
 20
133.1018673756
 30
0.0
 10
210.812291817
 20
133.974491352
 30
0.0
 10
210.1136245889
 20
134.4515522373
 30
0.0
 10
209.7515937377
 20
134.6605673266
 30
0.0
  0
SPLINE
  5
3FC
100
AcDbEntity
  8
0
100
AcDbSpline
 62
7
  6
CONTINUOUS
 70
0
 71
3
 72
11
 73
7
 74
0
 42
0.0000001
 43
0.0000001
 44
0.0000000001
 40
0.0
 40
0.0
 40
0.0
 40
0.0
 40
0.289799778
 40
0.5490490151
 40
0.7822276429
 40
1.0
 40
1.0
 40
1.0
 40
1.0
 10
208.7068618272
 20
149.0173526765
 30
0.0
 10
208.9263298495
 20
149.1440618419
 30
0.0
 10
209.3627019224
 20
149.3518073733
 30
0.0
 10
210.0335759357
 20
149.5135912421
 30
0.0
 10
210.6629327032
 20
149.4978295763
 30
0.0
 10
211.0418934465
 20
149.360200113
 30
0.0
 10
211.2068151416
 20
149.2649847068
 30
0.0
  0
SPLINE
  5
3FD
100
AcDbEntity
  8
0
100
AcDbSpline
 62
7
  6
CONTINUOUS
 70
0
 71
3
 72
10
 73
6
 74
0
 42
0.0000001
 43
0.0000001
 44
0.0000000001
 40
0.0
 40
0.0
 40
0.0
 40
0.0
 40
0.5232856774
 40
0.7649792103
 40
1.0
 40
1.0
 40
1.0
 40
1.0
 10
213.3309762605
 20
106.3822967786
 30
0.0
 10
213.4632987939
 20
106.411371194
 30
0.0
 10
213.6658141721
 20
106.4275382044
 30
0.0
 10
213.9203186667
 20
106.3729253997
 30
0.0
 10
214.0341545955
 20
106.3224570436
 30
0.0
 10
214.0868553408
 20
106.2920432956
 30
0.0
  0
SPLINE
  5
3FE
100
AcDbEntity
  8
0
100
AcDbSpline
 62
7
  6
CONTINUOUS
 70
0
 71
3
 72
17
 73
13
 74
0
 42
0.0000001
 43
0.0000001
 44
0.0000000001
 40
0.0
 40
0.0
 40
0.0
 40
0.0
 40
0.1286938287
 40
0.2702786484
 40
0.4174347437
 40
0.5617788623
 40
0.6954492664
 40
0.8127116048
 40
0.8646776308
 40
0.9125100673
 40
0.9571398924
 40
1.0
 40
1.0
 40
1.0
 40
1.0
 10
177.6155402549
 20
83.7343136604
 30
0.0
 10
177.6155402549
 20
83.9565571757
 30
0.0
 10
177.6777071987
 20
84.423840315
 30
0.0
 10
177.9097788772
 20
85.1099359464
 30
0.0
 10
178.2673367253
 20
85.7708733733
 30
0.0
 10
178.7216832407
 20
86.352449472
 30
0.0
 10
179.2356847601
 20
86.807695341
 30
0.0
 10
179.7009381238
 20
87.0620415233
 30
0.0
 10
180.0648606464
 20
87.1589226152
 30
0.0
 10
180.3153408
 20
87.1772905628
 30
0.0
 10
180.54858643
 20
87.1431649087
 30
0.0
 10
180.6898739943
 20
87.0844099002
 30
0.0
 10
180.7539804545
 20
87.0474138821
 30
0.0
  0
SPLINE
  5
3FF
100
AcDbEntity
  8
0
100
AcDbSpline
 62
7
  6
CONTINUOUS
 70
0
 71
3
 72
17
 73
13
 74
0
 42
0.0000001
 43
0.0000001
 44
0.0000000001
 40
0.0
 40
0.0
 40
0.0
 40
0.0
 40
0.1286938287
 40
0.2702786484
 40
0.4174347437
 40
0.5617788623
 40
0.6954492664
 40
0.8127116048
 40
0.8646776308
 40
0.9125100673
 40
0.9571398924
 40
1.0
 40
1.0
 40
1.0
 40
1.0
 10
210.9484151411
 20
141.4688670174
 30
0.0
 10
210.9484151411
 20
141.6911105326
 30
0.0
 10
211.010582085
 20
142.1583936719
 30
0.0
 10
211.2426537635
 20
142.8444893034
 30
0.0
 10
211.6002116116
 20
143.5054267303
 30
0.0
 10
212.054558127
 20
144.087002829
 30
0.0
 10
212.5685596464
 20
144.542248698
 30
0.0
 10
213.0338130101
 20
144.7965948803
 30
0.0
 10
213.3977355326
 20
144.8934759722
 30
0.0
 10
213.6482156863
 20
144.9118439198
 30
0.0
 10
213.8814613163
 20
144.8777182657
 30
0.0
 10
214.0227488806
 20
144.8189632571
 30
0.0
 10
214.0868553408
 20
144.7819672391
 30
0.0
  0
SPLINE
  5
400
100
AcDbEntity
  8
0
100
AcDbSpline
 62
7
  6
CONTINUOUS
 70
0
 71
3
 72
17
 73
13
 74
0
 42
0.0000001
 43
0.0000001
 44
0.0000000001
 40
0.0
 40
0.0
 40
0.0
 40
0.0
 40
0.1286938287
 40
0.2702786484
 40
0.4174347437
 40
0.5617788623
 40
0.6954492664
 40
0.8127116048
 40
0.8646776308
 40
0.9125100673
 40
0.9571398924
 40
1.0
 40
1.0
 40
1.0
 40
1.0
 10
177.6155402549
 20
122.2242376039
 30
0.0
 10
177.6155402549
 20
122.4464811191
 30
0.0
 10
177.6777071987
 20
122.9137642584
 30
0.0
 10
177.9097788772
 20
123.5998598899
 30
0.0
 10
178.2673367253
 20
124.2607973168
 30
0.0
 10
178.7216832407
 20
124.8423734155
 30
0.0
 10
179.2356847601
 20
125.2976192845
 30
0.0
 10
179.7009381238
 20
125.5519654668
 30
0.0
 10
180.0648606464
 20
125.6488465587
 30
0.0
 10
180.3153408
 20
125.6672145063
 30
0.0
 10
180.54858643
 20
125.6330888522
 30
0.0
 10
180.6898739943
 20
125.5743338436
 30
0.0
 10
180.7539804545
 20
125.5373378256
 30
0.0
  0
SPLINE
  5
401
100
AcDbEntity
  8
0
100
AcDbSpline
 62
7
  6
CONTINUOUS
 70
0
 71
3
 72
11
 73
7
 74
0
 42
0.0000001
 43
0.0000001
 44
0.0000000001
 40
0.0
 40
0.0
 40
0.0
 40
0.0
 40
0.2898012489
 40
0.5490510236
 40
0.7822290598
 40
1.0
 40
1.0
 40
1.0
 40
1.0
 10
216.3436174191
 20
144.608264984
 30
0.0
 10
216.3436174191
 20
144.861695775
 30
0.0
 10
216.3053436756
 20
145.3434988181
 30
0.0
 10
216.1100076305
 20
146.0054122986
 30
0.0
 10
215.7816644511
 20
146.5425895261
 30
0.0
 10
215.4729786943
 20
146.8019697569
 30
0.0
 10
215.3080515475
 20
146.8971883306
 30
0.0
  0
SPLINE
  5
402
100
AcDbEntity
  8
0
100
AcDbSpline
 62
7
  6
CONTINUOUS
 70
0
 71
3
 72
15
 73
11
 74
0
 42
0.0000001
 43
0.0000001
 44
0.0000000001
 40
0.0
 40
0.0
 40
0.0
 40
0.0
 40
0.1141543519
 40
0.237325601
 40
0.366974755
 40
0.4999984147
 40
0.6330222943
 40
0.7626720931
 40
0.8858443543
 40
1.0
 40
1.0
 40
1.0
 40
1.0
 10
212.808098233
 20
99.9456180405
 30
0.0
 10
213.05013301
 20
100.08535605
 30
0.0
 10
213.5281950289
 20
100.4204741453
 30
0.0
 10
214.1859822635
 20
101.0358874816
 30
0.0
 10
214.7921687475
 20
101.7633519652
 30
0.0
 10
215.3239221447
 20
102.5755780748
 30
0.0
 10
215.7614503262
 20
103.4422066386
 30
0.0
 10
216.0883576663
 20
104.3309174202
 30
0.0
 10
216.2924270293
 20
105.208292047
 30
0.0
 10
216.3436174191
 20
105.7898704577
 30
0.0
 10
216.3436174191
 20
106.0693508955
 30
0.0
  0
SPLINE
  5
403
100
AcDbEntity
  8
0
100
AcDbSpline
 62
7
  6
CONTINUOUS
 70
0
 71
3
 72
25
 73
21
 74
0
 42
0.0000001
 43
0.0000001
 44
0.0000000001
 40
0.0
 40
0.0
 40
0.0
 40
0.0
 40
0.0213320791
 40
0.0428926617
 40
0.0648979477
 40
0.0875428516
 40
0.1353180106
 40
0.1872190276
 40
0.2436567825
 40
0.304604725
 40
0.3696925383
 40
0.4382898856
 40
0.5095763441
 40
0.5826005951
 40
0.656332067
 40
0.7297091863
 40
0.8016853277
 40
0.8712781831
 40
0.9376162149
 40
1.0
 40
1.0
 40
1.0
 40
1.0
 10
183.6206770419
 20
92.0122975207
 30
0.0
 10
183.3135312775
 20
92.1896247474
 30
0.0
 10
182.7180938252
 20
92.5861905954
 30
0.0
 10
181.9009667334
 20
93.2948702507
 30
0.0
 10
181.1619412359
 20
94.1143778804
 30
0.0
 10
180.2709702118
 20
95.3700042412
 30
0.0
 10
179.3789566752
 20
97.2149907589
 30
0.0
 10
178.6990393024
 20
99.7322177831
 30
0.0
 10
178.3960237941
 20
102.5402453761
 30
0.0
 10
178.4734369452
 20
105.5806256481
 30
0.0
 10
178.927823271
 20
108.7908458024
 30
0.0
 10
179.7490682423
 20
112.1037564303
 30
0.0
 10
180.9195578366
 20
115.4494762689
 30
0.0
 10
182.4143659622
 20
118.7569594119
 30
0.0
 10
184.2016215631
 20
121.9557407918
 30
0.0
 10
186.2432153616
 20
124.9775814259
 30
0.0
 10
188.4955686339
 20
127.7580358253
 30
0.0
 10
190.9110148352
 20
130.2380241653
 30
0.0
 10
193.4378752905
 20
132.3645677166
 30
0.0
 10
195.2222300032
 20
133.5570024483
 30
0.0
 10
196.1204476748
 20
134.0755855672
 30
0.0
  0
SPLINE
  5
404
100
AcDbEntity
  8
0
100
AcDbSpline
 62
7
  6
CONTINUOUS
 70
0
 71
3
 72
25
 73
21
 74
0
 42
0.0000001
 43
0.0000001
 44
0.0000000001
 40
0.0
 40
0.0
 40
0.0
 40
0.0
 40
0.0623836167
 40
0.1287213509
 40
0.1983140001
 40
0.2702900758
 40
0.3436673578
 40
0.4173990717
 40
0.4904234985
 40
0.5617100966
 40
0.6303076041
 40
0.6953955537
 40
0.7563435331
 40
0.8127812253
 40
0.8646821605
 40
0.9124572692
 40
0.9351021548
 40
0.9571074167
 40
0.9786679641
 40
1.0
 40
1.0
 40
1.0
 40
1.0
 10
197.251823235
 20
133.42240036
 30
0.0
 10
196.3536079908
 20
132.9038186425
 30
0.0
 10
194.569259346
 20
131.711388853
 30
0.0
 10
192.0424068139
 20
129.5848533592
 30
0.0
 10
189.6269648608
 20
127.1048741813
 30
0.0
 10
187.3746106397
 20
124.3244228813
 30
0.0
 10
185.3330112927
 20
121.3025791909
 30
0.0
 10
183.5457493459
 20
118.1037902616
 30
0.0
 10
182.0509364162
 20
114.7962991018
 30
0.0
 10
180.8804438751
 20
111.4505718996
 30
0.0
 10
180.0591974255
 20
108.1376541425
 30
0.0
 10
179.6048113668
 20
104.9274283227
 30
0.0
 10
179.5273998303
 20
101.8870461444
 30
0.0
 10
179.8304172112
 20
99.0790205712
 30
0.0
 10
180.5103355464
 20
96.5617971661
 30
0.0
 10
181.4023494084
 20
94.7168136735
 30
0.0
 10
182.2933199508
 20
93.4611888582
 30
0.0
 10
183.0323451944
 20
92.641682761
 30
0.0
 10
183.8494711712
 20
91.9330044013
 30
0.0
 10
184.4449077971
 20
91.5364397615
 30
0.0
 10
184.7520527323
 20
91.3591125369
 30
0.0
  0
SPLINE
  5
405
100
AcDbEntity
  8
0
100
AcDbSpline
 62
7
  6
CONTINUOUS
 70
0
 71
3
 72
11
 73
7
 74
0
 42
0.0000001
 43
0.0000001
 44
0.0000000001
 40
0.0
 40
0.0
 40
0.0
 40
0.0
 40
0.2177798312
 40
0.4509239181
 40
0.7102597115
 40
1.0
 40
1.0
 40
1.0
 40
1.0
 10
180.7539804545
 20
125.5373378256
 30
0.0
 10
180.83975366
 20
125.4878378681
 30
0.0
 10
181.0002109243
 20
125.352911259
 30
0.0
 10
181.1710388894
 20
125.0736170869
 30
0.0
 10
181.2725363206
 20
124.7293966537
 30
0.0
 10
181.2924802084
 20
124.4788617804
 30
0.0
 10
181.2924802084
 20
124.3471072041
 30
0.0
  0
SPLINE
  5
406
100
AcDbEntity
  8
0
100
AcDbSpline
 62
7
  6
CONTINUOUS
 70
0
 71
3
 72
11
 73
7
 74
0
 42
0.0000001
 43
0.0000001
 44
0.0000000001
 40
0.0
 40
0.0
 40
0.0
 40
0.0
 40
0.2177798312
 40
0.4509239181
 40
0.7102597115
 40
1.0
 40
1.0
 40
1.0
 40
1.0
 10
214.0868553408
 20
144.7819672391
 30
0.0
 10
214.1726285463
 20
144.7324672816
 30
0.0
 10
214.3330858106
 20
144.5975406725
 30
0.0
 10
214.5039137757
 20
144.3182465004
 30
0.0
 10
214.6054112069
 20
143.9740260672
 30
0.0
 10
214.6253550946
 20
143.7234911939
 30
0.0
 10
214.6253550946
 20
143.5917366176
 30
0.0
  0
SPLINE
  5
407
100
AcDbEntity
  8
0
100
AcDbSpline
 62
7
  6
CONTINUOUS
 70
0
 71
3
 72
17
 73
13
 74
0
 42
0.0000001
 43
0.0000001
 44
0.0000000001
 40
0.0
 40
0.0
 40
0.0
 40
0.0
 40
0.1286938287
 40
0.2702786484
 40
0.4174347437
 40
0.5617788623
 40
0.6954492664
 40
0.8127116048
 40
0.8646776308
 40
0.9125100673
 40
0.9571398924
 40
1.0
 40
1.0
 40
1.0
 40
1.0
 10
214.6253550946
 20
105.1018126741
 30
0.0
 10
214.6253550946
 20
104.8795691588
 30
0.0
 10
214.5631881508
 20
104.4122860195
 30
0.0
 10
214.3311164723
 20
103.7261903881
 30
0.0
 10
213.9735586242
 20
103.0652529612
 30
0.0
 10
213.5192121088
 20
102.4836768625
 30
0.0
 10
213.0052105894
 20
102.0284309935
 30
0.0
 10
212.5399572257
 20
101.7740848112
 30
0.0
 10
212.1760347032
 20
101.6772037193
 30
0.0
 10
211.9255545495
 20
101.6588357717
 30
0.0
 10
211.6923089195
 20
101.6929614258
 30
0.0
 10
211.5510213552
 20
101.7517164343
 30
0.0
 10
211.486914895
 20
101.7887124524
 30
0.0
  0
SPLINE
  5
408
100
AcDbEntity
  8
0
100
AcDbSpline
 62
7
  6
CONTINUOUS
 70
0
 71
3
 72
11
 73
7
 74
0
 42
0.0000001
 43
0.0000001
 44
0.0000000001
 40
0.0
 40
0.0
 40
0.0
 40
0.0
 40
0.2177798312
 40
0.4509239181
 40
0.7102597115
 40
1.0
 40
1.0
 40
1.0
 40
1.0
 10
180.7539804545
 20
87.0474138821
 30
0.0
 10
180.83975366
 20
86.9979139246
 30
0.0
 10
181.0002109243
 20
86.8629873155
 30
0.0
 10
181.1710388894
 20
86.5836931434
 30
0.0
 10
181.2725363206
 20
86.2394727102
 30
0.0
 10
181.2924802084
 20
85.9889378369
 30
0.0
 10
181.2924802084
 20
85.8571832606
 30
0.0
  0
SPLINE
  5
409
100
AcDbEntity
  8
0
100
AcDbSpline
 62
7
  6
CONTINUOUS
 70
0
 71
3
 72
14
 73
10
 74
0
 42
0.0000001
 43
0.0000001
 44
0.0000000001
 40
0.0
 40
0.0
 40
0.0
 40
0.0
 40
0.1080475137
 40
0.2181321489
 40
0.3321060709
 40
0.4515035024
 40
0.5774632158
 40
0.7107208695
 40
1.0
 40
1.0
 40
1.0
 40
1.0
 10
209.7515937377
 20
134.6605673266
 30
0.0
 10
209.3417187153
 20
134.8972047959
 30
0.0
 10
208.4714872872
 20
135.3047318284
 30
0.0
 10
207.0634034814
 20
135.694098615
 30
0.0
 10
205.5623372667
 20
135.8614915014
 30
0.0
 10
203.9843363346
 20
135.806597934
 30
0.0
 10
202.3443863882
 20
135.5314965142
 30
0.0
 10
200.0339154926
 20
134.8578141642
 30
0.0
 10
198.3491920111
 20
134.0559627365
 30
0.0
 10
197.251823235
 20
133.42240036
 30
0.0
  0
SPLINE
  5
40A
100
AcDbEntity
  8
0
100
AcDbSpline
 62
7
  6
CONTINUOUS
 70
0
 71
3
 72
17
 73
13
 74
0
 42
0.0000001
 43
0.0000001
 44
0.0000000001
 40
0.0
 40
0.0
 40
0.0
 40
0.0
 40
0.1286938287
 40
0.2702786484
 40
0.4174347437
 40
0.5617788623
 40
0.6954492664
 40
0.8127116048
 40
0.8646776308
 40
0.9125100673
 40
0.9571398924
 40
1.0
 40
1.0
 40
1.0
 40
1.0
 10
181.2924802084
 20
85.8571832606
 30
0.0
 10
181.2924802084
 20
85.6349397453
 30
0.0
 10
181.2303132646
 20
85.167656606
 30
0.0
 10
180.9982415861
 20
84.4815609746
 30
0.0
 10
180.6406837379
 20
83.8206235476
 30
0.0
 10
180.1863372225
 20
83.239047449
 30
0.0
 10
179.6723357031
 20
82.78380158
 30
0.0
 10
179.2070823394
 20
82.5294553977
 30
0.0
 10
178.8431598169
 20
82.4325743058
 30
0.0
 10
178.5926796632
 20
82.4142063582
 30
0.0
 10
178.3594340333
 20
82.4483320123
 30
0.0
 10
178.2181464689
 20
82.5070870208
 30
0.0
 10
178.1540400088
 20
82.5440830389
 30
0.0
  0
SPLINE
  5
40B
100
AcDbEntity
  8
0
100
AcDbSpline
 62
7
  6
CONTINUOUS
 70
0
 71
3
 72
17
 73
13
 74
0
 42
0.0000001
 43
0.0000001
 44
0.0000000001
 40
0.0
 40
0.0
 40
0.0
 40
0.0
 40
0.1286938287
 40
0.2702786484
 40
0.4174347437
 40
0.5617788623
 40
0.6954492664
 40
0.8127116048
 40
0.8646776308
 40
0.9125100673
 40
0.9571398924
 40
1.0
 40
1.0
 40
1.0
 40
1.0
 10
214.6253550946
 20
143.5917366176
 30
0.0
 10
214.6253550946
 20
143.3694931023
 30
0.0
 10
214.5631881508
 20
142.902209963
 30
0.0
 10
214.3311164723
 20
142.2161143316
 30
0.0
 10
213.9735586242
 20
141.5551769046
 30
0.0
 10
213.5192121088
 20
140.973600806
 30
0.0
 10
213.0052105894
 20
140.518354937
 30
0.0
 10
212.5399572257
 20
140.2640087547
 30
0.0
 10
212.1760347032
 20
140.1671276628
 30
0.0
 10
211.9255545495
 20
140.1487597152
 30
0.0
 10
211.6923089195
 20
140.1828853692
 30
0.0
 10
211.5510213552
 20
140.2416403778
 30
0.0
 10
211.486914895
 20
140.2786363958
 30
0.0
  0
SPLINE
  5
40C
100
AcDbEntity
  8
0
100
AcDbSpline
 62
7
  6
CONTINUOUS
 70
0
 71
3
 72
11
 73
7
 74
0
 42
0.0000001
 43
0.0000001
 44
0.0000000001
 40
0.0
 40
0.0
 40
0.0
 40
0.0
 40
0.2177723674
 40
0.4509510027
 40
0.7102002307
 40
1.0
 40
1.0
 40
1.0
 40
1.0
 10
215.3080515475
 20
146.8971883306
 30
0.0
 10
215.1431298531
 20
146.9924037564
 30
0.0
 10
214.7641690815
 20
147.1300332061
 30
0.0
 10
214.1348123104
 20
147.1457948611
 30
0.0
 10
213.4639383045
 20
146.9840109936
 30
0.0
 10
213.027566249
 20
146.776265462
 30
0.0
 10
212.808098233
 20
146.6495563003
 30
0.0
  0
SPLINE
  5
40D
100
AcDbEntity
  8
0
100
AcDbSpline
 62
7
  6
CONTINUOUS
 70
0
 71
3
 72
15
 73
11
 74
0
 42
0.0000001
 43
0.0000001
 44
0.0000000001
 40
0.0
 40
0.0
 40
0.0
 40
0.0
 40
0.1141543519
 40
0.237325601
 40
0.366974755
 40
0.4999984147
 40
0.6330222943
 40
0.7626720931
 40
0.8858443543
 40
1.0
 40
1.0
 40
1.0
 40
1.0
 10
179.4327971165
 20
127.3804322375
 30
0.0
 10
179.1907623396
 20
127.240694228
 30
0.0
 10
178.7127003207
 20
126.9055761327
 30
0.0
 10
178.054913086
 20
126.2901627964
 30
0.0
 10
177.448726602
 20
125.5626983128
 30
0.0
 10
176.9169732048
 20
124.7504722032
 30
0.0
 10
176.4794450233
 20
123.8838436394
 30
0.0
 10
176.1525376832
 20
122.9951328578
 30
0.0
 10
175.9484683202
 20
122.117758231
 30
0.0
 10
175.8972779304
 20
121.5361798202
 30
0.0
 10
175.8972779304
 20
121.2566993825
 30
0.0
  0
SPLINE
  5
40E
100
AcDbEntity
  8
0
100
AcDbSpline
 62
7
  6
CONTINUOUS
 70
0
 71
3
 72
11
 73
7
 74
0
 42
0.0000001
 43
0.0000001
 44
0.0000000001
 40
0.0
 40
0.0
 40
0.0
 40
0.0
 40
0.2177798312
 40
0.4509239181
 40
0.7102597115
 40
1.0
 40
1.0
 40
1.0
 40
1.0
 10
214.0868553408
 20
106.2920432956
 30
0.0
 10
214.1726285463
 20
106.2425433381
 30
0.0
 10
214.3330858106
 20
106.1076167291
 30
0.0
 10
214.5039137757
 20
105.8283225569
 30
0.0
 10
214.6054112069
 20
105.4841021237
 30
0.0
 10
214.6253550946
 20
105.2335672504
 30
0.0
 10
214.6253550946
 20
105.1018126741
 30
0.0
  0
SPLINE
  5
40F
100
AcDbEntity
  8
0
100
AcDbSpline
 62
7
  6
CONTINUOUS
 70
0
 71
3
 72
11
 73
7
 74
0
 42
0.0000001
 43
0.0000001
 44
0.0000000001
 40
0.0
 40
0.0
 40
0.0
 40
0.0
 40
0.2898012489
 40
0.5490510236
 40
0.7822290598
 40
1.0
 40
1.0
 40
1.0
 40
1.0
 10
175.8972779304
 20
82.717785294
 30
0.0
 10
175.8972779304
 20
82.464354503
 30
0.0
 10
175.9355516739
 20
81.9825514599
 30
0.0
 10
176.130887719
 20
81.3206379794
 30
0.0
 10
176.4592308984
 20
80.7834607519
 30
0.0
 10
176.7679166553
 20
80.5240805211
 30
0.0
 10
176.932843802
 20
80.4288619474
 30
0.0
  0
SPLINE
  5
410
100
AcDbEntity
  8
0
100
AcDbSpline
 62
7
  6
CONTINUOUS
 70
0
 71
3
 72
17
 73
13
 74
0
 42
0.0000001
 43
0.0000001
 44
0.0000000001
 40
0.0
 40
0.0
 40
0.0
 40
0.0
 40
0.1286938287
 40
0.2702786484
 40
0.4174347437
 40
0.5617788623
 40
0.6954492664
 40
0.8127116048
 40
0.8646776308
 40
0.9125100673
 40
0.9571398924
 40
1.0
 40
1.0
 40
1.0
 40
1.0
 10
181.2924802084
 20
124.3471072041
 30
0.0
 10
181.2924802084
 20
124.1248636888
 30
0.0
 10
181.2303132646
 20
123.6575805495
 30
0.0
 10
180.9982415861
 20
122.9714849181
 30
0.0
 10
180.6406837379
 20
122.3105474911
 30
0.0
 10
180.1863372225
 20
121.7289713925
 30
0.0
 10
179.6723357031
 20
121.2737255235
 30
0.0
 10
179.2070823394
 20
121.0193793412
 30
0.0
 10
178.8431598169
 20
120.9224982493
 30
0.0
 10
178.5926796632
 20
120.9041303017
 30
0.0
 10
178.3594340333
 20
120.9382559557
 30
0.0
 10
178.2181464689
 20
120.9970109643
 30
0.0
 10
178.1540400088
 20
121.0340069823
 30
0.0
  0
SPLINE
  5
411
100
AcDbEntity
  8
0
100
AcDbSpline
 62
7
  6
CONTINUOUS
 70
0
 71
3
 72
14
 73
10
 74
0
 42
0.0000001
 43
0.0000001
 44
0.0000000001
 40
0.0
 40
0.0
 40
0.0
 40
0.0
 40
0.2892785655
 40
0.4225359229
 40
0.548495559
 40
0.6678929073
 40
0.7818669841
 40
0.891952011
 40
1.0
 40
1.0
 40
1.0
 40
1.0
 10
196.1204476748
 20
134.0755855672
 30
0.0
 10
197.2178143459
 20
134.7091467284
 30
0.0
 10
198.9025341249
 20
135.5109973814
 30
0.0
 10
201.2130010012
 20
136.1846786138
 30
0.0
 10
202.8529483519
 20
136.4597836381
 30
0.0
 10
204.4309494653
 20
136.5146775762
 30
0.0
 10
205.9320175849
 20
136.3472852841
 30
0.0
 10
207.3401071773
 20
135.9579215113
 30
0.0
 10
208.2103411924
 20
135.5503907987
 30
0.0
 10
208.6202183076
 20
135.3137527573
 30
0.0
  0
SPLINE
  5
412
100
AcDbEntity
  8
0
100
AcDbSpline
 62
7
  6
CONTINUOUS
 70
0
 71
3
 72
11
 73
7
 74
0
 42
0.0000001
 43
0.0000001
 44
0.0000000001
 40
0.0
 40
0.0
 40
0.0
 40
0.0
 40
0.2372251801
 40
0.5000005261
 40
0.7627755858
 40
1.0
 40
1.0
 40
1.0
 40
1.0
 10
117.1361259249
 20
232.9931936902
 30
0.0
 10
116.8349757094
 20
233.1670589148
 30
0.0
 10
116.1346197544
 20
233.4208052479
 30
0.0
 10
115.0148022462
 20
233.5423531954
 30
0.0
 10
113.8949864276
 20
233.4208001377
 30
0.0
 10
113.1946332273
 20
233.1670503271
 30
0.0
 10
112.8934852378
 20
232.9931834921
 30
0.0
  0
SPLINE
  5
413
100
AcDbEntity
  8
0
100
AcDbSpline
 62
7
  6
CONTINUOUS
 70
0
 71
3
 72
13
 73
9
 74
0
 42
0.0000001
 43
0.0000001
 44
0.0000000001
 40
0.0
 40
0.0
 40
0.0
 40
0.0
 40
0.0957996768
 40
0.1961815218
 40
0.3047333829
 40
0.4235861591
 40
0.6933488806
 40
1.0
 40
1.0
 40
1.0
 40
1.0
 10
76.8711244684
 20
257.9777951216
 30
0.0
 10
76.8711235261
 20
258.1008815908
 30
0.0
 10
76.8353095061
 20
258.3541688378
 30
0.0
 10
76.6786251001
 20
258.7172069646
 30
0.0
 10
76.4257633828
 20
259.0579914625
 30
0.0
 10
75.9513811687
 20
259.490475379
 30
0.0
 10
75.1539273343
 20
259.9199182781
 30
0.0
 10
74.4343948972
 20
260.1163862238
 30
0.0
 10
74.0464578243
 20
260.1852118637
 30
0.0
  0
SPLINE
  5
414
100
AcDbEntity
  8
0
100
AcDbSpline
 62
7
  6
CONTINUOUS
 70
0
 71
3
 72
11
 73
7
 74
0
 42
0.0000001
 43
0.0000001
 44
0.0000000001
 40
0.0
 40
0.0
 40
0.0
 40
0.0
 40
0.260153143
 40
0.5216020698
 40
0.7717920974
 40
1.0
 40
1.0
 40
1.0
 40
1.0
 10
74.0464578243
 20
260.1852118637
 30
0.0
 10
73.6950160326
 20
260.2475627136
 30
0.0
 10
72.9789126777
 20
260.3138823331
 30
0.0
 10
71.9178817136
 20
260.2488373772
 30
0.0
 10
70.9230850937
 20
260.0263200364
 30
0.0
 10
70.3138669076
 20
259.7673079721
 30
0.0
 10
70.0427130259
 20
259.6107581399
 30
0.0
  0
SPLINE
  5
415
100
AcDbEntity
  8
0
100
AcDbSpline
 62
7
  6
CONTINUOUS
 70
0
 71
3
 72
11
 73
7
 74
0
 42
0.0000001
 43
0.0000001
 44
0.0000000001
 40
0.0
 40
0.0
 40
0.0
 40
0.0
 40
0.2372279391
 40
0.4999994739
 40
0.762771295
 40
1.0
 40
1.0
 40
1.0
 40
1.0
 10
81.6395339046
 20
205.8857288677
 30
0.0
 10
81.3383816193
 20
205.7118595526
 30
0.0
 10
80.6380264145
 20
205.45811494
 30
0.0
 10
79.5182168962
 20
205.3365653766
 30
0.0
 10
78.3984056882
 20
205.4581098298
 30
0.0
 10
77.6980477288
 20
205.7118509648
 30
0.0
 10
77.3968932175
 20
205.8857186696
 30
0.0
  0
SPLINE
  5
416
100
AcDbEntity
  8
0
100
AcDbSpline
 62
7
  6
CONTINUOUS
 70
0
 71
3
 72
11
 73
7
 74
0
 42
0.0000001
 43
0.0000001
 44
0.0000000001
 40
0.0
 40
0.0
 40
0.0
 40
0.0
 40
0.2897781767
 40
0.5490726313
 40
0.7822276909
 40
1.0
 40
1.0
 40
1.0
 40
1.0
 10
112.8935029016
 20
231.6868321509
 30
0.0
 10
112.7618305407
 20
231.7628515042
 30
0.0
 10
112.5229750239
 20
231.9272966041
 30
0.0
 10
112.2376036658
 20
232.2273281828
 30
0.0
 10
112.0570341519
 20
232.5591193757
 30
0.0
 10
112.0148364671
 20
232.7973034824
 30
0.0
 10
112.0148364656
 20
232.9115646126
 30
0.0
  0
SPLINE
  5
417
100
AcDbEntity
  8
0
100
AcDbSpline
 62
7
  6
CONTINUOUS
 70
0
 71
3
 72
14
 73
10
 74
0
 42
0.0000001
 43
0.0000001
 44
0.0000000001
 40
0.0
 40
0.0
 40
0.0
 40
0.0
 40
0.0933995506
 40
0.1921278607
 40
0.3001603316
 40
0.4195820655
 40
0.5507582058
 40
0.6926948431
 40
1.0
 40
1.0
 40
1.0
 40
1.0
 10
79.6211404573
 20
256.3447902906
 30
0.0
 10
79.6211474266
 20
256.573299619
 30
0.0
 10
79.5472418219
 20
257.0460244493
 30
0.0
 10
79.2266515572
 20
257.7160826226
 30
0.0
 10
78.7135695288
 20
258.3359254617
 30
0.0
 10
78.0273757473
 20
258.8901808673
 30
0.0
 10
77.1888228259
 20
259.3658178012
 30
0.0
 10
75.8664209619
 20
259.8916950277
 30
0.0
 10
74.7767859338
 20
260.1089378573
 30
0.0
 10
74.0287079301
 20
260.1841174729
 30
0.0
  0
SPLINE
  5
418
100
AcDbEntity
  8
0
100
AcDbSpline
 62
7
  6
CONTINUOUS
 70
0
 71
3
 72
10
 73
6
 74
0
 42
0.0000001
 43
0.0000001
 44
0.0000000001
 40
0.0
 40
0.0
 40
0.0
 40
0.0
 40
0.2380982603
 40
0.4814216677
 40
1.0
 40
1.0
 40
1.0
 40
1.0
 10
80.3711316701
 20
251.0375245592
 30
0.0
 10
80.3711170702
 20
251.1910597761
 30
0.0
 10
80.3421454412
 20
251.5022916323
 30
0.0
 10
80.1670843618
 20
252.1256725709
 30
0.0
 10
79.9115935843
 20
252.5576210787
 30
0.0
 10
79.7054552608
 20
252.8209275392
 30
0.0
  0
SPLINE
  5
419
100
AcDbEntity
  8
0
100
AcDbSpline
 62
7
  6
CONTINUOUS
 70
0
 71
3
 72
17
 73
13
 74
0
 42
0.0000001
 43
0.0000001
 44
0.0000000001
 40
0.0
 40
0.0
 40
0.0
 40
0.0
 40
0.0428587241
 40
0.0874874362
 40
0.1353213912
 40
0.1872866071
 40
0.3045496092
 40
0.4382197755
 40
0.5825660438
 40
0.7297208498
 40
0.871309698
 40
1.0
 40
1.0
 40
1.0
 40
1.0
 10
61.1506417794
 20
250.6294426818
 30
0.0
 10
61.1506569235
 20
250.7788936997
 30
0.0
 10
61.1106454061
 20
251.0852636605
 30
0.0
 10
60.9349820567
 20
251.5276435907
 30
0.0
 10
60.6498714587
 20
251.947062632
 30
0.0
 10
60.1130809053
 20
252.485684632
 30
0.0
 10
59.1985397535
 20
253.0424634293
 30
0.0
 10
57.8834937765
 20
253.4816656514
 30
0.0
 10
56.4077678631
 20
253.689040091
 30
0.0
 10
54.890956519
 20
253.6470587049
 30
0.0
 10
53.4568827873
 20
253.3601232838
 30
0.0
 10
52.5769641513
 20
252.9970811538
 30
0.0
 10
52.1883337763
 20
252.7727066415
 30
0.0
  0
SPLINE
  5
41A
100
AcDbEntity
  8
0
100
AcDbSpline
 62
7
  6
CONTINUOUS
 70
0
 71
3
 72
11
 73
7
 74
0
 42
0.0000001
 43
0.0000001
 44
0.0000000001
 40
0.0
 40
0.0
 40
0.0
 40
0.0
 40
0.2208679447
 40
0.4553888858
 40
0.7134828703
 40
1.0
 40
1.0
 40
1.0
 40
1.0
 10
61.9006386202
 20
249.8129402633
 30
0.0
 10
61.9006601484
 20
250.0250940522
 30
0.0
 10
61.8285977272
 20
250.4651644272
 30
0.0
 10
61.5174967155
 20
251.0852682868
 30
0.0
 10
61.0219248026
 20
251.6544116859
 30
0.0
 10
60.6032540778
 20
251.9736044332
 30
0.0
 10
60.3719914008
 20
252.1228012266
 30
0.0
  0
SPLINE
  5
41B
100
AcDbEntity
  8
0
100
AcDbSpline
 62
7
  6
CONTINUOUS
 70
0
 71
3
 72
11
 73
7
 74
0
 42
0.0000001
 43
0.0000001
 44
0.0000000001
 40
0.0
 40
0.0
 40
0.0
 40
0.0
 40
0.2272379022
 40
0.4647383973
 40
0.7206518845
 40
1.0
 40
1.0
 40
1.0
 40
1.0
 10
63.4006519716
 20
241.6479160867
 30
0.0
 10
63.4006468257
 20
241.8718373442
 30
0.0
 10
63.3375948079
 20
242.3319026545
 30
0.0
 10
63.0611571869
 20
242.9933333856
 30
0.0
 10
62.6142735993
 20
243.616556465
 30
0.0
 10
62.229158384
 20
243.981418753
 30
0.0
 10
62.0155565445
 20
244.1550514726
 30
0.0
  0
SPLINE
  5
41C
100
AcDbEntity
  8
0
100
AcDbSpline
 62
7
  6
CONTINUOUS
 70
0
 71
3
 72
11
 73
7
 74
0
 42
0.0000001
 43
0.0000001
 44
0.0000000001
 40
0.0
 40
0.0
 40
0.0
 40
0.0
 40
0.2897733512
 40
0.5490657165
 40
0.7822241652
 40
1.0
 40
1.0
 40
1.0
 40
1.0
 10
77.3968726097
 20
212.4993269678
 30
0.0
 10
77.265204251
 20
212.4233086592
 30
0.0
 10
77.0263536357
 20
212.2588678901
 30
0.0
 10
76.7409865225
 20
211.9588406496
 30
0.0
 10
76.560413942
 20
211.6270522998
 30
0.0
 10
76.5182157987
 20
211.3888665896
 30
0.0
 10
76.5182158002
 20
211.2746047042
 30
0.0
  0
SPLINE
  5
41D
100
AcDbEntity
  8
0
100
AcDbSpline
 62
7
  6
CONTINUOUS
 70
0
 71
3
 72
11
 73
7
 74
0
 42
0.0000001
 43
0.0000001
 44
0.0000000001
 40
0.0
 40
0.0
 40
0.0
 40
0.0
 40
0.2897733512
 40
0.5490657165
 40
0.7822241652
 40
1.0
 40
1.0
 40
1.0
 40
1.0
 10
35.677398826
 20
236.5855314845
 30
0.0
 10
35.5457304673
 20
236.5095131759
 30
0.0
 10
35.306879852
 20
236.3450724068
 30
0.0
 10
35.0215127388
 20
236.0450451663
 30
0.0
 10
34.8409401583
 20
235.7132568165
 30
0.0
 10
34.7987420151
 20
235.4750711063
 30
0.0
 10
34.7987420165
 20
235.3608092209
 30
0.0
  0
SPLINE
  5
41E
100
AcDbEntity
  8
0
100
AcDbSpline
 62
7
  6
CONTINUOUS
 70
0
 71
3
 72
11
 73
7
 74
0
 42
0.0000001
 43
0.0000001
 44
0.0000000001
 40
0.0
 40
0.0
 40
0.0
 40
0.0
 40
0.2177753738
 40
0.4509336309
 40
0.7102261693
 40
1.0
 40
1.0
 40
1.0
 40
1.0
 10
111.0951885902
 20
237.3206253621
 30
0.0
 10
111.0951885883
 20
237.4729761827
 30
0.0
 10
111.0389231126
 20
237.7905607939
 30
0.0
 10
110.7981544634
 20
238.2329495437
 30
0.0
 10
110.4176572514
 20
238.6329888295
 30
0.0
 10
110.0991837204
 20
238.8522440254
 30
0.0
 10
109.9236226258
 20
238.9536019776
 30
0.0
  0
SPLINE
  5
41F
100
AcDbEntity
  8
0
100
AcDbSpline
 62
7
  6
CONTINUOUS
 70
0
 71
3
 72
11
 73
7
 74
0
 42
0.0000001
 43
0.0000001
 44
0.0000000001
 40
0.0
 40
0.0
 40
0.0
 40
0.0
 40
0.2242718271
 40
0.4624182716
 40
0.7198934372
 40
1.0
 40
1.0
 40
1.0
 40
1.0
 10
90.9272512627
 20
234.461381875
 30
0.0
 10
90.9098291561
 20
234.5755701549
 30
0.0
 10
90.8432228892
 20
234.8071184368
 30
0.0
 10
90.6606395261
 20
235.132921523
 30
0.0
 10
90.3988690516
 20
235.4376605049
 30
0.0
 10
90.1849824923
 20
235.6154498199
 30
0.0
 10
90.0680641835
 20
235.6999665736
 30
0.0
  0
SPLINE
  5
420
100
AcDbEntity
  8
0
100
AcDbSpline
 62
7
  6
CONTINUOUS
 70
0
 71
3
 72
11
 73
7
 74
0
 42
0.0000001
 43
0.0000001
 44
0.0000000001
 40
0.0
 40
0.0
 40
0.0
 40
0.0
 40
0.2177845113
 40
0.450917848
 40
0.7103083905
 40
1.0
 40
1.0
 40
1.0
 40
1.0
 10
85.2356626809
 20
227.2196223186
 30
0.0
 10
85.3016392575
 20
227.1815436113
 30
0.0
 10
85.4532121955
 20
227.1265204764
 30
0.0
 10
85.704989687
 20
227.1201533043
 30
0.0
 10
85.973314209
 20
227.1849558136
 30
0.0
 10
86.1478880038
 20
227.2680061197
 30
0.0
 10
86.2356411352
 20
227.3186701113
 30
0.0
  0
SPLINE
  5
421
100
AcDbEntity
  8
0
100
AcDbSpline
 62
7
  6
CONTINUOUS
 70
0
 71
3
 72
17
 73
13
 74
0
 42
0.0000001
 43
0.0000001
 44
0.0000000001
 40
0.0
 40
0.0
 40
0.0
 40
0.0
 40
0.0428590382
 40
0.0874850278
 40
0.1353193459
 40
0.1872814037
 40
0.3045420728
 40
0.4382079173
 40
0.5825499624
 40
0.7297142529
 40
0.8713069433
 40
1.0
 40
1.0
 40
1.0
 40
1.0
 10
84.8821066457
 20
227.4237406267
 30
0.0
 10
84.8327976938
 20
227.452203537
 30
0.0
 10
84.7393574866
 20
227.523771928
 30
0.0
 10
84.6268515273
 20
227.6659706472
 30
0.0
 10
84.5428089523
 20
227.8399264417
 30
0.0
 10
84.467315877
 20
228.1195966486
 30
0.0
 10
84.4578485886
 20
228.5273645109
 30
0.0
 10
84.5633983811
 20
229.0448624191
 30
0.0
 10
84.7760572479
 20
229.5712383983
 30
0.0
 10
85.0788295578
 20
230.0636703974
 30
0.0
 10
85.4466423849
 20
230.4821761106
 30
0.0
 10
85.7340331208
 20
230.7033221403
 30
0.0
 10
85.8820862726
 20
230.7888001571
 30
0.0
  0
SPLINE
  5
422
100
AcDbEntity
  8
0
100
AcDbSpline
 62
7
  6
CONTINUOUS
 70
0
 71
3
 72
17
 73
13
 74
0
 42
0.0000001
 43
0.0000001
 44
0.0000000001
 40
0.0
 40
0.0
 40
0.0
 40
0.0
 40
0.12868996
 40
0.2702722062
 40
0.4174312903
 40
0.5617781732
 40
0.6954492761
 40
0.8127130379
 40
0.8646790319
 40
0.9125109796
 40
0.9571404657
 40
1.0
 40
1.0
 40
1.0
 40
1.0
 10
72.0934996237
 20
226.9920176422
 30
0.0
 10
71.8714254756
 20
227.1202293108
 30
0.0
 10
71.3686324144
 20
227.3276866945
 30
0.0
 10
70.5491622517
 20
227.4916118918
 30
0.0
 10
69.6824220068
 20
227.5156250814
 30
0.0
 10
68.8391383708
 20
227.3971394993
 30
0.0
 10
68.0876790059
 20
227.1461577693
 30
0.0
 10
67.5650983926
 20
226.8279869733
 30
0.0
 10
67.2583337953
 20
226.5202223554
 30
0.0
 10
67.0954724043
 20
226.280525882
 30
0.0
 10
66.9950061747
 20
226.0277670124
 30
0.0
 10
66.9722147186
 20
225.8526871112
 30
0.0
 10
66.9721996571
 20
225.7672851799
 30
0.0
  0
SPLINE
  5
423
100
AcDbEntity
  8
0
100
AcDbSpline
 62
7
  6
CONTINUOUS
 70
0
 71
3
 72
11
 73
7
 74
0
 42
0.0000001
 43
0.0000001
 44
0.0000000001
 40
0.0
 40
0.0
 40
0.0
 40
0.0
 40
0.217780861
 40
0.4509234132
 40
0.7102539949
 40
1.0
 40
1.0
 40
1.0
 40
1.0
 10
72.9721765669
 20
225.7672851813
 30
0.0
 10
72.9721967188
 20
225.8815507027
 30
0.0
 10
72.9299428869
 20
226.1197268776
 30
0.0
 10
72.7494033924
 20
226.4515438923
 30
0.0
 10
72.463999413
 20
226.7515462503
 30
0.0
 10
72.2251572578
 20
226.9160067913
 30
0.0
 10
72.0934996237
 20
226.9920176422
 30
0.0
  0
SPLINE
  5
424
100
AcDbEntity
  8
0
100
AcDbSpline
 62
7
  6
CONTINUOUS
 70
0
 71
3
 72
11
 73
7
 74
0
 42
0.0000001
 43
0.0000001
 44
0.0000000001
 40
0.0
 40
0.0
 40
0.0
 40
0.0
 40
0.2897011399
 40
0.5490888176
 40
0.7822183492
 40
1.0
 40
1.0
 40
1.0
 40
1.0
 10
85.8820862726
 20
230.7888001571
 30
0.0
 10
85.9698423661
 20
230.8394658589
 30
0.0
 10
86.1444183123
 20
230.922516913
 30
0.0
 10
86.412745098
 20
230.9873199987
 30
0.0
 10
86.6645172969
 20
230.9809457518
 30
0.0
 10
86.8160924531
 20
230.9259322781
 30
0.0
 10
86.8820658996
 20
230.8878500189
 30
0.0
  0
SPLINE
  5
425
100
AcDbEntity
  8
0
100
AcDbSpline
 62
7
  6
CONTINUOUS
 70
0
 71
3
 72
17
 73
13
 74
0
 42
0.0000001
 43
0.0000001
 44
0.0000000001
 40
0.0
 40
0.0
 40
0.0
 40
0.0
 40
0.1286920618
 40
0.2702783064
 40
0.4174365418
 40
0.5617781925
 40
0.6954479477
 40
0.8127116203
 40
0.8646743896
 40
0.9125102982
 40
0.9571382578
 40
1.0
 40
1.0
 40
1.0
 40
1.0
 10
86.2356411352
 20
227.3186701113
 30
0.0
 10
86.3836931267
 20
227.4041474583
 30
0.0
 10
86.6710764514
 20
227.6252866548
 30
0.0
 10
87.0388791747
 20
228.0437769015
 30
0.0
 10
87.3416488649
 20
228.5361897988
 30
0.0
 10
87.5543152453
 20
229.0625594494
 30
0.0
 10
87.6598746852
 20
229.5800629081
 30
0.0
 10
87.6504214257
 20
229.9878433051
 30
0.0
 10
87.5749223382
 20
230.267518155
 30
0.0
 10
87.4908896104
 20
230.4414857045
 30
0.0
 10
87.3783737703
 20
230.5836867622
 30
0.0
 10
87.2849333811
 20
230.655265874
 30
0.0
 10
87.2356195895
 20
230.6837275726
 30
0.0
  0
SPLINE
  5
426
100
AcDbEntity
  8
0
100
AcDbSpline
 62
7
  6
CONTINUOUS
 70
0
 71
3
 72
11
 73
7
 74
0
 42
0.0000001
 43
0.0000001
 44
0.0000000001
 40
0.0
 40
0.0
 40
0.0
 40
0.0
 40
0.2897733512
 40
0.5490657165
 40
0.7822241652
 40
1.0
 40
1.0
 40
1.0
 40
1.0
 10
104.2667683764
 20
238.9535883802
 30
0.0
 10
104.0912105648
 20
238.8522306354
 30
0.0
 10
103.7727430777
 20
238.6329762766
 30
0.0
 10
103.3922535935
 20
238.2329399559
 30
0.0
 10
103.1514901528
 20
237.7905554895
 30
0.0
 10
103.0952259618
 20
237.4729745426
 30
0.0
 10
103.0952259638
 20
237.3206253621
 30
0.0
  0
SPLINE
  5
427
100
AcDbEntity
  8
0
100
AcDbSpline
 62
7
  6
CONTINUOUS
 70
0
 71
3
 72
13
 73
9
 74
0
 42
0.0000001
 43
0.0000001
 44
0.0000000001
 40
0.0
 40
0.0
 40
0.0
 40
0.0
 40
0.1142466307
 40
0.237544229
 40
0.5000005226
 40
0.7624565301
 40
0.8857537943
 40
1.0
 40
1.0
 40
1.0
 40
1.0
 10
109.9236226258
 20
238.9536019776
 30
0.0
 10
109.7300106771
 20
239.0653813595
 30
0.0
 10
109.3065700068
 20
239.2625728814
 30
0.0
 10
108.3681285499
 20
239.5475882237
 30
0.0
 10
107.0951910701
 20
239.6860435339
 30
0.0
 10
105.8222548144
 20
239.5475823382
 30
0.0
 10
104.8838168743
 20
239.2625623795
 30
0.0
 10
104.4603787987
 20
239.0653687424
 30
0.0
 10
104.2667683764
 20
238.9535883802
 30
0.0
  0
SPLINE
  5
428
100
AcDbEntity
  8
0
100
AcDbSpline
 62
7
  6
CONTINUOUS
 70
0
 71
3
 72
11
 73
7
 74
0
 42
0.0000001
 43
0.0000001
 44
0.0000000001
 40
0.0
 40
0.0
 40
0.0
 40
0.0
 40
0.2191895662
 40
0.4529220188
 40
0.7116628037
 40
1.0
 40
1.0
 40
1.0
 40
1.0
 10
89.94266866
 20
235.5651448742
 30
0.0
 10
89.942688143
 20
235.6756172546
 30
0.0
 10
89.9033658009
 20
235.9053497218
 30
0.0
 10
89.7346665783
 20
236.2271667832
 30
0.0
 10
89.4669248014
 20
236.5202324412
 30
0.0
 10
89.2418485477
 20
236.6825813048
 30
0.0
 10
89.1176726288
 20
236.7580738931
 30
0.0
  0
SPLINE
  5
429
100
AcDbEntity
  8
0
100
AcDbSpline
 62
7
  6
CONTINUOUS
 70
0
 71
3
 72
11
 73
7
 74
0
 42
0.0000001
 43
0.0000001
 44
0.0000000001
 40
0.0
 40
0.0
 40
0.0
 40
0.0
 40
0.2177796629
 40
0.4509238111
 40
0.7102593659
 40
1.0
 40
1.0
 40
1.0
 40
1.0
 10
40.7987101305
 20
236.5039126089
 30
0.0
 10
40.7987302979
 20
236.3896495264
 30
0.0
 10
40.7564747195
 20
236.15147792
 30
0.0
 10
40.5759454513
 20
235.8196593319
 30
0.0
 10
40.2905451956
 20
235.5196606899
 30
0.0
 10
40.0517097366
 20
235.3551995284
 30
0.0
 10
39.9200571769
 20
235.2791903413
 30
0.0
  0
SPLINE
  5
42A
100
AcDbEntity
  8
0
100
AcDbSpline
 62
7
  6
CONTINUOUS
 70
0
 71
3
 72
9
 73
5
 74
0
 42
0.0000001
 43
0.0000001
 44
0.0000000001
 40
0.0
 40
0.0
 40
0.0
 40
0.0
 40
0.2444296014
 40
1.0
 40
1.0
 40
1.0
 40
1.0
 10
65.7221505007
 20
240.2844137367
 30
0.0
 10
65.6992517192
 20
240.3534415834
 30
0.0
 10
65.5972530513
 20
240.6330547769
 30
0.0
 10
65.4627272279
 20
240.9005025568
 30
0.0
 10
65.3468142021
 20
241.0931260318
 30
0.0
  0
SPLINE
  5
42B
100
AcDbEntity
  8
0
100
AcDbSpline
 62
7
  6
CONTINUOUS
 70
0
 71
3
 72
11
 73
7
 74
0
 42
0.0000001
 43
0.0000001
 44
0.0000000001
 40
0.0
 40
0.0
 40
0.0
 40
0.0
 40
0.2793877914
 40
0.5352676595
 40
0.7727688331
 40
1.0
 40
1.0
 40
1.0
 40
1.0
 10
49.7854927629
 20
244.1548269241
 30
0.0
 10
49.5718823445
 20
243.9811934087
 30
0.0
 10
49.1868062048
 20
243.616359
 30
0.0
 10
48.740085237
 20
242.9931258411
 30
0.0
 10
48.4636891728
 20
242.3318162834
 30
0.0
 10
48.4006625498
 20
241.8718047421
 30
0.0
 10
48.400667695
 20
241.6479160971
 30
0.0
  0
SPLINE
  5
42C
100
AcDbEntity
  8
0
100
AcDbSpline
 62
7
  6
CONTINUOUS
 70
0
 71
3
 72
11
 73
7
 74
0
 42
0.0000001
 43
0.0000001
 44
0.0000000001
 40
0.0
 40
0.0
 40
0.0
 40
0.0
 40
0.2846861367
 40
0.5420911666
 40
0.7773862295
 40
1.0
 40
1.0
 40
1.0
 40
1.0
 10
51.3060135765
 20
252.0406485231
 30
0.0
 10
51.0922097872
 20
251.8936365882
 30
0.0
 10
50.7055521816
 20
251.5811148944
 30
0.0
 10
50.2505662986
 20
251.0305486006
 30
0.0
 10
49.9661707177
 20
250.4355512954
 30
0.0
 10
49.9007016352
 20
250.015835801
 30
0.0
 10
49.9006810465
 20
249.8129402631
 30
0.0
  0
SPLINE
  5
42D
100
AcDbEntity
  8
0
100
AcDbSpline
 62
7
  6
CONTINUOUS
 70
0
 71
3
 72
9
 73
5
 74
0
 42
0.0000001
 43
0.0000001
 44
0.0000000001
 40
0.0
 40
0.0
 40
0.0
 40
0.0
 40
0.2588906838
 40
1.0
 40
1.0
 40
1.0
 40
1.0
 10
52.1883337763
 20
252.7727066415
 30
0.0
 10
52.1333781446
 20
252.7409781822
 30
0.0
 10
51.9235218526
 20
252.6143328218
 30
0.0
 10
51.7235447389
 20
252.4709380508
 30
0.0
 10
51.5840211489
 20
252.3546125659
 30
0.0
  0
SPLINE
  5
42E
100
AcDbEntity
  8
0
100
AcDbSpline
 62
7
  6
CONTINUOUS
 70
0
 71
3
 72
11
 73
7
 74
0
 42
0.0000001
 43
0.0000001
 44
0.0000000001
 40
0.0
 40
0.0
 40
0.0
 40
0.0
 40
0.2766006214
 40
0.5317424179
 40
0.7704184616
 40
1.0
 40
1.0
 40
1.0
 40
1.0
 10
51.4974031395
 20
252.2800575306
 30
0.0
 10
51.3658678571
 20
252.1631233011
 30
0.0
 10
51.1291414853
 20
251.9187775322
 30
0.0
 10
50.8566225955
 20
251.5074587178
 30
0.0
 10
50.6887403803
 20
251.0746927718
 30
0.0
 10
50.6506926898
 20
250.7755225843
 30
0.0
 10
50.6506778873
 20
250.6294426788
 30
0.0
  0
SPLINE
  5
42F
100
AcDbEntity
  8
0
100
AcDbSpline
 62
7
  6
CONTINUOUS
 70
0
 71
3
 72
11
 73
7
 74
0
 42
0.0000001
 43
0.0000001
 44
0.0000000001
 40
0.0
 40
0.0
 40
0.0
 40
0.0
 40
0.2228964003
 40
0.4583021121
 40
0.7156030448
 40
1.0
 40
1.0
 40
1.0
 40
1.0
 10
118.7218991421
 20
230.4620590608
 30
0.0
 10
118.7218991408
 20
230.5627640136
 30
0.0
 10
118.689634575
 20
230.7709811929
 30
0.0
 10
118.5495795588
 20
231.0664603514
 30
0.0
 10
118.3252644996
 20
231.340207194
 30
0.0
 10
118.1344597409
 20
231.4958960771
 30
0.0
 10
118.0289351406
 20
231.5692070344
 30
0.0
  0
SPLINE
  5
430
100
AcDbEntity
  8
0
100
AcDbSpline
 62
7
  6
CONTINUOUS
 70
0
 71
3
 72
11
 73
7
 74
0
 42
0.0000001
 43
0.0000001
 44
0.0000000001
 40
0.0
 40
0.0
 40
0.0
 40
0.0
 40
0.2219807049
 40
0.4569660397
 40
0.714599061
 40
1.0
 40
1.0
 40
1.0
 40
1.0
 10
118.7218991421
 20
228.0125518094
 30
0.0
 10
118.7218991434
 20
227.9094628813
 30
0.0
 10
118.6879975166
 20
227.6960174448
 30
0.0
 10
118.5411797997
 20
227.3940398035
 30
0.0
 10
118.3065544863
 20
227.1153837402
 30
0.0
 10
118.1075478171
 20
226.9579087232
 30
0.0
 10
117.9975545511
 20
226.8839576849
 30
0.0
  0
SPLINE
  5
431
100
AcDbEntity
  8
0
100
AcDbSpline
 62
7
  6
CONTINUOUS
 70
0
 71
3
 72
9
 73
5
 74
0
 42
0.0000001
 43
0.0000001
 44
0.0000000001
 40
0.0
 40
0.0
 40
0.0
 40
0.0
 40
0.2444296014
 40
1.0
 40
1.0
 40
1.0
 40
1.0
 10
82.6926425939
 20
250.0822734296
 30
0.0
 10
82.6697438124
 20
250.1513012763
 30
0.0
 10
82.5677451444
 20
250.4309144698
 30
0.0
 10
82.433219321
 20
250.6983622497
 30
0.0
 10
82.3173062953
 20
250.8909857247
 30
0.0
  0
SPLINE
  5
432
100
AcDbEntity
  8
0
100
AcDbSpline
 62
7
  6
CONTINUOUS
 70
0
 71
3
 72
11
 73
7
 74
0
 42
0.0000001
 43
0.0000001
 44
0.0000000001
 40
0.0
 40
0.0
 40
0.0
 40
0.0
 40
0.2177753738
 40
0.4509336309
 40
0.7102261693
 40
1.0
 40
1.0
 40
1.0
 40
1.0
 10
82.5181877701
 20
211.2746047042
 30
0.0
 10
82.5181877686
 20
211.3888678197
 30
0.0
 10
82.4759886619
 20
211.6270562781
 30
0.0
 10
82.295412175
 20
211.9588478404
 30
0.0
 10
82.010039266
 20
212.2588773048
 30
0.0
 10
81.7711841177
 20
212.4233187017
 30
0.0
 10
81.6395132968
 20
212.4993371658
 30
0.0
  0
SPLINE
  5
433
100
AcDbEntity
  8
0
100
AcDbSpline
 62
7
  6
CONTINUOUS
 70
0
 71
3
 72
10
 73
6
 74
0
 42
0.0000001
 43
0.0000001
 44
0.0000000001
 40
0.0
 40
0.0
 40
0.0
 40
0.0
 40
0.5197482181
 40
0.7626662032
 40
1.0
 40
1.0
 40
1.0
 40
1.0
 10
66.0850022146
 20
252.8812394529
 30
0.0
 10
65.8648568884
 20
252.6111542514
 30
0.0
 10
65.5906814919
 20
252.1659645988
 30
0.0
 10
65.40237912
 20
251.5194655871
 30
0.0
 10
65.3711570528
 20
251.196633236
 30
0.0
 10
65.3711721827
 20
251.0375245933
 30
0.0
  0
SPLINE
  5
434
100
AcDbEntity
  8
0
100
AcDbSpline
 62
7
  6
CONTINUOUS
 70
0
 71
3
 72
11
 73
7
 74
0
 42
0.0000001
 43
0.0000001
 44
0.0000000001
 40
0.0
 40
0.0
 40
0.0
 40
0.0
 40
0.2177753738
 40
0.4509336309
 40
0.7102261693
 40
1.0
 40
1.0
 40
1.0
 40
1.0
 10
118.0148003982
 20
231.7684612286
 30
0.0
 10
118.0148003967
 20
231.882724344
 30
0.0
 10
117.97260129
 20
232.1209128024
 30
0.0
 10
117.7920248031
 20
232.4527043648
 30
0.0
 10
117.5066518941
 20
232.7527338292
 30
0.0
 10
117.2677967459
 20
232.917175226
 30
0.0
 10
117.1361259249
 20
232.9931936902
 30
0.0
  0
SPLINE
  5
435
100
AcDbEntity
  8
0
100
AcDbSpline
 62
7
  6
CONTINUOUS
 70
0
 71
3
 72
11
 73
7
 74
0
 42
0.0000001
 43
0.0000001
 44
0.0000000001
 40
0.0
 40
0.0
 40
0.0
 40
0.0
 40
0.2898001361
 40
0.5490525095
 40
0.7822292999
 40
1.0
 40
1.0
 40
1.0
 40
1.0
 10
68.0981612817
 20
259.1004153806
 30
0.0
 10
67.8018782833
 20
258.9293573328
 30
0.0
 10
67.2644388886
 20
258.5594064687
 30
0.0
 10
66.6224405724
 20
257.8842740126
 30
0.0
 10
66.2160482163
 20
257.1378288558
 30
0.0
 10
66.1211712363
 20
256.6018750333
 30
0.0
 10
66.1211633955
 20
256.3447902845
 30
0.0
  0
SPLINE
  5
436
100
AcDbEntity
  8
0
100
AcDbSpline
 62
7
  6
CONTINUOUS
 70
0
 71
3
 72
9
 73
5
 74
0
 42
0.0000001
 43
0.0000001
 44
0.0000000001
 40
0.0
 40
0.0
 40
0.0
 40
0.0
 40
0.2546609695
 40
1.0
 40
1.0
 40
1.0
 40
1.0
 10
71.562148275
 20
260.1678609256
 30
0.0
 10
71.4244136202
 20
260.1521309715
 30
0.0
 10
70.8847789142
 20
260.0803404814
 30
0.0
 10
70.3502430952
 20
259.9685325834
 30
0.0
 10
69.9591334608
 20
259.8605567711
 30
0.0
  0
SPLINE
  5
437
100
AcDbEntity
  8
0
100
AcDbSpline
 62
7
  6
CONTINUOUS
 70
0
 71
3
 72
9
 73
5
 74
0
 42
0.0000001
 43
0.0000001
 44
0.0000000001
 40
0.0
 40
0.0
 40
0.0
 40
0.0
 40
0.26263772
 40
1.0
 40
1.0
 40
1.0
 40
1.0
 10
69.9591334608
 20
259.8605567711
 30
0.0
 10
69.7892467709
 20
259.8136552076
 30
0.0
 10
69.147674625
 20
259.6173021203
 30
0.0
 10
68.5266747935
 20
259.3478162952
 30
0.0
 10
68.0981612817
 20
259.1004153806
 30
0.0
  0
SPLINE
  5
438
100
AcDbEntity
  8
0
100
AcDbSpline
 62
7
  6
CONTINUOUS
 70
0
 71
3
 72
11
 73
7
 74
0
 42
0.0000001
 43
0.0000001
 44
0.0000000001
 40
0.0
 40
0.0
 40
0.0
 40
0.0
 40
0.2897756264
 40
0.5490692242
 40
0.7822277401
 40
1.0
 40
1.0
 40
1.0
 40
1.0
 10
70.0427130259
 20
259.6107581399
 30
0.0
 10
69.8671541271
 20
259.5093997675
 30
0.0
 10
69.5486853907
 20
259.2901436741
 30
0.0
 10
69.1681970985
 20
258.8901042175
 30
0.0
 10
68.9274364343
 20
258.4477203932
 30
0.0
 10
68.8711782181
 20
258.1301415489
 30
0.0
 10
68.8711793844
 20
257.977795122
 30
0.0
  0
SPLINE
  5
439
100
AcDbEntity
  8
0
100
AcDbSpline
 62
7
  6
CONTINUOUS
 70
0
 71
3
 72
11
 73
7
 74
0
 42
0.0000001
 43
0.0000001
 44
0.0000000001
 40
0.0
 40
0.0
 40
0.0
 40
0.0
 40
0.217772663
 40
0.4509314042
 40
0.7102278685
 40
1.0
 40
1.0
 40
1.0
 40
1.0
 10
111.0951777624
 20
234.462866899
 30
0.0
 10
111.0951813911
 20
234.3105203175
 30
0.0
 10
111.0389171283
 20
233.9929418985
 30
0.0
 10
110.7981605672
 20
233.5505546446
 30
0.0
 10
110.417669966
 20
233.1505173031
 30
0.0
 10
110.0992028122
 20
232.9312609493
 30
0.0
 10
109.9236461776
 20
232.829903884
 30
0.0
  0
SPLINE
  5
43A
100
AcDbEntity
  8
0
100
AcDbSpline
 62
7
  6
CONTINUOUS
 70
0
 71
3
 72
9
 73
5
 74
0
 42
0.0000001
 43
0.0000001
 44
0.0000000001
 40
0.0
 40
0.0
 40
0.0
 40
0.0
 40
0.4752390475
 40
1.0
 40
1.0
 40
1.0
 40
1.0
 10
35.6774164898
 20
234.1360767593
 30
0.0
 10
35.925101515
 20
233.9930789784
 30
0.0
 10
36.4911559007
 20
233.7689385073
 30
0.0
 10
37.0884024615
 20
233.6680915222
 30
0.0
 10
37.4032773165
 20
233.6438991382
 30
0.0
  0
SPLINE
  5
43B
100
AcDbEntity
  8
0
100
AcDbSpline
 62
7
  6
CONTINUOUS
 70
0
 71
3
 72
17
 73
13
 74
0
 42
0.0000001
 43
0.0000001
 44
0.0000000001
 40
0.0
 40
0.0
 40
0.0
 40
0.0
 40
0.1286926234
 40
0.2702773362
 40
0.4174341499
 40
0.5617794299
 40
0.6954504977
 40
0.8127129602
 40
0.8646788349
 40
0.9125109856
 40
0.9571404061
 40
1.0
 40
1.0
 40
1.0
 40
1.0
 10
81.6395309606
 20
208.7434785732
 30
0.0
 10
81.4174529342
 20
208.6152625303
 30
0.0
 10
80.9146498686
 20
208.4077996628
 30
0.0
 10
80.0951723732
 20
208.2438781325
 30
0.0
 10
79.2284342943
 20
208.2198641677
 30
0.0
 10
78.3851580781
 20
208.3383520555
 30
0.0
 10
77.6337035558
 20
208.5893327262
 30
0.0
 10
77.1111263687
 20
208.9075034246
 30
0.0
 10
76.8043599614
 20
209.2152631295
 30
0.0
 10
76.6414976276
 20
209.4549599997
 30
0.0
 10
76.5410336625
 20
209.7077195525
 30
0.0
 10
76.5182347295
 20
209.8827987033
 30
0.0
 10
76.5182196561
 20
209.9682008328
 30
0.0
  0
SPLINE
  5
43C
100
AcDbEntity
  8
0
100
AcDbSpline
 62
7
  6
CONTINUOUS
 70
0
 71
3
 72
11
 73
7
 74
0
 42
0.0000001
 43
0.0000001
 44
0.0000000001
 40
0.0
 40
0.0
 40
0.0
 40
0.0
 40
0.2177845113
 40
0.450917848
 40
0.7103083905
 40
1.0
 40
1.0
 40
1.0
 40
1.0
 10
87.2356195895
 20
230.6837275726
 30
0.0
 10
87.1696430129
 20
230.7218062799
 30
0.0
 10
87.0180700749
 20
230.7768294148
 30
0.0
 10
86.7662925834
 20
230.7831965869
 30
0.0
 10
86.4979680615
 20
230.7183940776
 30
0.0
 10
86.3233942666
 20
230.6353437715
 30
0.0
 10
86.2356411352
 20
230.5846797798
 30
0.0
  0
SPLINE
  5
43D
100
AcDbEntity
  8
0
100
AcDbSpline
 62
7
  6
CONTINUOUS
 70
0
 71
3
 72
11
 73
7
 74
0
 42
0.0000001
 43
0.0000001
 44
0.0000000001
 40
0.0
 40
0.0
 40
0.0
 40
0.0
 40
0.2372279391
 40
0.4999994739
 40
0.762771295
 40
1.0
 40
1.0
 40
1.0
 40
1.0
 10
77.3968726097
 20
213.6424303518
 30
0.0
 10
77.6980248949
 20
213.8162996669
 30
0.0
 10
78.3983800997
 20
214.0700442794
 30
0.0
 10
79.5181896181
 20
214.1915938429
 30
0.0
 10
80.638000826
 20
214.0700493896
 30
0.0
 10
81.3383587854
 20
213.8163082546
 30
0.0
 10
81.6395132968
 20
213.6424405498
 30
0.0
  0
SPLINE
  5
43E
100
AcDbEntity
  8
0
100
AcDbSpline
 62
7
  6
CONTINUOUS
 70
0
 71
3
 72
14
 73
10
 74
0
 42
0.0000001
 43
0.0000001
 44
0.0000000001
 40
0.0
 40
0.0
 40
0.0
 40
0.0
 40
0.0923833624
 40
0.1921031356
 40
0.3019908467
 40
0.4232511131
 40
0.5555346935
 40
0.6973643847
 40
1.0
 40
1.0
 40
1.0
 40
1.0
 10
65.9876170545
 20
224.2582404443
 30
0.0
 10
66.0084381871
 20
224.1217742075
 30
0.0
 10
66.0961727114
 20
223.84355722
 30
0.0
 10
66.3437426341
 20
223.4612204652
 30
0.0
 10
66.6993931765
 20
223.1130057403
 30
0.0
 10
67.1511148452
 20
222.807339732
 30
0.0
 10
67.6859506384
 20
222.5518388265
 30
0.0
 10
68.5060027218
 20
222.2816785703
 30
0.0
 10
69.1695969232
 20
222.1833856785
 30
0.0
 10
69.6212319925
 20
222.1604193408
 30
0.0
  0
SPLINE
  5
43F
100
AcDbEntity
  8
0
100
AcDbSpline
 62
7
  6
CONTINUOUS
 70
0
 71
3
 72
17
 73
13
 74
0
 42
0.0000001
 43
0.0000001
 44
0.0000000001
 40
0.0
 40
0.0
 40
0.0
 40
0.0
 40
0.1286926234
 40
0.2702773362
 40
0.4174341499
 40
0.5617794299
 40
0.6954504977
 40
0.8127129602
 40
0.8646788349
 40
0.9125109856
 40
0.9571404061
 40
1.0
 40
1.0
 40
1.0
 40
1.0
 10
35.677398826
 20
237.7286348685
 30
0.0
 10
35.8994768524
 20
237.8568509114
 30
0.0
 10
36.402279918
 20
238.0643137789
 30
0.0
 10
37.2217574134
 20
238.2282353092
 30
0.0
 10
38.0884954923
 20
238.252249274
 30
0.0
 10
38.9317717085
 20
238.1337613862
 30
0.0
 10
39.6832262308
 20
237.8827807155
 30
0.0
 10
40.2058034179
 20
237.5646100171
 30
0.0
 10
40.5125698253
 20
237.2568503122
 30
0.0
 10
40.675432159
 20
237.017153442
 30
0.0
 10
40.7758961241
 20
236.7643938892
 30
0.0
 10
40.7986950571
 20
236.5893147384
 30
0.0
 10
40.7987101305
 20
236.5039126089
 30
0.0
  0
SPLINE
  5
440
100
AcDbEntity
  8
0
100
AcDbSpline
 62
7
  6
CONTINUOUS
 70
0
 71
3
 72
11
 73
7
 74
0
 42
0.0000001
 43
0.0000001
 44
0.0000000001
 40
0.0
 40
0.0
 40
0.0
 40
0.0
 40
0.2897479759
 40
0.5490808555
 40
0.7822230711
 40
1.0
 40
1.0
 40
1.0
 40
1.0
 10
67.8508766004
 20
223.2361488516
 30
0.0
 10
67.719218363
 20
223.3121600508
 30
0.0
 10
67.4803760361
 20
223.4766229789
 30
0.0
 10
67.1949709135
 20
223.7766263486
 30
0.0
 10
67.014438406
 20
224.1084452718
 30
0.0
 10
66.9721860478
 20
224.3466181096
 30
0.0
 10
66.9722054761
 20
224.4608813143
 30
0.0
  0
SPLINE
  5
441
100
AcDbEntity
  8
0
100
AcDbSpline
 62
7
  6
CONTINUOUS
 70
0
 71
3
 72
16
 73
12
 74
0
 42
0.0000001
 43
0.0000001
 44
0.0000000001
 40
0.0
 40
0.0
 40
0.0
 40
0.0
 40
0.0428763199
 40
0.0875230218
 40
0.1869281048
 40
0.3042402151
 40
0.4379662944
 40
0.5823718203
 40
0.7295947109
 40
0.8712550786
 40
1.0
 40
1.0
 40
1.0
 40
1.0
 10
83.717892923
 20
228.6732546429
 30
0.0
 10
83.6809054245
 20
228.694589096
 30
0.0
 10
83.6108146566
 20
228.7482564222
 30
0.0
 10
83.4943214997
 20
228.8955300066
 30
0.0
 10
83.4075282963
 20
229.1482958372
 30
0.0
 10
83.3998059393
 20
229.5006232632
 30
0.0
 10
83.4788077043
 20
229.8891924662
 30
0.0
 10
83.6383557758
 20
230.2838355388
 30
0.0
 10
83.8654158409
 20
230.6532023827
 30
0.0
 10
84.1412903374
 20
230.967057691
 30
0.0
 10
84.3568304968
 20
231.1329239878
 30
0.0
 10
84.4678668223
 20
231.1970304576
 30
0.0
  0
SPLINE
  5
442
100
AcDbEntity
  8
0
100
AcDbSpline
 62
7
  6
CONTINUOUS
 70
0
 71
3
 72
11
 73
7
 74
0
 42
0.0000001
 43
0.0000001
 44
0.0000000001
 40
0.0
 40
0.0
 40
0.0
 40
0.0
 40
0.289375018
 40
0.5484713338
 40
0.78182333
 40
1.0
 40
1.0
 40
1.0
 40
1.0
 10
89.0795450608
 20
234.3494805028
 30
0.0
 10
89.2090576499
 20
234.4253602468
 30
0.0
 10
89.4439265513
 20
234.5892149719
 30
0.0
 10
89.7241600719
 20
234.8872877466
 30
0.0
 10
89.9013729841
 20
235.216192188
 30
0.0
 10
89.942648701
 20
235.451972644
 30
0.0
 10
89.94266866
 20
235.5651448742
 30
0.0
  0
SPLINE
  5
443
100
AcDbEntity
  8
0
100
AcDbSpline
 62
7
  6
CONTINUOUS
 70
0
 71
3
 72
17
 73
13
 74
0
 42
0.0000001
 43
0.0000001
 44
0.0000000001
 40
0.0
 40
0.0
 40
0.0
 40
0.0
 40
0.12868996
 40
0.2702722062
 40
0.4174312903
 40
0.5617781732
 40
0.6954492761
 40
0.8127130379
 40
0.8646790319
 40
0.9125109796
 40
0.9571404657
 40
1.0
 40
1.0
 40
1.0
 40
1.0
 10
67.8508766004
 20
224.542552719
 30
0.0
 10
68.0729507484
 20
224.4143410504
 30
0.0
 10
68.5757438097
 20
224.2068836667
 30
0.0
 10
69.3952139724
 20
224.0429584694
 30
0.0
 10
70.2619542172
 20
224.0189452798
 30
0.0
 10
71.1052378533
 20
224.1374308619
 30
0.0
 10
71.8566972182
 20
224.3884125919
 30
0.0
 10
72.3792778314
 20
224.7065833879
 30
0.0
 10
72.6860424288
 20
225.0143480059
 30
0.0
 10
72.8489038197
 20
225.2540444793
 30
0.0
 10
72.9493700493
 20
225.5068033488
 30
0.0
 10
72.9721615054
 20
225.6818832501
 30
0.0
 10
72.9721765669
 20
225.7672851813
 30
0.0
  0
SPLINE
  5
444
100
AcDbEntity
  8
0
100
AcDbSpline
 62
7
  6
CONTINUOUS
 70
0
 71
3
 72
11
 73
7
 74
0
 42
0.0000001
 43
0.0000001
 44
0.0000000001
 40
0.0
 40
0.0
 40
0.0
 40
0.0
 40
0.2177707056
 40
0.4509475014
 40
0.7101998675
 40
1.0
 40
1.0
 40
1.0
 40
1.0
 10
79.6211404637
 20
251.0375245793
 30
0.0
 10
79.6211326407
 20
250.7804398236
 30
0.0
 10
79.5262556351
 20
250.2444859853
 30
0.0
 10
79.1198632665
 20
249.498040835
 30
0.0
 10
78.477864956
 20
248.8229083796
 30
0.0
 10
77.9404255664
 20
248.4529575292
 30
0.0
 10
77.6441425712
 20
248.2818994832
 30
0.0
  0
SPLINE
  5
445
100
AcDbEntity
  8
0
100
AcDbSpline
 62
7
  6
CONTINUOUS
 70
0
 71
3
 72
11
 73
7
 74
0
 42
0.0000001
 43
0.0000001
 44
0.0000000001
 40
0.0
 40
0.0
 40
0.0
 40
0.0
 40
0.2896408744
 40
0.5491100035
 40
0.7822350384
 40
1.0
 40
1.0
 40
1.0
 40
1.0
 10
84.4678668223
 20
231.1970304576
 30
0.0
 10
84.5336699276
 20
231.2350216713
 30
0.0
 10
84.6646176797
 20
231.2972879703
 30
0.0
 10
84.8658512406
 20
231.345920558
 30
0.0
 10
85.0547120296
 20
231.3411726416
 30
0.0
 10
85.1683553285
 20
231.2998422813
 30
0.0
 10
85.2178407217
 20
231.2712990209
 30
0.0
  0
SPLINE
  5
446
100
AcDbEntity
  8
0
100
AcDbSpline
 62
7
  6
CONTINUOUS
 70
0
 71
3
 72
14
 73
10
 74
0
 42
0.0000001
 43
0.0000001
 44
0.0000000001
 40
0.0
 40
0.0
 40
0.0
 40
0.0
 40
0.3026355409
 40
0.4444652228
 40
0.576748806
 40
0.6980090839
 40
0.8078968117
 40
0.907616619
 40
1.0
 40
1.0
 40
1.0
 40
1.0
 10
69.6212319925
 20
220.119163298
 30
0.0
 10
69.1695970349
 20
220.14212963
 30
0.0
 10
68.5060029594
 20
220.2404224828
 30
0.0
 10
67.6859509776
 20
220.5105826543
 30
0.0
 10
67.1511151546
 20
220.7660835129
 30
0.0
 10
66.6993934175
 20
221.0717494983
 30
0.0
 10
66.3437427611
 20
221.4199642458
 30
0.0
 10
66.0961727872
 20
221.8023010884
 30
0.0
 10
66.0084381913
 20
222.0805181373
 30
0.0
 10
65.9876170545
 20
222.2169844015
 30
0.0
  0
SPLINE
  5
447
100
AcDbEntity
  8
0
100
AcDbSpline
 62
7
  6
CONTINUOUS
 70
0
 71
3
 72
17
 73
13
 74
0
 42
0.0000001
 43
0.0000001
 44
0.0000000001
 40
0.0
 40
0.0
 40
0.0
 40
0.0
 40
0.1286903759
 40
0.2702749122
 40
0.4174292505
 40
0.5617762177
 40
0.6954483458
 40
0.8127147475
 40
0.8646780754
 40
0.9125121143
 40
0.957141621
 40
1.0
 40
1.0
 40
1.0
 40
1.0
 10
109.9236461776
 20
232.829903884
 30
0.0
 10
109.6275469884
 20
232.6589519579
 30
0.0
 10
108.9571464083
 20
232.3823438434
 30
0.0
 10
107.8645270819
 20
232.1637579098
 30
0.0
 10
106.7088781711
 20
232.1317322428
 30
0.0
 10
105.5845014954
 20
232.2897268184
 30
0.0
 10
104.5825757263
 20
232.6244084814
 30
0.0
 10
103.8857198848
 20
233.0485520596
 30
0.0
 10
103.4767848694
 20
233.4589873333
 30
0.0
 10
103.2595490963
 20
233.7785252928
 30
0.0
 10
103.1256597253
 20
234.1155684441
 30
0.0
 10
103.0952395037
 20
234.3490005003
 30
0.0
 10
103.0952367915
 20
234.4628669053
 30
0.0
  0
SPLINE
  5
448
100
AcDbEntity
  8
0
100
AcDbSpline
 62
7
  6
CONTINUOUS
 70
0
 71
3
 72
12
 73
8
 74
0
 42
0.0000001
 43
0.0000001
 44
0.0000000001
 40
0.0
 40
0.0
 40
0.0
 40
0.0
 40
0.1081603208
 40
0.2183607076
 40
0.4513642752
 40
0.7104112952
 40
1.0
 40
1.0
 40
1.0
 40
1.0
 10
80.3711316701
 20
248.9962685164
 30
0.0
 10
80.3711451714
 20
248.854287338
 30
0.0
 10
80.3464180016
 20
248.5670553264
 30
0.0
 10
80.1972707669
 20
247.9911934777
 30
0.0
 10
79.8141973117
 20
247.2851275571
 30
0.0
 10
79.1008342173
 20
246.5357889587
 30
0.0
 10
78.5036869049
 20
246.1245323998
 30
0.0
 10
78.174474865
 20
245.9344628745
 30
0.0
  0
SPLINE
  5
449
100
AcDbEntity
  8
0
100
AcDbSpline
 62
7
  6
CONTINUOUS
 70
0
 71
3
 72
9
 73
5
 74
0
 42
0.0000001
 43
0.0000001
 44
0.0000000001
 40
0.0
 40
0.0
 40
0.0
 40
0.0
 40
0.2563875355
 40
1.0
 40
1.0
 40
1.0
 40
1.0
 10
46.4545054645
 20
234.8541843979
 30
0.0
 10
46.4151741676
 20
234.9195448785
 30
0.0
 10
46.2683150086
 20
235.1783204654
 30
0.0
 10
46.1488300987
 20
235.4529054236
 30
0.0
 10
46.0791691659
 20
235.6628966929
 30
0.0
  0
SPLINE
  5
44A
100
AcDbEntity
  8
0
100
AcDbSpline
 62
7
  6
CONTINUOUS
 70
0
 71
3
 72
17
 73
13
 74
0
 42
0.0000001
 43
0.0000001
 44
0.0000000001
 40
0.0
 40
0.0
 40
0.0
 40
0.0
 40
0.0428575604
 40
0.0874859108
 40
0.1353172062
 40
0.1872823133
 40
0.3045426425
 40
0.438210377
 40
0.5825547796
 40
0.7297159944
 40
0.8713057371
 40
1.0
 40
1.0
 40
1.0
 40
1.0
 10
72.972170748
 20
224.4608813121
 30
0.0
 10
72.9721562277
 20
224.3754835148
 30
0.0
 10
72.9493642892
 20
224.2004103188
 30
0.0
 10
72.8489018527
 20
223.9476591144
 30
0.0
 10
72.6860469045
 20
223.7079657073
 30
0.0
 10
72.3792950733
 20
223.4002038678
 30
0.0
 10
71.8567330287
 20
223.0820347501
 30
0.0
 10
71.1052961956
 20
222.8310510638
 30
0.0
 10
70.2620243155
 20
222.71255025
 30
0.0
 10
69.3952714124
 20
222.7365523985
 30
0.0
 10
68.5757729926
 20
222.9004695884
 30
0.0
 10
68.072957651
 20
223.1079331978
 30
0.0
 10
67.8508766004
 20
223.2361488516
 30
0.0
  0
SPLINE
  5
44B
100
AcDbEntity
  8
0
100
AcDbSpline
 62
7
  6
CONTINUOUS
 70
0
 71
3
 72
11
 73
7
 74
0
 42
0.0000001
 43
0.0000001
 44
0.0000000001
 40
0.0
 40
0.0
 40
0.0
 40
0.0
 40
0.2897733512
 40
0.5490657165
 40
0.7822241652
 40
1.0
 40
1.0
 40
1.0
 40
1.0
 10
117.1361435887
 20
230.543738965
 30
0.0
 10
117.2678119474
 20
230.6197572736
 30
0.0
 10
117.5066625628
 20
230.7841980427
 30
0.0
 10
117.7920296759
 20
231.0842252832
 30
0.0
 10
117.9726022564
 20
231.416013633
 30
0.0
 10
118.0148003997
 20
231.6541993431
 30
0.0
 10
118.0148003982
 20
231.7684612286
 30
0.0
  0
SPLINE
  5
44C
100
AcDbEntity
  8
0
100
AcDbSpline
 62
7
  6
CONTINUOUS
 70
0
 71
3
 72
11
 73
7
 74
0
 42
0.0000001
 43
0.0000001
 44
0.0000000001
 40
0.0
 40
0.0
 40
0.0
 40
0.0
 40
0.217768468
 40
0.4509396739
 40
0.7102096614
 40
1.0
 40
1.0
 40
1.0
 40
1.0
 10
61.1506389654
 20
249.8129402639
 30
0.0
 10
61.1506190484
 20
249.6129880641
 30
0.0
 10
61.076836952
 20
249.1961479163
 30
0.0
 10
60.7607776354
 20
248.6155539415
 30
0.0
 10
60.261423823
 20
248.0904690166
 30
0.0
 10
59.8434197928
 20
247.8027165834
 30
0.0
 10
59.6129858903
 20
247.6696763019
 30
0.0
  0
SPLINE
  5
44D
100
AcDbEntity
  8
0
100
AcDbSpline
 62
7
  6
CONTINUOUS
 70
0
 71
3
 72
11
 73
7
 74
0
 42
0.0000001
 43
0.0000001
 44
0.0000000001
 40
0.0
 40
0.0
 40
0.0
 40
0.0
 40
0.2897776971
 40
0.5490719787
 40
0.7822272299
 40
1.0
 40
1.0
 40
1.0
 40
1.0
 10
117.8432503699
 20
229.2373367973
 30
0.0
 10
117.9749202685
 20
229.3133559949
 30
0.0
 10
118.2137712523
 20
229.477800467
 30
0.0
 10
118.4991368147
 20
229.7778298218
 30
0.0
 10
118.6797024223
 20
230.1096178022
 30
0.0
 10
118.7218991436
 20
230.3477991607
 30
0.0
 10
118.7218991421
 20
230.4620590608
 30
0.0
  0
SPLINE
  5
44E
100
AcDbEntity
  8
0
100
AcDbSpline
 62
7
  6
CONTINUOUS
 70
0
 71
3
 72
17
 73
13
 74
0
 42
0.0000001
 43
0.0000001
 44
0.0000000001
 40
0.0
 40
0.0
 40
0.0
 40
0.0
 40
0.0428587241
 40
0.0874874362
 40
0.1353213912
 40
0.1872866071
 40
0.3045496092
 40
0.4382197755
 40
0.5825660438
 40
0.7297208498
 40
0.871309698
 40
1.0
 40
1.0
 40
1.0
 40
1.0
 10
50.6506778873
 20
250.6294426788
 30
0.0
 10
50.6506627431
 20
250.4799916609
 30
0.0
 10
50.6906742606
 20
250.1736217002
 30
0.0
 10
50.8663376099
 20
249.7312417699
 30
0.0
 10
51.1514482079
 20
249.3118227286
 30
0.0
 10
51.6882387613
 20
248.7732007287
 30
0.0
 10
52.6027799131
 20
248.2164219313
 30
0.0
 10
53.9178258901
 20
247.7772197092
 30
0.0
 10
55.3935518035
 20
247.5698452696
 30
0.0
 10
56.9103631476
 20
247.6118266558
 30
0.0
 10
58.3444368793
 20
247.8987620768
 30
0.0
 10
59.2243555153
 20
248.2618042068
 30
0.0
 10
59.6129858903
 20
248.4861787191
 30
0.0
  0
SPLINE
  5
44F
100
AcDbEntity
  8
0
100
AcDbSpline
 62
7
  6
CONTINUOUS
 70
0
 71
3
 72
11
 73
7
 74
0
 42
0.0000001
 43
0.0000001
 44
0.0000000001
 40
0.0
 40
0.0
 40
0.0
 40
0.0
 40
0.217780861
 40
0.4509234132
 40
0.7102539949
 40
1.0
 40
1.0
 40
1.0
 40
1.0
 10
66.9721996571
 20
225.7672851799
 30
0.0
 10
66.9721795053
 20
225.6530196586
 30
0.0
 10
67.0144333371
 20
225.4148434837
 30
0.0
 10
67.1949728316
 20
225.0830264689
 30
0.0
 10
67.480376811
 20
224.7830241109
 30
0.0
 10
67.7192189662
 20
224.6185635699
 30
0.0
 10
67.8508766004
 20
224.542552719
 30
0.0
  0
SPLINE
  5
450
100
AcDbEntity
  8
0
100
AcDbSpline
 62
7
  6
CONTINUOUS
 70
0
 71
3
 72
14
 73
10
 74
0
 42
0.0000001
 43
0.0000001
 44
0.0000000001
 40
0.0
 40
0.0
 40
0.0
 40
0.0
 40
0.1230514107
 40
0.2577009626
 40
0.3986972508
 40
0.5398790729
 40
0.6750657858
 40
0.7989283335
 40
1.0
 40
1.0
 40
1.0
 40
1.0
 10
86.2356411352
 20
230.5846797798
 30
0.0
 10
86.1062187037
 20
230.5099581502
 30
0.0
 10
85.8531782134
 20
230.3215790766
 30
0.0
 10
85.5199948652
 20
229.9676312099
 30
0.0
 10
85.2324358055
 20
229.5485544383
 30
0.0
 10
85.0090159602
 20
229.0918714422
 30
0.0
 10
84.8641559122
 20
228.6243688065
 30
0.0
 10
84.791772367
 20
228.072301272
 30
0.0
 10
84.8624329182
 20
227.6534197429
 30
0.0
 10
84.9964859207
 20
227.449305608
 30
0.0
  0
SPLINE
  5
451
100
AcDbEntity
  8
0
100
AcDbSpline
 62
7
  6
CONTINUOUS
 70
0
 71
3
 72
9
 73
5
 74
0
 42
0.0000001
 43
0.0000001
 44
0.0000000001
 40
0.0
 40
0.0
 40
0.0
 40
0.0
 40
0.2581102902
 40
1.0
 40
1.0
 40
1.0
 40
1.0
 10
85.006345277
 20
227.4346406064
 30
0.0
 10
85.0217491158
 20
227.4122576855
 30
0.0
 10
85.0856698249
 20
227.328575884
 30
0.0
 10
85.1680216843
 20
227.2586616541
 30
0.0
 10
85.2356626809
 20
227.2196223186
 30
0.0
  0
SPLINE
  5
452
100
AcDbEntity
  8
0
100
AcDbSpline
 62
7
  6
CONTINUOUS
 70
0
 71
3
 72
9
 73
5
 74
0
 42
0.0000001
 43
0.0000001
 44
0.0000000001
 40
0.0
 40
0.0
 40
0.0
 40
0.0
 40
0.4750938762
 40
1.0
 40
1.0
 40
1.0
 40
1.0
 10
117.1361435887
 20
229.2373350976
 30
0.0
 10
116.8828760822
 20
229.0911119074
 30
0.0
 10
116.3029243337
 20
228.8635541252
 30
0.0
 10
115.691258001
 20
228.7642756063
 30
0.0
 10
115.3689068796
 20
228.7421435522
 30
0.0
  0
SPLINE
  5
453
100
AcDbEntity
  8
0
100
AcDbSpline
 62
7
  6
CONTINUOUS
 70
0
 71
3
 72
9
 73
5
 74
0
 42
0.0000001
 43
0.0000001
 44
0.0000000001
 40
0.0
 40
0.0
 40
0.0
 40
0.0
 40
0.2563875355
 40
1.0
 40
1.0
 40
1.0
 40
1.0
 10
63.4249975576
 20
244.6520440908
 30
0.0
 10
63.3856662607
 20
244.7174045714
 30
0.0
 10
63.2388071017
 20
244.9761801583
 30
0.0
 10
63.1193221918
 20
245.2507651165
 30
0.0
 10
63.049661259
 20
245.4607563858
 30
0.0
  0
SPLINE
  5
454
100
AcDbEntity
  8
0
100
AcDbSpline
 62
7
  6
CONTINUOUS
 70
0
 71
3
 72
11
 73
7
 74
0
 42
0.0000001
 43
0.0000001
 44
0.0000000001
 40
0.0
 40
0.0
 40
0.0
 40
0.0
 40
0.2897733512
 40
0.5490657165
 40
0.7822241652
 40
1.0
 40
1.0
 40
1.0
 40
1.0
 10
109.9236461776
 20
235.687662344
 30
0.0
 10
110.0992039892
 20
235.7890200888
 30
0.0
 10
110.4176714763
 20
236.0082744475
 30
0.0
 10
110.7981609605
 20
236.4083107683
 30
0.0
 10
111.0389244012
 20
236.8506952347
 30
0.0
 10
111.0951885922
 20
237.1682761815
 30
0.0
 10
111.0951885902
 20
237.3206253621
 30
0.0
  0
SPLINE
  5
455
100
AcDbEntity
  8
0
100
AcDbSpline
 62
7
  6
CONTINUOUS
 70
0
 71
3
 72
13
 73
9
 74
0
 42
0.0000001
 43
0.0000001
 44
0.0000000001
 40
0.0
 40
0.0
 40
0.0
 40
0.0
 40
0.1142466307
 40
0.237544229
 40
0.5000005226
 40
0.7624565301
 40
0.8857537943
 40
1.0
 40
1.0
 40
1.0
 40
1.0
 10
104.2667919281
 20
235.6876487466
 30
0.0
 10
104.4604038768
 20
235.5758693647
 30
0.0
 10
104.8838445472
 20
235.3786778427
 30
0.0
 10
105.8222860041
 20
235.0936625004
 30
0.0
 10
107.0952234838
 20
234.9552071903
 30
0.0
 10
108.3681597395
 20
235.093668386
 30
0.0
 10
109.3065976796
 20
235.3786883447
 30
0.0
 10
109.7300357553
 20
235.5758819818
 30
0.0
 10
109.9236461776
 20
235.687662344
 30
0.0
  0
SPLINE
  5
456
100
AcDbEntity
  8
0
100
AcDbSpline
 62
7
  6
CONTINUOUS
 70
0
 71
3
 72
11
 73
7
 74
0
 42
0.0000001
 43
0.0000001
 44
0.0000000001
 40
0.0
 40
0.0
 40
0.0
 40
0.0
 40
0.2181692082
 40
0.4515211485
 40
0.7106215484
 40
1.0
 40
1.0
 40
1.0
 40
1.0
 10
89.9426628411
 20
234.258741005
 30
0.0
 10
89.9426435976
 20
234.1455645879
 30
0.0
 10
89.901357608
 20
233.9097720181
 30
0.0
 10
89.7241271472
 20
233.5808493228
 30
0.0
 10
89.4438591568
 20
233.2827623288
 30
0.0
 10
89.2089628119
 20
233.1189049015
 30
0.0
 10
89.0794368521
 20
233.0430233144
 30
0.0
  0
SPLINE
  5
457
100
AcDbEntity
  8
0
100
AcDbSpline
 62
7
  6
CONTINUOUS
 70
0
 71
3
 72
11
 73
7
 74
0
 42
0.0000001
 43
0.0000001
 44
0.0000000001
 40
0.0
 40
0.0
 40
0.0
 40
0.0
 40
0.2177683194
 40
0.4509390904
 40
0.7102096316
 40
1.0
 40
1.0
 40
1.0
 40
1.0
 10
61.9006358764
 20
241.6479160927
 30
0.0
 10
61.9006131102
 20
241.4193994543
 30
0.0
 10
61.8162910387
 20
240.9430112998
 30
0.0
 10
61.4550804904
 20
240.279475362
 30
0.0
 10
60.8843906466
 20
239.6793778721
 30
0.0
 10
60.4066712365
 20
239.3505176128
 30
0.0
 10
60.1433181842
 20
239.1984715648
 30
0.0
  0
SPLINE
  5
458
100
AcDbEntity
  8
0
100
AcDbSpline
 62
7
  6
CONTINUOUS
 70
0
 71
3
 72
18
 73
14
 74
0
 42
0.0000001
 43
0.0000001
 44
0.0000000001
 40
0.0
 40
0.0
 40
0.0
 40
0.0
 40
0.042847705
 40
0.0874648314
 40
0.1352861158
 40
0.1872374048
 40
0.2437281457
 40
0.304733431
 40
0.4383675776
 40
0.5826756861
 40
0.7297918144
 40
0.8713433873
 40
1.0
 40
1.0
 40
1.0
 40
1.0
 10
49.9006810465
 20
249.8129402631
 30
0.0
 10
49.9006637144
 20
249.6421378297
 30
0.0
 10
49.9463933833
 20
249.2920011778
 30
0.0
 10
50.1471464765
 20
248.7864101478
 30
0.0
 10
50.4730116031
 20
248.3071235859
 30
0.0
 10
50.914677457
 20
247.863656205
 30
0.0
 10
51.4619276544
 20
247.4637120626
 30
0.0
 10
52.3435105693
 20
246.984440819
 30
0.0
 10
53.6353044936
 20
246.5530109489
 30
0.0
 10
55.3208876027
 20
246.3163280954
 30
0.0
 10
57.0546550028
 20
246.3642170034
 30
0.0
 10
58.6935303895
 20
246.6921661174
 30
0.0
 10
59.6991679623
 20
247.1070670166
 30
0.0
 10
60.1433181842
 20
247.3634957361
 30
0.0
  0
SPLINE
  5
459
100
AcDbEntity
  8
0
100
AcDbSpline
 62
7
  6
CONTINUOUS
 70
0
 71
3
 72
11
 73
7
 74
0
 42
0.0000001
 43
0.0000001
 44
0.0000000001
 40
0.0
 40
0.0
 40
0.0
 40
0.0
 40
0.217772663
 40
0.4509314042
 40
0.7102278685
 40
1.0
 40
1.0
 40
1.0
 40
1.0
 10
76.8711224119
 20
256.3447902844
 30
0.0
 10
76.8711260406
 20
256.192443703
 30
0.0
 10
76.8148617777
 20
255.874865284
 30
0.0
 10
76.5741052166
 20
255.43247803
 30
0.0
 10
76.1936146155
 20
255.0324406885
 30
0.0
 10
75.8751474617
 20
254.8131843348
 30
0.0
 10
75.699590827
 20
254.7118272695
 30
0.0
  0
SPLINE
  5
45A
100
AcDbEntity
  8
0
100
AcDbSpline
 62
7
  6
CONTINUOUS
 70
0
 71
3
 72
14
 73
10
 74
0
 42
0.0000001
 43
0.0000001
 44
0.0000000001
 40
0.0
 40
0.0
 40
0.0
 40
0.0
 40
0.0933995506
 40
0.1921278607
 40
0.3001603316
 40
0.4195820655
 40
0.5507582058
 40
0.6926948431
 40
1.0
 40
1.0
 40
1.0
 40
1.0
 10
66.1211633955
 20
256.3447902845
 30
0.0
 10
66.1211564263
 20
256.1162809561
 30
0.0
 10
66.1950620309
 20
255.6435561259
 30
0.0
 10
66.5156522957
 20
254.9734979526
 30
0.0
 10
67.0287343241
 20
254.3536551134
 30
0.0
 10
67.7149281055
 20
253.7993997079
 30
0.0
 10
68.553481027
 20
253.3237627739
 30
0.0
 10
69.875882891
 20
252.7978855475
 30
0.0
 10
70.965517919
 20
252.5806427179
 30
0.0
 10
71.7135959228
 20
252.5054631023
 30
0.0
  0
SPLINE
  5
45B
100
AcDbEntity
  8
0
100
AcDbSpline
 62
7
  6
CONTINUOUS
 70
0
 71
3
 72
9
 73
5
 74
0
 42
0.0000001
 43
0.0000001
 44
0.0000000001
 40
0.0
 40
0.0
 40
0.0
 40
0.0
 40
0.2444296014
 40
1.0
 40
1.0
 40
1.0
 40
1.0
 10
46.0791691659
 20
238.1124039443
 30
0.0
 10
46.1020679474
 20
238.0433760976
 30
0.0
 10
46.2040666153
 20
237.7637629041
 30
0.0
 10
46.3385924388
 20
237.4963151242
 30
0.0
 10
46.4545054645
 20
237.3036916492
 30
0.0
  0
SPLINE
  5
45C
100
AcDbEntity
  8
0
100
AcDbSpline
 62
7
  6
CONTINUOUS
 70
0
 71
3
 72
18
 73
14
 74
0
 42
0.0000001
 43
0.0000001
 44
0.0000000001
 40
0.0
 40
0.0
 40
0.0
 40
0.0
 40
0.1286522603
 40
0.2702031513
 40
0.4173194474
 40
0.5616304656
 40
0.6952657444
 40
0.7562721385
 40
0.8127641858
 40
0.8647141936
 40
0.9125343561
 40
0.957151651
 40
1.0
 40
1.0
 40
1.0
 40
1.0
 10
61.2039827719
 20
236.1366031816
 30
0.0
 10
60.6488132681
 20
235.8160778324
 30
0.0
 10
59.3917898417
 20
235.2974663553
 30
0.0
 10
57.3432251936
 20
234.8874771846
 30
0.0
 10
55.1760040098
 20
234.8276707214
 30
0.0
 10
53.0689851681
 20
235.1234333455
 30
0.0
 10
51.4542438703
 20
235.6628139989
 30
0.0
 10
50.3522340267
 20
236.261875302
 30
0.0
 10
49.6681379741
 20
236.7617761616
 30
0.0
 10
49.1160976938
 20
237.3161521586
 30
0.0
 10
48.7088006181
 20
237.9152579038
 30
0.0
 10
48.4577768507
 20
238.547220949
 30
0.0
 10
48.400670508
 20
238.984902394
 30
0.0
 10
48.4006686593
 20
239.1984088413
 30
0.0
  0
SPLINE
  5
45D
100
AcDbEntity
  8
0
100
AcDbSpline
 62
7
  6
CONTINUOUS
 70
0
 71
3
 72
9
 73
5
 74
0
 42
0.0000001
 43
0.0000001
 44
0.0000000001
 40
0.0
 40
0.0
 40
0.0
 40
0.0
 40
0.2270454721
 40
1.0
 40
1.0
 40
1.0
 40
1.0
 10
40.6404911816
 20
235.9158887825
 30
0.0
 10
40.6026154462
 20
235.9805435516
 30
0.0
 10
40.4113706342
 20
236.2511255564
 30
0.0
 10
40.140962924
 20
236.4579943773
 30
0.0
 10
39.9200395131
 20
236.5855416825
 30
0.0
  0
SPLINE
  5
45E
100
AcDbEntity
  8
0
100
AcDbSpline
 62
7
  6
CONTINUOUS
 70
0
 71
3
 72
12
 73
8
 74
0
 42
0.0000001
 43
0.0000001
 44
0.0000000001
 40
0.0
 40
0.0
 40
0.0
 40
0.0
 40
0.1081590514
 40
0.2183578759
 40
0.4513599045
 40
0.7104171385
 40
1.0
 40
1.0
 40
1.0
 40
1.0
 10
63.4006510073
 20
239.1984088397
 30
0.0
 10
63.4006522366
 20
239.0564292282
 30
0.0
 10
63.3759185641
 20
238.7692032689
 30
0.0
 10
63.2267933031
 20
238.1933413999
 30
0.0
 10
62.8437164368
 20
237.4872620658
 30
0.0
 10
62.130335879
 20
236.7379344467
 30
0.0
 10
61.5331883982
 20
236.326669004
 30
0.0
 10
61.2039827719
 20
236.1366031816
 30
0.0
  0
SPLINE
  5
45F
100
AcDbEntity
  8
0
100
AcDbSpline
 62
7
  6
CONTINUOUS
 70
0
 71
3
 72
12
 73
8
 74
0
 42
0.0000001
 43
0.0000001
 44
0.0000000001
 40
0.0
 40
0.0
 40
0.0
 40
0.0
 40
0.2895817993
 40
0.5486371749
 40
0.7816400895
 40
0.8918396553
 40
1.0
 40
1.0
 40
1.0
 40
1.0
 10
61.2039827719
 20
238.586110433
 30
0.0
 10
61.5331872615
 20
238.7761755991
 30
0.0
 10
62.1303328619
 20
239.1874376584
 30
0.0
 10
62.8437105925
 20
239.9367636252
 30
0.0
 10
63.2267929829
 20
240.6428403287
 30
0.0
 10
63.3759180692
 20
241.2187060798
 30
0.0
 10
63.4006552345
 20
241.505934747
 30
0.0
 10
63.4006519716
 20
241.6479160867
 30
0.0
  0
SPLINE
  5
460
100
AcDbEntity
  8
0
100
AcDbSpline
 62
7
  6
CONTINUOUS
 70
0
 71
3
 72
18
 73
14
 74
0
 42
0.0000001
 43
0.0000001
 44
0.0000000001
 40
0.0
 40
0.0
 40
0.0
 40
0.0
 40
0.1286546677
 40
0.2702044719
 40
0.4173205656
 40
0.5616311766
 40
0.695267366
 40
0.7562730035
 40
0.8127636272
 40
0.86471449
 40
0.9125353694
 40
0.9571522475
 40
1.0
 40
1.0
 40
1.0
 40
1.0
 10
60.1433181842
 20
239.1984715648
 30
0.0
 10
59.6991746809
 20
238.9420467242
 30
0.0
 10
58.6935520119
 20
238.5271501765
 30
0.0
 10
57.0546932131
 20
238.1991941457
 30
0.0
 10
55.3209230758
 20
238.1513028003
 30
0.0
 10
53.6353208483
 20
238.3879801336
 30
0.0
 10
52.3435082015
 20
238.8194172263
 30
0.0
 10
51.4619176225
 20
239.2986933491
 30
0.0
 10
50.914669206
 20
239.6986389344
 30
0.0
 10
50.4730087768
 20
240.1421060804
 30
0.0
 10
50.1471447031
 20
240.6213878722
 30
0.0
 10
49.9463930359
 20
241.1269773878
 30
0.0
 10
49.9006667738
 20
241.4771134698
 30
0.0
 10
49.9006837902
 20
241.6479160911
 30
0.0
  0
SPLINE
  5
461
100
AcDbEntity
  8
0
100
AcDbSpline
 62
7
  6
CONTINUOUS
 70
0
 71
3
 72
11
 73
7
 74
0
 42
0.0000001
 43
0.0000001
 44
0.0000000001
 40
0.0
 40
0.0
 40
0.0
 40
0.0
 40
0.2177753738
 40
0.4509336309
 40
0.7102261693
 40
1.0
 40
1.0
 40
1.0
 40
1.0
 10
34.7987420165
 20
235.3608092209
 30
0.0
 10
34.798742018
 20
235.2465461054
 30
0.0
 10
34.8409411247
 20
235.0083576471
 30
0.0
 10
35.0215176116
 20
234.6765660847
 30
0.0
 10
35.3068905207
 20
234.3765366203
 30
0.0
 10
35.5457456689
 20
234.2120952234
 30
0.0
 10
35.6774164898
 20
234.1360767593
 30
0.0
  0
SPLINE
  5
462
100
AcDbEntity
  8
0
100
AcDbSpline
 62
7
  6
CONTINUOUS
 70
0
 71
3
 72
11
 73
7
 74
0
 42
0.0000001
 43
0.0000001
 44
0.0000000001
 40
0.0
 40
0.0
 40
0.0
 40
0.0
 40
0.2897906762
 40
0.5490587131
 40
0.7822302565
 40
1.0
 40
1.0
 40
1.0
 40
1.0
 10
60.1433181842
 20
247.3634957361
 30
0.0
 10
60.4066716711
 20
247.515542035
 30
0.0
 10
60.8843906986
 20
247.8443998576
 30
0.0
 10
61.455077961
 20
248.4444975808
 30
0.0
 10
61.8162945006
 20
249.1080306547
 30
0.0
 10
61.9006154314
 20
249.584421996
 30
0.0
 10
61.9006386202
 20
249.8129402633
 30
0.0
  0
SPLINE
  5
463
100
AcDbEntity
  8
0
100
AcDbSpline
 62
7
  6
CONTINUOUS
 70
0
 71
3
 72
17
 73
13
 74
0
 42
0.0000001
 43
0.0000001
 44
0.0000000001
 40
0.0
 40
0.0
 40
0.0
 40
0.0
 40
0.1286884742
 40
0.270275235
 40
0.4174294577
 40
0.5617779877
 40
0.6954502893
 40
0.8127137403
 40
0.8646786459
 40
0.9125123693
 40
0.9571410181
 40
1.0
 40
1.0
 40
1.0
 40
1.0
 10
59.6129858903
 20
247.6696763019
 30
0.0
 10
59.224361047
 20
247.4453049834
 30
0.0
 10
58.3444560904
 20
247.0822670172
 30
0.0
 10
56.9103995567
 20
246.7953257129
 30
0.0
 10
55.3935898435
 20
246.7533418602
 30
0.0
 10
53.917849286
 20
246.960709031
 30
0.0
 10
52.6027869793
 20
247.3999160689
 30
0.0
 10
51.6882375073
 20
247.9566977281
 30
0.0
 10
51.1514500609
 20
248.4953219865
 30
0.0
 10
50.8663376435
 20
248.9147370162
 30
0.0
 10
50.6906747951
 20
249.357117558
 30
0.0
 10
50.6506658145
 20
249.6634883503
 30
0.0
 10
50.6506807013
 20
249.8129402625
 30
0.0
  0
SPLINE
  5
464
100
AcDbEntity
  8
0
100
AcDbSpline
 62
7
  6
CONTINUOUS
 70
0
 71
3
 72
11
 73
7
 74
0
 42
0.0000001
 43
0.0000001
 44
0.0000000001
 40
0.0
 40
0.0
 40
0.0
 40
0.0
 40
0.2897914058
 40
0.5490589437
 40
0.7822306263
 40
1.0
 40
1.0
 40
1.0
 40
1.0
 10
59.6129858903
 20
248.4861787191
 30
0.0
 10
59.8434207899
 20
248.6192195762
 30
0.0
 10
60.2614250554
 20
248.906970472
 30
0.0
 10
60.7607766108
 20
249.4320563202
 30
0.0
 10
61.0768405541
 20
250.0126473281
 30
0.0
 10
61.1506215177
 20
250.4294895215
 30
0.0
 10
61.1506417794
 20
250.6294426818
 30
0.0
  0
SPLINE
  5
465
100
AcDbEntity
  8
0
100
AcDbSpline
 62
7
  6
CONTINUOUS
 70
0
 71
3
 72
14
 73
10
 74
0
 42
0.0000001
 43
0.0000001
 44
0.0000000001
 40
0.0
 40
0.0
 40
0.0
 40
0.0
 40
0.0997899908
 40
0.2031325883
 40
0.3129918694
 40
0.4314183908
 40
0.5594905363
 40
0.6974048883
 40
1.0
 40
1.0
 40
1.0
 40
1.0
 10
65.3711721827
 20
251.0375245933
 30
0.0
 10
65.3711909566
 20
250.8400960377
 30
0.0
 10
65.4196648921
 20
250.4367160197
 30
0.0
 10
65.6339669595
 20
249.8506849136
 30
0.0
 10
65.9832606577
 20
249.2904066782
 30
0.0
 10
66.458994697
 20
248.76579101
 30
0.0
 10
67.0516079747
 20
248.2849806468
 30
0.0
 10
68.0120364653
 20
247.6949097832
 30
0.0
 10
68.8298646492
 20
247.3707899647
 30
0.0
 10
69.4031109863
 20
247.1981918372
 30
0.0
  0
SPLINE
  5
466
100
AcDbEntity
  8
0
100
AcDbSpline
 62
7
  6
CONTINUOUS
 70
0
 71
3
 72
18
 73
14
 74
0
 42
0.0000001
 43
0.0000001
 44
0.0000000001
 40
0.0
 40
0.0
 40
0.0
 40
0.0
 40
0.0428485875
 40
0.0874664004
 40
0.1352871811
 40
0.1872377183
 40
0.2437300286
 40
0.3047362898
 40
0.4383698877
 40
0.5826783959
 40
0.7297939067
 40
0.8713458469
 40
1.0
 40
1.0
 40
1.0
 40
1.0
 10
48.400667695
 20
241.6479160971
 30
0.0
 10
48.4006726016
 20
241.4344084595
 30
0.0
 10
48.4577736723
 20
240.9967228698
 30
0.0
 10
48.7088067979
 20
240.3647550382
 30
0.0
 10
49.1161102143
 20
239.7656441329
 30
0.0
 10
49.6681583277
 20
239.2112656053
 30
0.0
 10
50.3522597431
 20
238.711366623
 30
0.0
 10
51.4542650418
 20
238.1123132532
 30
0.0
 10
53.068986389
 20
237.5729426539
 30
0.0
 10
55.1759798793
 20
237.2771806461
 30
0.0
 10
57.3431898488
 20
237.3369818693
 30
0.0
 10
59.3917665778
 20
237.7469655254
 30
0.0
 10
60.6488050945
 20
238.2655803648
 30
0.0
 10
61.2039827719
 20
238.586110433
 30
0.0
  0
SPLINE
  5
467
100
AcDbEntity
  8
0
100
AcDbSpline
 62
7
  6
CONTINUOUS
 70
0
 71
3
 72
9
 73
5
 74
0
 42
0.0000001
 43
0.0000001
 44
0.0000000001
 40
0.0
 40
0.0
 40
0.0
 40
0.0
 40
0.5247613351
 40
1.0
 40
1.0
 40
1.0
 40
1.0
 10
115.4103044001
 20
230.0515541642
 30
0.0
 10
115.7251759885
 20
230.0757487443
 30
0.0
 10
116.3224155237
 20
230.1765989267
 30
0.0
 10
116.8884623971
 20
230.400741016
 30
0.0
 10
117.1361435887
 20
230.543738965
 30
0.0
  0
SPLINE
  5
468
100
AcDbEntity
  8
0
100
AcDbSpline
 62
7
  6
CONTINUOUS
 70
0
 71
3
 72
9
 73
5
 74
0
 42
0.0000001
 43
0.0000001
 44
0.0000000001
 40
0.0
 40
0.0
 40
0.0
 40
0.0
 40
0.2444296014
 40
1.0
 40
1.0
 40
1.0
 40
1.0
 10
63.049661259
 20
247.9102636372
 30
0.0
 10
63.0725600405
 20
247.8412357905
 30
0.0
 10
63.1745587084
 20
247.561622597
 30
0.0
 10
63.3090845319
 20
247.2941748171
 30
0.0
 10
63.4249975576
 20
247.1015513422
 30
0.0
  0
SPLINE
  5
469
100
AcDbEntity
  8
0
100
AcDbSpline
 62
7
  6
CONTINUOUS
 70
0
 71
3
 72
9
 73
5
 74
0
 42
0.0000001
 43
0.0000001
 44
0.0000000001
 40
0.0
 40
0.0
 40
0.0
 40
0.0
 40
0.2744293402
 40
1.0
 40
1.0
 40
1.0
 40
1.0
 10
112.8934852378
 20
232.9931834921
 30
0.0
 10
112.8179224656
 20
232.9495575656
 30
0.0
 10
112.5506120182
 20
232.7784195282
 30
0.0
 10
112.3136802957
 20
232.5503039669
 30
0.0
 10
112.1917423323
 20
232.3544768102
 30
0.0
  0
SPLINE
  5
46A
100
AcDbEntity
  8
0
100
AcDbSpline
 62
7
  6
CONTINUOUS
 70
0
 71
3
 72
11
 73
7
 74
0
 42
0.0000001
 43
0.0000001
 44
0.0000000001
 40
0.0
 40
0.0
 40
0.0
 40
0.0
 40
0.2372251801
 40
0.5000005261
 40
0.7627755858
 40
1.0
 40
1.0
 40
1.0
 40
1.0
 10
81.6395132968
 20
212.4993371658
 30
0.0
 10
81.3383630812
 20
212.6732023905
 30
0.0
 10
80.6380071263
 20
212.9269487236
 30
0.0
 10
79.5181896181
 20
213.0484966711
 30
0.0
 10
78.3983737994
 20
212.9269436134
 30
0.0
 10
77.6980205992
 20
212.6731938027
 30
0.0
 10
77.3968726097
 20
212.4993269678
 30
0.0
  0
SPLINE
  5
46B
100
AcDbEntity
  8
0
100
AcDbSpline
 62
7
  6
CONTINUOUS
 70
0
 71
3
 72
9
 73
5
 74
0
 42
0.0000001
 43
0.0000001
 44
0.0000000001
 40
0.0
 40
0.0
 40
0.0
 40
0.0
 40
0.238069298
 40
1.0
 40
1.0
 40
1.0
 40
1.0
 10
78.174474865
 20
245.9344628745
 30
0.0
 10
78.0373219772
 20
245.8552780904
 30
0.0
 10
77.450071452
 20
245.5420636895
 30
0.0
 10
76.8245830247
 20
245.3030843667
 30
0.0
 10
76.3392482398
 20
245.1569524668
 30
0.0
  0
SPLINE
  5
46C
100
AcDbEntity
  8
0
100
AcDbSpline
 62
7
  6
CONTINUOUS
 70
0
 71
3
 72
11
 73
7
 74
0
 42
0.0000001
 43
0.0000001
 44
0.0000000001
 40
0.0
 40
0.0
 40
0.0
 40
0.0
 40
0.2897733512
 40
0.5490657165
 40
0.7822241652
 40
1.0
 40
1.0
 40
1.0
 40
1.0
 10
81.6395309606
 20
210.0498824407
 30
0.0
 10
81.7711993193
 20
210.1259007492
 30
0.0
 10
82.0100499346
 20
210.2903415183
 30
0.0
 10
82.2954170478
 20
210.5903687588
 30
0.0
 10
82.4759896283
 20
210.9221571087
 30
0.0
 10
82.5181877715
 20
211.1603428188
 30
0.0
 10
82.5181877701
 20
211.2746047042
 30
0.0
  0
SPLINE
  5
46D
100
AcDbEntity
  8
0
100
AcDbSpline
 62
7
  6
CONTINUOUS
 70
0
 71
3
 72
11
 73
7
 74
0
 42
0.0000001
 43
0.0000001
 44
0.0000000001
 40
0.0
 40
0.0
 40
0.0
 40
0.0
 40
0.2177753738
 40
0.4509336309
 40
0.7102261693
 40
1.0
 40
1.0
 40
1.0
 40
1.0
 10
76.5182158002
 20
211.2746047042
 30
0.0
 10
76.5182158017
 20
211.1603415887
 30
0.0
 10
76.5604149084
 20
210.9221531304
 30
0.0
 10
76.7409913953
 20
210.590361568
 30
0.0
 10
77.0263643043
 20
210.2903321036
 30
0.0
 10
77.2652194526
 20
210.1258907067
 30
0.0
 10
77.3968902735
 20
210.0498722426
 30
0.0
  0
SPLINE
  5
46E
100
AcDbEntity
  8
0
100
AcDbSpline
 62
7
  6
CONTINUOUS
 70
0
 71
3
 72
11
 73
7
 74
0
 42
0.0000001
 43
0.0000001
 44
0.0000000001
 40
0.0
 40
0.0
 40
0.0
 40
0.0
 40
0.2372251801
 40
0.5000005261
 40
0.7627755858
 40
1.0
 40
1.0
 40
1.0
 40
1.0
 10
77.3968902735
 20
210.0498722426
 30
0.0
 10
77.6980404891
 20
209.8760070179
 30
0.0
 10
78.398396444
 20
209.6222606848
 30
0.0
 10
79.5182139522
 20
209.5007127374
 30
0.0
 10
80.6380297709
 20
209.6222657951
 30
0.0
 10
81.3383829711
 20
209.8760156057
 30
0.0
 10
81.6395309606
 20
210.0498824407
 30
0.0
  0
SPLINE
  5
46F
100
AcDbEntity
  8
0
100
AcDbSpline
 62
7
  6
CONTINUOUS
 70
0
 71
3
 72
14
 73
10
 74
0
 42
0.0000001
 43
0.0000001
 44
0.0000000001
 40
0.0
 40
0.0
 40
0.0
 40
0.0
 40
0.3025951117
 40
0.4405094637
 40
0.5685816092
 40
0.6870081306
 40
0.7968674117
 40
0.9002100092
 40
1.0
 40
1.0
 40
1.0
 40
1.0
 10
69.4031109863
 20
245.1569357944
 30
0.0
 10
68.8298646492
 20
245.3295339219
 30
0.0
 10
68.0120364653
 20
245.6536537404
 30
0.0
 10
67.0516079747
 20
246.243724604
 30
0.0
 10
66.458994697
 20
246.7245349671
 30
0.0
 10
65.9832606577
 20
247.2491506353
 30
0.0
 10
65.6339669595
 20
247.8094288708
 30
0.0
 10
65.4196648921
 20
248.3954599769
 30
0.0
 10
65.3711909566
 20
248.7988399949
 30
0.0
 10
65.3711721827
 20
248.9962685504
 30
0.0
  0
SPLINE
  5
470
100
AcDbEntity
  8
0
100
AcDbSpline
 62
7
  6
CONTINUOUS
 70
0
 71
3
 72
11
 73
7
 74
0
 42
0.0000001
 43
0.0000001
 44
0.0000000001
 40
0.0
 40
0.0
 40
0.0
 40
0.0
 40
0.2177727701
 40
0.4509280213
 40
0.7102223029
 40
1.0
 40
1.0
 40
1.0
 40
1.0
 10
82.5181797328
 20
209.9682008368
 30
0.0
 10
82.5181797342
 20
209.8539409367
 30
0.0
 10
82.475983013
 20
209.6157595782
 30
0.0
 10
82.2954174054
 20
209.2839715978
 30
0.0
 10
82.010051843
 20
208.983942243
 30
0.0
 10
81.7712008592
 20
208.8194977709
 30
0.0
 10
81.6395309606
 20
208.7434785732
 30
0.0
  0
SPLINE
  5
471
100
AcDbEntity
  8
0
100
AcDbSpline
 62
7
  6
CONTINUOUS
 70
0
 71
3
 72
11
 73
7
 74
0
 42
0.0000001
 43
0.0000001
 44
0.0000000001
 40
0.0
 40
0.0
 40
0.0
 40
0.0
 40
0.2177753738
 40
0.4509336309
 40
0.7102261693
 40
1.0
 40
1.0
 40
1.0
 40
1.0
 10
103.0952259638
 20
237.3206253621
 30
0.0
 10
103.0952259657
 20
237.1682745415
 30
0.0
 10
103.1514914413
 20
236.8506899303
 30
0.0
 10
103.3922600905
 20
236.4083011805
 30
0.0
 10
103.7727573026
 20
236.0082618946
 30
0.0
 10
104.0912308336
 20
235.7890066988
 30
0.0
 10
104.2667919281
 20
235.6876487466
 30
0.0
  0
SPLINE
  5
472
100
AcDbEntity
  8
0
100
AcDbSpline
 62
7
  6
CONTINUOUS
 70
0
 71
3
 72
12
 73
8
 74
0
 42
0.0000001
 43
0.0000001
 44
0.0000000001
 40
0.0
 40
0.0
 40
0.0
 40
0.0
 40
0.2895887048
 40
0.5486357248
 40
0.7816392924
 40
0.8918396792
 40
1.0
 40
1.0
 40
1.0
 40
1.0
 10
78.174474865
 20
247.9757189173
 30
0.0
 10
78.5036869049
 20
248.1657884426
 30
0.0
 10
79.1008342173
 20
248.5770450015
 30
0.0
 10
79.8141973117
 20
249.3263835999
 30
0.0
 10
80.1972707669
 20
250.0324495205
 30
0.0
 10
80.3464180016
 20
250.6083113692
 30
0.0
 10
80.3711451714
 20
250.8955433808
 30
0.0
 10
80.3711316701
 20
251.0375245592
 30
0.0
  0
SPLINE
  5
473
100
AcDbEntity
  8
0
100
AcDbSpline
 62
7
  6
CONTINUOUS
 70
0
 71
3
 72
9
 73
5
 74
0
 42
0.0000001
 43
0.0000001
 44
0.0000000001
 40
0.0
 40
0.0
 40
0.0
 40
0.0
 40
0.2616987796
 40
1.0
 40
1.0
 40
1.0
 40
1.0
 10
76.3392482398
 20
247.1982085096
 30
0.0
 10
76.5059321108
 20
247.2483961976
 30
0.0
 10
77.1377356456
 20
247.4562367911
 30
0.0
 10
77.7491692795
 20
247.7301700888
 30
0.0
 10
78.174474865
 20
247.9757189173
 30
0.0
  0
SPLINE
  5
474
100
AcDbEntity
  8
0
100
AcDbSpline
 62
7
  6
CONTINUOUS
 70
0
 71
3
 72
9
 73
5
 74
0
 42
0.0000001
 43
0.0000001
 44
0.0000000001
 40
0.0
 40
0.0
 40
0.0
 40
0.0
 40
0.4757311079
 40
1.0
 40
1.0
 40
1.0
 40
1.0
 10
77.6441425712
 20
248.2818994832
 30
0.0
 10
77.1230134437
 20
247.9810272372
 30
0.0
 10
75.9389984388
 20
247.499806724
 30
0.0
 10
74.6885814897
 20
247.2645159904
 30
0.0
 10
74.0287633033
 20
247.1982029559
 30
0.0
  0
SPLINE
  5
475
100
AcDbEntity
  8
0
100
AcDbSpline
 62
7
  6
CONTINUOUS
 70
0
 71
3
 72
14
 73
10
 74
0
 42
0.0000001
 43
0.0000001
 44
0.0000000001
 40
0.0
 40
0.0
 40
0.0
 40
0.0
 40
0.3072077455
 40
0.4497476581
 40
0.5815295956
 40
0.7013156741
 40
0.80928384
 40
0.9074709327
 40
1.0
 40
1.0
 40
1.0
 40
1.0
 10
37.4406298376
 20
232.3347743559
 30
0.0
 10
37.091408092
 20
232.358996191
 30
0.0
 10
36.5805475585
 20
232.4461919535
 30
0.0
 10
35.9571889673
 20
232.67520906
 30
0.0
 10
35.5595440776
 20
232.8876510082
 30
0.0
 10
35.232973309
 20
233.1386851505
 30
0.0
 10
34.9879685447
 20
233.422032845
 30
0.0
 10
34.8342677607
 20
233.7303376289
 30
0.0
 10
34.7987644818
 20
233.9489692263
 30
0.0
 10
34.7987458724
 20
234.0544053495
 30
0.0
  0
SPLINE
  5
476
100
AcDbEntity
  8
0
100
AcDbSpline
 62
7
  6
CONTINUOUS
 70
0
 71
3
 72
11
 73
7
 74
0
 42
0.0000001
 43
0.0000001
 44
0.0000000001
 40
0.0
 40
0.0
 40
0.0
 40
0.0
 40
0.2177727701
 40
0.4509280213
 40
0.7102223029
 40
1.0
 40
1.0
 40
1.0
 40
1.0
 10
112.0148364656
 20
232.9115646126
 30
0.0
 10
112.0148364642
 20
233.0258245127
 30
0.0
 10
112.0570331854
 20
233.2640058712
 30
0.0
 10
112.2375987931
 20
233.5957938516
 30
0.0
 10
112.5229643554
 20
233.8958232064
 30
0.0
 10
112.7618153392
 20
234.0602676785
 30
0.0
 10
112.8934852378
 20
234.1362868761
 30
0.0
  0
SPLINE
  5
477
100
AcDbEntity
  8
0
100
AcDbSpline
 62
7
  6
CONTINUOUS
 70
0
 71
3
 72
11
 73
7
 74
0
 42
0.0000001
 43
0.0000001
 44
0.0000000001
 40
0.0
 40
0.0
 40
0.0
 40
0.0
 40
0.2177796629
 40
0.4509238111
 40
0.7102593659
 40
1.0
 40
1.0
 40
1.0
 40
1.0
 10
118.0147965423
 20
230.4620573652
 30
0.0
 10
118.0148167097
 20
230.3477942827
 30
0.0
 10
117.9725611314
 20
230.1096226762
 30
0.0
 10
117.7920318631
 20
229.7778040882
 30
0.0
 10
117.5066316074
 20
229.4778054461
 30
0.0
 10
117.2677961484
 20
229.3133442847
 30
0.0
 10
117.1361435887
 20
229.2373350976
 30
0.0
  0
SPLINE
  5
478
100
AcDbEntity
  8
0
100
AcDbSpline
 62
7
  6
CONTINUOUS
 70
0
 71
3
 72
14
 73
10
 74
0
 42
0.0000001
 43
0.0000001
 44
0.0000000001
 40
0.0
 40
0.0
 40
0.0
 40
0.0
 40
0.3073051729
 40
0.4492418099
 40
0.5804179504
 40
0.699839682
 40
0.8078721494
 40
0.9066004549
 40
1.0
 40
1.0
 40
1.0
 40
1.0
 10
71.7135959228
 20
247.1981973909
 30
0.0
 10
70.96551788
 20
247.2733770105
 30
0.0
 10
69.8758828115
 20
247.4906198507
 30
0.0
 10
68.5534809237
 20
248.0164971239
 30
0.0
 10
67.7149280124
 20
248.492134064
 30
0.0
 10
67.0287342513
 20
249.046389475
 30
0.0
 10
66.5156522539
 20
249.6662323035
 30
0.0
 10
66.1950620028
 20
250.3362904518
 30
0.0
 10
66.1211564359
 20
250.8090152582
 30
0.0
 10
66.1211633892
 20
251.0375245732
 30
0.0
  0
SPLINE
  5
479
100
AcDbEntity
  8
0
100
AcDbSpline
 62
7
  6
CONTINUOUS
 70
0
 71
3
 72
17
 73
13
 74
0
 42
0.0000001
 43
0.0000001
 44
0.0000000001
 40
0.0
 40
0.0
 40
0.0
 40
0.0
 40
0.0428574423
 40
0.0874864255
 40
0.135320533
 40
0.1872838238
 40
0.3045491376
 40
0.4382184498
 40
0.5825636743
 40
0.7297201978
 40
0.8713079774
 40
1.0
 40
1.0
 40
1.0
 40
1.0
 10
68.8711793844
 20
257.977795122
 30
0.0
 10
68.8711802562
 20
257.8639312045
 30
0.0
 10
68.9016069589
 20
257.6305041387
 30
0.0
 10
69.0354833546
 20
257.2934605512
 30
0.0
 10
69.2527227682
 20
256.9739255169
 30
0.0
 10
69.6616525953
 20
256.563490144
 30
0.0
 10
70.3584979594
 20
256.1393489683
 30
0.0
 10
71.3604062643
 20
255.8046635589
 30
0.0
 10
72.4847761803
 20
255.6466648465
 30
0.0
 10
73.6404349527
 20
255.6786832739
 30
0.0
 10
74.7330745018
 20
255.8972657766
 30
0.0
 10
75.4034878467
 20
256.1738779888
 30
0.0
 10
75.699590827
 20
256.3448321038
 30
0.0
  0
SPLINE
  5
47A
100
AcDbEntity
  8
0
100
AcDbSpline
 62
7
  6
CONTINUOUS
 70
0
 71
3
 72
11
 73
7
 74
0
 42
0.0000001
 43
0.0000001
 44
0.0000000001
 40
0.0
 40
0.0
 40
0.0
 40
0.0
 40
0.2898001361
 40
0.5490525095
 40
0.7822292999
 40
1.0
 40
1.0
 40
1.0
 40
1.0
 10
77.6441425712
 20
253.5891651946
 30
0.0
 10
77.9404255696
 20
253.7602232424
 30
0.0
 10
78.4778649643
 20
254.1301741064
 30
0.0
 10
79.1198632805
 20
254.8053065625
 30
0.0
 10
79.5262556366
 20
255.5517517194
 30
0.0
 10
79.6211326166
 20
256.0877055419
 30
0.0
 10
79.6211404573
 20
256.3447902906
 30
0.0
  0
SPLINE
  5
47B
100
AcDbEntity
  8
0
100
AcDbSpline
 62
7
  6
CONTINUOUS
 70
0
 71
3
 72
9
 73
5
 74
0
 42
0.0000001
 43
0.0000001
 44
0.0000000001
 40
0.0
 40
0.0
 40
0.0
 40
0.0
 40
0.5242688921
 40
1.0
 40
1.0
 40
1.0
 40
1.0
 10
74.0287633033
 20
252.5054686673
 30
0.0
 10
74.6885814897
 20
252.5717817017
 30
0.0
 10
75.9389984388
 20
252.8070724354
 30
0.0
 10
77.1230134437
 20
253.2882929485
 30
0.0
 10
77.6441425712
 20
253.5891651946
 30
0.0
  0
SPLINE
  5
47C
100
AcDbEntity
  8
0
100
AcDbSpline
 62
7
  6
CONTINUOUS
 70
0
 71
3
 72
11
 73
7
 74
0
 42
0.0000001
 43
0.0000001
 44
0.0000000001
 40
0.0
 40
0.0
 40
0.0
 40
0.0
 40
0.237228705
 40
0.5000005261
 40
0.7627720609
 40
1.0
 40
1.0
 40
1.0
 40
1.0
 10
77.3968932175
 20
208.335225921
 30
0.0
 10
77.6980477288
 20
208.1613582162
 30
0.0
 10
78.3984056882
 20
207.9076170812
 30
0.0
 10
79.5182168962
 20
207.786072628
 30
0.0
 10
80.6380264145
 20
207.9076221914
 30
0.0
 10
81.3383816193
 20
208.161366804
 30
0.0
 10
81.6395339046
 20
208.3352361191
 30
0.0
  0
SPLINE
  5
47D
100
AcDbEntity
  8
0
100
AcDbSpline
 62
7
  6
CONTINUOUS
 70
0
 71
3
 72
17
 73
13
 74
0
 42
0.0000001
 43
0.0000001
 44
0.0000000001
 40
0.0
 40
0.0
 40
0.0
 40
0.0
 40
0.1286903759
 40
0.2702749122
 40
0.4174292505
 40
0.5617762177
 40
0.6954483458
 40
0.8127147475
 40
0.8646780754
 40
0.9125121143
 40
0.957141621
 40
1.0
 40
1.0
 40
1.0
 40
1.0
 10
75.699590827
 20
254.7118272695
 30
0.0
 10
75.4034916379
 20
254.5408753434
 30
0.0
 10
74.7330910578
 20
254.2642672288
 30
0.0
 10
73.6404717314
 20
254.0456812953
 30
0.0
 10
72.4848228206
 20
254.0136556282
 30
0.0
 10
71.3604461449
 20
254.1716502039
 30
0.0
 10
70.3585203758
 20
254.5063318668
 30
0.0
 10
69.6616645343
 20
254.9304754451
 30
0.0
 10
69.2527295189
 20
255.3409107188
 30
0.0
 10
69.0354937457
 20
255.6604486783
 30
0.0
 10
68.9016043748
 20
255.9974918295
 30
0.0
 10
68.8711841531
 20
256.2309238857
 30
0.0
 10
68.871181441
 20
256.3447902907
 30
0.0
  0
SPLINE
  5
47E
100
AcDbEntity
  8
0
100
AcDbSpline
 62
7
  6
CONTINUOUS
 70
0
 71
3
 72
11
 73
7
 74
0
 42
0.0000001
 43
0.0000001
 44
0.0000000001
 40
0.0
 40
0.0
 40
0.0
 40
0.0
 40
0.2372251801
 40
0.5000005261
 40
0.7627755858
 40
1.0
 40
1.0
 40
1.0
 40
1.0
 10
39.9200395131
 20
236.5855416825
 30
0.0
 10
39.6188892976
 20
236.7594069072
 30
0.0
 10
38.9185333426
 20
237.0131532403
 30
0.0
 10
37.7987158344
 20
237.1347011878
 30
0.0
 10
36.6789000158
 20
237.0131481301
 30
0.0
 10
35.9785468155
 20
236.7593983194
 30
0.0
 10
35.677398826
 20
236.5855314845
 30
0.0
  0
SPLINE
  5
47F
100
AcDbEntity
  8
0
100
AcDbSpline
 62
7
  6
CONTINUOUS
 70
0
 71
3
 72
11
 73
7
 74
0
 42
0.0000001
 43
0.0000001
 44
0.0000000001
 40
0.0
 40
0.0
 40
0.0
 40
0.0
 40
0.2897756264
 40
0.5490692242
 40
0.7822277401
 40
1.0
 40
1.0
 40
1.0
 40
1.0
 10
75.699590827
 20
256.3448321038
 30
0.0
 10
75.8751497258
 20
256.4461904762
 30
0.0
 10
76.1936184621
 20
256.6654465696
 30
0.0
 10
76.5741067544
 20
257.0654860261
 30
0.0
 10
76.8148674185
 20
257.5078698505
 30
0.0
 10
76.8711256348
 20
257.8254486947
 30
0.0
 10
76.8711244684
 20
257.9777951216
 30
0.0
  0
SPLINE
  5
480
100
AcDbEntity
  8
0
100
AcDbSpline
 62
7
  6
CONTINUOUS
 70
0
 71
3
 72
11
 73
7
 74
0
 42
0.0000001
 43
0.0000001
 44
0.0000000001
 40
0.0
 40
0.0
 40
0.0
 40
0.0
 40
0.2177731171
 40
0.4509285976
 40
0.710222822
 40
1.0
 40
1.0
 40
1.0
 40
1.0
 10
134.5820022959
 20
112.2397359235
 30
0.0
 10
134.450060475
 20
112.3159108529
 30
0.0
 10
134.203152049
 20
112.5234287523
 30
0.0
 10
133.940400148
 20
112.9531343156
 30
0.0
 10
133.7841909877
 20
113.482684255
 30
0.0
 10
133.7535383117
 20
113.8681291181
 30
0.0
 10
133.7535383117
 20
114.0708550507
 30
0.0
  0
SPLINE
  5
481
100
AcDbEntity
  8
0
100
AcDbSpline
 62
7
  6
CONTINUOUS
 70
0
 71
3
 72
11
 73
7
 74
0
 42
0.0000001
 43
0.0000001
 44
0.0000000001
 40
0.0
 40
0.0
 40
0.0
 40
0.0
 40
0.2897757032
 40
0.5490693955
 40
0.7822254653
 40
1.0
 40
1.0
 40
1.0
 40
1.0
 10
164.5832656142
 20
167.4698055464
 30
0.0
 10
164.7588238353
 20
167.5711635276
 30
0.0
 10
165.1079404381
 20
167.7373319933
 30
0.0
 10
165.6446264015
 20
167.8668203555
 30
0.0
 10
166.1481191184
 20
167.8541258958
 30
0.0
 10
166.4512795258
 20
167.7440640283
 30
0.0
 10
166.5832169788
 20
167.6678916206
 30
0.0
  0
SPLINE
  5
482
100
AcDbEntity
  8
0
100
AcDbSpline
 62
7
  6
CONTINUOUS
 70
0
 71
3
 72
13
 73
9
 74
0
 42
0.0000001
 43
0.0000001
 44
0.0000000001
 40
0.0
 40
0.0
 40
0.0
 40
0.0
 40
0.1142494128
 40
0.2375488016
 40
0.500001607
 40
0.7624535328
 40
0.8857518943
 40
1.0
 40
1.0
 40
1.0
 40
1.0
 10
140.5417351489
 20
150.3234946462
 30
0.0
 10
140.5417351489
 20
150.5470627901
 30
0.0
 10
140.5826827817
 20
151.0123783916
 30
0.0
 10
140.8050687379
 20
151.967603931
 30
0.0
 10
141.3216240348
 20
153.1392193611
 30
0.0
 10
142.0779886636
 20
154.1723795942
 30
0.0
 10
142.7940390258
 20
154.8425818158
 30
0.0
 10
143.176536732
 20
155.1106986377
 30
0.0
 10
143.3701504978
 20
155.2224809302
 30
0.0
  0
SPLINE
  5
483
100
AcDbEntity
  8
0
100
AcDbSpline
 62
7
  6
CONTINUOUS
 70
0
 71
3
 72
15
 73
11
 74
0
 42
0.0000001
 43
0.0000001
 44
0.0000000001
 40
0.0
 40
0.0
 40
0.0
 40
0.0
 40
0.1141452366
 40
0.2373326637
 40
0.3669736904
 40
0.49999842
 40
0.6330233684
 40
0.762665039
 40
0.8858534719
 40
1.0
 40
1.0
 40
1.0
 40
1.0
 10
137.2890574978
 20
143.8731580025
 30
0.0
 10
137.5117113521
 20
144.0017064979
 30
0.0
 10
137.9515201456
 20
144.3100499273
 30
0.0
 10
138.5567221992
 20
144.8761852904
 30
0.0
 10
139.1143796429
 20
145.5455069715
 30
0.0
 10
139.6036171174
 20
146.292720337
 30
0.0
 10
140.0061008566
 20
147.0900223743
 30
0.0
 10
140.3069197175
 20
147.9076339107
 30
0.0
 10
140.4946057484
 20
148.7148288245
 30
0.0
 10
140.5417351489
 20
149.2498911783
 30
0.0
 10
140.5417351489
 20
149.5069922291
 30
0.0
  0
SPLINE
  5
484
100
AcDbEntity
  8
0
100
AcDbSpline
 62
7
  6
CONTINUOUS
 70
0
 71
3
 72
13
 73
9
 74
0
 42
0.0000001
 43
0.0000001
 44
0.0000000001
 40
0.0
 40
0.0
 40
0.0
 40
0.0
 40
0.1142494128
 40
0.2375488016
 40
0.500001607
 40
0.7624535328
 40
0.8857518943
 40
1.0
 40
1.0
 40
1.0
 40
1.0
 10
133.7535383117
 20
138.5659275646
 30
0.0
 10
133.7535383117
 20
138.7894957085
 30
0.0
 10
133.7944859444
 20
139.25481131
 30
0.0
 10
134.0168719007
 20
140.2100368494
 30
0.0
 10
134.5334271975
 20
141.3816522795
 30
0.0
 10
135.2897918264
 20
142.4148125126
 30
0.0
 10
136.0058421885
 20
143.0850147342
 30
0.0
 10
136.3883398947
 20
143.3531315561
 30
0.0
 10
136.5819536605
 20
143.4649138486
 30
0.0
  0
SPLINE
  5
485
100
AcDbEntity
  8
0
100
AcDbSpline
 62
7
  6
CONTINUOUS
 70
0
 71
3
 72
11
 73
7
 74
0
 42
0.0000001
 43
0.0000001
 44
0.0000000001
 40
0.0
 40
0.0
 40
0.0
 40
0.0
 40
0.289777178
 40
0.5490714024
 40
0.7822268829
 40
1.0
 40
1.0
 40
1.0
 40
1.0
 10
162.7450370427
 20
97.3329841154
 30
0.0
 10
162.7450370427
 20
97.1302581828
 30
0.0
 10
162.7756897188
 20
96.7448133197
 30
0.0
 10
162.9318988791
 20
96.2152633803
 30
0.0
 10
163.19465078
 20
95.7855578169
 30
0.0
 10
163.441559206
 20
95.5780399176
 30
0.0
 10
163.573501027
 20
95.5018649881
 30
0.0
  0
SPLINE
  5
486
100
AcDbEntity
  8
0
100
AcDbSpline
 62
7
  6
CONTINUOUS
 70
0
 71
3
 72
11
 73
7
 74
0
 42
0.0000001
 43
0.0000001
 44
0.0000000001
 40
0.0
 40
0.0
 40
0.0
 40
0.0
 40
0.2177745347
 40
0.4509306045
 40
0.7102242968
 40
1.0
 40
1.0
 40
1.0
 40
1.0
 10
195.5747157098
 20
150.9300206853
 30
0.0
 10
195.4427782568
 20
151.006193093
 30
0.0
 10
195.1396178495
 20
151.1162549605
 30
0.0
 10
194.6361251325
 20
151.1289494202
 30
0.0
 10
194.0994391691
 20
150.999461058
 30
0.0
 10
193.7503225663
 20
150.8332925922
 30
0.0
 10
193.5747643452
 20
150.731934611
 30
0.0
  0
SPLINE
  5
487
100
AcDbEntity
  8
0
100
AcDbSpline
 62
7
  6
CONTINUOUS
 70
0
 71
3
 72
9
 73
5
 74
0
 42
0.0000001
 43
0.0000001
 44
0.0000000001
 40
0.0
 40
0.0
 40
0.0
 40
0.0
 40
0.2379869593
 40
1.0
 40
1.0
 40
1.0
 40
1.0
 10
169.53323388
 20
132.7691212938
 30
0.0
 10
169.53323388
 20
132.6737654133
 30
0.0
 10
169.5199095107
 20
132.2731201013
 30
0.0
 10
169.4573402979
 20
131.8747829154
 30
0.0
 10
169.3884298444
 20
131.5773400083
 30
0.0
  0
SPLINE
  5
488
100
AcDbEntity
  8
0
100
AcDbSpline
 62
7
  6
CONTINUOUS
 70
0
 71
3
 72
9
 73
5
 74
0
 42
0.0000001
 43
0.0000001
 44
0.0000000001
 40
0.0
 40
0.0
 40
0.0
 40
0.0
 40
0.2439847325
 40
1.0
 40
1.0
 40
1.0
 40
1.0
 10
169.3884298444
 20
131.5773400083
 30
0.0
 10
169.3672305405
 20
131.4858360022
 30
0.0
 10
169.2719641366
 20
131.1127647194
 30
0.0
 10
169.1445689644
 20
130.7480786977
 30
0.0
 10
169.0330794877
 20
130.4792336237
 30
0.0
  0
SPLINE
  5
489
100
AcDbEntity
  8
0
100
AcDbSpline
 62
7
  6
CONTINUOUS
 70
0
 71
3
 72
9
 73
5
 74
0
 42
0.0000001
 43
0.0000001
 44
0.0000000001
 40
0.0
 40
0.0
 40
0.0
 40
0.0
 40
0.2556064337
 40
1.0
 40
1.0
 40
1.0
 40
1.0
 10
168.0135171779
 20
128.7133091877
 30
0.0
 10
167.9536520712
 20
128.6352255304
 30
0.0
 10
167.7135545578
 20
128.3343334024
 30
0.0
 10
167.4496810525
 20
128.052168087
 30
0.0
 10
167.2402683255
 20
127.8565851509
 30
0.0
  0
SPLINE
  5
48A
100
AcDbEntity
  8
0
100
AcDbSpline
 62
7
  6
CONTINUOUS
 70
0
 71
3
 72
9
 73
5
 74
0
 42
0.0000001
 43
0.0000001
 44
0.0000000001
 40
0.0
 40
0.0
 40
0.0
 40
0.0
 40
0.2616093359
 40
1.0
 40
1.0
 40
1.0
 40
1.0
 10
167.2402683255
 20
127.8565851509
 30
0.0
 10
167.1636676651
 20
127.7850432619
 30
0.0
 10
166.8641289669
 20
127.5190204661
 30
0.0
 10
166.5367579949
 20
127.2832043429
 30
0.0
 10
166.2805562288
 20
127.1352870672
 30
0.0
  0
SPLINE
  5
48B
100
AcDbEntity
  8
0
100
AcDbSpline
 62
7
  6
CONTINUOUS
 70
0
 71
3
 72
13
 73
9
 74
0
 42
0.0000001
 43
0.0000001
 44
0.0000000001
 40
0.0
 40
0.0
 40
0.0
 40
0.0
 40
0.1142481057
 40
0.2375464672
 40
0.499998393
 40
0.7624511984
 40
0.8857505872
 40
1.0
 40
1.0
 40
1.0
 40
1.0
 10
172.3616492288
 20
138.4846099949
 30
0.0
 10
172.168035463
 20
138.3728277023
 30
0.0
 10
171.7855377568
 20
138.1047108805
 30
0.0
 10
171.0694873947
 20
137.4345086589
 30
0.0
 10
170.3131227658
 20
136.4013484258
 30
0.0
 10
169.796567469
 20
135.2297329957
 30
0.0
 10
169.5741815127
 20
134.2745074562
 30
0.0
 10
169.53323388
 20
133.8091918548
 30
0.0
 10
169.53323388
 20
133.5856237109
 30
0.0
  0
SPLINE
  5
48C
100
AcDbEntity
  8
0
100
AcDbSpline
 62
7
  6
CONTINUOUS
 70
0
 71
3
 72
13
 73
9
 74
0
 42
0.0000001
 43
0.0000001
 44
0.0000000001
 40
0.0
 40
0.0
 40
0.0
 40
0.0
 40
0.1142481057
 40
0.2375464672
 40
0.499998393
 40
0.7624511984
 40
0.8857505872
 40
1.0
 40
1.0
 40
1.0
 40
1.0
 10
165.5734523916
 20
126.7270429133
 30
0.0
 10
165.3798386257
 20
126.6152606207
 30
0.0
 10
164.9973409195
 20
126.3471437989
 30
0.0
 10
164.2812905574
 20
125.6769415773
 30
0.0
 10
163.5249259285
 20
124.6437813441
 30
0.0
 10
163.0083706317
 20
123.4721659141
 30
0.0
 10
162.7859846754
 20
122.5169403746
 30
0.0
 10
162.7450370427
 20
122.0516247732
 30
0.0
 10
162.7450370427
 20
121.8280566293
 30
0.0
  0
SPLINE
  5
48D
100
AcDbEntity
  8
0
100
AcDbSpline
 62
7
  6
CONTINUOUS
 70
0
 71
3
 72
11
 73
7
 74
0
 42
0.0000001
 43
0.0000001
 44
0.0000000001
 40
0.0
 40
0.0
 40
0.0
 40
0.0
 40
0.2177839237
 40
0.4509111717
 40
0.7102971901
 40
1.0
 40
1.0
 40
1.0
 40
1.0
 10
66.704482062
 20
143.1112241575
 30
0.0
 10
66.8034387348
 20
143.0540928382
 30
0.0
 10
67.0308068995
 20
142.971581071
 30
0.0
 10
67.4084607684
 20
142.9620221756
 30
0.0
 10
67.8109508306
 20
143.0592199179
 30
0.0
 10
68.0728145228
 20
143.1837960266
 30
0.0
 10
68.2044491268
 20
143.259794847
 30
0.0
  0
SPLINE
  5
48E
100
AcDbEntity
  8
0
100
AcDbSpline
 62
7
  6
CONTINUOUS
 70
0
 71
3
 72
11
 73
7
 74
0
 42
0.0000001
 43
0.0000001
 44
0.0000000001
 40
0.0
 40
0.0
 40
0.0
 40
0.0
 40
0.2177825102
 40
0.4509091639
 40
0.7102957096
 40
1.0
 40
1.0
 40
1.0
 40
1.0
 10
33.8238798427
 20
162.0944192426
 30
0.0
 10
33.7249199187
 20
162.1515525003
 30
0.0
 10
33.5397697122
 20
162.3072064602
 30
0.0
 10
33.3426556352
 20
162.6294962957
 30
0.0
 10
33.2255815322
 20
163.0266783538
 30
0.0
 10
33.2025353958
 20
163.3157596026
 30
0.0
 10
33.2025353958
 20
163.4677647219
 30
0.0
  0
SPLINE
  5
48F
100
AcDbEntity
  8
0
100
AcDbSpline
 62
7
  6
CONTINUOUS
 70
0
 71
3
 72
11
 73
7
 74
0
 42
0.0000001
 43
0.0000001
 44
0.0000000001
 40
0.0
 40
0.0
 40
0.0
 40
0.0
 40
0.2372398078
 40
0.4999994051
 40
0.7627593222
 40
1.0
 40
1.0
 40
1.0
 40
1.0
 10
81.6395339046
 20
182.7787104629
 30
0.0
 10
81.338366654
 20
182.6048325076
 30
0.0
 10
80.6380060901
 20
182.3511034599
 30
0.0
 10
79.5182171538
 20
182.2295390194
 30
0.0
 10
78.3984263652
 20
182.3510982538
 30
0.0
 10
77.6980628262
 20
182.6048238438
 30
0.0
 10
77.3968932175
 20
182.7787002648
 30
0.0
  0
SPLINE
  5
490
100
AcDbEntity
  8
0
100
AcDbSpline
 62
7
  6
CONTINUOUS
 70
0
 71
3
 72
11
 73
7
 74
0
 42
0.0000001
 43
0.0000001
 44
0.0000000001
 40
0.0
 40
0.0
 40
0.0
 40
0.0
 40
0.2177821605
 40
0.4509085882
 40
0.7102951949
 40
1.0
 40
1.0
 40
1.0
 40
1.0
 10
118.7219062249
 20
204.9055334047
 30
0.0
 10
118.7219061928
 20
204.7912693941
 30
0.0
 10
118.6796805191
 20
204.5531072083
 30
0.0
 10
118.4991307165
 20
204.2212704688
 30
0.0
 10
118.2137068009
 20
203.9213029896
 30
0.0
 10
117.9748862071
 20
203.7568106735
 30
0.0
 10
117.8432503699
 20
203.6808111411
 30
0.0
  0
SPLINE
  5
491
100
AcDbEntity
  8
0
100
AcDbSpline
 62
7
  6
CONTINUOUS
 70
0
 71
3
 72
11
 73
7
 74
0
 42
0.0000001
 43
0.0000001
 44
0.0000000001
 40
0.0
 40
0.0
 40
0.0
 40
0.0
 40
0.2897042895
 40
0.5490907647
 40
0.7822174449
 40
1.0
 40
1.0
 40
1.0
 40
1.0
 10
66.0831376151
 20
144.4845696368
 30
0.0
 10
66.0831376151
 20
144.3325645174
 30
0.0
 10
66.1061836998
 20
144.043483301
 30
0.0
 10
66.2232578325
 20
143.6463012662
 30
0.0
 10
66.4203719027
 20
143.3240114499
 30
0.0
 10
66.6055220907
 20
143.168357381
 30
0.0
 10
66.704482062
 20
143.1112241575
 30
0.0
  0
SPLINE
  5
492
100
AcDbEntity
  8
0
100
AcDbSpline
 62
7
  6
CONTINUOUS
 70
0
 71
3
 72
9
 73
5
 74
0
 42
0.0000001
 43
0.0000001
 44
0.0000000001
 40
0.0
 40
0.0
 40
0.0
 40
0.0
 40
0.2349022509
 40
1.0
 40
1.0
 40
1.0
 40
1.0
 10
77.3968932175
 20
205.8857186696
 30
0.0
 10
77.4703265522
 20
205.8433228732
 30
0.0
 10
77.7910957807
 20
205.6770483393
 30
0.0
 10
78.1378303841
 20
205.5635966926
 30
0.0
 10
78.4069687042
 20
205.501635872
 30
0.0
  0
SPLINE
  5
493
100
AcDbEntity
  8
0
100
AcDbSpline
 62
7
  6
CONTINUOUS
 70
0
 71
3
 72
9
 73
5
 74
0
 42
0.0000001
 43
0.0000001
 44
0.0000000001
 40
0.0
 40
0.0
 40
0.0
 40
0.0
 40
0.2465708886
 40
1.0
 40
1.0
 40
1.0
 40
1.0
 10
78.4069687042
 20
205.501635872
 30
0.0
 10
78.4500324615
 20
205.4917217664
 30
0.0
 10
78.6252671536
 20
205.4540822711
 30
0.0
 10
78.8026563373
 20
205.4265751856
 30
0.0
 10
78.9368170837
 20
205.4112875725
 30
0.0
  0
SPLINE
  5
494
100
AcDbEntity
  8
0
100
AcDbSpline
 62
7
  6
CONTINUOUS
 70
0
 71
3
 72
9
 73
5
 74
0
 42
0.0000001
 43
0.0000001
 44
0.0000000001
 40
0.0
 40
0.0
 40
0.0
 40
0.0
 40
0.2532154778
 40
1.0
 40
1.0
 40
1.0
 40
1.0
 10
80.09956292
 20
205.4112842159
 30
0.0
 10
80.1446482218
 20
205.4164214132
 30
0.0
 10
80.3224130304
 20
205.4391243679
 30
0.0
 10
80.4989524588
 20
205.4715972463
 30
0.0
 10
80.6293677338
 20
205.5016190657
 30
0.0
  0
SPLINE
  5
495
100
AcDbEntity
  8
0
100
AcDbSpline
 62
7
  6
CONTINUOUS
 70
0
 71
3
 72
9
 73
5
 74
0
 42
0.0000001
 43
0.0000001
 44
0.0000000001
 40
0.0
 40
0.0
 40
0.0
 40
0.0
 40
0.2642673046
 40
1.0
 40
1.0
 40
1.0
 40
1.0
 10
80.6293677338
 20
205.5016190657
 30
0.0
 10
80.7223235864
 20
205.5230176619
 30
0.0
 10
81.0712220953
 20
205.615111059
 30
0.0
 10
81.4095500515
 20
205.7529484208
 30
0.0
 10
81.6395339046
 20
205.8857288677
 30
0.0
  0
SPLINE
  5
496
100
AcDbEntity
  8
0
100
AcDbSpline
 62
7
  6
CONTINUOUS
 70
0
 71
3
 72
9
 73
5
 74
0
 42
0.0000001
 43
0.0000001
 44
0.0000000001
 40
0.0
 40
0.0
 40
0.0
 40
0.0
 40
0.256139438
 40
1.0
 40
1.0
 40
1.0
 40
1.0
 10
118.0312842792
 20
226.9070608356
 30
0.0
 10
118.050058118
 20
226.9201397933
 30
0.0
 10
118.1226328277
 20
226.9722228985
 30
0.0
 10
118.1922513665
 20
227.0284679743
 30
0.0
 10
118.2418108342
 20
227.0727303683
 30
0.0
  0
SPLINE
  5
497
100
AcDbEntity
  8
0
100
AcDbSpline
 62
7
  6
CONTINUOUS
 70
0
 71
3
 72
9
 73
5
 74
0
 42
0.0000001
 43
0.0000001
 44
0.0000000001
 40
0.0
 40
0.0
 40
0.0
 40
0.0
 40
0.2609341878
 40
1.0
 40
1.0
 40
1.0
 40
1.0
 10
118.2418108342
 20
227.0727303683
 30
0.0
 10
118.267799997
 20
227.0959417267
 30
0.0
 10
118.3650540769
 20
227.187446864
 30
0.0
 10
118.4524217922
 20
227.289779881
 30
0.0
 10
118.5085108001
 20
227.3709885632
 30
0.0
  0
SPLINE
  5
498
100
AcDbEntity
  8
0
100
AcDbSpline
 62
7
  6
CONTINUOUS
 70
0
 71
3
 72
9
 73
5
 74
0
 42
0.0000001
 43
0.0000001
 44
0.0000000001
 40
0.0
 40
0.0
 40
0.0
 40
0.0
 40
0.2604112263
 40
1.0
 40
1.0
 40
1.0
 40
1.0
 10
118.5085108001
 20
227.3709885632
 30
0.0
 10
118.5292524771
 20
227.4010194787
 30
0.0
 10
118.6045194785
 20
227.5192448053
 30
0.0
 10
118.6606931249
 20
227.6500943242
 30
0.0
 10
118.6872682863
 20
227.750285822
 30
0.0
  0
SPLINE
  5
499
100
AcDbEntity
  8
0
100
AcDbSpline
 62
7
  6
CONTINUOUS
 70
0
 71
3
 72
9
 73
5
 74
0
 42
0.0000001
 43
0.0000001
 44
0.0000000001
 40
0.0
 40
0.0
 40
0.0
 40
0.0
 40
0.2527278947
 40
1.0
 40
1.0
 40
1.0
 40
1.0
 10
118.6872682863
 20
227.750285822
 30
0.0
 10
118.6929908788
 20
227.7718606715
 30
0.0
 10
118.7129783319
 20
227.8579071391
 30
0.0
 10
118.7219062371
 20
227.9465528443
 30
0.0
 10
118.7219062249
 20
228.0125518094
 30
0.0
  0
ENDSEC
  0
SECTION
  2
OBJECTS
  0
DICTIONARY
  5
C
100
AcDbDictionary
280
0
281
1
  3
ACAD_GROUP
350
D
  3
ACAD_MLINESTYLE
350
17
  3
ACAD_LAYOUT
350
1A
  3
ACAD_PLOTSETTINGS
350
19
  3
ACAD_PLOTSTYLENAME
350
E
  0
DICTIONARY
  5
D
102
{ACAD_REACTORS
330
C
102
}
100
AcDbDictionary
280
0
281
1
  0
ACDBDICTIONARYWDFLT
  5
E
102
{ACAD_REACTORS
330
C
102
}
100
AcDbDictionary
281
1
  3
Normal
350
F
100
AcDbDictionaryWithDefault
340
F
  0
DICTIONARY
  5
17
102
{ACAD_REACTORS
330
C
102
}
100
AcDbDictionary
280
0
281
1
  3
Standard
350
18
  0
DICTIONARY
  5
19
102
{ACAD_REACTORS
330
C
102
}
100
AcDbDictionary
281
1
  0
DICTIONARY
  5
1A
102
{ACAD_REACTORS
330
C
102
}
100
AcDbDictionary
281
1
  3
Model
350
49A
  3
Layout1
350
49B
  0
ACDBPLACEHOLDER
  5
F
102
{ACAD_REACTORS
330
E
102
}
  0
MLINESTYLE
  5
18
102
{ACAD_REACTORS
330
17
102
}
100
AcDbMlineStyle
  2
STANDARD
 70
0
  3

 62
256
 51
90.0
 52
90.0
 71
2
 49
0.5
 62
256
  6
BYLAYER
 49
-0.5
 62
256
  6
BYLAYER
  0
LAYOUT
  5
49A
102
{ACAD_REACTORS
330
1A
102
}
100
AcDbPlotSettings
  1

  2
none_device
  4

  6

 40
0.0
 41
0.0
 42
0.0
 43
0.0
 44
210.0
 45
297.0
 46
0.0
 47
0.0
 48
0.0
 49
0.0
140
0.0
141
0.0
142
1.0
143
1.0
 70
1024
 72
1
 73
0
 74
0
  7

 75
0
147
1.0
148
0.0
149
0.0
100
AcDbLayout
  1
Model
 70
0
 71
0
 10
0.0
 20
0.0
 11
210.0
 21
297.0
 12
0.0
 22
0.0
 32
0.0
 14
0.0
 24
0.0
 34
0.0
 15
0.0
 25
0.0
 35
0.0
146
0.0
 13
0.0
 23
0.0
 33
0.0
 16
1.0
 26
0.0
 36
0.0
 17
0.0
 27
1.0
 37
0.0
 76
0
330
210
345
0
346
0
  0
LAYOUT
  5
49B
102
{ACAD_REACTORS
330
1A
102
}
100
AcDbPlotSettings
  1

  2
none_device
  4

  6

 40
0.0
 41
0.0
 42
0.0
 43
0.0
 44
210.0
 45
297.0
 46
0.0
 47
0.0
 48
0.0
 49
0.0
140
0.0
141
0.0
142
1.0
143
1.0
 70
0
 72
1
 73
0
 74
0
  7

 75
0
147
1.0
148
0.0
149
0.0
100
AcDbLayout
  1
Layout1
 70
0
 71
1
 10
0.0
 20
0.0
 11
210.0
 21
297.0
 12
0.0
 22
0.0
 32
0.0
 14
0.0
 24
0.0
 34
0.0
 15
0.0
 25
0.0
 35
0.0
146
0.0
 13
0.0
 23
0.0
 33
0.0
 16
1.0
 26
0.0
 36
0.0
 17
0.0
 27
1.0
 37
0.0
 76
0
330
211
345
0
346
0
  0
ENDSEC
  0
EOF
