999
DXF file: C:\Users\sesa63760\Dev\_Creo\CAD\MCADID0000484_3D-CAD\drw0001_7.dxf
999
Pro/ENGINEER 2019471 by Parametric Technology Corporation
  0
SECTION
  2
HEADER
  9
$ACADVER
  1
AC1024
  9
$DWGCODEPAGE
  3
ANSI_1252
  9
$EXTMAX
 10
344.3850155732
 20
487.0588077392
 30
0.0
  9
$EXTMIN
 10
0.0
 20
0.0
 30
0.0
  9
$LIMMIN
 10
0.0
 20
0.0
  9
$LIMMAX
 10
344.3850155732
 20
487.0588077392
  9
$VIEWCTR
 10
172.1925077866
 20
243.5294038696
  9
$VIEWSIZE
 40
487.0588077392
  9
$CLAYER
  8
0
  9
$LTSCALE
 40
31.7490185786
  9
$CELTYPE
  6
BYLAYER
  9
$DIMSCALE
 40
1.0
  9
$DIMASZ
 40
4.099821614
  9
$DIMEXO
 40
1.0
  9
$DIMDLI
 40
21.9356855634
  9
$DIMEXE
 40
1.0
  9
$DIMCEN
 40
5.1952939492
  9
$DIMLFAC
 40
1.0
  9
$DIMBLK
  1
_FILLED
  9
$DIMALT
 70
0
  9
$DIMALTF
 40
0.0393700787
  9
$DIMTXT
 40
5.7397502596
  9
$DIMTOL
 70
1
  9
$DIMLIM
 70
0
  9
$DIMTFAC
 40
1.0
  9
$DIMTP
 40
0.01
  9
$DIMTM
 40
0.01
  9
$DIMGAP
 40
0.625
  9
$DIMDSEP
 70
46
  9
$AUNITS
 70
0
  9
$PDMODE
 70
3
  9
$PDSIZE
 40
0.3125
  9
$HANDSEED
  5
32C
  9
$TILEMODE
 70
1
  9
$MEASUREMENT
 70
1
  9
$INSUNITS
 70
4
  0
ENDSEC
  0
SECTION
  2
CLASSES
  0
CLASS
  1
ACDBDICTIONARYWDFLT
  2
AcDbDictionaryWithDefault
  3
AutoCAD 2000
 90
0
 91
1
280
0
281
0
  0
CLASS
  1
ACDBPLACEHOLDER
  2
AcDbPlaceHolder
  3
AutoCAD 2000
 90
0
 91
1
280
0
281
0
  0
CLASS
  1
LAYOUT
  2
AcDbLayout
  3
AutoCAD 2000
 90
0
 91
0
280
0
281
0
  0
ENDSEC
  0
SECTION
  2
TABLES
  0
TABLE
  2
VPORT
  5
8
100
AcDbSymbolTable
 70
2
  0
VPORT
  5
1F4
100
AcDbSymbolTableRecord
100
AcDbViewportTableRecord
  2
*ACTIVE
 70
0
 10
0.0
 20
0.0
 11
1.0
 21
1.0
 12
172.1925077866
 22
243.5294038696
 13
0.0
 23
0.0
 14
1.0
 24
1.0
 15
0.0
 25
0.0
 16
0.0
 26
0.0
 36
1.0
 17
0.0
 27
0.0
 37
0.0
 40
487.0588077392
 41
0.7070707071
 42
50.0
 43
0.0
 44
0.0
 50
0.0
 51
0.0
 71
0
 72
100
 73
1
 74
1
 75
0
 76
0
 77
0
 78
0
  0
ENDTAB
  0
TABLE
  2
LTYPE
  5
5
100
AcDbSymbolTable
 70
6
  0
LTYPE
  5
14
100
AcDbSymbolTableRecord
100
AcDbLinetypeTableRecord
  2
BYBLOCK
 70
0
  3

 72
65
 73
0
 40
0.0
  0
LTYPE
  5
15
100
AcDbSymbolTableRecord
100
AcDbLinetypeTableRecord
  2
BYLAYER
 70
0
  3

 72
65
 73
0
 40
0.0
  0
LTYPE
  5
16
100
AcDbSymbolTableRecord
100
AcDbLinetypeTableRecord
  2
CONTINUOUS
 70
64
  3
Solid line
 72
65
 73
0
 40
0.0
  0
LTYPE
  5
1F5
100
AcDbSymbolTableRecord
100
AcDbLinetypeTableRecord
  2
CENTER
 70
64
  3
____ _ ____ _ ____ _ ____ _ ____ _ ____ _ ____
 72
65
 73
4
 40
0.6
 49
0.375
 74
0
 49
-0.075
 74
0
 49
0.075
 74
0
 49
-0.075
 74
0
  0
LTYPE
  5
1F6
100
AcDbSymbolTableRecord
100
AcDbLinetypeTableRecord
  2
HIDDEN
 70
64
  3
- - - - - - - - - - - - - - - - - - - -
 72
65
 73
2
 40
0.2
 49
0.1
 74
0
 49
-0.1
 74
0
  0
LTYPE
  5
1F7
100
AcDbSymbolTableRecord
100
AcDbLinetypeTableRecord
  2
PHANTOM
 70
64
  3
_____ _ _ _____ _ _ _____ _ _ _____
 72
65
 73
6
 40
0.8
 49
0.45
 74
0
 49
-0.05
 74
0
 49
0.1
 74
0
 49
-0.05
 74
0
 49
0.1
 74
0
 49
-0.05
 74
0
  0
LTYPE
  5
1F8
100
AcDbSymbolTableRecord
100
AcDbLinetypeTableRecord
  2
DOT
 70
64
  3
. . . . . . . . . . . . . . . . . . . .
 72
65
 73
2
 40
0.2
 49
0.1
 74
0
 49
-0.1
 74
0
  0
LTYPE
  5
1F9
100
AcDbSymbolTableRecord
100
AcDbLinetypeTableRecord
  2
DASHED
 70
64
  3
- - - - - - - - - - - - - - - - - - - -
 72
65
 73
2
 40
0.2
 49
0.1
 74
0
 49
-0.1
 74
0
  0
ENDTAB
  0
TABLE
  2
LAYER
  5
2
100
AcDbSymbolTable
 70
36
  0
LAYER
  5
10
100
AcDbSymbolTableRecord
100
AcDbLayerTableRecord
  2
0
 70
0
 62
7
  6
CONTINUOUS
370
-3
390
F
  0
LAYER
  5
1FA
100
AcDbSymbolTableRecord
100
AcDbLayerTableRecord
  2
DEFAULT_1
 70
0
 62
7
  6
CENTER
370
-3
390
F
  0
LAYER
  5
1FB
100
AcDbSymbolTableRecord
100
AcDbLayerTableRecord
  2
DEFAULT_2
 70
0
 62
8
  6
HIDDEN
370
-3
390
F
  0
LAYER
  5
1FC
100
AcDbSymbolTableRecord
100
AcDbLayerTableRecord
  2
DEFAULT_3
 70
0
 62
7
  6
PHANTOM
370
-3
390
F
  0
LAYER
  5
1FD
100
AcDbSymbolTableRecord
100
AcDbLayerTableRecord
  2
00_COMPONENTS
 70
0
 62
7
  6
CONTINUOUS
370
-3
390
F
  0
LAYER
  5
1FE
100
AcDbSymbolTableRecord
100
AcDbLayerTableRecord
  2
01_1_DEFAULT_DATUMS
 70
0
 62
7
  6
CONTINUOUS
370
-3
390
F
  0
LAYER
  5
1FF
100
AcDbSymbolTableRecord
100
AcDbLayerTableRecord
  2
01_PLANES
 70
0
 62
7
  6
CONTINUOUS
370
-3
390
F
  0
LAYER
  5
200
100
AcDbSymbolTableRecord
100
AcDbLayerTableRecord
  2
02_COORD_SYS
 70
0
 62
7
  6
CONTINUOUS
370
-3
390
F
  0
LAYER
  5
201
100
AcDbSymbolTableRecord
100
AcDbLayerTableRecord
  2
03_AXES
 70
0
 62
7
  6
CONTINUOUS
370
-3
390
F
  0
LAYER
  5
202
100
AcDbSymbolTableRecord
100
AcDbLayerTableRecord
  2
04_POINTS
 70
0
 62
7
  6
CONTINUOUS
370
-3
390
F
  0
LAYER
  5
203
100
AcDbSymbolTableRecord
100
AcDbLayerTableRecord
  2
05_CURVES
 70
0
 62
7
  6
CONTINUOUS
370
-3
390
F
  0
LAYER
  5
204
100
AcDbSymbolTableRecord
100
AcDbLayerTableRecord
  2
06_SURFS
 70
0
 62
7
  6
CONTINUOUS
370
-3
390
F
  0
LAYER
  5
205
100
AcDbSymbolTableRecord
100
AcDbLayerTableRecord
  2
07_COSMETICS
 70
0
 62
7
  6
CONTINUOUS
370
-3
390
F
  0
LAYER
  5
206
100
AcDbSymbolTableRecord
100
AcDbLayerTableRecord
  2
10_NOTES
 70
0
 62
7
  6
CONTINUOUS
370
-3
390
F
  0
LAYER
  5
207
100
AcDbSymbolTableRecord
100
AcDbLayerTableRecord
  2
11_NOTES_PUB
 70
0
 62
7
  6
CONTINUOUS
370
-3
390
F
  0
LAYER
  5
208
100
AcDbSymbolTableRecord
100
AcDbLayerTableRecord
  2
13_REF_GTOL
 70
0
 62
7
  6
CONTINUOUS
370
-3
390
F
  0
LAYER
  5
209
100
AcDbSymbolTableRecord
100
AcDbLayerTableRecord
  2
16_MISC
 70
0
 62
7
  6
CONTINUOUS
370
-3
390
F
  0
LAYER
  5
20A
100
AcDbSymbolTableRecord
100
AcDbLayerTableRecord
  2
17_NO_PRINT
 70
0
 62
7
  6
CONTINUOUS
370
-3
390
F
  0
LAYER
  5
20B
100
AcDbSymbolTableRecord
100
AcDbLayerTableRecord
  2
18_DATUM_CAMS_JOINTS
 70
0
 62
7
  6
CONTINUOUS
370
-3
390
F
  0
LAYER
  5
20C
100
AcDbSymbolTableRecord
100
AcDbLayerTableRecord
  2
19_DATUM_FUNCTIONAL
 70
0
 62
7
  6
CONTINUOUS
370
-3
390
F
  0
LAYER
  5
20D
100
AcDbSymbolTableRecord
100
AcDbLayerTableRecord
  2
20_DATUM_KINEMATIC_SCHEME
 70
0
 62
7
  6
CONTINUOUS
370
-3
390
F
  0
ENDTAB
  0
TABLE
  2
STYLE
  5
3
100
AcDbSymbolTable
 70
1
  0
STYLE
  5
11
100
AcDbSymbolTableRecord
100
AcDbTextStyleTableRecord
  2
STANDARD
 70
0
 40
0.0
 41
0.8
 50
0.0
 71
0
 42
0.2
  3
txt
  4

  0
STYLE
  5
20E
100
AcDbSymbolTableRecord
100
AcDbTextStyleTableRecord
  2
TEXTSTYLE_1
 70
0
 40
0.0
 41
0.8
 50
0.0
 71
0
 42
0.2
  3
gdt
  4

  0
ENDTAB
  0
TABLE
  2
VIEW
  5
6
100
AcDbSymbolTable
 70
0
  0
ENDTAB
  0
TABLE
  2
UCS
  5
7
100
AcDbSymbolTable
 70
0
  0
ENDTAB
  0
TABLE
  2
APPID
  5
9
100
AcDbSymbolTable
 70
1
  0
APPID
  5
20F
100
AcDbSymbolTableRecord
100
AcDbRegAppTableRecord
  2
ACAD
 70
0
  0
ENDTAB
  0
TABLE
  2
BLOCK_RECORD
  5
1
100
AcDbSymbolTable
 70
0
  0
BLOCK_RECORD
  5
210
100
AcDbSymbolTableRecord
100
AcDbBlockTableRecord
  2
*Model_Space
  0
BLOCK_RECORD
  5
211
100
AcDbSymbolTableRecord
100
AcDbBlockTableRecord
  2
*Paper_Space
  0
BLOCK_RECORD
  5
212
100
AcDbSymbolTableRecord
100
AcDbBlockTableRecord
  2
_FILLED
  0
ENDTAB
  0
TABLE
  2
DIMSTYLE
  5
A
100
AcDbSymbolTable
 70
1
100
AcDbDimStyleTable
 71
0
  0
DIMSTYLE
105
213
100
AcDbSymbolTableRecord
100
AcDbDimStyleTableRecord
  2
STANDARD
 70
0
  3

  4

 40
1.0
 41
4.099821614
 42
1.0
 43
0.38
 44
1.0
 45
0.0
 46
0.0
 47
0.01
 48
0.01
140
5.7397502596
141
0.09
142
0.0
143
25.4
144
1.0
145
0.0
146
1.0
147
0.625
 71
1
 72
0
 73
0
 74
0
 75
0
 76
0
 77
1
 78
8
 79
2
170
0
171
1
172
0
173
0
174
0
175
0
176
0
177
0
178
0
270
2
179
2
271
2
272
2
273
2
274
2
275
0
280
0
281
0
282
0
283
1
284
8
285
0
286
0
287
3
288
0
340
11
278
46
341
212
342
212
343
212
344
212
  0
ENDTAB
  0
ENDSEC
  0
SECTION
  2
BLOCKS
  0
BLOCK
  5
20
100
AcDbEntity
  8
0
100
AcDbBlockBegin
  2
*Model_Space
 70
0
 10
0.0
 20
0.0
 30
0.0
  3
*Model_Space
  1

  0
ENDBLK
  5
21
100
AcDbEntity
  8
0
100
AcDbBlockEnd
  0
BLOCK
  5
1C
100
AcDbEntity
  8
0
100
AcDbBlockBegin
  2
*Paper_Space
 70
0
 10
0.0
 20
0.0
 30
0.0
  3
*Paper_Space
  1

  0
ENDBLK
  5
1D
100
AcDbEntity
  8
0
100
AcDbBlockEnd
  0
BLOCK
  5
214
100
AcDbEntity
  8
0
100
AcDbBlockBegin
  2
_FILLED
 70
64
 10
0.0
 20
0.0
  3
_FILLED
  1

  0
SOLID
  5
215
100
AcDbEntity
  8
0
  6
BYBLOCK
 62
0
100
AcDbTrace
 10
0.0
 20
0.0
 11
-1.0
 21
0.25
 12
-1.0
 22
-0.25
 13
-1.0
 23
-0.25
  0
ENDBLK
  5
216
100
AcDbEntity
  8
0
  6
BYBLOCK
 62
0
100
AcDbBlockEnd
  0
ENDSEC
  0
SECTION
  2
ENTITIES
  0
LINE
  5
217
100
AcDbEntity
  8
0
100
AcDbLine
 62
7
  6
CONTINUOUS
 10
37.1088643386
 20
211.1692173316
 11
36.5671971855
 21
217.8692173315
  0
LINE
  5
218
100
AcDbEntity
  8
0
100
AcDbLine
 62
7
  6
CONTINUOUS
 10
48.2024025821
 20
245.5713374699
 11
48.1461838793
 21
247.1742173316
  0
LINE
  5
219
100
AcDbEntity
  8
0
100
AcDbLine
 62
7
  6
CONTINUOUS
 10
45.488662998
 20
244.7528211354
 11
45.488662998
 21
243.1742173316
  0
LINE
  5
21A
100
AcDbEntity
  8
0
100
AcDbLine
 62
7
  6
CONTINUOUS
 10
50.1886629978
 20
247.1742173316
 11
50.188662997
 21
256.5651129982
  0
LINE
  5
21B
100
AcDbEntity
  8
0
100
AcDbLine
 62
7
  6
CONTINUOUS
 10
51.088662998
 20
244.7528211354
 11
51.088662998
 21
243.1742173316
  0
LINE
  5
21C
100
AcDbEntity
  8
0
100
AcDbLine
 62
7
  6
CONTINUOUS
 10
47.513035512
 20
243.1742173316
 11
47.2277917854
 21
217.8692173316
  0
LINE
  5
21D
100
AcDbEntity
  8
0
100
AcDbLine
 62
7
  6
CONTINUOUS
 10
43.7325625408
 20
217.8764592066
 11
44.7310004153
 21
256.7054498172
  0
LINE
  5
21E
100
AcDbEntity
  8
0
100
AcDbLine
 62
7
  6
CONTINUOUS
 10
43.6088643386
 20
211.1692173316
 11
44.0141971855
 21
217.8692173315
  0
LINE
  5
21F
100
AcDbEntity
  8
0
100
AcDbLine
 62
7
  6
CONTINUOUS
 10
55.788662998
 20
226.7692173316
 11
55.788662998
 21
237.8692173316
  0
LINE
  5
220
100
AcDbEntity
  8
0
100
AcDbLine
 62
7
  6
CONTINUOUS
 10
56.688662998
 20
233.2692173316
 11
56.688662998
 21
236.7692173316
  0
LINE
  5
221
100
AcDbEntity
  8
0
100
AcDbLine
 62
7
  6
CONTINUOUS
 10
56.788662998
 20
237.8692173316
 11
56.788662998
 21
237.0692173316
  0
LINE
  5
222
100
AcDbEntity
  8
0
100
AcDbLine
 62
7
  6
CONTINUOUS
 10
57.288662998
 20
247.1742173316
 11
57.288662998
 21
241.1692173316
  0
LINE
  5
223
100
AcDbEntity
  8
0
100
AcDbLine
 62
7
  6
CONTINUOUS
 10
57.788662998
 20
241.1692173316
 11
57.788662998
 21
237.8692173316
  0
LINE
  5
224
100
AcDbEntity
  8
0
100
AcDbLine
 62
7
  6
CONTINUOUS
 10
57.788662998
 20
233.2692173316
 11
57.788662998
 21
226.7692173316
  0
LINE
  5
225
100
AcDbEntity
  8
0
100
AcDbLine
 62
7
  6
CONTINUOUS
 10
57.788662998
 20
236.7692173316
 11
57.788662998
 21
237.0692173316
  0
LINE
  5
226
100
AcDbEntity
  8
0
100
AcDbLine
 62
7
  6
CONTINUOUS
 10
58.038662998
 20
242.1692173316
 11
58.038662998
 21
237.8692173316
  0
LINE
  5
227
100
AcDbEntity
  8
0
100
AcDbLine
 62
7
  6
CONTINUOUS
 10
58.038662998
 20
237.0692173316
 11
58.038662998
 21
236.7692173316
  0
LINE
  5
228
100
AcDbEntity
  8
0
100
AcDbLine
 62
7
  6
CONTINUOUS
 10
59.788662998
 20
233.2692173316
 11
59.788662998
 21
236.7692173316
  0
LINE
  5
229
100
AcDbEntity
  8
0
100
AcDbLine
 62
7
  6
CONTINUOUS
 10
61.025656267
 20
226.7692173324
 11
61.025656267
 21
222.2943320628
  0
LINE
  5
22A
100
AcDbEntity
  8
0
100
AcDbLine
 62
7
  6
CONTINUOUS
 10
61.538662998
 20
242.1692173316
 11
61.538662998
 21
237.8692173316
  0
LINE
  5
22B
100
AcDbEntity
  8
0
100
AcDbLine
 62
7
  6
CONTINUOUS
 10
61.538662998
 20
237.0692173316
 11
61.538662998
 21
236.7692173316
  0
LINE
  5
22C
100
AcDbEntity
  8
0
100
AcDbLine
 62
7
  6
CONTINUOUS
 10
61.788662998
 20
233.2692173316
 11
61.788662998
 21
226.7692173316
  0
LINE
  5
22D
100
AcDbEntity
  8
0
100
AcDbLine
 62
7
  6
CONTINUOUS
 10
61.788662998
 20
237.8692173316
 11
61.788662998
 21
241.1692173316
  0
LINE
  5
22E
100
AcDbEntity
  8
0
100
AcDbLine
 62
7
  6
CONTINUOUS
 10
52.5534446974
 20
247.1742173316
 11
52.4431434326
 21
243.1742173316
  0
LINE
  5
22F
100
AcDbEntity
  8
0
100
AcDbLine
 62
7
  6
CONTINUOUS
 10
45.488662998
 20
244.7528211354
 11
45.6257998952
 21
245.0011388923
  0
LINE
  5
230
100
AcDbEntity
  8
0
100
AcDbLine
 62
7
  6
CONTINUOUS
 10
66.881018861
 20
236.7692173316
 11
66.8815975145
 21
233.2692173316
  0
LINE
  5
231
100
AcDbEntity
  8
0
100
AcDbLine
 62
7
  6
CONTINUOUS
 10
62.288662998
 20
241.1692173316
 11
62.288662998
 21
247.1742173316
  0
LINE
  5
232
100
AcDbEntity
  8
0
100
AcDbLine
 62
7
  6
CONTINUOUS
 10
62.788662998
 20
237.8692173316
 11
62.788662998
 21
237.0692173316
  0
LINE
  5
233
100
AcDbEntity
  8
0
100
AcDbLine
 62
7
  6
CONTINUOUS
 10
62.788662998
 20
222.7427866282
 11
62.788662998
 21
226.7692173316
  0
LINE
  5
234
100
AcDbEntity
  8
0
100
AcDbLine
 62
7
  6
CONTINUOUS
 10
62.988662997
 20
223.7692173316
 11
62.988662997
 21
226.7692173316
  0
LINE
  5
235
100
AcDbEntity
  8
0
100
AcDbLine
 62
7
  6
CONTINUOUS
 10
62.99334707
 20
226.7692173316
 11
62.99334707
 21
233.2692173316
  0
LINE
  5
236
100
AcDbEntity
  8
0
100
AcDbLine
 62
7
  6
CONTINUOUS
 10
62.99334707
 20
236.7692173316
 11
62.99334707
 21
237.8692173316
  0
LINE
  5
237
100
AcDbEntity
  8
0
100
AcDbLine
 62
7
  6
CONTINUOUS
 10
63.1871920919
 20
237.8692173316
 11
63.1871920919
 21
236.7692173316
  0
LINE
  5
238
100
AcDbEntity
  8
0
100
AcDbLine
 62
7
  6
CONTINUOUS
 10
63.1871920919
 20
233.2692173316
 11
63.1871920919
 21
226.7692173316
  0
LINE
  5
239
100
AcDbEntity
  8
0
100
AcDbLine
 62
7
  6
CONTINUOUS
 10
63.388662998
 20
233.2692173316
 11
63.388662998
 21
224.8692173316
  0
LINE
  5
23A
100
AcDbEntity
  8
0
100
AcDbLine
 62
7
  6
CONTINUOUS
 10
63.938946967
 20
224.8692173316
 11
63.938946967
 21
233.2692173316
  0
LINE
  5
23B
100
AcDbEntity
  8
0
100
AcDbLine
 62
7
  6
CONTINUOUS
 10
64.232225037
 20
236.7692173316
 11
64.232225037
 21
237.8692173316
  0
LINE
  5
23C
100
AcDbEntity
  8
0
100
AcDbLine
 62
7
  6
CONTINUOUS
 10
64.288659822
 20
224.8692173316
 11
64.288659822
 21
223.7692173316
  0
LINE
  5
23D
100
AcDbEntity
  8
0
100
AcDbLine
 62
7
  6
CONTINUOUS
 10
66.288662998
 20
237.8692173316
 11
66.288662998
 21
236.7692173316
  0
LINE
  5
23E
100
AcDbEntity
  8
0
100
AcDbLine
 62
7
  6
CONTINUOUS
 10
66.288662998
 20
224.8692173316
 11
66.288662998
 21
222.7755273474
  0
LINE
  5
23F
100
AcDbEntity
  8
0
100
AcDbLine
 62
7
  6
CONTINUOUS
 10
66.425417354
 20
222.7307248111
 11
66.4254173778
 21
224.8692173316
  0
LINE
  5
240
100
AcDbEntity
  8
0
100
AcDbLine
 62
7
  6
CONTINUOUS
 10
66.4254174396
 20
236.7692173316
 11
66.425417444
 21
237.8692173316
  0
LINE
  5
241
100
AcDbEntity
  8
0
100
AcDbLine
 62
7
  6
CONTINUOUS
 10
66.8815975145
 20
233.2692173316
 11
66.882176168
 21
224.8692173316
  0
LINE
  5
242
100
AcDbEntity
  8
0
100
AcDbLine
 62
7
  6
CONTINUOUS
 10
67.388662998
 20
224.8692173316
 11
67.388662998
 21
236.7692173316
  0
LINE
  5
243
100
AcDbEntity
  8
0
100
AcDbLine
 62
7
  6
CONTINUOUS
 10
67.651908551
 20
237.8692173316
 11
67.651908551
 21
222.6343786162
  0
LINE
  5
244
100
AcDbEntity
  8
0
100
AcDbLine
 62
7
  6
CONTINUOUS
 10
67.788662998
 20
222.2943320628
 11
67.788662998
 21
237.8692173316
  0
LINE
  5
245
100
AcDbEntity
  8
0
100
AcDbLine
 62
7
  6
CONTINUOUS
 10
51.088662998
 20
244.7528211354
 11
50.9515261009
 21
245.0011388923
  0
LINE
  5
246
100
AcDbEntity
  8
0
100
AcDbLine
 62
7
  6
CONTINUOUS
 10
131.788662998
 20
243.7008172067
 11
131.788662998
 21
229.1791311466
  0
LINE
  5
247
100
AcDbEntity
  8
0
100
AcDbLine
 62
7
  6
CONTINUOUS
 10
132.2772658364
 20
244.0808782232
 11
132.2772658364
 21
244.1891811535
  0
LINE
  5
248
100
AcDbEntity
  8
0
100
AcDbLine
 62
7
  6
CONTINUOUS
 10
132.288662998
 20
236.1692173316
 11
132.288662998
 21
243.1692173316
  0
LINE
  5
249
100
AcDbEntity
  8
0
100
AcDbLine
 62
7
  6
CONTINUOUS
 10
134.288662998
 20
243.1692173316
 11
134.288662998
 21
236.1692173316
  0
LINE
  5
24A
100
AcDbEntity
  8
0
100
AcDbLine
 62
7
  6
CONTINUOUS
 10
134.2913425857
 20
244.1891805604
 11
134.2913425857
 21
244.0808776295
  0
LINE
  5
24B
100
AcDbEntity
  8
0
100
AcDbLine
 62
7
  6
CONTINUOUS
 10
134.788662998
 20
229.1660880961
 11
134.788662998
 21
243.692103009
  0
LINE
  5
24C
100
AcDbEntity
  8
0
100
AcDbLine
 62
7
  6
CONTINUOUS
 10
137.288662998
 20
235.628650144
 11
137.288662998
 21
229.1332695563
  0
LINE
  5
24D
100
AcDbEntity
  8
0
100
AcDbLine
 62
7
  6
CONTINUOUS
 10
137.848555835
 20
236.0721416731
 11
137.848555835
 21
236.1882693656
  0
LINE
  5
24E
100
AcDbEntity
  8
0
100
AcDbLine
 62
7
  6
CONTINUOUS
 10
138.288662998
 20
229.1692173316
 11
138.288662998
 21
236.1481921977
  0
LINE
  5
24F
100
AcDbEntity
  8
0
100
AcDbLine
 62
7
  6
CONTINUOUS
 10
37.108864339
 20
211.1692173316
 11
301.9684616575
 21
211.1692173316
  0
LINE
  5
250
100
AcDbEntity
  8
0
100
AcDbLine
 62
7
  6
CONTINUOUS
 10
301.9691172449
 20
211.1692173316
 11
308.468461657
 21
211.1692173316
  0
LINE
  5
251
100
AcDbEntity
  8
0
100
AcDbLine
 62
7
  6
CONTINUOUS
 10
36.567197186
 20
217.8692173316
 11
309.01012881
 21
217.8692173316
  0
LINE
  5
252
100
AcDbEntity
  8
0
100
AcDbLine
 62
7
  6
CONTINUOUS
 10
66.425417354
 20
222.7307248111
 11
67.651908551
 21
222.6343786162
  0
LINE
  5
253
100
AcDbEntity
  8
0
100
AcDbLine
 62
7
  6
CONTINUOUS
 10
147.288662998
 20
229.1692173316
 11
147.288662998
 21
236.1481916681
  0
LINE
  5
254
100
AcDbEntity
  8
0
100
AcDbLine
 62
7
  6
CONTINUOUS
 10
147.773060991
 20
236.072141088
 11
147.773060991
 21
236.1882687811
  0
LINE
  5
255
100
AcDbEntity
  8
0
100
AcDbLine
 62
7
  6
CONTINUOUS
 10
148.288662998
 20
229.2628392824
 11
148.288662998
 21
235.6729186842
  0
LINE
  5
256
100
AcDbEntity
  8
0
100
AcDbLine
 62
7
  6
CONTINUOUS
 10
150.788662998
 20
243.7293618677
 11
150.788662998
 21
229.15839586
  0
LINE
  5
257
100
AcDbEntity
  8
0
100
AcDbLine
 62
7
  6
CONTINUOUS
 10
151.248707168
 20
244.0808782274
 11
151.248707168
 21
244.1891811577
  0
LINE
  5
258
100
AcDbEntity
  8
0
100
AcDbLine
 62
7
  6
CONTINUOUS
 10
151.288662998
 20
236.1692173316
 11
151.288662998
 21
243.1692173316
  0
LINE
  5
259
100
AcDbEntity
  8
0
100
AcDbLine
 62
7
  6
CONTINUOUS
 10
153.288662998
 20
236.1692173316
 11
153.288662998
 21
243.1692173316
  0
LINE
  5
25A
100
AcDbEntity
  8
0
100
AcDbLine
 62
7
  6
CONTINUOUS
 10
153.2932500844
 20
244.1891807711
 11
153.2932500844
 21
244.0808778405
  0
LINE
  5
25B
100
AcDbEntity
  8
0
100
AcDbLine
 62
7
  6
CONTINUOUS
 10
153.788662998
 20
229.2387754276
 11
153.788662998
 21
243.6940098391
  0
LINE
  5
25C
100
AcDbEntity
  8
0
100
AcDbLine
 62
7
  6
CONTINUOUS
 10
293.788662998
 20
222.2943320628
 11
286.947109447
 21
222.2943320628
  0
LINE
  5
25D
100
AcDbEntity
  8
0
100
AcDbLine
 62
7
  6
CONTINUOUS
 10
67.788662998
 20
222.2943320628
 11
61.025656267
 21
222.2943320628
  0
LINE
  5
25E
100
AcDbEntity
  8
0
100
AcDbLine
 62
7
  6
CONTINUOUS
 10
62.988662997
 20
223.7692173316
 11
64.288659822
 21
223.7692173316
  0
LINE
  5
25F
100
AcDbEntity
  8
0
100
AcDbLine
 62
7
  6
CONTINUOUS
 10
288.988662997
 20
223.7692173316
 11
290.288662998
 21
223.7692173316
  0
LINE
  5
260
100
AcDbEntity
  8
0
100
AcDbLine
 62
7
  6
CONTINUOUS
 10
63.388662998
 20
224.8692173316
 11
67.388662998
 21
224.8692173316
  0
LINE
  5
261
100
AcDbEntity
  8
0
100
AcDbLine
 62
7
  6
CONTINUOUS
 10
289.388662998
 20
224.8692173316
 11
293.388662998
 21
224.8692173316
  0
LINE
  5
262
100
AcDbEntity
  8
0
100
AcDbLine
 62
7
  6
CONTINUOUS
 10
63.3890556603
 20
226.7692173316
 11
62.9933470701
 21
226.7692173316
  0
LINE
  5
263
100
AcDbEntity
  8
0
100
AcDbLine
 62
7
  6
CONTINUOUS
 10
55.788662998
 20
226.7692173316
 11
62.9886629971
 21
226.7692173316
  0
LINE
  5
264
100
AcDbEntity
  8
0
100
AcDbLine
 62
7
  6
CONTINUOUS
 10
281.788662998
 20
226.7692173316
 11
288.788662998
 21
226.7692173316
  0
LINE
  5
265
100
AcDbEntity
  8
0
100
AcDbLine
 62
7
  6
CONTINUOUS
 10
147.7119029421
 20
228.6863610202
 11
137.7357905596
 21
228.6863604764
  0
LINE
  5
266
100
AcDbEntity
  8
0
100
AcDbLine
 62
7
  6
CONTINUOUS
 10
153.235977505
 20
228.6863575471
 11
151.2609408309
 21
228.6863487979
  0
LINE
  5
267
100
AcDbEntity
  8
0
100
AcDbLine
 62
7
  6
CONTINUOUS
 10
134.3087003715
 20
228.6863578693
 11
132.2816861625
 21
228.6863488899
  0
LINE
  5
268
100
AcDbEntity
  8
0
100
AcDbLine
 62
7
  6
CONTINUOUS
 10
138.288662998
 20
229.1692173316
 11
147.288662998
 21
229.1692173316
  0
LINE
  5
269
100
AcDbEntity
  8
0
100
AcDbLine
 62
7
  6
CONTINUOUS
 10
147.288662998
 20
230.0478969886
 11
138.288662998
 21
230.0478969886
  0
LINE
  5
26A
100
AcDbEntity
  8
0
100
AcDbLine
 62
7
  6
CONTINUOUS
 10
138.288662998
 20
230.8692173309
 11
147.288662998
 21
230.8692173309
  0
LINE
  5
26B
100
AcDbEntity
  8
0
100
AcDbLine
 62
7
  6
CONTINUOUS
 10
138.288662998
 20
231.069217332
 11
147.288662998
 21
231.069217332
  0
LINE
  5
26C
100
AcDbEntity
  8
0
100
AcDbLine
 62
7
  6
CONTINUOUS
 10
138.288662998
 20
231.569217332
 11
147.288662998
 21
231.569217332
  0
LINE
  5
26D
100
AcDbEntity
  8
0
100
AcDbLine
 62
7
  6
CONTINUOUS
 10
138.288662998
 20
232.069217332
 11
147.288662998
 21
232.069217332
  0
LINE
  5
26E
100
AcDbEntity
  8
0
100
AcDbLine
 62
7
  6
CONTINUOUS
 10
138.288662998
 20
232.2692173312
 11
147.288662998
 21
232.2692173312
  0
LINE
  5
26F
100
AcDbEntity
  8
0
100
AcDbLine
 62
7
  6
CONTINUOUS
 10
138.288662998
 20
232.7692173312
 11
147.288662998
 21
232.7692173312
  0
LINE
  5
270
100
AcDbEntity
  8
0
100
AcDbLine
 62
7
  6
CONTINUOUS
 10
56.688662998
 20
233.2692173316
 11
63.938946967
 21
233.2692173316
  0
LINE
  5
271
100
AcDbEntity
  8
0
100
AcDbLine
 62
7
  6
CONTINUOUS
 10
138.288662998
 20
233.2692173312
 11
147.288662998
 21
233.2692173312
  0
LINE
  5
272
100
AcDbEntity
  8
0
100
AcDbLine
 62
7
  6
CONTINUOUS
 10
282.688662998
 20
233.2692173316
 11
289.849831631
 21
233.2692173316
  0
LINE
  5
273
100
AcDbEntity
  8
0
100
AcDbLine
 62
7
  6
CONTINUOUS
 10
292.88676298
 20
233.2692173316
 11
293.3886629981
 21
233.2692173316
  0
LINE
  5
274
100
AcDbEntity
  8
0
100
AcDbLine
 62
7
  6
CONTINUOUS
 10
138.288662998
 20
233.4692173323
 11
147.288662998
 21
233.4692173323
  0
LINE
  5
275
100
AcDbEntity
  8
0
100
AcDbLine
 62
7
  6
CONTINUOUS
 10
138.288662998
 20
233.9692173323
 11
147.288662998
 21
233.9692173323
  0
LINE
  5
276
100
AcDbEntity
  8
0
100
AcDbLine
 62
7
  6
CONTINUOUS
 10
138.288662998
 20
234.4692173323
 11
147.288662998
 21
234.4692173323
  0
LINE
  5
277
100
AcDbEntity
  8
0
100
AcDbLine
 62
7
  6
CONTINUOUS
 10
138.288662998
 20
234.6692173316
 11
147.288662998
 21
234.6692173316
  0
LINE
  5
278
100
AcDbEntity
  8
0
100
AcDbLine
 62
7
  6
CONTINUOUS
 10
138.288662998
 20
235.1692173316
 11
147.288662998
 21
235.1692173316
  0
LINE
  5
279
100
AcDbEntity
  8
0
100
AcDbLine
 62
7
  6
CONTINUOUS
 10
137.848555835
 20
236.0721416731
 11
138.2886629935
 21
236.0721416472
  0
LINE
  5
27A
100
AcDbEntity
  8
0
100
AcDbLine
 62
7
  6
CONTINUOUS
 10
147.2886629935
 20
236.0721411166
 11
147.773060991
 21
236.072141088
  0
LINE
  5
27B
100
AcDbEntity
  8
0
100
AcDbLine
 62
7
  6
CONTINUOUS
 10
147.288662998
 20
236.1481916681
 11
138.288662998
 21
236.1481921977
  0
LINE
  5
27C
100
AcDbEntity
  8
0
100
AcDbLine
 62
7
  6
CONTINUOUS
 10
132.288662998
 20
236.1692173316
 11
134.288662998
 21
236.1692173316
  0
LINE
  5
27D
100
AcDbEntity
  8
0
100
AcDbLine
 62
7
  6
CONTINUOUS
 10
151.288662998
 20
236.1692173316
 11
153.288662998
 21
236.1692173316
  0
LINE
  5
27E
100
AcDbEntity
  8
0
100
AcDbLine
 62
7
  6
CONTINUOUS
 10
137.8485558019
 20
236.1882693657
 11
147.7730609607
 21
236.1882687811
  0
LINE
  5
27F
100
AcDbEntity
  8
0
100
AcDbLine
 62
7
  6
CONTINUOUS
 10
153.288662998
 20
236.4692173323
 11
151.288662998
 21
236.4692173323
  0
LINE
  5
280
100
AcDbEntity
  8
0
100
AcDbLine
 62
7
  6
CONTINUOUS
 10
134.288662998
 20
236.469217332
 11
132.288662998
 21
236.469217332
  0
LINE
  5
281
100
AcDbEntity
  8
0
100
AcDbLine
 62
7
  6
CONTINUOUS
 10
292.425417354
 20
222.7307248111
 11
293.651908551
 21
222.6343786162
  0
LINE
  5
282
100
AcDbEntity
  8
0
100
AcDbLine
 62
7
  6
CONTINUOUS
 10
299.7495806263
 20
245.0012501663
 11
299.9503928546
 21
245.0018517559
  0
LINE
  5
283
100
AcDbEntity
  8
0
100
AcDbLine
 62
7
  6
CONTINUOUS
 10
56.6887000461
 20
236.7692173316
 11
67.388662998
 21
236.7692173316
  0
LINE
  5
284
100
AcDbEntity
  8
0
100
AcDbLine
 62
7
  6
CONTINUOUS
 10
282.6887000461
 20
236.7692173316
 11
293.388662998
 21
236.7692173316
  0
LINE
  5
285
100
AcDbEntity
  8
0
100
AcDbLine
 62
7
  6
CONTINUOUS
 10
132.288662998
 20
236.9996061067
 11
134.288662998
 21
236.9996061067
  0
LINE
  5
286
100
AcDbEntity
  8
0
100
AcDbLine
 62
7
  6
CONTINUOUS
 10
151.288662998
 20
236.9996061067
 11
153.288662998
 21
236.9996061067
  0
LINE
  5
287
100
AcDbEntity
  8
0
100
AcDbLine
 62
7
  6
CONTINUOUS
 10
288.788662998
 20
237.0692173316
 11
282.788662998
 21
237.0692173316
  0
LINE
  5
288
100
AcDbEntity
  8
0
100
AcDbLine
 62
7
  6
CONTINUOUS
 10
62.788662998
 20
237.0692173316
 11
56.788662998
 21
237.0692173316
  0
LINE
  5
289
100
AcDbEntity
  8
0
100
AcDbLine
 62
7
  6
CONTINUOUS
 10
153.288662998
 20
237.3038218788
 11
151.288662998
 21
237.3038218788
  0
LINE
  5
28A
100
AcDbEntity
  8
0
100
AcDbLine
 62
7
  6
CONTINUOUS
 10
134.288662998
 20
237.3038218787
 11
132.288662998
 21
237.3038218787
  0
LINE
  5
28B
100
AcDbEntity
  8
0
100
AcDbLine
 62
7
  6
CONTINUOUS
 10
55.788662998
 20
237.8692173316
 11
67.788662998
 21
237.8692173316
  0
LINE
  5
28C
100
AcDbEntity
  8
0
100
AcDbLine
 62
7
  6
CONTINUOUS
 10
281.788662998
 20
237.8692173316
 11
293.788662998
 21
237.8692173316
  0
LINE
  5
28D
100
AcDbEntity
  8
0
100
AcDbLine
 62
7
  6
CONTINUOUS
 10
57.288662998
 20
241.1692173316
 11
58.038662998
 21
241.1692173316
  0
LINE
  5
28E
100
AcDbEntity
  8
0
100
AcDbLine
 62
7
  6
CONTINUOUS
 10
61.538662998
 20
241.1692173316
 11
62.288662998
 21
241.1692173316
  0
LINE
  5
28F
100
AcDbEntity
  8
0
100
AcDbLine
 62
7
  6
CONTINUOUS
 10
283.4904646741
 20
241.1692173316
 11
284.038662998
 21
241.1692173316
  0
LINE
  5
290
100
AcDbEntity
  8
0
100
AcDbLine
 62
7
  6
CONTINUOUS
 10
287.538662998
 20
241.1692173316
 11
288.0868613219
 21
241.1692173316
  0
LINE
  5
291
100
AcDbEntity
  8
0
100
AcDbLine
 62
7
  6
CONTINUOUS
 10
287.538662998
 20
242.1692173316
 11
283.4588169677
 21
242.1692173316
  0
LINE
  5
292
100
AcDbEntity
  8
0
100
AcDbLine
 62
7
  6
CONTINUOUS
 10
62.288662998
 20
242.1692173316
 11
57.288662998
 21
242.1692173316
  0
LINE
  5
293
100
AcDbEntity
  8
0
100
AcDbLine
 62
7
  6
CONTINUOUS
 10
132.288662998
 20
242.973433103
 11
134.288662998
 21
242.973433103
  0
LINE
  5
294
100
AcDbEntity
  8
0
100
AcDbLine
 62
7
  6
CONTINUOUS
 10
151.288662998
 20
242.9734331036
 11
153.288662998
 21
242.9734331036
  0
LINE
  5
295
100
AcDbEntity
  8
0
100
AcDbLine
 62
7
  6
CONTINUOUS
 10
153.288662998
 20
243.1692173316
 11
151.288662998
 21
243.1692173316
  0
LINE
  5
296
100
AcDbEntity
  8
0
100
AcDbLine
 62
7
  6
CONTINUOUS
 10
134.288662998
 20
243.1692173316
 11
132.288662998
 21
243.1692173316
  0
LINE
  5
297
100
AcDbEntity
  8
0
100
AcDbLine
 62
7
  6
CONTINUOUS
 10
44.383062064
 20
243.1742173316
 11
52.4431434329
 21
243.1742173316
  0
LINE
  5
298
100
AcDbEntity
  8
0
100
AcDbLine
 62
7
  6
CONTINUOUS
 10
293.1341824588
 20
243.1742173316
 11
301.063304985
 21
243.1742173316
  0
LINE
  5
299
100
AcDbEntity
  8
0
100
AcDbLine
 62
7
  6
CONTINUOUS
 10
134.2913640391
 20
244.0808776294
 11
132.2772442866
 21
244.0808782231
  0
LINE
  5
29A
100
AcDbEntity
  8
0
100
AcDbLine
 62
7
  6
CONTINUOUS
 10
153.2932714556
 20
244.0808778404
 11
151.2486868779
 21
244.0808782274
  0
LINE
  5
29B
100
AcDbEntity
  8
0
100
AcDbLine
 62
7
  6
CONTINUOUS
 10
132.2772656924
 20
244.1891811534
 11
134.2913424391
 21
244.1891805603
  0
LINE
  5
29C
100
AcDbEntity
  8
0
100
AcDbLine
 62
7
  6
CONTINUOUS
 10
151.2487070809
 20
244.1891811577
 11
153.2932499907
 21
244.1891807711
  0
LINE
  5
29D
100
AcDbEntity
  8
0
100
AcDbLine
 62
7
  6
CONTINUOUS
 10
45.488662998
 20
244.7528211354
 11
51.088662998
 21
244.7528211354
  0
LINE
  5
29E
100
AcDbEntity
  8
0
100
AcDbLine
 62
7
  6
CONTINUOUS
 10
294.488662998
 20
244.7528211354
 11
300.088662998
 21
244.7528211354
  0
LINE
  5
29F
100
AcDbEntity
  8
0
100
AcDbLine
 62
7
  6
CONTINUOUS
 10
298.5653075755
 20
245.0011388923
 11
299.7495806263
 21
245.0012501663
  0
LINE
  5
2A0
100
AcDbEntity
  8
0
100
AcDbLine
 62
7
  6
CONTINUOUS
 10
294.6255735531
 20
245.0009961636
 11
298.5653075755
 21
245.0011388923
  0
LINE
  5
2A1
100
AcDbEntity
  8
0
100
AcDbLine
 62
7
  6
CONTINUOUS
 10
289.390160233
 20
245.1742173316
 11
288.2092501886
 21
245.1742173316
  0
LINE
  5
2A2
100
AcDbEntity
  8
0
100
AcDbLine
 62
7
  6
CONTINUOUS
 10
283.3680757914
 20
245.1742173316
 11
282.187165763
 21
245.1742173316
  0
LINE
  5
2A3
100
AcDbEntity
  8
0
100
AcDbLine
 62
7
  6
CONTINUOUS
 10
298.6809603879
 20
245.5713374699
 11
295.8959607559
 21
245.5713374699
  0
LINE
  5
2A4
100
AcDbEntity
  8
0
100
AcDbLine
 62
7
  6
CONTINUOUS
 10
49.6808677003
 20
245.5713374699
 11
46.8959663521
 21
245.5713374699
  0
LINE
  5
2A5
100
AcDbEntity
  8
0
100
AcDbLine
 62
7
  6
CONTINUOUS
 10
45.771399142
 20
245.0011636237
 11
50.9517509762
 21
245.000997385
  0
LINE
  5
2A6
100
AcDbEntity
  8
0
100
AcDbLine
 62
7
  6
CONTINUOUS
 10
45.6269460804
 20
245.0018597849
 11
45.771399142
 21
245.0011636237
  0
LINE
  5
2A7
100
AcDbEntity
  8
0
100
AcDbLine
 62
7
  6
CONTINUOUS
 10
50.188662998
 20
248.0326490298
 11
44.51174398
 21
248.1786237479
  0
LINE
  5
2A8
100
AcDbEntity
  8
0
100
AcDbLine
 62
7
  6
CONTINUOUS
 10
44.5381249464
 20
249.2045727341
 11
50.188662998
 21
249.0592763689
  0
LINE
  5
2A9
100
AcDbEntity
  8
0
100
AcDbLine
 62
7
  6
CONTINUOUS
 10
57.288662998
 20
246.2692173316
 11
62.288662998
 21
246.2692173316
  0
LINE
  5
2AA
100
AcDbEntity
  8
0
100
AcDbLine
 62
7
  6
CONTINUOUS
 10
282.788662998
 20
246.2692173316
 11
288.788662998
 21
246.2692173316
  0
LINE
  5
2AB
100
AcDbEntity
  8
0
100
AcDbLine
 62
7
  6
CONTINUOUS
 10
44.485916952
 20
247.1742173316
 11
57.288662998
 21
247.1742173316
  0
LINE
  5
2AC
100
AcDbEntity
  8
0
100
AcDbLine
 62
7
  6
CONTINUOUS
 10
62.0180132864
 20
247.1742173316
 11
234.9383927278
 21
247.1742173316
  0
LINE
  5
2AD
100
AcDbEntity
  8
0
100
AcDbLine
 62
7
  6
CONTINUOUS
 10
57.788662998
 20
247.2692173316
 11
61.788662998
 21
247.2692173316
  0
LINE
  5
2AE
100
AcDbEntity
  8
0
100
AcDbLine
 62
7
  6
CONTINUOUS
 10
283.788662998
 20
247.2692173316
 11
287.788662998
 21
247.2692173316
  0
LINE
  5
2AF
100
AcDbEntity
  8
0
100
AcDbLine
 62
7
  6
CONTINUOUS
 10
214.788662998
 20
248.1742173316
 11
209.288662998
 21
248.1742173316
  0
LINE
  5
2B0
100
AcDbEntity
  8
0
100
AcDbLine
 62
7
  6
CONTINUOUS
 10
202.2942164975
 20
252.1742173316
 11
209.288662998
 21
252.1742173316
  0
LINE
  5
2B1
100
AcDbEntity
  8
0
100
AcDbLine
 62
7
  6
CONTINUOUS
 10
214.788662998
 20
252.1742173316
 11
282.283645133
 21
252.1742173316
  0
LINE
  5
2B2
100
AcDbEntity
  8
0
100
AcDbLine
 62
7
  6
CONTINUOUS
 10
289.293680863
 20
252.1742173316
 11
292.6625124453
 21
252.1742173316
  0
LINE
  5
2B3
100
AcDbEntity
  8
0
100
AcDbLine
 62
7
  6
CONTINUOUS
 10
295.267328014
 20
252.1742173316
 11
300.7882365855
 21
252.1742173316
  0
LINE
  5
2B4
100
AcDbEntity
  8
0
100
AcDbLine
 62
7
  6
CONTINUOUS
 10
214.788662998
 20
254.6742173316
 11
209.288662998
 21
254.6742173316
  0
LINE
  5
2B5
100
AcDbEntity
  8
0
100
AcDbLine
 62
7
  6
CONTINUOUS
 10
50.188662998
 20
254.5325374684
 11
44.6787698676
 21
254.6742173292
  0
LINE
  5
2B6
100
AcDbEntity
  8
0
100
AcDbLine
 62
7
  6
CONTINUOUS
 10
50.188662998
 20
256.5651129982
 11
44.7310004159
 21
256.7054498172
  0
LINE
  5
2B7
100
AcDbEntity
  8
0
100
AcDbLine
 62
7
  6
CONTINUOUS
 10
214.788662998
 20
256.6742173316
 11
209.288662998
 21
256.6742173316
  0
LINE
  5
2B8
100
AcDbEntity
  8
0
100
AcDbLine
 62
7
  6
CONTINUOUS
 10
202.2942164975
 20
252.1742173316
 11
199.4074651516
 21
247.1742173316
  0
LINE
  5
2B9
100
AcDbEntity
  8
0
100
AcDbLine
 62
7
  6
CONTINUOUS
 10
209.288662998
 20
247.1742173316
 11
209.288662998
 21
256.6742173316
  0
LINE
  5
2BA
100
AcDbEntity
  8
0
100
AcDbLine
 62
7
  6
CONTINUOUS
 10
236.1423782447
 20
278.1742173316
 11
294.004055694
 21
278.1742173316
  0
LINE
  5
2BB
100
AcDbEntity
  8
0
100
AcDbLine
 62
7
  6
CONTINUOUS
 10
245.288662998
 20
278.2742173316
 11
289.288662998
 21
278.2742173316
  0
LINE
  5
2BC
100
AcDbEntity
  8
0
100
AcDbLine
 62
7
  6
CONTINUOUS
 10
214.788662998
 20
247.1742173316
 11
214.788662998
 21
256.6742173316
  0
LINE
  5
2BD
100
AcDbEntity
  8
0
100
AcDbLine
 62
7
  6
CONTINUOUS
 10
227.7576738511
 20
252.1742173316
 11
227.4956349547
 21
247.1742173316
  0
LINE
  5
2BE
100
AcDbEntity
  8
0
100
AcDbLine
 62
7
  6
CONTINUOUS
 10
234.9383927278
 20
247.1742173316
 11
234.9383927278
 21
252.1742173316
  0
LINE
  5
2BF
100
AcDbEntity
  8
0
100
AcDbLine
 62
7
  6
CONTINUOUS
 10
234.9383927277
 20
252.1742173316
 11
236.1423782447
 21
278.1742173316
  0
LINE
  5
2C0
100
AcDbEntity
  8
0
100
AcDbLine
 62
7
  6
CONTINUOUS
 10
234.9383927277
 20
252.1742173316
 11
234.6957238068
 21
247.1860228467
  0
LINE
  5
2C1
100
AcDbEntity
  8
0
100
AcDbLine
 62
7
  6
CONTINUOUS
 10
245.288662998
 20
278.2742173316
 11
245.288662998
 21
278.1742173316
  0
LINE
  5
2C2
100
AcDbEntity
  8
0
100
AcDbLine
 62
7
  6
CONTINUOUS
 10
246.2818203017
 20
278.1742173316
 11
246.2818203017
 21
278.2742173316
  0
LINE
  5
2C3
100
AcDbEntity
  8
0
100
AcDbLine
 62
7
  6
CONTINUOUS
 10
282.669790725
 20
253.9429426584
 11
282.6664250425
 21
253.9843779491
  0
LINE
  5
2C4
100
AcDbEntity
  8
0
100
AcDbLine
 62
7
  6
CONTINUOUS
 10
283.4586777839
 20
242.1692129709
 11
283.490464674
 21
241.1692173316
  0
LINE
  5
2C5
100
AcDbEntity
  8
0
100
AcDbLine
 62
7
  6
CONTINUOUS
 10
281.788662998
 20
226.7692173316
 11
281.788662998
 21
237.8692173316
  0
LINE
  5
2C6
100
AcDbEntity
  8
0
100
AcDbLine
 62
7
  6
CONTINUOUS
 10
282.6666045567
 20
245.1742173316
 11
282.6666045567
 21
253.9430384635
  0
LINE
  5
2C7
100
AcDbEntity
  8
0
100
AcDbLine
 62
7
  6
CONTINUOUS
 10
282.688662998
 20
233.2692173316
 11
282.688662998
 21
236.7692173316
  0
LINE
  5
2C8
100
AcDbEntity
  8
0
100
AcDbLine
 62
7
  6
CONTINUOUS
 10
282.788662998
 20
246.2692173316
 11
282.788662998
 21
245.1742173316
  0
LINE
  5
2C9
100
AcDbEntity
  8
0
100
AcDbLine
 62
7
  6
CONTINUOUS
 10
282.788662998
 20
237.8692173316
 11
282.788662998
 21
237.0692173316
  0
LINE
  5
2CA
100
AcDbEntity
  8
0
100
AcDbLine
 62
7
  6
CONTINUOUS
 10
283.788662998
 20
241.1692173316
 11
283.788662998
 21
237.8692173316
  0
LINE
  5
2CB
100
AcDbEntity
  8
0
100
AcDbLine
 62
7
  6
CONTINUOUS
 10
283.788662998
 20
233.2692173316
 11
283.788662998
 21
226.7692173316
  0
LINE
  5
2CC
100
AcDbEntity
  8
0
100
AcDbLine
 62
7
  6
CONTINUOUS
 10
283.788662998
 20
236.7692173316
 11
283.788662998
 21
237.0692173316
  0
LINE
  5
2CD
100
AcDbEntity
  8
0
100
AcDbLine
 62
7
  6
CONTINUOUS
 10
284.038662998
 20
242.1692173316
 11
284.038662998
 21
237.8692173316
  0
LINE
  5
2CE
100
AcDbEntity
  8
0
100
AcDbLine
 62
7
  6
CONTINUOUS
 10
284.038662998
 20
237.0692173316
 11
284.038662998
 21
236.7692173316
  0
LINE
  5
2CF
100
AcDbEntity
  8
0
100
AcDbLine
 62
7
  6
CONTINUOUS
 10
285.788662998
 20
233.2692173316
 11
285.788662998
 21
236.7692173316
  0
LINE
  5
2D0
100
AcDbEntity
  8
0
100
AcDbLine
 62
7
  6
CONTINUOUS
 10
294.488662998
 20
244.7528211354
 11
294.6257998952
 21
245.0011388923
  0
LINE
  5
2D1
100
AcDbEntity
  8
0
100
AcDbLine
 62
7
  6
CONTINUOUS
 10
300.088662998
 20
244.7528211354
 11
299.9515261009
 21
245.0011388923
  0
LINE
  5
2D2
100
AcDbEntity
  8
0
100
AcDbLine
 62
7
  6
CONTINUOUS
 10
293.134182459
 20
243.1742173316
 11
292.256140185
 21
259.9282619752
  0
LINE
  5
2D3
100
AcDbEntity
  8
0
100
AcDbLine
 62
7
  6
CONTINUOUS
 10
295.267328014
 20
252.1742173316
 11
294.0040556944
 21
278.1742173316
  0
LINE
  5
2D4
100
AcDbEntity
  8
0
100
AcDbLine
 62
7
  6
CONTINUOUS
 10
288.9075428027
 20
253.94564939
 11
288.9075729924
 21
253.9428947153
  0
LINE
  5
2D5
100
AcDbEntity
  8
0
100
AcDbLine
 62
7
  6
CONTINUOUS
 10
286.947109447
 20
226.7692226566
 11
286.947109447
 21
222.2943320628
  0
LINE
  5
2D6
100
AcDbEntity
  8
0
100
AcDbLine
 62
7
  6
CONTINUOUS
 10
287.302131851
 20
278.2742173316
 11
287.302131851
 21
278.1742173316
  0
LINE
  5
2D7
100
AcDbEntity
  8
0
100
AcDbLine
 62
7
  6
CONTINUOUS
 10
287.538662998
 20
242.1692173316
 11
287.538662998
 21
237.8692173316
  0
LINE
  5
2D8
100
AcDbEntity
  8
0
100
AcDbLine
 62
7
  6
CONTINUOUS
 10
287.538662998
 20
237.0692173316
 11
287.538662998
 21
236.7692173316
  0
LINE
  5
2D9
100
AcDbEntity
  8
0
100
AcDbLine
 62
7
  6
CONTINUOUS
 10
287.788662998
 20
233.2692173316
 11
287.788662998
 21
226.7692173316
  0
LINE
  5
2DA
100
AcDbEntity
  8
0
100
AcDbLine
 62
7
  6
CONTINUOUS
 10
287.788662998
 20
237.8692173316
 11
287.788662998
 21
241.1692173316
  0
LINE
  5
2DB
100
AcDbEntity
  8
0
100
AcDbLine
 62
7
  6
CONTINUOUS
 10
288.788662998
 20
246.2692173316
 11
288.788662998
 21
245.1742173316
  0
LINE
  5
2DC
100
AcDbEntity
  8
0
100
AcDbLine
 62
7
  6
CONTINUOUS
 10
288.788662998
 20
237.8692173316
 11
288.788662998
 21
237.0692173316
  0
LINE
  5
2DD
100
AcDbEntity
  8
0
100
AcDbLine
 62
7
  6
CONTINUOUS
 10
288.788662998
 20
222.7611126507
 11
288.788662998
 21
226.7692173316
  0
LINE
  5
2DE
100
AcDbEntity
  8
0
100
AcDbLine
 62
7
  6
CONTINUOUS
 10
288.9107214393
 20
253.9429222881
 11
288.9107214393
 21
245.1742173316
  0
LINE
  5
2DF
100
AcDbEntity
  8
0
100
AcDbLine
 62
7
  6
CONTINUOUS
 10
288.988662997
 20
223.7692173316
 11
288.988662997
 21
226.7692173316
  0
LINE
  5
2E0
100
AcDbEntity
  8
0
100
AcDbLine
 62
7
  6
CONTINUOUS
 10
289.288662998
 20
278.2742173316
 11
289.288662998
 21
278.1742173316
  0
LINE
  5
2E1
100
AcDbEntity
  8
0
100
AcDbLine
 62
7
  6
CONTINUOUS
 10
289.388662998
 20
233.2692173316
 11
289.388662998
 21
224.8692173316
  0
LINE
  5
2E2
100
AcDbEntity
  8
0
100
AcDbLine
 62
7
  6
CONTINUOUS
 10
289.849831631
 20
224.8692173316
 11
289.849831631
 21
233.2692173316
  0
LINE
  5
2E3
100
AcDbEntity
  8
0
100
AcDbLine
 62
7
  6
CONTINUOUS
 10
290.288663003
 20
237.8692173316
 11
290.2886630028
 21
236.7692173316
  0
LINE
  5
2E4
100
AcDbEntity
  8
0
100
AcDbLine
 62
7
  6
CONTINUOUS
 10
290.2886629989
 20
224.8692173316
 11
290.288662998
 21
223.7692173316
  0
LINE
  5
2E5
100
AcDbEntity
  8
0
100
AcDbLine
 62
7
  6
CONTINUOUS
 10
292.288662998
 20
237.8692173316
 11
292.288662998
 21
236.7692173316
  0
LINE
  5
2E6
100
AcDbEntity
  8
0
100
AcDbLine
 62
7
  6
CONTINUOUS
 10
292.288662998
 20
224.8692173316
 11
292.288662998
 21
222.7755301144
  0
LINE
  5
2E7
100
AcDbEntity
  8
0
100
AcDbLine
 62
7
  6
CONTINUOUS
 10
292.425417354
 20
222.7307248111
 11
292.4254173778
 21
224.8692173316
  0
LINE
  5
2E8
100
AcDbEntity
  8
0
100
AcDbLine
 62
7
  6
CONTINUOUS
 10
292.4254174396
 20
236.7692173316
 11
292.425417444
 21
237.8692173316
  0
LINE
  5
2E9
100
AcDbEntity
  8
0
100
AcDbLine
 62
7
  6
CONTINUOUS
 10
292.88676298
 20
233.2692173316
 11
292.88676298
 21
224.8692173316
  0
LINE
  5
2EA
100
AcDbEntity
  8
0
100
AcDbLine
 62
7
  6
CONTINUOUS
 10
292.927010479
 20
236.7692173316
 11
292.927010479
 21
233.2692173316
  0
LINE
  5
2EB
100
AcDbEntity
  8
0
100
AcDbLine
 62
7
  6
CONTINUOUS
 10
293.388662998
 20
224.8692173316
 11
293.388662998
 21
236.7692173316
  0
LINE
  5
2EC
100
AcDbEntity
  8
0
100
AcDbLine
 62
7
  6
CONTINUOUS
 10
293.651908551
 20
237.8692173316
 11
293.651908551
 21
222.6343786162
  0
LINE
  5
2ED
100
AcDbEntity
  8
0
100
AcDbLine
 62
7
  6
CONTINUOUS
 10
293.788662998
 20
222.2943320628
 11
293.788662998
 21
237.8692173316
  0
LINE
  5
2EE
100
AcDbEntity
  8
0
100
AcDbLine
 62
7
  6
CONTINUOUS
 10
294.488662998
 20
244.7528211354
 11
294.488662998
 21
243.1742173316
  0
LINE
  5
2EF
100
AcDbEntity
  8
0
100
AcDbLine
 62
7
  6
CONTINUOUS
 10
288.1185029366
 20
242.1692173316
 11
288.086861322
 21
241.1692173316
  0
LINE
  5
2F0
100
AcDbEntity
  8
0
100
AcDbLine
 62
7
  6
CONTINUOUS
 10
288.9075428027
 20
253.94564939
 11
288.9108999784
 21
253.9843725858
  0
LINE
  5
2F1
100
AcDbEntity
  8
0
100
AcDbLine
 62
7
  6
CONTINUOUS
 10
301.9684616575
 20
211.1692173316
 11
301.5631288106
 21
217.8692173315
  0
LINE
  5
2F2
100
AcDbEntity
  8
0
100
AcDbLine
 62
7
  6
CONTINUOUS
 10
296.7828384292
 20
252.1742173316
 11
297.1288806997
 21
245.5713374699
  0
LINE
  5
2F3
100
AcDbEntity
  8
0
100
AcDbLine
 62
7
  6
CONTINUOUS
 10
300.7882365859
 20
252.1742173316
 11
301.8364503224
 21
217.8775708995
  0
LINE
  5
2F4
100
AcDbEntity
  8
0
100
AcDbLine
 62
7
  6
CONTINUOUS
 10
298.341290174
 20
217.8692173316
 11
297.933331538
 21
243.1742173316
  0
LINE
  5
2F5
100
AcDbEntity
  8
0
100
AcDbLine
 62
7
  6
CONTINUOUS
 10
300.088662998
 20
244.7528211354
 11
300.088662998
 21
243.1742173316
  0
LINE
  5
2F6
100
AcDbEntity
  8
0
100
AcDbLine
 62
7
  6
CONTINUOUS
 10
308.4684616575
 20
211.1692173316
 11
309.0101288106
 21
217.8692173315
  0
ARC
  5
2F7
100
AcDbEntity
  8
0
100
AcDbCircle
 62
7
  6
CONTINUOUS
 10
2733.5382462705
 20
282.366642198
 40
2444.4310468794
100
AcDbArc
 50
180.7077076315
 51
180.8717984524
  0
ARC
  5
2F8
100
AcDbEntity
  8
0
100
AcDbCircle
 62
7
  6
CONTINUOUS
 10
-2161.9608324353
 20
282.3666420348
 40
2444.430959048
100
AcDbArc
 50
359.1282015201
 51
359.2922923469
  0
ARC
  5
2F9
100
AcDbEntity
  8
0
100
AcDbCircle
 62
7
  6
CONTINUOUS
 10
-975.7740680139
 20
281.7821620863
 40
1264.513333387
100
AcDbArc
 50
358.2048222602
 51
358.341042538
  0
ARC
  5
2FA
100
AcDbEntity
  8
0
100
AcDbCircle
 62
7
  6
CONTINUOUS
 10
1545.1725226114
 20
281.7142198762
 40
1262.3334083358
100
AcDbArc
 50
181.6587380109
 51
181.7951935195
  0
ARC
  5
2FB
100
AcDbEntity
  8
0
100
AcDbCircle
 62
7
  6
CONTINUOUS
 10
277.4066494169
 20
253.9462788424
 40
5.25988115
100
AcDbArc
 50
359.9634375623
 51
0.4175081091
  0
ARC
  5
2FC
100
AcDbEntity
  8
0
100
AcDbCircle
 62
7
  6
CONTINUOUS
 10
48.288662998
 20
240.7692173316
 40
5.0
100
AcDbArc
 50
57.8205628068
 51
73.8267902669
  0
ARC
  5
2FD
100
AcDbEntity
  8
0
100
AcDbCircle
 62
7
  6
CONTINUOUS
 10
48.288662998
 20
240.7692173316
 40
5.0
100
AcDbArc
 50
106.1732063954
 51
122.1794400566
  0
ARC
  5
2FE
100
AcDbEntity
  8
0
100
AcDbCircle
 62
7
  6
CONTINUOUS
 10
297.288662998
 20
240.7692173316
 40
5.0
100
AcDbArc
 50
106.1732097331
 51
122.1794371932
  0
ARC
  5
2FF
100
AcDbEntity
  8
0
100
AcDbCircle
 62
7
  6
CONTINUOUS
 10
297.288662998
 20
240.7692173316
 40
5.0
100
AcDbArc
 50
57.8205599434
 51
73.8267936046
  0
ARC
  5
300
100
AcDbEntity
  8
0
100
AcDbCircle
 62
7
  6
CONTINUOUS
 10
283.788662998
 20
246.2692173316
 40
1.0
100
AcDbArc
 50
90.0
 51
180.0
  0
ARC
  5
301
100
AcDbEntity
  8
0
100
AcDbCircle
 62
7
  6
CONTINUOUS
 10
287.788662998
 20
246.2692173316
 40
1.0
100
AcDbArc
 50
0.0
 51
90.0
  0
ARC
  5
302
100
AcDbEntity
  8
0
100
AcDbCircle
 62
7
  6
CONTINUOUS
 10
61.788662998
 20
246.2692173316
 40
1.0
100
AcDbArc
 50
58.1801948466
 51
90.0
  0
ARC
  5
303
100
AcDbEntity
  8
0
100
AcDbCircle
 62
7
  6
CONTINUOUS
 10
57.788662998
 20
246.2692173316
 40
1.0
100
AcDbArc
 50
90.0
 51
121.8198051534
  0
SPLINE
  5
304
100
AcDbEntity
  8
0
100
AcDbSpline
 62
7
  6
CONTINUOUS
 70
0
 71
3
 72
9
 73
5
 74
0
 42
0.0000001
 43
0.0000001
 44
0.0000000001
 40
0.0
 40
0.0
 40
0.0
 40
0.0
 40
0.5000847344
 40
1.0
 40
1.0
 40
1.0
 40
1.0
 10
137.7357905596
 20
228.6863604764
 30
0.0
 10
137.6217216299
 20
228.6863604702
 30
0.0
 10
137.3840547912
 20
228.7815978447
 30
0.0
 10
137.288662998
 20
229.0192392822
 30
0.0
 10
137.288662998
 20
229.1332695563
 30
0.0
  0
SPLINE
  5
305
100
AcDbEntity
  8
0
100
AcDbSpline
 62
7
  6
CONTINUOUS
 70
0
 71
3
 72
9
 73
5
 74
0
 42
0.0000001
 43
0.0000001
 44
0.0000000001
 40
0.0
 40
0.0
 40
0.0
 40
0.0
 40
0.4999118952
 40
1.0
 40
1.0
 40
1.0
 40
1.0
 10
148.288662998
 20
229.2628392826
 30
0.0
 10
148.288662998
 20
229.1157500156
 30
0.0
 10
148.1656161116
 20
228.8092110571
 30
0.0
 10
147.8590440553
 20
228.6863610282
 30
0.0
 10
147.7119029421
 20
228.6863610202
 30
0.0
  0
SPLINE
  5
306
100
AcDbEntity
  8
0
100
AcDbSpline
 62
7
  6
CONTINUOUS
 70
0
 71
3
 72
9
 73
5
 74
0
 42
0.0000001
 43
0.0000001
 44
0.0000000001
 40
0.0
 40
0.0
 40
0.0
 40
0.0
 40
0.5000847742
 40
1.0
 40
1.0
 40
1.0
 40
1.0
 10
132.2816861625
 20
228.6863488899
 30
0.0
 10
132.155908572
 20
228.6863483327
 30
0.0
 10
131.8938463555
 20
228.7913622701
 30
0.0
 10
131.788662998
 20
229.0533961996
 30
0.0
 10
131.788662998
 20
229.1791311465
 30
0.0
  0
SPLINE
  5
307
100
AcDbEntity
  8
0
100
AcDbSpline
 62
7
  6
CONTINUOUS
 70
0
 71
3
 72
9
 73
5
 74
0
 42
0.0000001
 43
0.0000001
 44
0.0000000001
 40
0.0
 40
0.0
 40
0.0
 40
0.0
 40
0.4999118954
 40
1.0
 40
1.0
 40
1.0
 40
1.0
 10
134.788662998
 20
229.1660880962
 30
0.0
 10
134.788662998
 20
229.0436845548
 30
0.0
 10
134.6862671744
 20
228.7885915336
 30
0.0
 10
134.4311470578
 20
228.6863584117
 30
0.0
 10
134.3087003715
 20
228.6863578693
 30
0.0
  0
SPLINE
  5
308
100
AcDbEntity
  8
0
100
AcDbSpline
 62
7
  6
CONTINUOUS
 70
0
 71
3
 72
9
 73
5
 74
0
 42
0.0000001
 43
0.0000001
 44
0.0000000001
 40
0.0
 40
0.0
 40
0.0
 40
0.0
 40
0.5000847742
 40
1.0
 40
1.0
 40
1.0
 40
1.0
 10
151.2609408309
 20
228.6863487979
 30
0.0
 10
151.1404556851
 20
228.6863482642
 30
0.0
 10
150.8894204709
 20
228.7869434458
 30
0.0
 10
150.788662998
 20
229.0379515632
 30
0.0
 10
150.788662998
 20
229.1583958599
 30
0.0
  0
SPLINE
  5
309
100
AcDbEntity
  8
0
100
AcDbSpline
 62
7
  6
CONTINUOUS
 70
0
 71
3
 72
9
 73
5
 74
0
 42
0.0000001
 43
0.0000001
 44
0.0000000001
 40
0.0
 40
0.0
 40
0.0
 40
0.0
 40
0.4999118953
 40
1.0
 40
1.0
 40
1.0
 40
1.0
 10
153.788662998
 20
229.2387754274
 30
0.0
 10
153.788662998
 20
229.0978255745
 30
0.0
 10
153.6707523875
 20
228.8040814279
 30
0.0
 10
153.3769770401
 20
228.6863581717
 30
0.0
 10
153.235977505
 20
228.6863575471
 30
0.0
  0
SPLINE
  5
30A
100
AcDbEntity
  8
0
100
AcDbSpline
 62
7
  6
CONTINUOUS
 70
0
 71
3
 72
8
 73
4
 74
0
 42
0.0000001
 43
0.0000001
 44
0.0000000001
 40
0.0
 40
0.0
 40
0.0
 40
0.0
 40
1.0
 40
1.0
 40
1.0
 40
1.0
 10
282.488662997
 20
256.0084429073
 30
0.0
 10
282.488662997
 20
255.3312345633
 30
0.0
 10
282.5460026769
 20
254.6510283319
 30
0.0
 10
282.666390921
 20
253.9846066846
 30
0.0
  0
SPLINE
  5
30B
100
AcDbEntity
  8
0
100
AcDbSpline
 62
7
  6
CONTINUOUS
 70
0
 71
3
 72
8
 73
4
 74
0
 42
0.0000001
 43
0.0000001
 44
0.0000000001
 40
0.0
 40
0.0
 40
0.0
 40
0.0
 40
1.0
 40
1.0
 40
1.0
 40
1.0
 10
289.088662999
 20
256.0084429073
 30
0.0
 10
289.088662999
 20
255.331155806
 30
0.0
 10
289.0313026518
 20
254.6508716584
 30
0.0
 10
288.9108999784
 20
253.9843725858
 30
0.0
  0
SPLINE
  5
30C
100
AcDbEntity
  8
0
100
AcDbSpline
 62
7
  6
CONTINUOUS
 70
0
 71
3
 72
9
 73
5
 74
0
 42
0.0000001
 43
0.0000001
 44
0.0000000001
 40
0.0
 40
0.0
 40
0.0
 40
0.0
 40
0.3140501504
 40
1.0
 40
1.0
 40
1.0
 40
1.0
 10
292.288662998
 20
222.7754401186
 30
0.0
 10
292.288559374
 20
222.7600270356
 30
0.0
 10
292.3516222394
 20
222.7383300616
 30
0.0
 10
292.3918565016
 20
222.7333643626
 30
0.0
 10
292.4254189478
 20
222.7307246859
 30
0.0
  0
SPLINE
  5
30D
100
AcDbEntity
  8
0
100
AcDbSpline
 62
7
  6
CONTINUOUS
 70
0
 71
3
 72
13
 73
9
 74
0
 42
0.0000001
 43
0.0000001
 44
0.0000000001
 40
0.0
 40
0.0
 40
0.0
 40
0.0
 40
0.1095311376
 40
0.2032255526
 40
0.3240826096
 40
0.4692785511
 40
0.6343657405
 40
1.0
 40
1.0
 40
1.0
 40
1.0
 10
66.288662998
 20
223.2978709686
 30
0.0
 10
66.288636343
 20
223.3752871965
 30
0.0
 10
66.1464385746
 20
223.4844366666
 30
0.0
 10
65.9442966246
 20
223.5664392195
 30
0.0
 10
65.6956459879
 20
223.6372832595
 30
0.0
 10
65.3972173257
 20
223.6935590366
 30
0.0
 10
64.922437398
 20
223.7529263709
 30
0.0
 10
64.5470751415
 20
223.7692187169
 30
0.0
 10
64.2886461008
 20
223.7692173315
 30
0.0
  0
SPLINE
  5
30E
100
AcDbEntity
  8
0
100
AcDbSpline
 62
7
  6
CONTINUOUS
 70
0
 71
3
 72
9
 73
5
 74
0
 42
0.0000001
 43
0.0000001
 44
0.0000000001
 40
0.0
 40
0.0
 40
0.0
 40
0.0
 40
0.3675350396
 40
1.0
 40
1.0
 40
1.0
 40
1.0
 10
62.788662998
 20
223.7303404937
 30
0.0
 10
62.8064843236
 20
223.7481599837
 30
0.0
 10
62.8792140747
 20
223.7630967133
 30
0.0
 10
62.9452949009
 20
223.7692170965
 30
0.0
 10
62.988662997
 20
223.7692173315
 30
0.0
  0
SPLINE
  5
30F
100
AcDbEntity
  8
0
100
AcDbSpline
 62
7
  6
CONTINUOUS
 70
0
 71
3
 72
9
 73
5
 74
0
 42
0.0000001
 43
0.0000001
 44
0.0000000001
 40
0.0
 40
0.0
 40
0.0
 40
0.0
 40
0.5000026689
 40
1.0
 40
1.0
 40
1.0
 40
1.0
 10
137.3637060398
 20
235.7921131454
 30
0.0
 10
137.4118257042
 20
235.8758831904
 30
0.0
 10
137.5553225772
 20
236.0201630881
 30
0.0
 10
137.7519251201
 20
236.0721416788
 30
0.0
 10
137.848531141
 20
236.0721416731
 30
0.0
  0
SPLINE
  5
310
100
AcDbEntity
  8
0
100
AcDbSpline
 62
7
  6
CONTINUOUS
 70
0
 71
3
 72
9
 73
5
 74
0
 42
0.0000001
 43
0.0000001
 44
0.0000000001
 40
0.0
 40
0.0
 40
0.0
 40
0.0
 40
0.3134981518
 40
1.0
 40
1.0
 40
1.0
 40
1.0
 10
66.288662998
 20
222.7755286629
 30
0.0
 10
66.2885647985
 20
222.7601365788
 30
0.0
 10
66.3514975265
 20
222.7382517989
 30
0.0
 10
66.3918160092
 20
222.7333675776
 30
0.0
 10
66.4254186859
 20
222.7307247065
 30
0.0
  0
SPLINE
  5
311
100
AcDbEntity
  8
0
100
AcDbSpline
 62
7
  6
CONTINUOUS
 70
0
 71
3
 72
9
 73
5
 74
0
 42
0.0000001
 43
0.0000001
 44
0.0000000001
 40
0.0
 40
0.0
 40
0.0
 40
0.0
 40
0.5000584662
 40
1.0
 40
1.0
 40
1.0
 40
1.0
 10
148.288662998
 20
235.5562526919
 30
0.0
 10
148.288662998
 20
235.6450800532
 30
0.0
 10
148.2410616057
 20
235.8258214648
 30
0.0
 10
148.1087188802
 20
235.9580079022
 30
0.0
 10
148.0318210748
 20
236.0024301714
 30
0.0
  0
SPLINE
  5
312
100
AcDbEntity
  8
0
100
AcDbSpline
 62
7
  6
CONTINUOUS
 70
0
 71
3
 72
8
 73
4
 74
0
 42
0.0000001
 43
0.0000001
 44
0.0000000001
 40
0.0
 40
0.0
 40
0.0
 40
0.0
 40
1.0
 40
1.0
 40
1.0
 40
1.0
 10
148.0318210748
 20
236.0024301714
 30
0.0
 10
147.9544774568
 20
236.0471099773
 30
0.0
 10
147.8624046767
 20
236.0721410828
 30
0.0
 10
147.7730832331
 20
236.072141088
 30
0.0
  0
SPLINE
  5
313
100
AcDbEntity
  8
0
100
AcDbSpline
 62
7
  6
CONTINUOUS
 70
0
 71
3
 72
13
 73
9
 74
0
 42
0.0000001
 43
0.0000001
 44
0.0000000001
 40
0.0
 40
0.0
 40
0.0
 40
0.0
 40
0.1095481763
 40
0.2032566443
 40
0.3241202897
 40
0.4693140977
 40
0.6343929446
 40
1.0
 40
1.0
 40
1.0
 40
1.0
 10
292.288662998
 20
223.2979520789
 30
0.0
 10
292.2886196273
 20
223.3753774635
 30
0.0
 10
292.1463563427
 20
223.4844852635
 30
0.0
 10
291.9441990343
 20
223.5664763054
 30
0.0
 10
291.6955380618
 20
223.6373050012
 30
0.0
 10
291.3971228881
 20
223.693570979
 30
0.0
 10
290.9223859019
 20
223.7529259618
 30
0.0
 10
290.547063204
 20
223.7692171425
 30
0.0
 10
290.288662998
 20
223.7692173315
 30
0.0
  0
SPLINE
  5
314
100
AcDbEntity
  8
0
100
AcDbSpline
 62
7
  6
CONTINUOUS
 70
0
 71
3
 72
9
 73
5
 74
0
 42
0.0000001
 43
0.0000001
 44
0.0000000001
 40
0.0
 40
0.0
 40
0.0
 40
0.0
 40
0.5000029052
 40
1.0
 40
1.0
 40
1.0
 40
1.0
 10
150.788662998
 20
243.6205788358
 30
0.0
 10
150.788662998
 20
243.6999990859
 30
0.0
 10
150.831312355
 20
243.8616284246
 30
0.0
 10
150.9498718503
 20
243.9796668563
 30
0.0
 10
151.0187297994
 20
244.0192397306
 30
0.0
  0
SPLINE
  5
315
100
AcDbEntity
  8
0
100
AcDbSpline
 62
7
  6
CONTINUOUS
 70
0
 71
3
 72
8
 73
4
 74
0
 42
0.0000001
 43
0.0000001
 44
0.0000000001
 40
0.0
 40
0.0
 40
0.0
 40
0.0
 40
1.0
 40
1.0
 40
1.0
 40
1.0
 10
151.0187297994
 20
244.0192397306
 30
0.0
 10
151.0875347786
 20
244.0587821631
 30
0.0
 10
151.1693286449
 20
244.0808782424
 30
0.0
 10
151.2486868779
 20
244.0808782274
 30
0.0
  0
SPLINE
  5
316
100
AcDbEntity
  8
0
100
AcDbSpline
 62
7
  6
CONTINUOUS
 70
0
 71
3
 72
9
 73
5
 74
0
 42
0.0000001
 43
0.0000001
 44
0.0000000001
 40
0.0
 40
0.0
 40
0.0
 40
0.0
 40
0.4976558892
 40
1.0
 40
1.0
 40
1.0
 40
1.0
 10
282.6665729801
 20
253.9429222815
 30
0.0
 10
282.6691712552
 20
253.6406926121
 30
0.0
 10
282.6097749865
 20
253.0329033284
 30
0.0
 10
282.4262801466
 20
252.4439097866
 30
0.0
 10
282.283645133
 20
252.1742173316
 30
0.0
  0
SPLINE
  5
317
100
AcDbEntity
  8
0
100
AcDbSpline
 62
7
  6
CONTINUOUS
 70
0
 71
3
 72
9
 73
5
 74
0
 42
0.0000001
 43
0.0000001
 44
0.0000000001
 40
0.0
 40
0.0
 40
0.0
 40
0.0
 40
0.5000584662
 40
1.0
 40
1.0
 40
1.0
 40
1.0
 10
153.788662998
 20
243.5851896871
 30
0.0
 10
153.788662998
 20
243.6705388973
 30
0.0
 10
153.7429255042
 20
243.8442031428
 30
0.0
 10
153.6157648401
 20
243.971213655
 30
0.0
 10
153.5418780723
 20
244.0138965187
 30
0.0
  0
SPLINE
  5
318
100
AcDbEntity
  8
0
100
AcDbSpline
 62
7
  6
CONTINUOUS
 70
0
 71
3
 72
8
 73
4
 74
0
 42
0.0000001
 43
0.0000001
 44
0.0000000001
 40
0.0
 40
0.0
 40
0.0
 40
0.0
 40
1.0
 40
1.0
 40
1.0
 40
1.0
 10
153.5418780723
 20
244.0138965187
 30
0.0
 10
153.4675629483
 20
244.056826835
 30
0.0
 10
153.3790954016
 20
244.0808778242
 30
0.0
 10
153.2932714556
 20
244.0808778404
 30
0.0
  0
SPLINE
  5
319
100
AcDbEntity
  8
0
100
AcDbSpline
 62
7
  6
CONTINUOUS
 70
0
 71
3
 72
9
 73
5
 74
0
 42
0.0000001
 43
0.0000001
 44
0.0000000001
 40
0.0
 40
0.0
 40
0.0
 40
0.0
 40
0.5000847334
 40
1.0
 40
1.0
 40
1.0
 40
1.0
 10
147.7730609607
 20
236.1882687811
 30
0.0
 10
147.9045987535
 20
236.1882687734
 30
0.0
 10
148.1786626162
 20
236.0784464811
 30
0.0
 10
148.288662998
 20
235.804411902
 30
0.0
 10
148.288662998
 20
235.6729186842
 30
0.0
  0
SPLINE
  5
31A
100
AcDbEntity
  8
0
100
AcDbSpline
 62
7
  6
CONTINUOUS
 70
0
 71
3
 72
10
 73
6
 74
0
 42
0.0000001
 43
0.0000001
 44
0.0000000001
 40
0.0
 40
0.0
 40
0.0
 40
0.0
 40
0.4940202217
 40
0.7439157978
 40
1.0
 40
1.0
 40
1.0
 40
1.0
 10
292.256140185
 20
259.9282619752
 30
0.0
 10
292.1841032569
 20
261.3028084465
 30
0.0
 10
292.3141224081
 20
263.410951288
 30
0.0
 10
293.1514624477
 20
266.0696311446
 30
0.0
 10
293.9530856354
 20
267.3018465866
 30
0.0
 10
294.5106870845
 20
267.7469991173
 30
0.0
  0
SPLINE
  5
31B
100
AcDbEntity
  8
0
100
AcDbSpline
 62
7
  6
CONTINUOUS
 70
0
 71
3
 72
9
 73
5
 74
0
 42
0.0000001
 43
0.0000001
 44
0.0000000001
 40
0.0
 40
0.0
 40
0.0
 40
0.0
 40
0.4999118946
 40
1.0
 40
1.0
 40
1.0
 40
1.0
 10
137.288662998
 20
235.6286501441
 30
0.0
 10
137.288662998
 20
235.7714378066
 30
0.0
 10
137.4081114013
 20
236.0690120738
 30
0.0
 10
137.705717809
 20
236.1882693741
 30
0.0
 10
137.8485558019
 20
236.1882693657
 30
0.0
  0
SPLINE
  5
31C
100
AcDbEntity
  8
0
100
AcDbSpline
 62
7
  6
CONTINUOUS
 70
0
 71
3
 72
9
 73
5
 74
0
 42
0.0000001
 43
0.0000001
 44
0.0000000001
 40
0.0
 40
0.0
 40
0.0
 40
0.0
 40
0.5000847312
 40
1.0
 40
1.0
 40
1.0
 40
1.0
 10
134.2913424391
 20
244.1891805603
 30
0.0
 10
134.4182163529
 20
244.189180523
 30
0.0
 10
134.6825628538
 20
244.0832522002
 30
0.0
 10
134.788662998
 20
243.8189339294
 30
0.0
 10
134.788662998
 20
243.6921030091
 30
0.0
  0
SPLINE
  5
31D
100
AcDbEntity
  8
0
100
AcDbSpline
 62
7
  6
CONTINUOUS
 70
0
 71
3
 72
9
 73
5
 74
0
 42
0.0000001
 43
0.0000001
 44
0.0000000001
 40
0.0
 40
0.0
 40
0.0
 40
0.0
 40
0.4999118925
 40
1.0
 40
1.0
 40
1.0
 40
1.0
 10
131.788662998
 20
243.7008172067
 30
0.0
 10
131.788662998
 20
243.825423981
 30
0.0
 10
131.89290226
 20
244.0851086532
 30
0.0
 10
132.1526149952
 20
244.1891811902
 30
0.0
 10
132.2772656924
 20
244.1891811534
 30
0.0
  0
SPLINE
  5
31E
100
AcDbEntity
  8
0
100
AcDbSpline
 62
7
  6
CONTINUOUS
 70
0
 71
3
 72
9
 73
5
 74
0
 42
0.0000001
 43
0.0000001
 44
0.0000000001
 40
0.0
 40
0.0
 40
0.0
 40
0.0
 40
0.5000847322
 40
1.0
 40
1.0
 40
1.0
 40
1.0
 10
153.2932499907
 20
244.1891807711
 30
0.0
 10
153.4196372598
 20
244.1891807472
 30
0.0
 10
153.682969817
 20
244.0836587078
 30
0.0
 10
153.788662998
 20
243.820354279
 30
0.0
 10
153.788662998
 20
243.694009839
 30
0.0
  0
SPLINE
  5
31F
100
AcDbEntity
  8
0
100
AcDbSpline
 62
7
  6
CONTINUOUS
 70
0
 71
3
 72
9
 73
5
 74
0
 42
0.0000001
 43
0.0000001
 44
0.0000000001
 40
0.0
 40
0.0
 40
0.0
 40
0.0
 40
0.4999118934
 40
1.0
 40
1.0
 40
1.0
 40
1.0
 10
150.788662998
 20
243.7293618679
 30
0.0
 10
150.788662998
 20
243.8466854316
 30
0.0
 10
150.8868095205
 20
244.0911916566
 30
0.0
 10
151.131342162
 20
244.1891811799
 30
0.0
 10
151.2487070809
 20
244.1891811577
 30
0.0
  0
SPLINE
  5
320
100
AcDbEntity
  8
0
100
AcDbSpline
 62
7
  6
CONTINUOUS
 70
0
 71
3
 72
9
 73
5
 74
0
 42
0.0000001
 43
0.0000001
 44
0.0000000001
 40
0.0
 40
0.0
 40
0.0
 40
0.0
 40
0.5000029052
 40
1.0
 40
1.0
 40
1.0
 40
1.0
 10
131.788662998
 20
243.592004371
 30
0.0
 10
131.788662998
 20
243.676354876
 30
0.0
 10
131.8339599476
 20
243.8480178508
 30
0.0
 10
131.9598793937
 20
243.9733838733
 30
0.0
 10
132.0330119135
 20
244.0154133497
 30
0.0
  0
SPLINE
  5
321
100
AcDbEntity
  8
0
100
AcDbSpline
 62
7
  6
CONTINUOUS
 70
0
 71
3
 72
8
 73
4
 74
0
 42
0.0000001
 43
0.0000001
 44
0.0000000001
 40
0.0
 40
0.0
 40
0.0
 40
0.0
 40
1.0
 40
1.0
 40
1.0
 40
1.0
 10
132.0330119135
 20
244.0154133497
 30
0.0
 10
132.1060881752
 20
244.0574104944
 30
0.0
 10
132.1929596487
 20
244.080878248
 30
0.0
 10
132.2772442866
 20
244.0808782231
 30
0.0
  0
SPLINE
  5
322
100
AcDbEntity
  8
0
100
AcDbSpline
 62
7
  6
CONTINUOUS
 70
0
 71
3
 72
9
 73
5
 74
0
 42
0.0000001
 43
0.0000001
 44
0.0000000001
 40
0.0
 40
0.0
 40
0.0
 40
0.0
 40
0.5000584662
 40
1.0
 40
1.0
 40
1.0
 40
1.0
 10
134.788662998
 20
243.5832808654
 30
0.0
 10
134.788662998
 20
243.6689587008
 30
0.0
 10
134.7427494015
 20
243.8432916159
 30
0.0
 10
134.6150991306
 20
243.9707911703
 30
0.0
 10
134.540927875
 20
244.0136383837
 30
0.0
  0
SPLINE
  5
323
100
AcDbEntity
  8
0
100
AcDbSpline
 62
7
  6
CONTINUOUS
 70
0
 71
3
 72
8
 73
4
 74
0
 42
0.0000001
 43
0.0000001
 44
0.0000000001
 40
0.0
 40
0.0
 40
0.0
 40
0.0
 40
1.0
 40
1.0
 40
1.0
 40
1.0
 10
134.540927875
 20
244.0136383837
 30
0.0
 10
134.4663266141
 20
244.0567340023
 30
0.0
 10
134.3775184382
 20
244.080877604
 30
0.0
 10
134.2913640391
 20
244.0808776294
 30
0.0
  0
SPLINE
  5
324
100
AcDbEntity
  8
0
100
AcDbSpline
 62
7
  6
CONTINUOUS
 70
0
 71
3
 72
9
 73
5
 74
0
 42
0.0000001
 43
0.0000001
 44
0.0000000001
 40
0.0
 40
0.0
 40
0.0
 40
0.0
 40
0.497747753
 40
1.0
 40
1.0
 40
1.0
 40
1.0
 10
288.9075322818
 20
253.9428948255
 30
0.0
 10
288.906485525
 20
253.640497678
 30
0.0
 10
288.9655789604
 20
253.0325501996
 30
0.0
 10
289.1510236582
 20
252.4439517438
 30
0.0
 10
289.293680863
 20
252.1742173316
 30
0.0
  0
ELLIPSE
  5
325
100
AcDbEntity
  8
0
100
AcDbEllipse
 62
7
  6
CONTINUOUS
 10
61.025656267
 20
222.7427866282
 30
0.0
 11
1.7630067305
 21
0.0
 31
0.0
 40
0.2356629918
 41
-1.5707963268
 42
0.0
  0
ELLIPSE
  5
326
100
AcDbEntity
  8
0
100
AcDbEllipse
 62
7
  6
CONTINUOUS
 10
67.588662998
 20
222.5896647072
 30
0.0
 11
0.2
 21
-0.0
 31
0.0
 40
0.2356629918
 41
0.8316638706
 42
1.2490457771
  0
ELLIPSE
  5
327
100
AcDbEntity
  8
0
100
AcDbEllipse
 62
7
  6
CONTINUOUS
 10
293.588662998
 20
222.5896647072
 30
0.0
 11
0.2
 21
0.0
 31
0.0
 40
0.2356629918
 41
0.8316638706
 42
1.2490457771
  0
ELLIPSE
  5
328
100
AcDbEntity
  8
0
100
AcDbEllipse
 62
7
  6
CONTINUOUS
 10
286.947892583
 20
222.7611126506
 30
0.0
 11
1.8407704146
 21
0.0
 31
0.0
 40
0.2356629918
 41
-1.5712217661
 42
0.0
  0
ELLIPSE
  5
329
100
AcDbEntity
  8
0
100
AcDbEllipse
 62
7
  6
CONTINUOUS
 10
285.788662998
 20
256.0084429074
 30
0.0
 11
0.0
 21
6.2513767387
 31
0.0
 40
0.5278837189
 41
-1.5707963268
 42
1.5707963268
  0
ENDSEC
  0
SECTION
  2
OBJECTS
  0
DICTIONARY
  5
C
100
AcDbDictionary
280
0
281
1
  3
ACAD_GROUP
350
D
  3
ACAD_MLINESTYLE
350
17
  3
ACAD_LAYOUT
350
1A
  3
ACAD_PLOTSETTINGS
350
19
  3
ACAD_PLOTSTYLENAME
350
E
  0
DICTIONARY
  5
D
102
{ACAD_REACTORS
330
C
102
}
100
AcDbDictionary
280
0
281
1
  0
ACDBDICTIONARYWDFLT
  5
E
102
{ACAD_REACTORS
330
C
102
}
100
AcDbDictionary
281
1
  3
Normal
350
F
100
AcDbDictionaryWithDefault
340
F
  0
DICTIONARY
  5
17
102
{ACAD_REACTORS
330
C
102
}
100
AcDbDictionary
280
0
281
1
  3
Standard
350
18
  0
DICTIONARY
  5
19
102
{ACAD_REACTORS
330
C
102
}
100
AcDbDictionary
281
1
  0
DICTIONARY
  5
1A
102
{ACAD_REACTORS
330
C
102
}
100
AcDbDictionary
281
1
  3
Model
350
32A
  3
Layout1
350
32B
  0
ACDBPLACEHOLDER
  5
F
102
{ACAD_REACTORS
330
E
102
}
  0
MLINESTYLE
  5
18
102
{ACAD_REACTORS
330
17
102
}
100
AcDbMlineStyle
  2
STANDARD
 70
0
  3

 62
256
 51
90.0
 52
90.0
 71
2
 49
0.5
 62
256
  6
BYLAYER
 49
-0.5
 62
256
  6
BYLAYER
  0
LAYOUT
  5
32A
102
{ACAD_REACTORS
330
1A
102
}
100
AcDbPlotSettings
  1

  2
none_device
  4

  6

 40
0.0
 41
0.0
 42
0.0
 43
0.0
 44
210.0
 45
297.0
 46
0.0
 47
0.0
 48
0.0
 49
0.0
140
0.0
141
0.0
142
1.0
143
1.0
 70
1024
 72
1
 73
0
 74
0
  7

 75
0
147
1.0
148
0.0
149
0.0
100
AcDbLayout
  1
Model
 70
0
 71
0
 10
0.0
 20
0.0
 11
210.0
 21
297.0
 12
0.0
 22
0.0
 32
0.0
 14
0.0
 24
0.0
 34
0.0
 15
0.0
 25
0.0
 35
0.0
146
0.0
 13
0.0
 23
0.0
 33
0.0
 16
1.0
 26
0.0
 36
0.0
 17
0.0
 27
1.0
 37
0.0
 76
0
330
210
345
0
346
0
  0
LAYOUT
  5
32B
102
{ACAD_REACTORS
330
1A
102
}
100
AcDbPlotSettings
  1

  2
none_device
  4

  6

 40
0.0
 41
0.0
 42
0.0
 43
0.0
 44
210.0
 45
297.0
 46
0.0
 47
0.0
 48
0.0
 49
0.0
140
0.0
141
0.0
142
1.0
143
1.0
 70
0
 72
1
 73
0
 74
0
  7

 75
0
147
1.0
148
0.0
149
0.0
100
AcDbLayout
  1
Layout1
 70
0
 71
1
 10
0.0
 20
0.0
 11
210.0
 21
297.0
 12
0.0
 22
0.0
 32
0.0
 14
0.0
 24
0.0
 34
0.0
 15
0.0
 25
0.0
 35
0.0
146
0.0
 13
0.0
 23
0.0
 33
0.0
 16
1.0
 26
0.0
 36
0.0
 17
0.0
 27
1.0
 37
0.0
 76
0
330
211
345
0
346
0
  0
ENDSEC
  0
EOF
