999
DXF file: C:\Users\sesa63760\Dev\_Creo\CAD\MCADID0005867_3D-CAD\mcadid0005867_3d-simplified_1.dxf
999
Pro/ENGINEER 2019471 by Parametric Technology Corporation
  0
SECTION
  2
HEADER
  9
$ACADVER
  1
AC1024
  9
$DWGCODEPAGE
  3
ANSI_1252
  9
$EXTMAX
 10
81.0924981406
 20
114.687961656
 30
0.0
  9
$EXTMIN
 10
0.0
 20
0.0
 30
0.0
  9
$LIMMIN
 10
0.0
 20
0.0
  9
$LIMMAX
 10
81.0924981406
 20
114.687961656
  9
$VIEWCTR
 10
40.5462490703
 20
57.343980828
  9
$VIEWSIZE
 40
114.687961656
  9
$CLAYER
  8
0
  9
$LTSCALE
 40
7.4759560191
  9
$CELTYPE
  6
BYLAYER
  9
$DIMSCALE
 40
1.0
  9
$DIMASZ
 40
0.9653868826
  9
$DIMEXO
 40
1.0
  9
$DIMDLI
 40
5.1652059768
  9
$DIMEXE
 40
1.0
  9
$DIMCEN
 40
1.2233382577
  9
$DIMLFAC
 40
1.0
  9
$DIMBLK
  1
_FILLED
  9
$DIMALT
 70
0
  9
$DIMALTF
 40
0.0393700787
  9
$DIMTXT
 40
1.3515416357
  9
$DIMTOL
 70
1
  9
$DIMLIM
 70
0
  9
$DIMTFAC
 40
1.0
  9
$DIMTP
 40
0.01
  9
$DIMTM
 40
0.01
  9
$DIMGAP
 40
0.625
  9
$DIMDSEP
 70
46
  9
$AUNITS
 70
0
  9
$PDMODE
 70
3
  9
$PDSIZE
 40
0.3125
  9
$HANDSEED
  5
328
  9
$TILEMODE
 70
1
  9
$MEASUREMENT
 70
1
  9
$INSUNITS
 70
4
  0
ENDSEC
  0
SECTION
  2
CLASSES
  0
CLASS
  1
ACDBDICTIONARYWDFLT
  2
AcDbDictionaryWithDefault
  3
AutoCAD 2000
 90
0
 91
1
280
0
281
0
  0
CLASS
  1
ACDBPLACEHOLDER
  2
AcDbPlaceHolder
  3
AutoCAD 2000
 90
0
 91
1
280
0
281
0
  0
CLASS
  1
LAYOUT
  2
AcDbLayout
  3
AutoCAD 2000
 90
0
 91
0
280
0
281
0
  0
ENDSEC
  0
SECTION
  2
TABLES
  0
TABLE
  2
VPORT
  5
8
100
AcDbSymbolTable
 70
2
  0
VPORT
  5
1F4
100
AcDbSymbolTableRecord
100
AcDbViewportTableRecord
  2
*ACTIVE
 70
0
 10
0.0
 20
0.0
 11
1.0
 21
1.0
 12
40.5462490703
 22
57.343980828
 13
0.0
 23
0.0
 14
1.0
 24
1.0
 15
0.0
 25
0.0
 16
0.0
 26
0.0
 36
1.0
 17
0.0
 27
0.0
 37
0.0
 40
114.687961656
 41
0.7070707071
 42
50.0
 43
0.0
 44
0.0
 50
0.0
 51
0.0
 71
0
 72
100
 73
1
 74
1
 75
0
 76
0
 77
0
 78
0
  0
ENDTAB
  0
TABLE
  2
LTYPE
  5
5
100
AcDbSymbolTable
 70
6
  0
LTYPE
  5
14
100
AcDbSymbolTableRecord
100
AcDbLinetypeTableRecord
  2
BYBLOCK
 70
0
  3

 72
65
 73
0
 40
0.0
  0
LTYPE
  5
15
100
AcDbSymbolTableRecord
100
AcDbLinetypeTableRecord
  2
BYLAYER
 70
0
  3

 72
65
 73
0
 40
0.0
  0
LTYPE
  5
16
100
AcDbSymbolTableRecord
100
AcDbLinetypeTableRecord
  2
CONTINUOUS
 70
64
  3
Solid line
 72
65
 73
0
 40
0.0
  0
LTYPE
  5
1F5
100
AcDbSymbolTableRecord
100
AcDbLinetypeTableRecord
  2
CENTER
 70
64
  3
____ _ ____ _ ____ _ ____ _ ____ _ ____ _ ____
 72
65
 73
4
 40
0.6
 49
0.375
 74
0
 49
-0.075
 74
0
 49
0.075
 74
0
 49
-0.075
 74
0
  0
LTYPE
  5
1F6
100
AcDbSymbolTableRecord
100
AcDbLinetypeTableRecord
  2
HIDDEN
 70
64
  3
- - - - - - - - - - - - - - - - - - - -
 72
65
 73
2
 40
0.2
 49
0.1
 74
0
 49
-0.1
 74
0
  0
LTYPE
  5
1F7
100
AcDbSymbolTableRecord
100
AcDbLinetypeTableRecord
  2
PHANTOM
 70
64
  3
_____ _ _ _____ _ _ _____ _ _ _____
 72
65
 73
6
 40
0.8
 49
0.45
 74
0
 49
-0.05
 74
0
 49
0.1
 74
0
 49
-0.05
 74
0
 49
0.1
 74
0
 49
-0.05
 74
0
  0
LTYPE
  5
1F8
100
AcDbSymbolTableRecord
100
AcDbLinetypeTableRecord
  2
DOT
 70
64
  3
. . . . . . . . . . . . . . . . . . . .
 72
65
 73
2
 40
0.2
 49
0.1
 74
0
 49
-0.1
 74
0
  0
LTYPE
  5
1F9
100
AcDbSymbolTableRecord
100
AcDbLinetypeTableRecord
  2
DASHED
 70
64
  3
- - - - - - - - - - - - - - - - - - - -
 72
65
 73
2
 40
0.2
 49
0.1
 74
0
 49
-0.1
 74
0
  0
ENDTAB
  0
TABLE
  2
LAYER
  5
2
100
AcDbSymbolTable
 70
36
  0
LAYER
  5
10
100
AcDbSymbolTableRecord
100
AcDbLayerTableRecord
  2
0
 70
0
 62
7
  6
CONTINUOUS
370
-3
390
F
  0
LAYER
  5
1FA
100
AcDbSymbolTableRecord
100
AcDbLayerTableRecord
  2
DEFAULT_1
 70
0
 62
7
  6
CENTER
370
-3
390
F
  0
LAYER
  5
1FB
100
AcDbSymbolTableRecord
100
AcDbLayerTableRecord
  2
DEFAULT_2
 70
0
 62
7
  6
HIDDEN
370
-3
390
F
  0
LAYER
  5
1FC
100
AcDbSymbolTableRecord
100
AcDbLayerTableRecord
  2
DEFAULT_3
 70
0
 62
7
  6
PHANTOM
370
-3
390
F
  0
LAYER
  5
1FD
100
AcDbSymbolTableRecord
100
AcDbLayerTableRecord
  2
00_COMPONENTS
 70
0
 62
7
  6
CONTINUOUS
370
-3
390
F
  0
LAYER
  5
1FE
100
AcDbSymbolTableRecord
100
AcDbLayerTableRecord
  2
01_1_DEFAULT_DATUMS
 70
0
 62
7
  6
CONTINUOUS
370
-3
390
F
  0
LAYER
  5
1FF
100
AcDbSymbolTableRecord
100
AcDbLayerTableRecord
  2
01_PLANES
 70
0
 62
7
  6
CONTINUOUS
370
-3
390
F
  0
LAYER
  5
200
100
AcDbSymbolTableRecord
100
AcDbLayerTableRecord
  2
02_COORD_SYS
 70
0
 62
7
  6
CONTINUOUS
370
-3
390
F
  0
LAYER
  5
201
100
AcDbSymbolTableRecord
100
AcDbLayerTableRecord
  2
03_AXES
 70
0
 62
7
  6
CONTINUOUS
370
-3
390
F
  0
LAYER
  5
202
100
AcDbSymbolTableRecord
100
AcDbLayerTableRecord
  2
04_POINTS
 70
0
 62
7
  6
CONTINUOUS
370
-3
390
F
  0
LAYER
  5
203
100
AcDbSymbolTableRecord
100
AcDbLayerTableRecord
  2
05_CURVES
 70
0
 62
7
  6
CONTINUOUS
370
-3
390
F
  0
LAYER
  5
204
100
AcDbSymbolTableRecord
100
AcDbLayerTableRecord
  2
06_SURFS
 70
0
 62
7
  6
CONTINUOUS
370
-3
390
F
  0
LAYER
  5
205
100
AcDbSymbolTableRecord
100
AcDbLayerTableRecord
  2
07_COSMETICS
 70
0
 62
7
  6
CONTINUOUS
370
-3
390
F
  0
LAYER
  5
206
100
AcDbSymbolTableRecord
100
AcDbLayerTableRecord
  2
10_NOTES
 70
0
 62
7
  6
CONTINUOUS
370
-3
390
F
  0
LAYER
  5
207
100
AcDbSymbolTableRecord
100
AcDbLayerTableRecord
  2
11_NOTES_PUB
 70
0
 62
7
  6
CONTINUOUS
370
-3
390
F
  0
LAYER
  5
208
100
AcDbSymbolTableRecord
100
AcDbLayerTableRecord
  2
13_REF_GTOL
 70
0
 62
7
  6
CONTINUOUS
370
-3
390
F
  0
LAYER
  5
209
100
AcDbSymbolTableRecord
100
AcDbLayerTableRecord
  2
16_MISC
 70
0
 62
7
  6
CONTINUOUS
370
-3
390
F
  0
LAYER
  5
20A
100
AcDbSymbolTableRecord
100
AcDbLayerTableRecord
  2
17_NO_PRINT
 70
0
 62
7
  6
CONTINUOUS
370
-3
390
F
  0
LAYER
  5
20B
100
AcDbSymbolTableRecord
100
AcDbLayerTableRecord
  2
18_DATUM_CAMS_JOINTS
 70
0
 62
7
  6
CONTINUOUS
370
-3
390
F
  0
LAYER
  5
20C
100
AcDbSymbolTableRecord
100
AcDbLayerTableRecord
  2
19_DATUM_FUNCTIONAL
 70
0
 62
7
  6
CONTINUOUS
370
-3
390
F
  0
LAYER
  5
20D
100
AcDbSymbolTableRecord
100
AcDbLayerTableRecord
  2
20_DATUM_KINEMATIC_SCHEME
 70
0
 62
7
  6
CONTINUOUS
370
-3
390
F
  0
ENDTAB
  0
TABLE
  2
STYLE
  5
3
100
AcDbSymbolTable
 70
1
  0
STYLE
  5
11
100
AcDbSymbolTableRecord
100
AcDbTextStyleTableRecord
  2
STANDARD
 70
0
 40
0.0
 41
1.0
 50
0.0
 71
0
 42
0.2
  3
ARIAL.TTF
  4

  0
STYLE
  5
20E
100
AcDbSymbolTableRecord
100
AcDbTextStyleTableRecord
  2
TEXTSTYLE_1
 70
0
 40
0.0
 41
0.8
 50
0.0
 71
0
 42
0.2
  3
gdt
  4

  0
ENDTAB
  0
TABLE
  2
VIEW
  5
6
100
AcDbSymbolTable
 70
0
  0
ENDTAB
  0
TABLE
  2
UCS
  5
7
100
AcDbSymbolTable
 70
0
  0
ENDTAB
  0
TABLE
  2
APPID
  5
9
100
AcDbSymbolTable
 70
1
  0
APPID
  5
20F
100
AcDbSymbolTableRecord
100
AcDbRegAppTableRecord
  2
ACAD
 70
0
  0
ENDTAB
  0
TABLE
  2
BLOCK_RECORD
  5
1
100
AcDbSymbolTable
 70
0
  0
BLOCK_RECORD
  5
210
100
AcDbSymbolTableRecord
100
AcDbBlockTableRecord
  2
*Model_Space
  0
BLOCK_RECORD
  5
211
100
AcDbSymbolTableRecord
100
AcDbBlockTableRecord
  2
*Paper_Space
  0
BLOCK_RECORD
  5
212
100
AcDbSymbolTableRecord
100
AcDbBlockTableRecord
  2
_FILLED
  0
ENDTAB
  0
TABLE
  2
DIMSTYLE
  5
A
100
AcDbSymbolTable
 70
1
100
AcDbDimStyleTable
 71
0
  0
DIMSTYLE
105
213
100
AcDbSymbolTableRecord
100
AcDbDimStyleTableRecord
  2
STANDARD
 70
0
  3

  4

 40
1.0
 41
0.9653868826
 42
1.0
 43
0.38
 44
1.0
 45
0.0
 46
0.0
 47
0.01
 48
0.01
140
1.3515416357
141
0.09
142
0.0
143
25.4
144
1.0
145
0.0
146
1.0
147
0.625
 71
1
 72
0
 73
0
 74
0
 75
0
 76
0
 77
1
 78
8
 79
2
170
0
171
1
172
0
173
0
174
0
175
0
176
0
177
0
178
0
270
2
179
2
271
2
272
2
273
2
274
2
275
0
280
0
281
0
282
0
283
1
284
8
285
0
286
0
287
3
288
0
340
11
278
46
341
212
342
212
343
212
344
212
  0
ENDTAB
  0
ENDSEC
  0
SECTION
  2
BLOCKS
  0
BLOCK
  5
20
100
AcDbEntity
  8
0
100
AcDbBlockBegin
  2
*Model_Space
 70
0
 10
0.0
 20
0.0
 30
0.0
  3
*Model_Space
  1

  0
ENDBLK
  5
21
100
AcDbEntity
  8
0
100
AcDbBlockEnd
  0
BLOCK
  5
1C
100
AcDbEntity
  8
0
100
AcDbBlockBegin
  2
*Paper_Space
 70
0
 10
0.0
 20
0.0
 30
0.0
  3
*Paper_Space
  1

  0
ENDBLK
  5
1D
100
AcDbEntity
  8
0
100
AcDbBlockEnd
  0
BLOCK
  5
214
100
AcDbEntity
  8
0
100
AcDbBlockBegin
  2
_FILLED
 70
64
 10
0.0
 20
0.0
  3
_FILLED
  1

  0
SOLID
  5
215
100
AcDbEntity
  8
0
  6
BYBLOCK
 62
0
100
AcDbTrace
 10
0.0
 20
0.0
 11
-1.0
 21
0.25
 12
-1.0
 22
-0.25
 13
-1.0
 23
-0.25
  0
ENDBLK
  5
216
100
AcDbEntity
  8
0
  6
BYBLOCK
 62
0
100
AcDbBlockEnd
  0
ENDSEC
  0
SECTION
  2
ENTITIES
  0
LINE
  5
217
100
AcDbEntity
  8
0
100
AcDbLine
 62
7
  6
BYLAYER
 10
9.7154082583
 20
71.6619043583
 11
9.7154126664
 21
71.0506275877
  0
LINE
  5
218
100
AcDbEntity
  8
0
100
AcDbLine
 62
7
  6
BYLAYER
 10
13.4264038571
 20
78.0896086452
 11
13.9557904331
 21
78.395258866
  0
LINE
  5
219
100
AcDbEntity
  8
0
100
AcDbLine
 62
7
  6
BYLAYER
 10
15.6552115689
 20
68.2330250526
 11
15.6552159798
 21
67.6213581262
  0
LINE
  5
21A
100
AcDbEntity
  8
0
100
AcDbLine
 62
7
  6
BYLAYER
 10
19.3658692823
 20
74.6601440983
 11
19.8955937465
 21
74.9659894046
  0
LWPOLYLINE
  5
21B
100
AcDbEntity
  8
0
100
AcDbPolyline
 62
7
  6
BYLAYER
 90
3
 70
0
 10
66.4896193407
 20
36.4898465167
 10
64.3936481764
 20
36.0090711982
 10
62.8714625631
 20
36.4162829994
  0
LINE
  5
21C
100
AcDbEntity
  8
0
100
AcDbLine
 62
7
  6
BYLAYER
 10
24.7477821222
 20
75.9088417382
 11
18.5916644258
 21
72.3546267448
  0
LINE
  5
21D
100
AcDbEntity
  8
0
100
AcDbLine
 62
7
  6
BYLAYER
 10
26.5609714241
 20
75.3713166154
 11
19.8427002133
 21
71.4925440765
  0
LINE
  5
21E
100
AcDbEntity
  8
0
100
AcDbLine
 62
7
  6
BYLAYER
 10
29.29094975
 20
74.4194420792
 11
22.9705572656
 21
70.7703835588
  0
LINE
  5
21F
100
AcDbEntity
  8
0
100
AcDbLine
 62
7
  6
BYLAYER
 10
65.328761281
 20
36.4613752495
 11
64.7352563008
 21
36.4821790168
  0
LINE
  5
220
100
AcDbEntity
  8
0
100
AcDbLine
 62
7
  6
BYLAYER
 10
28.2844437838
 20
59.2295286393
 11
28.2844481919
 21
58.6182518687
  0
LINE
  5
221
100
AcDbEntity
  8
0
100
AcDbLine
 62
7
  6
BYLAYER
 10
34.1142981601
 20
69.3272447286
 11
34.643684736
 21
69.6328949495
  0
LINE
  5
222
100
AcDbEntity
  8
0
100
AcDbLine
 62
7
  6
BYLAYER
 10
41.5862625233
 20
45.9441275621
 11
41.0026318794
 21
46.0001436984
  0
LINE
  5
223
100
AcDbEntity
  8
0
100
AcDbLine
 62
7
  6
BYLAYER
 10
35.4909656249
 20
46.5654865705
 11
36.3916273297
 21
46.0455010564
  0
LINE
  5
224
100
AcDbEntity
  8
0
100
AcDbLine
 62
7
  6
BYLAYER
 10
49.5624491553
 20
38.4414955555
 11
50.4631108602
 21
37.9215100414
  0
LINE
  5
225
100
AcDbEntity
  8
0
100
AcDbLine
 62
7
  6
BYLAYER
 10
50.0000718941
 20
38.5802643728
 11
49.0994101892
 21
39.1002498869
  0
LINE
  5
226
100
AcDbEntity
  8
0
100
AcDbLine
 62
7
  6
BYLAYER
 10
35.9285883637
 20
46.7042553878
 11
35.0279266588
 21
47.2242409019
  0
LINE
  5
227
100
AcDbEntity
  8
0
100
AcDbLine
 62
7
  6
BYLAYER
 10
20.832341158
 20
61.2370987621
 11
21.1675289107
 21
60.9637143357
  0
LINE
  5
228
100
AcDbEntity
  8
0
100
AcDbLine
 62
7
  6
BYLAYER
 10
17.7817124066
 20
64.1570725299
 11
20.832341158
 21
61.2370987621
  0
LINE
  5
229
100
AcDbEntity
  8
0
100
AcDbLine
 62
7
  6
BYLAYER
 10
59.9097815779
 20
37.3181659234
 11
58.9911096462
 21
37.8485494116
  0
LINE
  5
22A
100
AcDbEntity
  8
0
100
AcDbLine
 62
7
  6
BYLAYER
 10
48.5256060814
 20
43.8906740208
 11
40.9666695003
 21
48.2547293626
  0
LINE
  5
22B
100
AcDbEntity
  8
0
100
AcDbLine
 62
7
  6
BYLAYER
 10
34.4541225509
 20
52.0146650358
 11
30.1470830261
 21
54.5012792101
  0
LINE
  5
22C
100
AcDbEntity
  8
0
100
AcDbLine
 62
7
  6
BYLAYER
 10
62.8746631898
 20
36.4144323039
 11
61.5312449946
 21
37.190037614
  0
LINE
  5
22D
100
AcDbEntity
  8
0
100
AcDbLine
 62
7
  6
BYLAYER
 10
61.3902525899
 20
37.2714377753
 11
60.6852905666
 21
37.6784385816
  0
LINE
  5
22E
100
AcDbEntity
  8
0
100
AcDbLine
 62
7
  6
BYLAYER
 10
28.8833866792
 20
56.0953343011
 11
25.7542685364
 21
57.9018906334
  0
LINE
  5
22F
100
AcDbEntity
  8
0
100
AcDbLine
 62
7
  6
BYLAYER
 10
25.5414498124
 20
58.0247588014
 11
24.8524491935
 21
58.4225444951
  0
LINE
  5
230
100
AcDbEntity
  8
0
100
AcDbLine
 62
7
  6
BYLAYER
 10
21.1675289107
 20
60.9637143357
 11
24.6715917993
 21
58.5484359739
  0
LINE
  5
231
100
AcDbEntity
  8
0
100
AcDbLine
 62
7
  6
BYLAYER
 10
17.6126794528
 20
64.4630813302
 11
16.8972322633
 21
64.8761356131
  0
LINE
  5
232
100
AcDbEntity
  8
0
100
AcDbLine
 62
7
  6
BYLAYER
 10
16.3675077991
 20
65.1819652563
 11
10.9574289499
 21
68.3054050745
  0
LINE
  5
233
100
AcDbEntity
  8
0
100
AcDbLine
 62
7
  6
BYLAYER
 10
35.0279266588
 20
57.3079598054
 11
35.9285883637
 21
56.7879742913
  0
LINE
  5
234
100
AcDbEntity
  8
0
100
AcDbLine
 62
7
  6
BYLAYER
 10
49.0994101892
 20
49.1839687905
 11
50.0000718941
 21
48.6639832764
  0
LINE
  5
235
100
AcDbEntity
  8
0
100
AcDbLine
 62
7
  6
BYLAYER
 10
50.4631108602
 20
49.8574057597
 11
49.5624491553
 21
50.3773912738
  0
LINE
  5
236
100
AcDbEntity
  8
0
100
AcDbLine
 62
7
  6
BYLAYER
 10
36.3916273297
 20
57.9813967746
 11
35.4909656249
 21
58.5013822887
  0
LINE
  5
237
100
AcDbEntity
  8
0
100
AcDbLine
 62
7
  6
BYLAYER
 10
71.0654869469
 20
50.6027298383
 11
71.0583972105
 21
50.6062574936
  0
LINE
  5
238
100
AcDbEntity
  8
0
100
AcDbLine
 62
7
  6
BYLAYER
 10
23.2615525669
 20
75.0507718264
 11
22.8939552297
 21
75.2629994467
  0
LINE
  5
239
100
AcDbEntity
  8
0
100
AcDbLine
 62
7
  6
BYLAYER
 10
22.3642307655
 20
75.5688290899
 11
16.9541519163
 21
78.6922689082
  0
LINE
  5
23A
100
AcDbEntity
  8
0
100
AcDbLine
 62
7
  6
BYLAYER
 10
32.8974322588
 20
72.8074138247
 11
32.9021078571
 21
72.8051970718
  0
LINE
  5
23B
100
AcDbEntity
  8
0
100
AcDbLine
 62
7
  6
BYLAYER
 10
29.0537873505
 20
74.623423652
 11
32.8654557572
 21
72.8117832475
  0
LINE
  5
23C
100
AcDbEntity
  8
0
100
AcDbLine
 62
7
  6
BYLAYER
 10
32.8974322588
 20
72.8074138247
 11
32.9020056628
 21
72.8050086182
  0
LINE
  5
23D
100
AcDbEntity
  8
0
100
AcDbLine
 62
7
  6
BYLAYER
 10
71.0530569787
 20
50.5801610259
 11
71.0462250762
 21
50.5841056281
  0
LINE
  5
23E
100
AcDbEntity
  8
0
100
AcDbLine
 62
7
  6
BYLAYER
 10
37.0408422289
 20
70.4259279403
 11
33.9988221003
 21
72.1821993483
  0
LINE
  5
23F
100
AcDbEntity
  8
0
100
AcDbLine
 62
7
  6
BYLAYER
 10
33.7860033763
 20
72.3050675162
 11
33.0970027574
 21
72.7028532099
  0
LINE
  5
240
100
AcDbEntity
  8
0
100
AcDbLine
 62
7
  6
BYLAYER
 10
71.1680180732
 20
50.7794645407
 11
69.824705333
 21
51.5550572635
  0
LINE
  5
241
100
AcDbEntity
  8
0
100
AcDbLine
 62
7
  6
BYLAYER
 10
69.6837129283
 20
51.6364574248
 11
68.9787509051
 21
52.0434582311
  0
LINE
  5
242
100
AcDbEntity
  8
0
100
AcDbLine
 62
7
  6
BYLAYER
 10
57.0629185691
 20
59.7309144564
 11
49.9832795602
 21
63.818253476
  0
LINE
  5
243
100
AcDbEntity
  8
0
100
AcDbLine
 62
7
  6
BYLAYER
 10
42.9914350387
 20
67.8549054713
 11
39.1402864459
 21
70.0783168478
  0
LINE
  5
244
100
AcDbEntity
  8
0
100
AcDbLine
 62
7
  6
BYLAYER
 10
43.0536692585
 20
67.9095446558
 11
43.9543309633
 21
67.3895591417
  0
LINE
  5
245
100
AcDbEntity
  8
0
100
AcDbLine
 62
7
  6
BYLAYER
 10
57.1251527889
 20
59.7855536409
 11
58.0258144937
 21
59.2655681268
  0
LINE
  5
246
100
AcDbEntity
  8
0
100
AcDbLine
 62
7
  6
BYLAYER
 10
71.1612858717
 20
50.7833865898
 11
71.1679371476
 21
50.7791587385
  0
LINE
  5
247
100
AcDbEntity
  8
0
100
AcDbLine
 62
7
  6
BYLAYER
 10
44.8804088955
 20
45.9046126718
 11
44.9419596021
 21
45.9596464739
  0
LINE
  5
248
100
AcDbEntity
  8
0
100
AcDbLine
 62
7
  6
BYLAYER
 10
44.8804088955
 20
45.9046126718
 11
44.9443204694
 21
45.9570254034
  0
LINE
  5
249
100
AcDbEntity
  8
0
100
AcDbLine
 62
7
  6
BYLAYER
 10
29.0537873505
 20
74.623423652
 11
28.6549758799
 21
74.7753824134
  0
LINE
  5
24A
100
AcDbEntity
  8
0
100
AcDbLine
 62
7
  6
BYLAYER
 10
58.9518924259
 20
59.8002362787
 11
58.0512307211
 21
60.3202217928
  0
LINE
  5
24B
100
AcDbEntity
  8
0
100
AcDbLine
 62
7
  6
BYLAYER
 10
44.8804088955
 20
67.9242272936
 11
43.9797471906
 21
68.4442128077
  0
LINE
  5
24C
100
AcDbEntity
  8
0
100
AcDbLine
 62
7
  6
BYLAYER
 10
52.2706971666
 20
64.4505298759
 11
51.930361094
 21
64.9279541041
  0
LINE
  5
24D
100
AcDbEntity
  8
0
100
AcDbLine
 62
7
  6
BYLAYER
 10
51.5424508242
 20
67.7686562713
 11
52.4431125291
 21
67.2486707572
  0
LINE
  5
24E
100
AcDbEntity
  8
0
100
AcDbLine
 62
7
  6
BYLAYER
 10
65.6139343546
 20
59.6446652563
 11
66.5145960595
 21
59.1246797422
  0
LINE
  5
24F
100
AcDbEntity
  8
0
100
AcDbLine
 62
7
  6
BYLAYER
 10
69.6923064538
 20
51.416066096
 11
69.5777842179
 21
51.5252517215
  0
LINE
  5
250
100
AcDbEntity
  8
0
100
AcDbLine
 62
7
  6
BYLAYER
 10
69.4048013334
 20
51.6901737937
 11
69.1194517552
 21
51.9622263951
  0
LINE
  5
251
100
AcDbEntity
  8
0
100
AcDbLine
 62
7
  6
BYLAYER
 10
72.3545608886
 20
48.6306924342
 11
72.0397819415
 21
49.1342747738
  0
LINE
  5
252
100
AcDbEntity
  8
0
100
AcDbLine
 62
7
  6
BYLAYER
 10
70.2697048245
 20
51.0337816552
 11
70.1386946839
 21
51.3737795283
  0
LINE
  5
253
100
AcDbEntity
  8
0
100
AcDbLine
 62
7
  6
BYLAYER
 10
58.9518924259
 20
37.7806216569
 11
59.0134431325
 21
37.835655459
  0
LINE
  5
254
100
AcDbEntity
  8
0
100
AcDbLine
 62
7
  6
BYLAYER
 10
58.9518924259
 20
37.7806216569
 11
59.0158039998
 21
37.8330343884
  0
LINE
  5
255
100
AcDbEntity
  8
0
100
AcDbLine
 62
7
  6
BYLAYER
 10
67.2133304261
 20
36.8956018717
 11
66.4896193407
 21
36.4898465167
  0
ARC
  5
256
100
AcDbEntity
  8
0
100
AcDbCircle
 62
7
  6
BYLAYER
 10
38.3179449109
 20
56.1791580424
 40
12.1904858273
100
AcDbArc
 50
297.539462176
 51
300.0226994631
  0
ARC
  5
257
100
AcDbEntity
  8
0
100
AcDbCircle
 62
7
  6
BYLAYER
 10
37.8587651948
 20
56.9809642302
 40
13.1144593523
100
AcDbArc
 50
300.0069371
 51
302.3718813297
  0
ARC
  5
258
100
AcDbEntity
  8
0
100
AcDbCircle
 62
7
  6
BYLAYER
 10
32.8494273074
 20
65.5833109753
 40
7.7494203638
100
AcDbArc
 50
119.9999244456
 51
120.1607291038
  0
ARC
  5
259
100
AcDbEntity
  8
0
100
AcDbCircle
 62
7
  6
BYLAYER
 10
14.3816174873
 20
71.8247051355
 40
4.9481940385
100
AcDbArc
 50
179.6191503397
 51
179.9995920988
  0
ARC
  5
25A
100
AcDbEntity
  8
0
100
AcDbCircle
 62
7
  6
BYLAYER
 10
15.5398127547
 20
74.0208469098
 40
4.8915987937
100
AcDbArc
 50
119.4222621828
 51
119.8788719476
  0
ARC
  5
25B
100
AcDbEntity
  8
0
100
AcDbCircle
 62
7
  6
BYLAYER
 10
14.2894895311
 20
71.8661443507
 40
4.8853288344
100
AcDbArc
 50
179.999245082
 51
180.586876516
  0
ARC
  5
25C
100
AcDbEntity
  8
0
100
AcDbCircle
 62
7
  6
BYLAYER
 10
31.7163551962
 20
70.3102119157
 40
2.7624193023
100
AcDbArc
 50
64.6877152225
 51
65.3159513507
  0
ARC
  5
25D
100
AcDbEntity
  8
0
100
AcDbCircle
 62
7
  6
BYLAYER
 10
32.618920689
 20
69.7911470316
 40
2.7606638635
100
AcDbArc
 50
64.6876144111
 51
64.9934594982
  0
ARC
  5
25E
100
AcDbEntity
  8
0
100
AcDbCircle
 62
7
  6
BYLAYER
 10
32.4056011792
 20
69.9151432968
 40
2.7599153935
100
AcDbArc
 50
55.2279516716
 51
59.3601884985
  0
ARC
  5
25F
100
AcDbEntity
  8
0
100
AcDbCircle
 62
7
  6
BYLAYER
 10
27.1342187501
 20
60.2911670502
 40
2.7591257202
100
AcDbArc
 50
235.2282537362
 51
239.9909958993
  0
ARC
  5
260
100
AcDbEntity
  8
0
100
AcDbCircle
 62
7
  6
BYLAYER
 10
26.2316995079
 20
60.810697932
 40
2.7578032348
100
AcDbArc
 50
235.6369259483
 51
239.9919190282
  0
ARC
  5
261
100
AcDbEntity
  8
0
100
AcDbCircle
 62
7
  6
BYLAYER
 10
32.6222426836
 20
69.7981342797
 40
2.7529271303
100
AcDbArc
 50
59.9975008502
 51
64.687939701
  0
ARC
  5
262
100
AcDbEntity
  8
0
100
AcDbCircle
 62
7
  6
BYLAYER
 10
31.7205242203
 20
70.3189796166
 40
2.7527108685
100
AcDbArc
 50
59.9973263695
 51
64.580430701
  0
ARC
  5
263
100
AcDbEntity
  8
0
100
AcDbCircle
 62
7
  6
BYLAYER
 10
32.4108262164
 20
69.9236557441
 40
2.7499285048
100
AcDbArc
 50
59.363465519
 51
59.9951586691
  0
ARC
  5
264
100
AcDbEntity
  8
0
100
AcDbCircle
 62
7
  6
BYLAYER
 10
21.3542505371
 20
73.8215282197
 40
2.0181901175
100
AcDbArc
 50
51.153012043
 51
59.9710964736
  0
ARC
  5
265
100
AcDbEntity
  8
0
100
AcDbCircle
 62
7
  6
BYLAYER
 10
17.3717356757
 20
66.9218997913
 40
2.0089342709
100
AcDbArc
 50
240.0079975905
 51
248.9123410155
  0
ARC
  5
266
100
AcDbEntity
  8
0
100
AcDbCircle
 62
7
  6
BYLAYER
 10
52.3894284413
 20
48.0551670275
 40
12.1904858273
100
AcDbArc
 50
297.539462176
 51
300.0226994631
  0
ARC
  5
267
100
AcDbEntity
  8
0
100
AcDbCircle
 62
7
  6
BYLAYER
 10
56.5834443726
 20
49.4605842516
 40
21.9160608127
100
AcDbArc
 50
157.1205786036
 51
160.4676626893
  0
ARC
  5
268
100
AcDbEntity
  8
0
100
AcDbCircle
 62
7
  6
BYLAYER
 10
55.5104841761
 20
50.0474202872
 40
21.7313275375
100
AcDbArc
 50
157.1063480889
 51
160.4818932041
  0
ARC
  5
269
100
AcDbEntity
  8
0
100
AcDbCircle
 62
7
  6
BYLAYER
 10
50.1561417138
 20
56.6996732674
 40
13.2705060764
100
AcDbArc
 50
120.0208436263
 51
122.3579748034
  0
ARC
  5
26A
100
AcDbEntity
  8
0
100
AcDbCircle
 62
7
  6
BYLAYER
 10
50.975974664
 20
56.3132075834
 40
13.1144593523
100
AcDbArc
 50
120.0069371
 51
122.3718813297
  0
ARC
  5
26B
100
AcDbEntity
  8
0
100
AcDbCircle
 62
7
  6
BYLAYER
 10
51.9302487252
 20
48.8569732152
 40
13.1144593523
100
AcDbArc
 50
300.0069371
 51
302.3718813297
  0
ARC
  5
26C
100
AcDbEntity
  8
0
100
AcDbCircle
 62
7
  6
BYLAYER
 10
42.5228567127
 20
50.8149110633
 40
3.0019095225
100
AcDbArc
 50
238.7086758583
 51
239.9977865276
  0
ARC
  5
26D
100
AcDbEntity
  8
0
100
AcDbCircle
 62
7
  6
BYLAYER
 10
42.5220905275
 20
50.8135960508
 40
3.0003875954
100
AcDbArc
 50
239.9979005452
 51
240.7711597423
  0
ARC
  5
26E
100
AcDbEntity
  8
0
100
AcDbCircle
 62
7
  6
BYLAYER
 10
70.654927903
 20
41.3365932366
 40
21.9160608127
100
AcDbArc
 50
157.1205786036
 51
160.4676626893
  0
ARC
  5
26F
100
AcDbEntity
  8
0
100
AcDbCircle
 62
7
  6
BYLAYER
 10
69.5819677065
 20
41.9234292723
 40
21.7313275376
100
AcDbArc
 50
157.1063480889
 51
160.4818932041
  0
ARC
  5
270
100
AcDbEntity
  8
0
100
AcDbCircle
 62
7
  6
BYLAYER
 10
66.9756783713
 20
43.677976636
 40
18.4647536459
100
AcDbArc
 50
141.8558087843
 51
145.0970536999
  0
ARC
  5
271
100
AcDbEntity
  8
0
100
AcDbCircle
 62
7
  6
BYLAYER
 10
64.958710985
 20
46.9026741883
 40
7.9856684927
100
AcDbArc
 50
359.0460098478
 51
359.4070590445
  0
ARC
  5
272
100
AcDbEntity
  8
0
100
AcDbCircle
 62
7
  6
BYLAYER
 10
69.6623712273
 20
44.2453649747
 40
7.966848886
100
AcDbArc
 50
120.3982303439
 51
121.0650787656
  0
ARC
  5
273
100
AcDbEntity
  8
0
100
AcDbCircle
 62
7
  6
BYLAYER
 10
65.0814190926
 20
46.9014867793
 40
7.8629546682
100
AcDbArc
 50
359.4064578089
 51
359.9990429305
  0
ARC
  5
274
100
AcDbEntity
  8
0
100
AcDbCircle
 62
7
  6
BYLAYER
 10
69.5912351487
 20
44.3664078844
 40
7.8264504682
100
AcDbArc
 50
120.0002937603
 51
120.3974369364
  0
ARC
  5
275
100
AcDbEntity
  8
0
100
AcDbCircle
 62
7
  6
BYLAYER
 10
69.3801674279
 20
44.5694972848
 40
7.6860268401
100
AcDbArc
 50
119.1519868786
 51
120.0014740786
  0
ARC
  5
276
100
AcDbEntity
  8
0
100
AcDbCircle
 62
7
  6
BYLAYER
 10
64.2372577168
 20
43.274594994
 40
7.0518866596
100
AcDbArc
 50
300.0037303947
 51
301.670297822
  0
ARC
  5
277
100
AcDbEntity
  8
0
100
AcDbCircle
 62
7
  6
BYLAYER
 10
64.6752223296
 20
42.9233876628
 40
6.382435161
100
AcDbArc
 50
298.3191766384
 51
300.0094113764
  0
ARC
  5
278
100
AcDbEntity
  8
0
100
AcDbCircle
 62
7
  6
BYLAYER
 10
67.0685459502
 20
46.2159207599
 40
5.8903353809
100
AcDbArc
 50
4.8079910428
 51
6.0939084641
  0
ARC
  5
279
100
AcDbEntity
  8
0
100
AcDbCircle
 62
7
  6
BYLAYER
 10
67.2452825121
 20
46.2343055005
 40
5.712645842
100
AcDbArc
 50
6.0987348271
 51
6.7647964613
  0
ARC
  5
27A
100
AcDbEntity
  8
0
100
AcDbCircle
 62
7
  6
BYLAYER
 10
64.4758309318
 20
40.9300188855
 40
4.7269825839
100
AcDbArc
 50
280.7759643642
 51
285.6386064996
  0
ARC
  5
27B
100
AcDbEntity
  8
0
100
AcDbCircle
 62
7
  6
BYLAYER
 10
61.5633875985
 20
40.9236779007
 40
4.0267708406
100
AcDbArc
 50
268.7262488812
 51
274.3836691107
  0
ARC
  5
27C
100
AcDbEntity
  8
0
100
AcDbCircle
 62
7
  6
BYLAYER
 10
62.0761231911
 20
40.1161742196
 40
2.9091548161
100
AcDbArc
 50
249.2488896177
 51
253.7178452806
  0
ARC
  5
27D
100
AcDbEntity
  8
0
100
AcDbCircle
 62
7
  6
BYLAYER
 10
62.0483750646
 20
40.0441032797
 40
2.831927852
100
AcDbArc
 50
244.5130295184
 51
249.2572386942
  0
ARC
  5
27E
100
AcDbEntity
  8
0
100
AcDbCircle
 62
7
  6
BYLAYER
 10
62.0358934841
 20
40.0174677694
 40
2.8025135353
100
AcDbArc
 50
239.8110983549
 51
244.5090530216
  0
ARC
  5
27F
100
AcDbEntity
  8
0
100
AcDbCircle
 62
7
  6
BYLAYER
 10
62.9220674523
 20
39.5974250087
 40
2.7802591901
100
AcDbArc
 50
235.7740734929
 51
236.8624004468
  0
ARC
  5
280
100
AcDbEntity
  8
0
100
AcDbCircle
 62
7
  6
BYLAYER
 10
62.9176758297
 20
39.5906791243
 40
2.7722097679
100
AcDbArc
 50
236.8621880098
 51
238.9140948689
  0
ARC
  5
281
100
AcDbEntity
  8
0
100
AcDbCircle
 62
7
  6
BYLAYER
 10
62.9149438915
 20
39.5862000791
 40
2.7669633784
100
AcDbArc
 50
238.9146536146
 51
239.9950918428
  0
ARC
  5
282
100
AcDbEntity
  8
0
100
AcDbCircle
 62
7
  6
BYLAYER
 10
65.8665945878
 20
39.6428778669
 40
1.9982646419
100
AcDbArc
 50
237.2079510219
 51
239.9979994685
  0
ARC
  5
283
100
AcDbEntity
  8
0
100
AcDbCircle
 62
7
  6
BYLAYER
 10
69.8683350181
 20
46.5744289152
 40
1.9979532367
100
AcDbArc
 50
60.0005929448
 51
62.7938982071
  0
ARC
  5
284
100
AcDbEntity
  8
0
100
AcDbCircle
 62
7
  6
BYLAYER
 10
64.2276252443
 20
48.5756822524
 40
13.2705060765
100
AcDbArc
 50
120.0208436263
 51
122.3579748034
  0
ARC
  5
285
100
AcDbEntity
  8
0
100
AcDbCircle
 62
7
  6
BYLAYER
 10
65.0474581945
 20
48.1892165685
 40
13.1144593523
100
AcDbArc
 50
120.0069371
 51
122.3718813297
  0
ARC
  5
286
100
AcDbEntity
  8
0
100
AcDbCircle
 62
7
  6
BYLAYER
 10
63.7609623358
 20
49.3774887723
 40
12.3427890313
100
AcDbArc
 50
117.5547854192
 51
120.0073762199
  0
ARC
  5
287
100
AcDbEntity
  8
0
100
AcDbCircle
 62
7
  6
BYLAYER
 10
64.5882784783
 20
48.9910227562
 40
12.1904858273
100
AcDbArc
 50
117.539462176
 51
120.0226994631
  0
ARC
  5
288
100
AcDbEntity
  8
0
100
AcDbCircle
 62
7
  6
BYLAYER
 10
66.5487865962
 20
49.6296923189
 40
4.092842499
100
AcDbArc
 50
26.4756181745
 51
30.2496995201
  0
ARC
  5
289
100
AcDbEntity
  8
0
100
AcDbCircle
 62
7
  6
BYLAYER
 10
67.3946362697
 20
49.4570190764
 40
3.1437629748
100
AcDbArc
 50
40.0901743958
 51
40.9738065907
  0
ARC
  5
28A
100
AcDbEntity
  8
0
100
AcDbCircle
 62
7
  6
BYLAYER
 10
67.6265830837
 20
49.7020886281
 40
2.8053234466
100
AcDbArc
 50
56.634485197
 51
59.8075083179
  0
ARC
  5
28B
100
AcDbEntity
  8
0
100
AcDbCircle
 62
7
  6
BYLAYER
 10
68.4384750243
 20
49.1537312543
 40
2.7727116613
100
AcDbArc
 50
63.5273076229
 51
64.6868768264
  0
ARC
  5
28C
100
AcDbEntity
  8
0
100
AcDbCircle
 62
7
  6
BYLAYER
 10
68.4408986755
 20
49.1586160223
 40
2.7672586823
100
AcDbArc
 50
59.9960461308
 51
63.5271427062
  0
ARC
  5
28D
100
AcDbEntity
  8
0
100
AcDbCircle
 62
7
  6
BYLAYER
 10
68.3004807206
 20
49.2410954312
 40
2.7660371271
100
AcDbArc
 50
58.9138242516
 51
59.9951710613
  0
ARC
  5
28E
100
AcDbEntity
  8
0
100
AcDbCircle
 62
7
  6
BYLAYER
 10
49.6894788054
 20
57.5014797872
 40
12.3427890313
100
AcDbArc
 50
117.5547854192
 51
120.0073762199
  0
ARC
  5
28F
100
AcDbEntity
  8
0
100
AcDbCircle
 62
7
  6
BYLAYER
 10
50.5167949479
 20
57.1150137712
 40
12.1904858273
100
AcDbArc
 50
117.539462176
 51
120.0226994631
  0
ARC
  5
290
100
AcDbEntity
  8
0
100
AcDbCircle
 62
7
  6
BYLAYER
 10
48.5205837969
 20
61.2040956831
 40
3.0019095225
100
AcDbArc
 50
58.7086758583
 51
59.9977865276
  0
ARC
  5
291
100
AcDbEntity
  8
0
100
AcDbCircle
 62
7
  6
BYLAYER
 10
48.5213499819
 20
61.2054106955
 40
3.0003875956
100
AcDbArc
 50
59.9979005452
 51
60.7711597422
  0
SPLINE
  5
292
100
AcDbEntity
  8
0
100
AcDbSpline
 62
7
  6
BYLAYER
 70
0
 71
3
 72
26
 73
22
 74
0
 42
0.0000001
 43
0.0000001
 44
0.0000000001
 40
0.0
 40
0.0
 40
0.0
 40
0.0
 40
0.0213167649
 40
0.0428981457
 40
0.0649548274
 40
0.0876745661
 40
0.1356445683
 40
0.1611729873
 40
0.1878024188
 40
0.2444282771
 40
0.3055180343
 40
0.3706890126
 40
0.4393074517
 40
0.5105561342
 40
0.5834915462
 40
0.6570944127
 40
0.7303163089
 40
0.8021253463
 40
0.8715525343
 40
0.9377415581
 40
1.0
 40
1.0
 40
1.0
 40
1.0
 10
40.9636957609
 20
48.2496668434
 30
0.0
 10
40.8550723695
 20
48.3156881712
 30
0.0
 10
40.6447017621
 20
48.4626405323
 30
0.0
 10
40.3567779341
 20
48.7231157012
 30
0.0
 10
40.0969183046
 20
49.0227972992
 30
0.0
 10
39.7843120783
 20
49.4802354214
 30
0.0
 10
39.5403713769
 20
50.0045836925
 30
0.0
 10
39.3634161938
 20
50.5752881089
 30
0.0
 10
39.2238968734
 20
51.2095454563
 30
0.0
 10
39.1389843748
 20
52.0693448531
 30
0.0
 10
39.1745135257
 20
53.1618849393
 30
0.0
 10
39.3441512041
 20
54.3137920927
 30
0.0
 10
39.6441743121
 20
55.501017608
 30
0.0
 10
40.0682251295
 20
56.6988341614
 30
0.0
 10
40.607369505
 20
57.8820595421
 30
0.0
 10
41.2502378686
 20
59.025758066
 30
0.0
 10
41.9832670822
 20
60.1057986571
 30
0.0
 10
42.790986549
 20
61.0993881412
 30
0.0
 10
43.6564808404
 20
61.9856639393
 30
0.0
 10
44.5614437003
 20
62.7458686522
 30
0.0
 10
45.2002060898
 20
63.1723999457
 30
0.0
 10
45.5217202548
 20
63.3580251274
 30
0.0
  0
SPLINE
  5
293
100
AcDbEntity
  8
0
100
AcDbSpline
 62
7
  6
BYLAYER
 70
0
 71
3
 72
11
 73
7
 74
0
 42
0.0000001
 43
0.0000001
 44
0.0000000001
 40
0.0
 40
0.0
 40
0.0
 40
0.0
 40
0.2325796138
 40
0.4758717081
 40
0.7313544255
 40
1.0
 40
1.0
 40
1.0
 40
1.0
 10
41.5862658735
 20
45.944136131
 30
0.0
 10
41.7862618053
 20
45.9249458206
 30
0.0
 10
42.1985381221
 20
45.9135829982
 30
0.0
 10
42.8287944032
 20
45.9740464466
 30
0.0
 10
43.4787569842
 20
46.1106460385
 30
0.0
 10
43.9109569726
 20
46.2482541296
 30
0.0
 10
44.1287409095
 20
46.3284210064
 30
0.0
  0
SPLINE
  5
294
100
AcDbEntity
  8
0
100
AcDbSpline
 62
7
  6
BYLAYER
 70
0
 71
3
 72
9
 73
5
 74
0
 42
0.0000001
 43
0.0000001
 44
0.0000000001
 40
0.0
 40
0.0
 40
0.0
 40
0.0
 40
0.2461771807
 40
1.0
 40
1.0
 40
1.0
 40
1.0
 10
35.4909656249
 20
46.5654865705
 30
0.0
 10
35.4489701823
 20
46.6165434015
 30
0.0
 10
35.2824043061
 20
46.8272316205
 30
0.0
 10
35.132035778
 20
47.050630081
 30
0.0
 10
35.0279266588
 20
47.2242409019
 30
0.0
  0
SPLINE
  5
295
100
AcDbEntity
  8
0
100
AcDbSpline
 62
7
  6
BYLAYER
 70
0
 71
3
 72
11
 73
7
 74
0
 42
0.0000001
 43
0.0000001
 44
0.0000000001
 40
0.0
 40
0.0
 40
0.0
 40
0.0
 40
0.2597151621
 40
0.513807829
 40
0.760959036
 40
1.0
 40
1.0
 40
1.0
 40
1.0
 10
35.0279266588
 20
47.2242409019
 30
0.0
 10
34.9347161878
 20
47.6856194195
 30
0.0
 10
34.7652094674
 20
48.6015152311
 30
0.0
 10
34.5701114551
 20
49.9672613105
 30
0.0
 10
34.4468433473
 20
51.3038805945
 30
0.0
 10
34.4175929235
 20
52.1852381854
 30
0.0
 10
34.4175929235
 20
52.6184687284
 30
0.0
  0
SPLINE
  5
296
100
AcDbEntity
  8
0
100
AcDbSpline
 62
7
  6
BYLAYER
 70
0
 71
3
 72
11
 73
7
 74
0
 42
0.0000001
 43
0.0000001
 44
0.0000000001
 40
0.0
 40
0.0
 40
0.0
 40
0.0
 40
0.2716847903
 40
0.5307386397
 40
0.7743479271
 40
1.0
 40
1.0
 40
1.0
 40
1.0
 10
36.3916273297
 20
46.0455010564
 30
0.0
 10
36.7863361438
 20
45.9652308561
 30
0.0
 10
37.5586621882
 20
45.8144881277
 30
0.0
 10
38.6898719973
 20
45.6181410381
 30
0.0
 10
39.7584588235
 20
45.4621126359
 30
0.0
 10
40.4500975765
 20
45.3851196652
 30
0.0
 10
40.7833128818
 20
45.3553544134
 30
0.0
  0
SPLINE
  5
297
100
AcDbEntity
  8
0
100
AcDbSpline
 62
7
  6
BYLAYER
 70
0
 71
3
 72
11
 73
7
 74
0
 42
0.0000001
 43
0.0000001
 44
0.0000000001
 40
0.0
 40
0.0
 40
0.0
 40
0.0
 40
0.2138609745
 40
0.4498736999
 40
0.7112735674
 40
1.0
 40
1.0
 40
1.0
 40
1.0
 10
43.9797471906
 20
68.4442128077
 30
0.0
 10
44.2044652422
 20
68.4722515036
 30
0.0
 10
44.6790941447
 20
68.5166655692
 30
0.0
 10
45.4322034065
 20
68.5429526064
 30
0.0
 10
46.2648657283
 20
68.5263026681
 30
0.0
 10
46.8462411525
 20
68.4860052574
 30
0.0
 10
47.1507652721
 20
68.4588029142
 30
0.0
  0
SPLINE
  5
298
100
AcDbEntity
  8
0
100
AcDbSpline
 62
7
  6
BYLAYER
 70
0
 71
3
 72
11
 73
7
 74
0
 42
0.0000001
 43
0.0000001
 44
0.0000000001
 40
0.0
 40
0.0
 40
0.0
 40
0.0
 40
0.2477731512
 40
0.4973921748
 40
0.7482964972
 40
1.0
 40
1.0
 40
1.0
 40
1.0
 10
38.6619837064
 20
63.557831847
 30
0.0
 10
38.9824518143
 20
63.9565009128
 30
0.0
 10
39.6509525866
 20
64.7369055109
 30
0.0
 10
40.7243380331
 20
65.8489405529
 30
0.0
 10
41.8608032343
 20
66.9081294854
 30
0.0
 10
42.6515509885
 20
67.5804487765
 30
0.0
 10
43.0536692585
 20
67.9095446558
 30
0.0
  0
SPLINE
  5
299
100
AcDbEntity
  8
0
100
AcDbSpline
 62
7
  6
BYLAYER
 70
0
 71
3
 72
11
 73
7
 74
0
 42
0.0000001
 43
0.0000001
 44
0.0000000001
 40
0.0
 40
0.0
 40
0.0
 40
0.0
 40
0.2458891186
 40
0.4944449149
 40
0.7458370139
 40
1.0
 40
1.0
 40
1.0
 40
1.0
 10
35.4909656249
 20
58.5013822887
 30
0.0
 10
35.7064515652
 20
58.9416392777
 30
0.0
 10
36.1589598414
 20
59.8177334116
 30
0.0
 10
36.9074597104
 20
61.1031781927
 30
0.0
 10
37.7373025605
 20
62.3576779424
 30
0.0
 10
38.344552607
 20
63.1629408837
 30
0.0
 10
38.6619837064
 20
63.557831847
 30
0.0
  0
SPLINE
  5
29A
100
AcDbEntity
  8
0
100
AcDbSpline
 62
7
  6
BYLAYER
 70
0
 71
3
 72
9
 73
5
 74
0
 42
0.0000001
 43
0.0000001
 44
0.0000000001
 40
0.0
 40
0.0
 40
0.0
 40
0.0
 40
0.254188329
 40
1.0
 40
1.0
 40
1.0
 40
1.0
 10
52.9061514952
 20
66.5899164258
 30
0.0
 10
52.8710463866
 20
66.6484571835
 30
0.0
 10
52.7289066462
 20
66.8763092624
 30
0.0
 10
52.5703393768
 20
67.0939920763
 30
0.0
 10
52.4431125291
 20
67.2486707572
 30
0.0
  0
SPLINE
  5
29B
100
AcDbEntity
  8
0
100
AcDbSpline
 62
7
  6
BYLAYER
 70
0
 71
3
 72
9
 73
5
 74
0
 42
0.0000001
 43
0.0000001
 44
0.0000000001
 40
0.0
 40
0.0
 40
0.0
 40
0.0
 40
0.4883025369
 40
1.0
 40
1.0
 40
1.0
 40
1.0
 10
53.5078235142
 20
61.7842184471
 30
0.0
 10
53.4848315689
 20
62.5729116512
 30
0.0
 10
53.3450034503
 20
64.1858754135
 30
0.0
 10
53.0698849802
 20
65.7794590622
 30
0.0
 10
52.9061514952
 20
66.5899164258
 30
0.0
  0
SPLINE
  5
29C
100
AcDbEntity
  8
0
100
AcDbSpline
 62
7
  6
BYLAYER
 70
0
 71
3
 72
11
 73
7
 74
0
 42
0.0000001
 43
0.0000001
 44
0.0000000001
 40
0.0
 40
0.0
 40
0.0
 40
0.0
 40
0.2640505373
 40
0.518096522
 40
0.7629874112
 40
1.0
 40
1.0
 40
1.0
 40
1.0
 10
34.4175929235
 20
52.6184687284
 30
0.0
 10
34.4175929235
 20
53.0358209461
 30
0.0
 10
34.4437887853
 20
53.8550214015
 30
0.0
 10
34.5649139712
 20
55.055795461
 30
0.0
 10
34.7588616508
 20
56.203550813
 30
0.0
 10
34.9324760689
 20
56.9457073734
 30
0.0
 10
35.0279266588
 20
57.3079598054
 30
0.0
  0
SPLINE
  5
29D
100
AcDbEntity
  8
0
100
AcDbSpline
 62
7
  6
BYLAYER
 70
0
 71
3
 72
11
 73
7
 74
0
 42
0.0000001
 43
0.0000001
 44
0.0000000001
 40
0.0
 40
0.0
 40
0.0
 40
0.0
 40
0.2256492086
 40
0.4692584096
 40
0.7283047998
 40
1.0
 40
1.0
 40
1.0
 40
1.0
 10
47.1507652721
 20
68.4588029142
 30
0.0
 10
47.4839763479
 20
68.4290380403
 30
0.0
 10
48.1756114305
 20
68.3520498268
 30
0.0
 10
49.2441795964
 20
68.1960021944
 30
0.0
 10
50.375400721
 20
67.9996956945
 30
0.0
 10
51.1477268864
 20
67.8489295472
 30
0.0
 10
51.5424508242
 20
67.7686562713
 30
0.0
  0
SPLINE
  5
29E
100
AcDbEntity
  8
0
100
AcDbSpline
 62
7
  6
BYLAYER
 70
0
 71
3
 72
15
 73
11
 74
0
 42
0.0000001
 43
0.0000001
 44
0.0000000001
 40
0.0
 40
0.0
 40
0.0
 40
0.0
 40
0.1484091221
 40
0.289257348
 40
0.4224740412
 40
0.5484579493
 40
0.6679234057
 40
0.7819613903
 40
0.8920543774
 40
1.0
 40
1.0
 40
1.0
 40
1.0
 10
45.5217202548
 20
63.3580251274
 30
0.0
 10
45.722729668
 20
63.4740772735
 30
0.0
 10
46.1240466418
 20
63.6843558125
 30
0.0
 10
46.7361170499
 20
63.9359074803
 30
0.0
 10
47.3375069039
 20
64.1129822942
 30
0.0
 10
47.9226038366
 20
64.2136668628
 30
0.0
 10
48.4860924496
 20
64.2367350212
 30
0.0
 10
49.0226700589
 20
64.1813753444
 30
0.0
 10
49.526738463
 20
64.0476564585
 30
0.0
 10
49.8391090425
 20
63.9062138119
 30
0.0
 10
49.9864362119
 20
63.8237781377
 30
0.0
  0
SPLINE
  5
29F
100
AcDbEntity
  8
0
100
AcDbSpline
 62
7
  6
BYLAYER
 70
0
 71
3
 72
11
 73
7
 74
0
 42
0.0000001
 43
0.0000001
 44
0.0000000001
 40
0.0
 40
0.0
 40
0.0
 40
0.0
 40
0.269143869
 40
0.5247818142
 40
0.7678846719
 40
1.0
 40
1.0
 40
1.0
 40
1.0
 10
53.2208946084
 20
61.986703518
 30
0.0
 10
53.1823916099
 20
62.222425556
 30
0.0
 10
53.0865108046
 20
62.6790300877
 30
0.0
 10
52.8783845072
 20
63.3292826316
 30
0.0
 10
52.6112392625
 20
63.9218975375
 30
0.0
 10
52.3902519513
 20
64.2827853379
 30
0.0
 10
52.2706890552
 20
64.4505197383
 30
0.0
  0
SPLINE
  5
2A0
100
AcDbEntity
  8
0
100
AcDbSpline
 62
7
  6
BYLAYER
 70
0
 71
3
 72
11
 73
7
 74
0
 42
0.0000001
 43
0.0000001
 44
0.0000000001
 40
0.0
 40
0.0
 40
0.0
 40
0.0
 40
0.2887226778
 40
0.5501130261
 40
0.7861436391
 40
1.0
 40
1.0
 40
1.0
 40
1.0
 10
40.7833128818
 20
45.3553544134
 30
0.0
 10
41.0878330774
 20
45.3281524208
 30
0.0
 10
41.6691947056
 20
45.2878468363
 30
0.0
 10
42.5018613527
 20
45.2712332931
 30
0.0
 10
43.2549775861
 20
45.2974544753
 30
0.0
 10
43.7296177329
 20
45.3419064256
 30
0.0
 10
43.9543309633
 20
45.3699445199
 30
0.0
  0
SPLINE
  5
2A1
100
AcDbEntity
  8
0
100
AcDbSpline
 62
7
  6
BYLAYER
 70
0
 71
3
 72
32
 73
28
 74
0
 42
0.0000001
 43
0.0000001
 44
0.0000000001
 40
0.0
 40
0.0
 40
0.0
 40
0.0
 40
0.0229486056
 40
0.0452994278
 40
0.0673183825
 40
0.0892927982
 40
0.1115129088
 40
0.1342531462
 40
0.1577562906
 40
0.1822238473
 40
0.20780974
 40
0.2346214672
 40
0.2627218997
 40
0.29213319
 40
0.3228429553
 40
0.3548067102
 40
0.3879543193
 40
0.4221926554
 40
0.4934504209
 40
0.5675363526
 40
0.6432098723
 40
0.7191424539
 40
0.7939912842
 40
0.8664739399
 40
0.935439439
 40
0.9683269426
 40
1.0
 40
1.0
 40
1.0
 40
1.0
 10
41.0026330399
 20
46.0001466684
 30
0.0
 10
40.817878703
 20
46.0178749711
 30
0.0
 10
40.4548454196
 20
46.0754839343
 30
0.0
 10
39.9317281969
 20
46.2322211144
 30
0.0
 10
39.4425537855
 20
46.4570904451
 30
0.0
 10
38.9910802336
 20
46.7484294062
 30
0.0
 10
38.5806137228
 20
47.1040530589
 30
0.0
 10
38.2140630935
 20
47.5212268551
 30
0.0
 10
37.8937656762
 20
47.9967690968
 30
0.0
 10
37.6217486585
 20
48.5272930824
 30
0.0
 10
37.3995426155
 20
49.1090906381
 30
0.0
 10
37.2284409789
 20
49.7382620446
 30
0.0
 10
37.1094306167
 20
50.4106414685
 30
0.0
 10
37.0431295844
 20
51.121806303
 30
0.0
 10
37.0299634393
 20
51.8670966097
 30
0.0
 10
37.0699133145
 20
52.6416134872
 30
0.0
 10
37.1627087733
 20
53.4402856693
 30
0.0
 10
37.358686872
 20
54.5449075175
 30
0.0
 10
37.7341574931
 20
55.9511487778
 30
0.0
 10
38.3694214773
 20
57.6249576056
 30
0.0
 10
39.1788952779
 20
59.2640709873
 30
0.0
 10
40.1413478657
 20
60.8254540206
 30
0.0
 10
41.2316683073
 20
62.2683963311
 30
0.0
 10
42.4212664916
 20
63.5550103149
 30
0.0
 10
43.4865631848
 20
64.48396331
 30
0.0
 10
44.3629433514
 20
65.1160090494
 30
0.0
 10
44.8058585564
 20
65.3934627837
 30
0.0
 10
45.0277036647
 20
65.5215443522
 30
0.0
  0
SPLINE
  5
2A2
100
AcDbEntity
  8
0
100
AcDbSpline
 62
7
  6
BYLAYER
 70
0
 71
3
 72
9
 73
5
 74
0
 42
0.0000001
 43
0.0000001
 44
0.0000000001
 40
0.0
 40
0.0
 40
0.0
 40
0.0
 40
0.254188329
 40
1.0
 40
1.0
 40
1.0
 40
1.0
 10
35.9285883637
 20
46.7042553878
 30
0.0
 10
35.9636934722
 20
46.6457146301
 30
0.0
 10
36.1058332127
 20
46.4178625512
 30
0.0
 10
36.264400482
 20
46.2001797373
 30
0.0
 10
36.3916273297
 20
46.0455010564
 30
0.0
  0
SPLINE
  5
2A3
100
AcDbEntity
  8
0
100
AcDbSpline
 62
7
  6
BYLAYER
 70
0
 71
3
 72
11
 73
7
 74
0
 42
0.0000001
 43
0.0000001
 44
0.0000000001
 40
0.0
 40
0.0
 40
0.0
 40
0.0
 40
0.2138609745
 40
0.4498736999
 40
0.7112735674
 40
1.0
 40
1.0
 40
1.0
 40
1.0
 10
52.4431125291
 20
67.2486707572
 30
0.0
 10
52.2183944775
 20
67.2206320613
 30
0.0
 10
51.743765575
 20
67.1762179957
 30
0.0
 10
50.9906563132
 20
67.1499309585
 30
0.0
 10
50.1579939914
 20
67.1665808968
 30
0.0
 10
49.5766185672
 20
67.2068783075
 30
0.0
 10
49.2720944476
 20
67.2340806507
 30
0.0
  0
SPLINE
  5
2A4
100
AcDbEntity
  8
0
100
AcDbSpline
 62
7
  6
BYLAYER
 70
0
 71
3
 72
11
 73
7
 74
0
 42
0.0000001
 43
0.0000001
 44
0.0000000001
 40
0.0
 40
0.0
 40
0.0
 40
0.0
 40
0.2640505373
 40
0.518096522
 40
0.7629874112
 40
1.0
 40
1.0
 40
1.0
 40
1.0
 10
36.5389220989
 20
51.3937464648
 30
0.0
 10
36.5389220989
 20
50.9763942471
 30
0.0
 10
36.5127262371
 20
50.1571937918
 30
0.0
 10
36.3916010513
 20
48.9564197323
 30
0.0
 10
36.1976533717
 20
47.8086643802
 30
0.0
 10
36.0240389536
 20
47.0665078198
 30
0.0
 10
35.9285883637
 20
46.7042553878
 30
0.0
  0
SPLINE
  5
2A5
100
AcDbEntity
  8
0
100
AcDbSpline
 62
7
  6
BYLAYER
 70
0
 71
3
 72
20
 73
16
 74
0
 42
0.0000001
 43
0.0000001
 44
0.0000000001
 40
0.0
 40
0.0
 40
0.0
 40
0.0
 40
0.058221751
 40
0.1151345961
 40
0.1711532143
 40
0.2267270019
 40
0.2823242148
 40
0.3384123011
 40
0.3954373205
 40
0.4538097748
 40
0.5138900368
 40
0.5759829333
 40
0.7069976072
 40
0.848223086
 40
1.0
 40
1.0
 40
1.0
 40
1.0
 10
52.2706890552
 20
64.4505197383
 30
0.0
 10
52.1863531189
 20
64.5688343506
 30
0.0
 10
52.0078734598
 20
64.7947618599
 30
0.0
 10
51.7087226219
 20
65.1007344411
 30
0.0
 10
51.3829495455
 20
65.3680235886
 30
0.0
 10
51.0319629085
 20
65.5952498607
 30
0.0
 10
50.6574103604
 20
65.7814771301
 30
0.0
 10
50.2609554688
 20
65.9257540379
 30
0.0
 10
49.8444537949
 20
66.0276045282
 30
0.0
 10
49.409755641
 20
66.0865474624
 30
0.0
 10
48.9587616715
 20
66.1024995091
 30
0.0
 10
48.3272067625
 20
66.0657447323
 30
0.0
 10
47.503976952
 20
65.9066170164
 30
0.0
 10
46.5037245639
 20
65.5519797051
 30
0.0
 10
45.8497438508
 20
65.220287833
 30
0.0
 10
45.5217202548
 20
65.030904452
 30
0.0
  0
SPLINE
  5
2A6
100
AcDbEntity
  8
0
100
AcDbSpline
 62
7
  6
BYLAYER
 70
0
 71
3
 72
11
 73
7
 74
0
 42
0.0000001
 43
0.0000001
 44
0.0000000001
 40
0.0
 40
0.0
 40
0.0
 40
0.0
 40
0.2477731512
 40
0.4973921748
 40
0.7482964972
 40
1.0
 40
1.0
 40
1.0
 40
1.0
 10
40.7833128818
 20
62.3331095834
 30
0.0
 10
40.4628447739
 20
61.9344405176
 30
0.0
 10
39.7943440016
 20
61.1540359195
 30
0.0
 10
38.7209585551
 20
60.0420008776
 30
0.0
 10
37.5844933539
 20
58.9828119451
 30
0.0
 10
36.7937455997
 20
58.3104926539
 30
0.0
 10
36.3916273297
 20
57.9813967746
 30
0.0
  0
SPLINE
  5
2A7
100
AcDbEntity
  8
0
100
AcDbSpline
 62
7
  6
BYLAYER
 70
0
 71
3
 72
11
 73
7
 74
0
 42
0.0000001
 43
0.0000001
 44
0.0000000001
 40
0.0
 40
0.0
 40
0.0
 40
0.0
 40
0.2597151621
 40
0.513807829
 40
0.760959036
 40
1.0
 40
1.0
 40
1.0
 40
1.0
 10
35.9285883637
 20
56.7879742913
 30
0.0
 10
36.0217988347
 20
56.3265957737
 30
0.0
 10
36.191305555
 20
55.4106999621
 30
0.0
 10
36.3864035674
 20
54.0449538827
 30
0.0
 10
36.5096716752
 20
52.7083345987
 30
0.0
 10
36.5389220989
 20
51.8269770079
 30
0.0
 10
36.5389220989
 20
51.3937464648
 30
0.0
  0
SPLINE
  5
2A8
100
AcDbEntity
  8
0
100
AcDbSpline
 62
7
  6
BYLAYER
 70
0
 71
3
 72
20
 73
16
 74
0
 42
0.0000001
 43
0.0000001
 44
0.0000000001
 40
0.0
 40
0.0
 40
0.0
 40
0.0
 40
0.1490470855
 40
0.2880509918
 40
0.4176933737
 40
0.479468921
 40
0.5394990756
 40
0.5980871011
 40
0.6555804512
 40
0.7123626553
 40
0.768840604
 40
0.8254363921
 40
0.8825755057
 40
0.9406539553
 40
1.0
 40
1.0
 40
1.0
 40
1.0
 10
53.4962862324
 20
61.8595758765
 30
0.0
 10
53.47323072
 20
62.2316248828
 30
0.0
 10
53.389243395
 20
62.9492155834
 30
0.0
 10
53.1340468293
 20
63.96539017
 30
0.0
 10
52.8141142933
 20
64.7316612123
 30
0.0
 10
52.4978887403
 20
65.2760896076
 30
0.0
 10
52.2363071754
 20
65.6445071399
 30
0.0
 10
51.9475104225
 20
65.9780002332
 30
0.0
 10
51.6325491187
 20
66.2752570499
 30
0.0
 10
51.2926172081
 20
66.5350424103
 30
0.0
 10
50.9290755453
 20
66.7563482402
 30
0.0
 10
50.5433172867
 20
66.9382373648
 30
0.0
 10
50.1368672397
 20
67.0800522724
 30
0.0
 10
49.7114429673
 20
67.1811883674
 30
0.0
 10
49.4199286419
 20
67.2208750087
 30
0.0
 10
49.2720944476
 20
67.2340806507
 30
0.0
  0
SPLINE
  5
2A9
100
AcDbEntity
  8
0
100
AcDbSpline
 62
7
  6
BYLAYER
 70
0
 71
3
 72
11
 73
7
 74
0
 42
0.0000001
 43
0.0000001
 44
0.0000000001
 40
0.0
 40
0.0
 40
0.0
 40
0.0
 40
0.2269012398
 40
0.4680565992
 40
0.7254227674
 40
1.0
 40
1.0
 40
1.0
 40
1.0
 10
40.7833128818
 20
45.3553544134
 30
0.0
 10
41.0692198964
 20
45.3298150876
 30
0.0
 10
41.6645465067
 20
45.3298704574
 30
0.0
 10
42.5741874321
 20
45.4723821117
 30
0.0
 10
43.5134723939
 20
45.7541359733
 30
0.0
 10
44.1319150896
 20
46.0235285595
 30
0.0
 10
44.4428995061
 20
46.1782761597
 30
0.0
  0
SPLINE
  5
2AA
100
AcDbEntity
  8
0
100
AcDbSpline
 62
7
  6
BYLAYER
 70
0
 71
3
 72
19
 73
15
 74
0
 42
0.0000001
 43
0.0000001
 44
0.0000000001
 40
0.0
 40
0.0
 40
0.0
 40
0.0
 40
0.151814537
 40
0.2930199882
 40
0.4239849096
 40
0.5459524373
 40
0.6042922699
 40
0.661293991
 40
0.7173721011
 40
0.7729769439
 40
0.8285792166
 40
0.8846596827
 40
0.9416738691
 40
1.0
 40
1.0
 40
1.0
 40
1.0
 10
36.5389220989
 20
51.3937464648
 30
0.0
 10
36.5389220989
 20
50.9805356904
 30
0.0
 10
36.5823879738
 20
50.1819343301
 30
0.0
 10
36.793967585
 20
49.043772922
 30
0.0
 10
37.1471794566
 20
48.026023272
 30
0.0
 10
37.5631569628
 20
47.2815452633
 30
0.0
 10
37.9608808839
 20
46.7713042738
 30
0.0
 10
38.2854819937
 20
46.4348678938
 30
0.0
 10
38.6393741893
 20
46.1408782451
 30
0.0
 10
39.0209093969
 20
45.890599965
 30
0.0
 10
39.4284111478
 20
45.6852875423
 30
0.0
 10
39.8600100966
 20
45.5257959383
 30
0.0
 10
40.3136194095
 20
45.4129163891
 30
0.0
 10
40.6251896719
 20
45.3694791462
 30
0.0
 10
40.7833128818
 20
45.3553544134
 30
0.0
  0
SPLINE
  5
2AB
100
AcDbEntity
  8
0
100
AcDbSpline
 62
7
  6
BYLAYER
 70
0
 71
3
 72
15
 73
11
 74
0
 42
0.0000001
 43
0.0000001
 44
0.0000000001
 40
0.0
 40
0.0
 40
0.0
 40
0.0
 40
0.129847411
 40
0.2611866596
 40
0.3925260486
 40
0.5223738886
 40
0.6492905064
 40
0.7719421396
 40
0.8891589506
 40
1.0
 40
1.0
 40
1.0
 40
1.0
 10
40.7833128818
 20
62.3331095834
 30
0.0
 10
40.4595529174
 20
61.9303453789
 30
0.0
 10
39.840328975
 20
61.0939275986
 30
0.0
 10
39.0082042377
 20
59.7701956113
 30
0.0
 10
38.2778447151
 20
58.3875904044
 30
0.0
 10
37.6616836665
 20
56.9695920274
 30
0.0
 10
37.1701133567
 20
55.5401464088
 30
0.0
 10
36.8114437971
 20
54.1232717609
 30
0.0
 10
36.5917581418
 20
52.7429905057
 30
0.0
 10
36.5389220989
 20
51.8348647927
 30
0.0
 10
36.5389220989
 20
51.3937464648
 30
0.0
  0
SPLINE
  5
2AC
100
AcDbEntity
  8
0
100
AcDbSpline
 62
7
  6
BYLAYER
 70
0
 71
3
 72
11
 73
7
 74
0
 42
0.0000001
 43
0.0000001
 44
0.0000000001
 40
0.0
 40
0.0
 40
0.0
 40
0.0
 40
0.232065918
 40
0.4774810713
 40
0.7342754496
 40
1.0
 40
1.0
 40
1.0
 40
1.0
 10
45.0277036647
 20
66.0968290497
 30
0.0
 10
44.6456878359
 20
65.8762734247
 30
0.0
 10
43.8856563928
 20
65.3764615996
 30
0.0
 10
42.8001405901
 20
64.4960601243
 30
0.0
 10
41.7524814386
 20
63.4770710523
 30
0.0
 10
41.099763371
 20
62.7267806471
 30
0.0
 10
40.7833128818
 20
62.3331095834
 30
0.0
  0
SPLINE
  5
2AD
100
AcDbEntity
  8
0
100
AcDbSpline
 62
7
  6
BYLAYER
 70
0
 71
3
 72
11
 73
7
 74
0
 42
0.0000001
 43
0.0000001
 44
0.0000000001
 40
0.0
 40
0.0
 40
0.0
 40
0.0
 40
0.2234035249
 40
0.4632869182
 40
0.7219272534
 40
1.0
 40
1.0
 40
1.0
 40
1.0
 10
49.2720944476
 20
67.2340806507
 30
0.0
 10
48.9414422806
 20
67.263616944
 30
0.0
 10
48.2482211192
 20
67.2538858698
 30
0.0
 10
47.1903709824
 20
67.050913089
 30
0.0
 10
46.0988737425
 20
66.6650801894
 30
0.0
 10
45.3855502545
 20
66.3034306414
 30
0.0
 10
45.0277036647
 20
66.0968290497
 30
0.0
  0
SPLINE
  5
2AE
100
AcDbEntity
  8
0
100
AcDbSpline
 62
7
  6
BYLAYER
 70
0
 71
3
 72
19
 73
15
 74
0
 42
0.0000001
 43
0.0000001
 44
0.0000000001
 40
0.0
 40
0.0
 40
0.0
 40
0.0
 40
0.1517988795
 40
0.2930391422
 40
0.4240729861
 40
0.5461286381
 40
0.6045087121
 40
0.6615418545
 40
0.7176372731
 40
0.7732421572
 40
0.8288234739
 40
0.8848497175
 40
0.9417702099
 40
1.0
 40
1.0
 40
1.0
 40
1.0
 10
45.0277036647
 20
65.5215443522
 30
0.0
 10
45.363200676
 20
65.7152424857
 30
0.0
 10
46.0320077592
 20
66.0544942086
 30
0.0
 10
47.0552801143
 20
66.4171803433
 30
0.0
 10
48.0474228117
 20
66.6091808902
 30
0.0
 10
48.8473713368
 20
66.6225564034
 30
0.0
 10
49.448842786
 20
66.5409227103
 30
0.0
 10
49.8748579398
 20
66.4367926792
 30
0.0
 10
50.2803252381
 20
66.2891958099
 30
0.0
 10
50.6634228034
 20
66.0987571406
 30
0.0
 10
51.0223897868
 20
65.8663342574
 30
0.0
 10
51.3555924559
 20
65.592972666
 30
0.0
 10
51.6615543319
 20
65.2800276636
 30
0.0
 10
51.8440901429
 20
65.0489491592
 30
0.0
 10
51.9303532034
 20
64.9279442307
 30
0.0
  0
SPLINE
  5
2AF
100
AcDbEntity
  8
0
100
AcDbSpline
 62
7
  6
BYLAYER
 70
0
 71
3
 72
33
 73
29
 74
0
 42
0.0000001
 43
0.0000001
 44
0.0000000001
 40
0.0
 40
0.0
 40
0.0
 40
0.0
 40
0.0316710886
 40
0.0645585294
 40
0.0985522672
 40
0.1335502342
 40
0.2060307785
 40
0.2808774608
 40
0.3568081652
 40
0.4324797916
 40
0.506563854
 40
0.577819747
 40
0.6120570693
 40
0.6452037272
 40
0.6771667989
 40
0.707875316
 40
0.7372860958
 40
0.7653853623
 40
0.7921963855
 40
0.8177815367
 40
0.8422481995
 40
0.8657508626
 40
0.8884902861
 40
0.9107097993
 40
0.9326835754
 40
0.9547018596
 40
0.9770520228
 40
1.0
 40
1.0
 40
1.0
 40
1.0
 10
45.5217202548
 20
65.030904452
 30
0.0
 10
45.3048216563
 20
64.9056787353
 30
0.0
 10
44.8717838615
 20
64.634399884
 30
0.0
 10
44.2392712784
 20
64.1782768163
 30
0.0
 10
43.6153029952
 20
63.6678568488
 30
0.0
 10
42.7908705344
 20
62.9108681064
 30
0.0
 10
41.8101339274
 20
61.8501009143
 30
0.0
 10
40.7441824707
 20
60.4393965781
 30
0.0
 10
39.8031309736
 20
58.9127412441
 30
0.0
 10
39.0116781727
 20
57.3101269274
 30
0.0
 10
38.3905503766
 20
55.6735786038
 30
0.0
 10
38.0234359008
 20
54.2986441695
 30
0.0
 10
37.8318349014
 20
53.2186121896
 30
0.0
 10
37.7411071792
 20
52.4377209582
 30
0.0
 10
37.7020286798
 20
51.6804491682
 30
0.0
 10
37.7149368035
 20
50.9517522518
 30
0.0
 10
37.7797207289
 20
50.2564200452
 30
0.0
 10
37.8961187821
 20
49.5990165573
 30
0.0
 10
38.0633891641
 20
48.9838512556
 30
0.0
 10
38.280649893
 20
48.4150067919
 30
0.0
 10
38.5466295309
 20
47.8963067835
 30
0.0
 10
38.8597643057
 20
47.4313307704
 30
0.0
 10
39.2181870625
 20
47.0234739394
 30
0.0
 10
39.6194881739
 20
46.6757404531
 30
0.0
 10
40.0609240542
 20
46.390906238
 30
0.0
 10
40.5392045047
 20
46.171043587
 30
0.0
 10
41.050671767
 20
46.0177827407
 30
0.0
 10
41.4056247018
 20
45.9614692844
 30
0.0
 10
41.5862658735
 20
45.944136131
 30
0.0
  0
SPLINE
  5
2B0
100
AcDbEntity
  8
0
100
AcDbSpline
 62
7
  6
BYLAYER
 70
0
 71
3
 72
11
 73
7
 74
0
 42
0.0000001
 43
0.0000001
 44
0.0000000001
 40
0.0
 40
0.0
 40
0.0
 40
0.0
 40
0.2458891186
 40
0.4944449149
 40
0.7458370139
 40
1.0
 40
1.0
 40
1.0
 40
1.0
 10
43.9543309633
 20
67.3895591417
 30
0.0
 10
43.738845023
 20
66.9493021528
 30
0.0
 10
43.2863367468
 20
66.0732080188
 30
0.0
 10
42.5378368778
 20
64.7877632377
 30
0.0
 10
41.7079940277
 20
63.5332634881
 30
0.0
 10
41.1007439812
 20
62.7280005468
 30
0.0
 10
40.7833128818
 20
62.3331095834
 30
0.0
  0
SPLINE
  5
2B1
100
AcDbEntity
  8
0
100
AcDbSpline
 62
7
  6
BYLAYER
 70
0
 71
3
 72
11
 73
7
 74
0
 42
0.0000001
 43
0.0000001
 44
0.0000000001
 40
0.0
 40
0.0
 40
0.0
 40
0.0
 40
0.2256492086
 40
0.4692584096
 40
0.7283047998
 40
1.0
 40
1.0
 40
1.0
 40
1.0
 10
49.2720944476
 20
67.2340806507
 30
0.0
 10
48.9388833718
 20
67.2638455246
 30
0.0
 10
48.2472482892
 20
67.3408337382
 30
0.0
 10
47.1786801233
 20
67.4968813705
 30
0.0
 10
46.0474589987
 20
67.6931878704
 30
0.0
 10
45.2751328333
 20
67.8439540177
 30
0.0
 10
44.8804088955
 20
67.9242272936
 30
0.0
  0
SPLINE
  5
2B2
100
AcDbEntity
  8
0
100
AcDbSpline
 62
7
  6
BYLAYER
 70
0
 71
3
 72
11
 73
7
 74
0
 42
0.0000001
 43
0.0000001
 44
0.0000000001
 40
0.0
 40
0.0
 40
0.0
 40
0.0
 40
0.2256492086
 40
0.4692584096
 40
0.7283047998
 40
1.0
 40
1.0
 40
1.0
 40
1.0
 10
61.2222488026
 20
60.3348118993
 30
0.0
 10
61.5554598784
 20
60.3050470253
 30
0.0
 10
62.2470949609
 20
60.2280588118
 30
0.0
 10
63.3156631268
 20
60.0720111794
 30
0.0
 10
64.4468842515
 20
59.8757046795
 30
0.0
 10
65.2192104168
 20
59.7249385322
 30
0.0
 10
65.6139343546
 20
59.6446652563
 30
0.0
  0
SPLINE
  5
2B3
100
AcDbEntity
  8
0
100
AcDbSpline
 62
7
  6
BYLAYER
 70
0
 71
3
 72
11
 73
7
 74
0
 42
0.0000001
 43
0.0000001
 44
0.0000000001
 40
0.0
 40
0.0
 40
0.0
 40
0.0
 40
0.2640505373
 40
0.518096522
 40
0.7629874112
 40
1.0
 40
1.0
 40
1.0
 40
1.0
 10
48.4890764539
 20
44.4944777134
 30
0.0
 10
48.4890764539
 20
44.9118299311
 30
0.0
 10
48.5152723157
 20
45.7310303865
 30
0.0
 10
48.6363975016
 20
46.931804446
 30
0.0
 10
48.8303451812
 20
48.0795597981
 30
0.0
 10
49.0039595993
 20
48.8217163585
 30
0.0
 10
49.0994101892
 20
49.1839687905
 30
0.0
  0
SPLINE
  5
2B4
100
AcDbEntity
  8
0
100
AcDbSpline
 62
7
  6
BYLAYER
 70
0
 71
3
 72
11
 73
7
 74
0
 42
0.0000001
 43
0.0000001
 44
0.0000000001
 40
0.0
 40
0.0
 40
0.0
 40
0.0
 40
0.2458891186
 40
0.4944449149
 40
0.7458370139
 40
1.0
 40
1.0
 40
1.0
 40
1.0
 10
49.5624491553
 20
50.3773912738
 30
0.0
 10
49.7779350956
 20
50.8176482628
 30
0.0
 10
50.2304433718
 20
51.6937423967
 30
0.0
 10
50.9789432409
 20
52.9791871778
 30
0.0
 10
51.8087860909
 20
54.2336869274
 30
0.0
 10
52.4160361374
 20
55.0389498687
 30
0.0
 10
52.7334672368
 20
55.4338408321
 30
0.0
  0
SPLINE
  5
2B5
100
AcDbEntity
  8
0
100
AcDbSpline
 62
7
  6
BYLAYER
 70
0
 71
3
 72
11
 73
7
 74
0
 42
0.0000001
 43
0.0000001
 44
0.0000000001
 40
0.0
 40
0.0
 40
0.0
 40
0.0
 40
0.2716847903
 40
0.5307386397
 40
0.7743479271
 40
1.0
 40
1.0
 40
1.0
 40
1.0
 10
50.4631108602
 20
37.9215100414
 30
0.0
 10
50.8578196742
 20
37.8412398412
 30
0.0
 10
51.6301457186
 20
37.6904971127
 30
0.0
 10
52.7613555277
 20
37.4941500232
 30
0.0
 10
53.829942354
 20
37.338121621
 30
0.0
 10
54.5215811069
 20
37.2611286502
 30
0.0
 10
54.8547964122
 20
37.2313633985
 30
0.0
  0
SPLINE
  5
2B6
100
AcDbEntity
  8
0
100
AcDbSpline
 62
7
  6
BYLAYER
 70
0
 71
3
 72
9
 73
5
 74
0
 42
0.0000001
 43
0.0000001
 44
0.0000000001
 40
0.0
 40
0.0
 40
0.0
 40
0.0
 40
0.2461771807
 40
1.0
 40
1.0
 40
1.0
 40
1.0
 10
49.5624491553
 20
38.4414955555
 30
0.0
 10
49.5204537127
 20
38.4925523866
 30
0.0
 10
49.3538878365
 20
38.7032406055
 30
0.0
 10
49.2035193084
 20
38.926639066
 30
0.0
 10
49.0994101892
 20
39.1002498869
 30
0.0
  0
SPLINE
  5
2B7
100
AcDbEntity
  8
0
100
AcDbSpline
 62
7
  6
BYLAYER
 70
0
 71
3
 72
20
 73
16
 74
0
 42
0.0000001
 43
0.0000001
 44
0.0000000001
 40
0.0
 40
0.0
 40
0.0
 40
0.0
 40
0.0558474212
 40
0.1141981339
 40
0.1748120827
 40
0.2373925674
 40
0.3015987145
 40
0.3670534327
 40
0.5000288929
 40
0.6330044534
 40
0.7626069809
 40
0.8251872635
 40
0.8857980137
 40
0.9441611799
 40
1.0
 40
1.0
 40
1.0
 40
1.0
 10
52.7352652301
 20
44.4964751992
 30
0.0
 10
52.7352633756
 20
44.7426766204
 30
0.0
 10
52.7571107077
 20
45.2463000578
 30
0.0
 10
52.8498659254
 20
46.0120107495
 30
0.0
 10
53.0024353703
 20
46.7983223382
 30
0.0
 10
53.2133187454
 20
47.5976824875
 30
0.0
 10
53.4805388362
 20
48.4025216412
 30
0.0
 10
53.9107118053
 20
49.4780662069
 30
0.0
 10
54.570733321
 20
50.7853818601
 30
0.0
 10
55.5277764124
 20
52.2472051132
 30
0.0
 10
56.4478198508
 20
53.3514167315
 30
0.0
 10
57.2392898544
 20
54.1369154298
 30
0.0
 10
57.8440141974
 20
54.662241567
 30
0.0
 10
58.4607818254
 20
55.1253932776
 30
0.0
 10
58.8860030293
 20
55.3961670704
 30
0.0
 10
59.0991871951
 20
55.5192482713
 30
0.0
  0
SPLINE
  5
2B8
100
AcDbEntity
  8
0
100
AcDbSpline
 62
7
  6
BYLAYER
 70
0
 71
3
 72
11
 73
7
 74
0
 42
0.0000001
 43
0.0000001
 44
0.0000000001
 40
0.0
 40
0.0
 40
0.0
 40
0.0
 40
0.2597151621
 40
0.513807829
 40
0.760959036
 40
1.0
 40
1.0
 40
1.0
 40
1.0
 10
49.0994101892
 20
39.1002498869
 30
0.0
 10
49.0061997182
 20
39.5616284045
 30
0.0
 10
48.8366929978
 20
40.4775242162
 30
0.0
 10
48.6415949855
 20
41.8432702955
 30
0.0
 10
48.5183268777
 20
43.1798895795
 30
0.0
 10
48.4890764539
 20
44.0612471704
 30
0.0
 10
48.4890764539
 20
44.4944777134
 30
0.0
  0
SPLINE
  5
2B9
100
AcDbEntity
  8
0
100
AcDbSpline
 62
7
  6
BYLAYER
 70
0
 71
3
 72
9
 73
5
 74
0
 42
0.0000001
 43
0.0000001
 44
0.0000000001
 40
0.0
 40
0.0
 40
0.0
 40
0.0
 40
0.4883025369
 40
1.0
 40
1.0
 40
1.0
 40
1.0
 10
67.5793070446
 20
53.6602274321
 30
0.0
 10
67.5563150993
 20
54.4489206362
 30
0.0
 10
67.4164869807
 20
56.0618843985
 30
0.0
 10
67.1413685106
 20
57.6554680473
 30
0.0
 10
66.9776350256
 20
58.4659254108
 30
0.0
  0
SPLINE
  5
2BA
100
AcDbEntity
  8
0
100
AcDbSpline
 62
7
  6
BYLAYER
 70
0
 71
3
 72
11
 73
7
 74
0
 42
0.0000001
 43
0.0000001
 44
0.0000000001
 40
0.0
 40
0.0
 40
0.0
 40
0.0
 40
0.2887226778
 40
0.5501130261
 40
0.7861436391
 40
1.0
 40
1.0
 40
1.0
 40
1.0
 10
54.8547964122
 20
37.2313633985
 30
0.0
 10
55.1593166078
 20
37.2041614058
 30
0.0
 10
55.740678236
 20
37.1638558214
 30
0.0
 10
56.5733448831
 20
37.1472422782
 30
0.0
 10
57.3264611165
 20
37.1734634603
 30
0.0
 10
57.8011012633
 20
37.2179154107
 30
0.0
 10
58.0258144937
 20
37.245953505
 30
0.0
  0
SPLINE
  5
2BB
100
AcDbEntity
  8
0
100
AcDbSpline
 62
7
  6
BYLAYER
 70
0
 71
3
 72
9
 73
5
 74
0
 42
0.0000001
 43
0.0000001
 44
0.0000000001
 40
0.0
 40
0.0
 40
0.0
 40
0.0
 40
0.254188329
 40
1.0
 40
1.0
 40
1.0
 40
1.0
 10
66.9776350256
 20
58.4659254108
 30
0.0
 10
66.942529917
 20
58.5244661685
 30
0.0
 10
66.8003901766
 20
58.7523182475
 30
0.0
 10
66.6418229072
 20
58.9700010613
 30
0.0
 10
66.5145960595
 20
59.1246797422
 30
0.0
  0
SPLINE
  5
2BC
100
AcDbEntity
  8
0
100
AcDbSpline
 62
7
  6
BYLAYER
 70
0
 71
3
 72
11
 73
7
 74
0
 42
0.0000001
 43
0.0000001
 44
0.0000000001
 40
0.0
 40
0.0
 40
0.0
 40
0.0
 40
0.2477731512
 40
0.4973921748
 40
0.7482964972
 40
1.0
 40
1.0
 40
1.0
 40
1.0
 10
52.7334672368
 20
55.4338408321
 30
0.0
 10
53.0539353447
 20
55.8325098979
 30
0.0
 10
53.722436117
 20
56.612914496
 30
0.0
 10
54.7958215635
 20
57.7249495379
 30
0.0
 10
55.9322867647
 20
58.7841384704
 30
0.0
 10
56.723034519
 20
59.4564577616
 30
0.0
 10
57.1251527889
 20
59.7855536409
 30
0.0
  0
SPLINE
  5
2BD
100
AcDbEntity
  8
0
100
AcDbSpline
 62
7
  6
BYLAYER
 70
0
 71
3
 72
11
 73
7
 74
0
 42
0.0000001
 43
0.0000001
 44
0.0000000001
 40
0.0
 40
0.0
 40
0.0
 40
0.0
 40
0.2138609745
 40
0.4498736999
 40
0.7112735674
 40
1.0
 40
1.0
 40
1.0
 40
1.0
 10
58.0512307211
 20
60.3202217928
 30
0.0
 10
58.2759487726
 20
60.3482604886
 30
0.0
 10
58.7505776751
 20
60.3926745542
 30
0.0
 10
59.5036869369
 20
60.4189615915
 30
0.0
 10
60.3363492588
 20
60.4023116532
 30
0.0
 10
60.9177246829
 20
60.3620142425
 30
0.0
 10
61.2222488026
 20
60.3348118993
 30
0.0
  0
SPLINE
  5
2BE
100
AcDbEntity
  8
0
100
AcDbSpline
 62
7
  6
BYLAYER
 70
0
 71
3
 72
11
 73
7
 74
0
 42
0.0000001
 43
0.0000001
 44
0.0000000001
 40
0.0
 40
0.0
 40
0.0
 40
0.0
 40
0.2256492086
 40
0.4692584096
 40
0.7283047998
 40
1.0
 40
1.0
 40
1.0
 40
1.0
 10
63.343577978
 20
59.1100896357
 30
0.0
 10
63.0103669022
 20
59.1398545097
 30
0.0
 10
62.3187318196
 20
59.2168427232
 30
0.0
 10
61.2501636537
 20
59.3728903556
 30
0.0
 10
60.1189425291
 20
59.5691968555
 30
0.0
 10
59.3466163638
 20
59.7199630028
 30
0.0
 10
58.9518924259
 20
59.8002362787
 30
0.0
  0
SPLINE
  5
2BF
100
AcDbEntity
  8
0
100
AcDbSpline
 62
7
  6
BYLAYER
 70
0
 71
3
 72
25
 73
21
 74
0
 42
0.0000001
 43
0.0000001
 44
0.0000000001
 40
0.0
 40
0.0
 40
0.0
 40
0.0
 40
0.0742848218
 40
0.1447446875
 40
0.2113478529
 40
0.2432764152
 40
0.2743325938
 40
0.3340087891
 40
0.390973791
 40
0.4459946849
 40
0.4999979838
 40
0.554001323
 40
0.6090228989
 40
0.6659883203
 40
0.7256638993
 40
0.7567201467
 40
0.7886510687
 40
0.8552582683
 40
0.925701334
 40
1.0
 40
1.0
 40
1.0
 40
1.0
 10
59.0991871951
 20
40.8222047629
 30
0.0
 10
58.8962133902
 20
40.7050184815
 30
0.0
 10
58.4909807369
 20
40.4928946385
 30
0.0
 10
57.8729333806
 20
40.2399074507
 30
0.0
 10
57.3598815241
 20
40.0903419066
 30
0.0
 10
56.9584761503
 20
40.0113828534
 30
0.0
 10
56.5746444294
 20
39.9603940387
 30
0.0
 10
56.1073422054
 20
39.944131107
 30
0.0
 10
55.567013175
 20
40.0043817312
 30
0.0
 10
55.0599926558
 20
40.144638998
 30
0.0
 10
54.5918994695
 20
40.3637920385
 30
0.0
 10
54.1680484345
 20
40.6595883363
 30
0.0
 10
53.7931043389
 20
41.02859014
 30
0.0
 10
53.4707467702
 20
41.4663914958
 30
0.0
 10
53.2511734557
 20
41.8792160758
 30
0.0
 10
53.1034154559
 20
42.2371252117
 30
0.0
 10
52.9711199542
 20
42.6242627718
 30
0.0
 10
52.8441191187
 20
43.1433240579
 30
0.0
 10
52.7541418042
 20
43.8050613158
 30
0.0
 10
52.7352669959
 20
44.2620579077
 30
0.0
 10
52.7352652301
 20
44.4964751992
 30
0.0
  0
SPLINE
  5
2C0
100
AcDbEntity
  8
0
100
AcDbSpline
 62
7
  6
BYLAYER
 70
0
 71
3
 72
11
 73
7
 74
0
 42
0.0000001
 43
0.0000001
 44
0.0000000001
 40
0.0
 40
0.0
 40
0.0
 40
0.0
 40
0.2477731512
 40
0.4973921748
 40
0.7482964972
 40
1.0
 40
1.0
 40
1.0
 40
1.0
 10
54.8547964122
 20
54.2091185685
 30
0.0
 10
54.5343283043
 20
53.8104495027
 30
0.0
 10
53.865827532
 20
53.0300449046
 30
0.0
 10
52.7924420856
 20
51.9180098626
 30
0.0
 10
51.6559768843
 20
50.8588209301
 30
0.0
 10
50.8652291301
 20
50.186501639
 30
0.0
 10
50.4631108602
 20
49.8574057597
 30
0.0
  0
SPLINE
  5
2C1
100
AcDbEntity
  8
0
100
AcDbSpline
 62
7
  6
BYLAYER
 70
0
 71
3
 72
11
 73
7
 74
0
 42
0.0000001
 43
0.0000001
 44
0.0000000001
 40
0.0
 40
0.0
 40
0.0
 40
0.0
 40
0.2597151621
 40
0.513807829
 40
0.760959036
 40
1.0
 40
1.0
 40
1.0
 40
1.0
 10
50.0000718941
 20
48.6639832764
 30
0.0
 10
50.0932823651
 20
48.2026047588
 30
0.0
 10
50.2627890855
 20
47.2867089471
 30
0.0
 10
50.4578870978
 20
45.9209628678
 30
0.0
 10
50.5811552056
 20
44.5843435838
 30
0.0
 10
50.6104056294
 20
43.7029859929
 30
0.0
 10
50.6104056294
 20
43.2697554499
 30
0.0
  0
SPLINE
  5
2C2
100
AcDbEntity
  8
0
100
AcDbSpline
 62
7
  6
BYLAYER
 70
0
 71
3
 72
9
 73
5
 74
0
 42
0.0000001
 43
0.0000001
 44
0.0000000001
 40
0.0
 40
0.0
 40
0.0
 40
0.0
 40
0.254188329
 40
1.0
 40
1.0
 40
1.0
 40
1.0
 10
50.0000718941
 20
38.5802643728
 30
0.0
 10
50.0351770027
 20
38.5217236152
 30
0.0
 10
50.1773167431
 20
38.2938715362
 30
0.0
 10
50.3358840124
 20
38.0761887223
 30
0.0
 10
50.4631108602
 20
37.9215100414
 30
0.0
  0
SPLINE
  5
2C3
100
AcDbEntity
  8
0
100
AcDbSpline
 62
7
  6
BYLAYER
 70
0
 71
3
 72
11
 73
7
 74
0
 42
0.0000001
 43
0.0000001
 44
0.0000000001
 40
0.0
 40
0.0
 40
0.0
 40
0.0
 40
0.2640505373
 40
0.518096522
 40
0.7629874112
 40
1.0
 40
1.0
 40
1.0
 40
1.0
 10
50.6104056294
 20
43.2697554499
 30
0.0
 10
50.6104056294
 20
42.8524032322
 30
0.0
 10
50.5842097676
 20
42.0332027768
 30
0.0
 10
50.4630845817
 20
40.8324287173
 30
0.0
 10
50.2691369021
 20
39.6846733653
 30
0.0
 10
50.095522484
 20
38.9425168048
 30
0.0
 10
50.0000718941
 20
38.5802643728
 30
0.0
  0
SPLINE
  5
2C4
100
AcDbEntity
  8
0
100
AcDbSpline
 62
7
  6
BYLAYER
 70
0
 71
3
 72
11
 73
7
 74
0
 42
0.0000001
 43
0.0000001
 44
0.0000000001
 40
0.0
 40
0.0
 40
0.0
 40
0.0
 40
0.2269012398
 40
0.4680565992
 40
0.7254227674
 40
1.0
 40
1.0
 40
1.0
 40
1.0
 10
54.8547964122
 20
37.2313633985
 30
0.0
 10
55.1407034269
 20
37.2058240726
 30
0.0
 10
55.7360300371
 20
37.2058794424
 30
0.0
 10
56.6456709626
 20
37.3483910967
 30
0.0
 10
57.5849559243
 20
37.6301449583
 30
0.0
 10
58.20339862
 20
37.8995375445
 30
0.0
 10
58.5143830365
 20
38.0542851447
 30
0.0
  0
SPLINE
  5
2C5
100
AcDbEntity
  8
0
100
AcDbSpline
 62
7
  6
BYLAYER
 70
0
 71
3
 72
11
 73
7
 74
0
 42
0.0000001
 43
0.0000001
 44
0.0000000001
 40
0.0
 40
0.0
 40
0.0
 40
0.0
 40
0.2138609745
 40
0.4498736999
 40
0.7112735674
 40
1.0
 40
1.0
 40
1.0
 40
1.0
 10
66.5145960595
 20
59.1246797422
 30
0.0
 10
66.2898780079
 20
59.0966410464
 30
0.0
 10
65.8152491055
 20
59.0522269808
 30
0.0
 10
65.0621398436
 20
59.0259399435
 30
0.0
 10
64.2294775218
 20
59.0425898818
 30
0.0
 10
63.6481020977
 20
59.0828872926
 30
0.0
 10
63.343577978
 20
59.1100896357
 30
0.0
  0
SPLINE
  5
2C6
100
AcDbEntity
  8
0
100
AcDbSpline
 62
7
  6
BYLAYER
 70
0
 71
3
 72
19
 73
15
 74
0
 42
0.0000001
 43
0.0000001
 44
0.0000000001
 40
0.0
 40
0.0
 40
0.0
 40
0.0
 40
0.151814537
 40
0.2930199882
 40
0.4239849096
 40
0.5459524373
 40
0.6042922699
 40
0.661293991
 40
0.7173721011
 40
0.7729769439
 40
0.8285792166
 40
0.8846596827
 40
0.9416738691
 40
1.0
 40
1.0
 40
1.0
 40
1.0
 10
50.6104056294
 20
43.2697554499
 30
0.0
 10
50.6104056294
 20
42.8565446754
 30
0.0
 10
50.6538715043
 20
42.0579433151
 30
0.0
 10
50.8654511154
 20
40.919781907
 30
0.0
 10
51.218662987
 20
39.9020322571
 30
0.0
 10
51.6346404933
 20
39.1575542484
 30
0.0
 10
52.0323644143
 20
38.6473132588
 30
0.0
 10
52.3569655242
 20
38.3108768789
 30
0.0
 10
52.7108577198
 20
38.0168872301
 30
0.0
 10
53.0923929274
 20
37.7666089501
 30
0.0
 10
53.4998946782
 20
37.5612965273
 30
0.0
 10
53.931493627
 20
37.4018049233
 30
0.0
 10
54.3851029399
 20
37.2889253742
 30
0.0
 10
54.6966732023
 20
37.2454881313
 30
0.0
 10
54.8547964122
 20
37.2313633985
 30
0.0
  0
SPLINE
  5
2C7
100
AcDbEntity
  8
0
100
AcDbSpline
 62
7
  6
BYLAYER
 70
0
 71
3
 72
15
 73
11
 74
0
 42
0.0000001
 43
0.0000001
 44
0.0000000001
 40
0.0
 40
0.0
 40
0.0
 40
0.0
 40
0.129847411
 40
0.2611866596
 40
0.3925260486
 40
0.5223738886
 40
0.6492905064
 40
0.7719421396
 40
0.8891589506
 40
1.0
 40
1.0
 40
1.0
 40
1.0
 10
54.8547964122
 20
54.2091185685
 30
0.0
 10
54.5310364478
 20
53.806354364
 30
0.0
 10
53.9118125054
 20
52.9699365836
 30
0.0
 10
53.0796877681
 20
51.6462045964
 30
0.0
 10
52.3493282455
 20
50.2635993895
 30
0.0
 10
51.7331671969
 20
48.8456010125
 30
0.0
 10
51.2415968871
 20
47.4161553939
 30
0.0
 10
50.8829273275
 20
45.999280746
 30
0.0
 10
50.6632416722
 20
44.6189994908
 30
0.0
 10
50.6104056294
 20
43.7108737778
 30
0.0
 10
50.6104056294
 20
43.2697554499
 30
0.0
  0
SPLINE
  5
2C8
100
AcDbEntity
  8
0
100
AcDbSpline
 62
7
  6
BYLAYER
 70
0
 71
3
 72
11
 73
7
 74
0
 42
0.0000001
 43
0.0000001
 44
0.0000000001
 40
0.0
 40
0.0
 40
0.0
 40
0.0
 40
0.232065918
 40
0.4774810713
 40
0.7342754496
 40
1.0
 40
1.0
 40
1.0
 40
1.0
 10
59.0991871951
 20
57.9728380347
 30
0.0
 10
58.7171713663
 20
57.7522824097
 30
0.0
 10
57.9571399232
 20
57.2524705847
 30
0.0
 10
56.8716241205
 20
56.3720691093
 30
0.0
 10
55.823964969
 20
55.3530800374
 30
0.0
 10
55.1712469015
 20
54.6027896322
 30
0.0
 10
54.8547964122
 20
54.2091185685
 30
0.0
  0
SPLINE
  5
2C9
100
AcDbEntity
  8
0
100
AcDbSpline
 62
7
  6
BYLAYER
 70
0
 71
3
 72
11
 73
7
 74
0
 42
0.0000001
 43
0.0000001
 44
0.0000000001
 40
0.0
 40
0.0
 40
0.0
 40
0.0
 40
0.2234035249
 40
0.4632869182
 40
0.7219272534
 40
1.0
 40
1.0
 40
1.0
 40
1.0
 10
63.343577978
 20
59.1100896357
 30
0.0
 10
63.012925811
 20
59.139625929
 30
0.0
 10
62.3197046496
 20
59.1298948548
 30
0.0
 10
61.2618545128
 20
58.926922074
 30
0.0
 10
60.170357273
 20
58.5410891744
 30
0.0
 10
59.4570337849
 20
58.1794396264
 30
0.0
 10
59.0991871951
 20
57.9728380347
 30
0.0
  0
SPLINE
  5
2CA
100
AcDbEntity
  8
0
100
AcDbSpline
 62
7
  6
BYLAYER
 70
0
 71
3
 72
20
 73
16
 74
0
 42
0.0000001
 43
0.0000001
 44
0.0000000001
 40
0.0
 40
0.0
 40
0.0
 40
0.0
 40
0.1490470855
 40
0.2880509918
 40
0.4176933737
 40
0.479468921
 40
0.5394990756
 40
0.5980871011
 40
0.6555804512
 40
0.7123626553
 40
0.768840604
 40
0.8254363921
 40
0.8825755057
 40
0.9406539553
 40
1.0
 40
1.0
 40
1.0
 40
1.0
 10
67.5677697628
 20
53.7355848616
 30
0.0
 10
67.5447142504
 20
54.1076338678
 30
0.0
 10
67.4607269254
 20
54.8252245685
 30
0.0
 10
67.2055303597
 20
55.8413991551
 30
0.0
 10
66.8855978237
 20
56.6076701973
 30
0.0
 10
66.5693722707
 20
57.1520985926
 30
0.0
 10
66.3077907058
 20
57.520516125
 30
0.0
 10
66.0189939529
 20
57.8540092183
 30
0.0
 10
65.7040326491
 20
58.1512660349
 30
0.0
 10
65.3641007386
 20
58.4110513954
 30
0.0
 10
65.0005590757
 20
58.6323572253
 30
0.0
 10
64.6148008171
 20
58.8142463498
 30
0.0
 10
64.2083507701
 20
58.9560612574
 30
0.0
 10
63.7829264977
 20
59.0571973524
 30
0.0
 10
63.4914121723
 20
59.0968839938
 30
0.0
 10
63.343577978
 20
59.1100896357
 30
0.0
  0
SPLINE
  5
2CB
100
AcDbEntity
  8
0
100
AcDbSpline
 62
7
  6
BYLAYER
 70
0
 71
3
 72
23
 73
19
 74
0
 42
0.0000001
 43
0.0000001
 44
0.0000000001
 40
0.0
 40
0.0
 40
0.0
 40
0.0
 40
0.0728045668
 40
0.1415499656
 40
0.2062369697
 40
0.2671389676
 40
0.3247350815
 40
0.3797557906
 40
0.4331603182
 40
0.486067872
 40
0.5396516113
 40
0.5950127594
 40
0.6530778279
 40
0.7145393408
 40
0.7798434593
 40
0.8492070383
 40
0.9226446659
 40
1.0
 40
1.0
 40
1.0
 40
1.0
 10
59.0991871951
 20
55.5192482713
 30
0.0
 10
59.3174988977
 20
55.6452898392
 30
0.0
 10
59.7532009154
 20
55.8716590825
 30
0.0
 10
60.418300334
 20
56.1352556363
 30
0.0
 10
61.0697738135
 20
56.3102253898
 30
0.0
 10
61.7004840663
 20
56.3942552916
 30
0.0
 10
62.3036295487
 20
56.38575713
 30
0.0
 10
62.8722222908
 20
56.2840203187
 30
0.0
 10
63.3991385935
 20
56.089498431
 30
0.0
 10
63.8772980836
 20
55.8042173684
 30
0.0
 10
64.3003501705
 20
55.4320749748
 30
0.0
 10
64.6631990705
 20
54.9783204255
 30
0.0
 10
64.9620486059
 20
54.4489701508
 30
0.0
 10
65.1941990515
 20
53.8504909406
 30
0.0
 10
65.3576923535
 20
53.1897043188
 30
0.0
 10
65.451141493
 20
52.4738573824
 30
0.0
 10
65.4737870502
 20
51.7108117766
 30
0.0
 10
65.4424099035
 20
51.1888943288
 30
0.0
 10
65.4157169269
 20
50.922386556
 30
0.0
  0
SPLINE
  5
2CC
100
AcDbEntity
  8
0
100
AcDbSpline
 62
7
  6
BYLAYER
 70
0
 71
3
 72
9
 73
5
 74
0
 42
0.0000001
 43
0.0000001
 44
0.0000000001
 40
0.0
 40
0.0
 40
0.0
 40
0.0
 40
0.2552694058
 40
1.0
 40
1.0
 40
1.0
 40
1.0
 10
59.8467145762
 20
41.304672697
 30
0.0
 10
59.7850855884
 20
41.260678106
 30
0.0
 10
59.5417160394
 20
41.0910795551
 30
0.0
 10
59.2905015383
 20
40.9326594911
 30
0.0
 10
59.0991871951
 20
40.8222047629
 30
0.0
  0
SPLINE
  5
2CD
100
AcDbEntity
  8
0
100
AcDbSpline
 62
7
  6
BYLAYER
 70
0
 71
3
 72
11
 73
7
 74
0
 42
0.0000001
 43
0.0000001
 44
0.0000000001
 40
0.0
 40
0.0
 40
0.0
 40
0.0
 40
0.2458891186
 40
0.4944449149
 40
0.7458370139
 40
1.0
 40
1.0
 40
1.0
 40
1.0
 10
58.0258144937
 20
59.2655681268
 30
0.0
 10
57.8103285535
 20
58.8253111378
 30
0.0
 10
57.3578202772
 20
57.9492170039
 30
0.0
 10
56.6093204082
 20
56.6637722228
 30
0.0
 10
55.7794775582
 20
55.4092724731
 30
0.0
 10
55.1722275116
 20
54.6040095318
 30
0.0
 10
54.8547964122
 20
54.2091185685
 30
0.0
  0
SPLINE
  5
2CE
100
AcDbEntity
  8
0
100
AcDbSpline
 62
7
  6
BYLAYER
 70
0
 71
3
 72
14
 73
10
 74
0
 42
0.0000001
 43
0.0000001
 44
0.0000000001
 40
0.0
 40
0.0
 40
0.0
 40
0.0
 40
0.1475111702
 40
0.2879820467
 40
0.5471715912
 40
0.6671870639
 40
0.7818016068
 40
0.8922286083
 40
1.0
 40
1.0
 40
1.0
 40
1.0
 10
65.6779751638
 20
51.1442927478
 30
0.0
 10
65.8539778444
 20
51.2459073363
 30
0.0
 10
66.2056415952
 20
51.4310075829
 30
0.0
 10
66.9011947054
 20
51.7228316722
 30
0.0
 10
67.6004913616
 20
51.9056461506
 30
0.0
 10
68.2807323545
 20
51.9542235166
 30
0.0
 10
68.7568180444
 20
51.9249350387
 30
0.0
 10
69.2071737125
 20
51.8304836737
 30
0.0
 10
69.4897662496
 20
51.7237050464
 30
0.0
 10
69.6239892794
 20
51.660220015
 30
0.0
  0
SPLINE
  5
2CF
100
AcDbEntity
  8
0
100
AcDbSpline
 62
7
  6
BYLAYER
 70
0
 71
3
 72
23
 73
19
 74
0
 42
0.0000001
 43
0.0000001
 44
0.0000000001
 40
0.0
 40
0.0
 40
0.0
 40
0.0
 40
0.0428491478
 40
0.0877227936
 40
0.1359355581
 40
0.1883042037
 40
0.2451604133
 40
0.3064264619
 40
0.3717053606
 40
0.4403606726
 40
0.5115797941
 40
0.5844275999
 40
0.6578960181
 40
0.7309541409
 40
0.8025878573
 40
0.8718337832
 40
0.937881578
 40
1.0
 40
1.0
 40
1.0
 40
1.0
 10
64.7843513263
 20
37.9630531433
 30
0.0
 10
64.6418075329
 20
38.0548852185
 30
0.0
 10
64.373152325
 20
38.2813666047
 30
0.0
 10
64.054088991
 20
38.7198801579
 30
0.0
 10
63.8188466912
 20
39.2492490142
 30
0.0
 10
63.6706686261
 20
39.8572421046
 30
0.0
 10
63.6111081778
 20
40.5314581171
 30
0.0
 10
63.6406628561
 20
41.2583455361
 30
0.0
 10
63.7583667607
 20
42.0232252203
 30
0.0
 10
63.9616832386
 20
42.8104665984
 30
0.0
 10
64.2463970158
 20
43.6038240647
 30
0.0
 10
64.6065726807
 20
44.3868302951
 30
0.0
 10
65.0346767754
 20
45.1432048573
 30
0.0
 10
65.5218189113
 20
45.8571923047
 30
0.0
 10
66.0578659528
 20
46.513861373
 30
0.0
 10
66.6317121246
 20
47.099740179
 30
0.0
 10
67.2314145882
 20
47.602367922
 30
0.0
 10
67.6544640419
 20
47.88464791
 30
0.0
 10
67.8673477869
 20
48.0075556638
 30
0.0
  0
SPLINE
  5
2D0
100
AcDbEntity
  8
0
100
AcDbSpline
 62
7
  6
BYLAYER
 70
0
 71
3
 72
9
 73
5
 74
0
 42
0.0000001
 43
0.0000001
 44
0.0000000001
 40
0.0
 40
0.0
 40
0.0
 40
0.0
 40
0.4734402316
 40
1.0
 40
1.0
 40
1.0
 40
1.0
 10
65.3287702665
 20
36.4614000034
 30
0.0
 10
65.6271039298
 20
36.4509634547
 30
0.0
 10
66.2616051441
 20
36.5200167826
 30
0.0
 10
66.861665231
 20
36.7275536678
 30
0.0
 10
67.1651611843
 20
36.8621658365
 30
0.0
  0
SPLINE
  5
2D1
100
AcDbEntity
  8
0
100
AcDbSpline
 62
7
  6
BYLAYER
 70
0
 71
3
 72
9
 73
5
 74
0
 42
0.0000001
 43
0.0000001
 44
0.0000000001
 40
0.0
 40
0.0
 40
0.0
 40
0.0
 40
0.2444902449
 40
1.0
 40
1.0
 40
1.0
 40
1.0
 10
67.1651611843
 20
36.8621658365
 30
0.0
 10
67.2152315561
 20
36.8843739789
 30
0.0
 10
67.4187315856
 20
36.9781122611
 30
0.0
 10
67.6170141461
 20
37.0830814782
 30
0.0
 10
67.763598659
 20
37.1677115811
 30
0.0
  0
SPLINE
  5
2D2
100
AcDbEntity
  8
0
100
AcDbSpline
 62
7
  6
BYLAYER
 70
0
 71
3
 72
15
 73
11
 74
0
 42
0.0000001
 43
0.0000001
 44
0.0000000001
 40
0.0
 40
0.0
 40
0.0
 40
0.0
 40
0.1485537913
 40
0.2895072603
 40
0.4227299923
 40
0.5486372184
 40
0.6679981872
 40
0.7819376114
 40
0.8919872626
 40
1.0
 40
1.0
 40
1.0
 40
1.0
 10
34.643684736
 20
69.6328949495
 30
0.0
 10
34.8464717148
 20
69.7499733674
 30
0.0
 10
35.25140345
 20
69.961905047
 30
0.0
 10
35.8690189647
 20
70.2147720628
 30
0.0
 10
36.4757033777
 20
70.3916206093
 30
0.0
 10
37.0655915047
 20
70.4905529495
 30
0.0
 10
37.6332534647
 20
70.5103264878
 30
0.0
 10
38.1732365396
 20
70.4500806412
 30
0.0
 10
38.6797893469
 20
70.3100541345
 30
0.0
 10
38.9928287837
 20
70.1634227963
 30
0.0
 10
39.1402749242
 20
70.0782968911
 30
0.0
  0
SPLINE
  5
2D3
100
AcDbEntity
  8
0
100
AcDbSpline
 62
7
  6
BYLAYER
 70
0
 71
3
 72
14
 73
10
 74
0
 42
0.0000001
 43
0.0000001
 44
0.0000000001
 40
0.0
 40
0.0
 40
0.0
 40
0.0
 40
0.1474351454
 40
0.2878652499
 40
0.5470725193
 40
0.6671259412
 40
0.7817824436
 40
0.8922367267
 40
1.0
 40
1.0
 40
1.0
 40
1.0
 10
29.8765453184
 20
71.7738571228
 30
0.0
 10
30.0507934596
 20
71.8744587335
 30
0.0
 10
30.3989554347
 20
72.0577864916
 30
0.0
 10
31.0876412695
 20
72.3471811839
 30
0.0
 10
31.7800428818
 20
72.529124557
 30
0.0
 10
32.4538472942
 20
72.578841845
 30
0.0
 10
32.9256470948
 20
72.5513245926
 30
0.0
 10
33.3721844334
 20
72.4595757547
 30
0.0
 10
33.6526350594
 20
72.3551922401
 30
0.0
 10
33.7859132575
 20
72.2930249887
 30
0.0
  0
SPLINE
  5
2D4
100
AcDbEntity
  8
0
100
AcDbSpline
 62
7
  6
BYLAYER
 70
0
 71
3
 72
15
 73
11
 74
0
 42
0.0000001
 43
0.0000001
 44
0.0000000001
 40
0.0
 40
0.0
 40
0.0
 40
0.0
 40
0.1101332423
 40
0.2219848333
 40
0.3371357481
 40
0.4569652001
 40
0.5825467949
 40
0.7146914824
 40
0.8538779446
 40
1.0
 40
1.0
 40
1.0
 40
1.0
 10
71.1680180732
 20
50.7794645407
 30
0.0
 10
71.309998208
 20
50.6975532082
 30
0.0
 10
71.5825654833
 20
50.5075457371
 30
0.0
 10
71.942097239
 20
50.1544942146
 30
0.0
 10
72.2499561478
 20
49.737623
 30
0.0
 10
72.5034642923
 20
49.2627038932
 30
0.0
 10
72.7012701825
 20
48.7351967991
 30
0.0
 10
72.8425232224
 20
48.1603324666
 30
0.0
 10
72.9266418935
 20
47.5437541254
 30
0.0
 10
72.9443737597
 20
47.1188325717
 30
0.0
 10
72.9443737597
 20
46.9013554364
 30
0.0
  0
SPLINE
  5
2D5
100
AcDbEntity
  8
0
100
AcDbSpline
 62
7
  6
BYLAYER
 70
0
 71
3
 72
15
 73
11
 74
0
 42
0.0000001
 43
0.0000001
 44
0.0000000001
 40
0.0
 40
0.0
 40
0.0
 40
0.0
 40
0.1145288278
 40
0.2377757019
 40
0.3673219288
 40
0.5001508648
 40
0.6329585924
 40
0.7624430464
 40
0.8855929542
 40
1.0
 40
1.0
 40
1.0
 40
1.0
 10
9.4041606971
 20
71.8662087189
 30
0.0
 10
9.4041606971
 20
72.1592618231
 30
0.0
 10
9.4576754274
 20
72.7682543385
 30
0.0
 10
9.6712246661
 20
73.68609503
 30
0.0
 10
10.0129793485
 20
74.6142936143
 30
0.0
 10
10.4701794661
 20
75.5186226078
 30
0.0
 10
11.0258556318
 20
76.3658229991
 30
0.0
 10
11.659651846
 20
77.1246032842
 30
0.0
 10
12.3482804368
 20
77.7668520803
 30
0.0
 10
12.8491429166
 20
78.1164245902
 30
0.0
 10
13.1029745998
 20
78.2622568835
 30
0.0
  0
SPLINE
  5
2D6
100
AcDbEntity
  8
0
100
AcDbSpline
 62
7
  6
BYLAYER
 70
0
 71
3
 72
9
 73
5
 74
0
 42
0.0000001
 43
0.0000001
 44
0.0000000001
 40
0.0
 40
0.0
 40
0.0
 40
0.0
 40
0.2603972096
 40
1.0
 40
1.0
 40
1.0
 40
1.0
 10
13.1368528782
 20
78.2815419927
 30
0.0
 10
13.2015478816
 20
78.3180281507
 30
0.0
 10
13.4531272796
 20
78.4524096502
 30
0.0
 10
13.7178182896
 20
78.5630929825
 30
0.0
 10
13.9190065087
 20
78.6265567652
 30
0.0
  0
SPLINE
  5
2D7
100
AcDbEntity
  8
0
100
AcDbSpline
 62
7
  6
BYLAYER
 70
0
 71
3
 72
9
 73
5
 74
0
 42
0.0000001
 43
0.0000001
 44
0.0000000001
 40
0.0
 40
0.0
 40
0.0
 40
0.0
 40
0.516722715
 40
1.0
 40
1.0
 40
1.0
 40
1.0
 10
13.9190065087
 20
78.6265567652
 30
0.0
 10
14.0742246312
 20
78.6755195189
 30
0.0
 10
14.3818257505
 20
78.749451929
 30
0.0
 10
14.6981401454
 20
78.7704503259
 30
0.0
 10
14.8502771481
 20
78.7653377047
 30
0.0
  0
SPLINE
  5
2D8
100
AcDbEntity
  8
0
100
AcDbSpline
 62
7
  6
BYLAYER
 70
0
 71
3
 72
14
 73
10
 74
0
 42
0.0000001
 43
0.0000001
 44
0.0000000001
 40
0.0
 40
0.0
 40
0.0
 40
0.0
 40
0.1473546305
 40
0.2877412902
 40
0.5469662433
 40
0.6670593681
 40
0.7817601452
 40
0.8922438584
 40
1.0
 40
1.0
 40
1.0
 40
1.0
 10
28.9747259754
 20
72.2945109844
 30
0.0
 10
29.1482199911
 20
72.3946772032
 30
0.0
 10
29.4948792407
 20
72.5772877666
 30
0.0
 10
30.1806541501
 20
72.8659326189
 30
0.0
 10
30.870138862
 20
73.0480847504
 30
0.0
 10
31.5413858551
 20
73.0992875036
 30
0.0
 10
32.0116236638
 20
73.0734377538
 30
0.0
 10
32.4569284785
 20
72.9839306302
 30
0.0
 10
32.7368690549
 20
72.881393607
 30
0.0
 10
32.8699805179
 20
72.8202137123
 30
0.0
  0
SPLINE
  5
2D9
100
AcDbEntity
  8
0
100
AcDbSpline
 62
7
  6
BYLAYER
 70
0
 71
3
 72
9
 73
5
 74
0
 42
0.0000001
 43
0.0000001
 44
0.0000000001
 40
0.0
 40
0.0
 40
0.0
 40
0.0
 40
0.4832806333
 40
1.0
 40
1.0
 40
1.0
 40
1.0
 10
9.8415459232
 20
70.0918895453
 30
0.0
 10
9.7612077458
 20
70.2209833277
 30
0.0
 10
9.6214735958
 20
70.5051248212
 30
0.0
 10
9.5318261689
 20
70.8081429956
 30
0.0
 10
9.4966758393
 20
70.9668688051
 30
0.0
  0
SPLINE
  5
2DA
100
AcDbEntity
  8
0
100
AcDbSpline
 62
7
  6
BYLAYER
 70
0
 71
3
 72
9
 73
5
 74
0
 42
0.0000001
 43
0.0000001
 44
0.0000000001
 40
0.0
 40
0.0
 40
0.0
 40
0.0
 40
0.240043287
 40
1.0
 40
1.0
 40
1.0
 40
1.0
 10
9.4966758393
 20
70.9668688051
 30
0.0
 10
9.4818820448
 20
71.0336720763
 30
0.0
 10
9.4285170316
 20
71.3137817957
 30
0.0
 10
9.406638599
 20
71.599499142
 30
0.0
 10
9.4044169728
 20
71.8161051566
 30
0.0
  0
SPLINE
  5
2DB
100
AcDbEntity
  8
0
100
AcDbSpline
 62
7
  6
BYLAYER
 70
0
 71
3
 72
9
 73
5
 74
0
 42
0.0000001
 43
0.0000001
 44
0.0000000001
 40
0.0
 40
0.0
 40
0.0
 40
0.0
 40
0.5000520653
 40
1.0
 40
1.0
 40
1.0
 40
1.0
 10
24.7477821222
 20
75.9088417382
 30
0.0
 10
25.0500939668
 20
75.8195224862
 30
0.0
 10
25.6544104941
 20
75.6400774107
 30
0.0
 10
26.2588802998
 20
75.4611495241
 30
0.0
 10
26.5609714241
 20
75.3713166154
 30
0.0
  0
SPLINE
  5
2DC
100
AcDbEntity
  8
0
100
AcDbSpline
 62
7
  6
BYLAYER
 70
0
 71
3
 72
14
 73
10
 74
0
 42
0.0000001
 43
0.0000001
 44
0.0000000001
 40
0.0
 40
0.0
 40
0.0
 40
0.0
 40
0.1080477172
 40
0.2181310799
 40
0.3321075094
 40
0.4515016648
 40
0.5774650106
 40
0.7107278227
 40
1.0
 40
1.0
 40
1.0
 40
1.0
 10
10.9574289497
 20
68.3054050742
 30
0.0
 10
10.8591087929
 20
68.3621702718
 30
0.0
 10
10.6701029043
 20
68.4941106796
 30
0.0
 10
10.4202794146
 20
68.7398770433
 30
0.0
 10
10.2055136063
 20
69.0316660684
 30
0.0
 10
10.027594661
 20
69.3660369161
 30
0.0
 10
9.8881036484
 20
69.7397463999
 30
0.0
 10
9.7508806707
 20
70.3005118687
 30
0.0
 10
9.7154148654
 20
70.7466769535
 30
0.0
 10
9.7154126664
 20
71.0506275877
 30
0.0
  0
SPLINE
  5
2DD
100
AcDbEntity
  8
0
100
AcDbSpline
 62
7
  6
BYLAYER
 70
0
 71
3
 72
11
 73
7
 74
0
 42
0.0000001
 43
0.0000001
 44
0.0000000001
 40
0.0
 40
0.0
 40
0.0
 40
0.0
 40
0.2831253211
 40
0.5426699688
 40
0.7800747043
 40
1.0
 40
1.0
 40
1.0
 40
1.0
 10
19.8955937465
 20
74.9659894046
 30
0.0
 10
20.1070328393
 20
75.088063093
 30
0.0
 10
20.5281681388
 20
75.2963985441
 30
0.0
 10
21.1737079111
 20
75.497054332
 30
0.0
 10
21.7921699501
 20
75.566458472
 30
0.0
 10
22.188545748
 20
75.5205136917
 30
0.0
 10
22.3723719117
 20
75.4738803141
 30
0.0
  0
SPLINE
  5
2DE
100
AcDbEntity
  8
0
100
AcDbSpline
 62
7
  6
BYLAYER
 70
0
 71
3
 72
9
 73
5
 74
0
 42
0.0000001
 43
0.0000001
 44
0.0000000001
 40
0.0
 40
0.0
 40
0.0
 40
0.0
 40
0.5031965269
 40
1.0
 40
1.0
 40
1.0
 40
1.0
 10
22.3723719117
 20
75.4738803141
 30
0.0
 10
22.4640587667
 20
75.4506210149
 30
0.0
 10
22.643442538
 20
75.3922917729
 30
0.0
 10
22.8130777153
 20
75.3096941255
 30
0.0
 10
22.8939552299
 20
75.2629994471
 30
0.0
  0
SPLINE
  5
2DF
100
AcDbEntity
  8
0
100
AcDbSpline
 62
7
  6
BYLAYER
 70
0
 71
3
 72
14
 73
10
 74
0
 42
0.0000001
 43
0.0000001
 44
0.0000000001
 40
0.0
 40
0.0
 40
0.0
 40
0.0
 40
0.2892710494
 40
0.4225536085
 40
0.5484974385
 40
0.6678867473
 40
0.7818678462
 40
0.8919525122
 40
1.0
 40
1.0
 40
1.0
 40
1.0
 10
13.9557904331
 20
78.395258866
 30
0.0
 10
14.219011859
 20
78.54722892
 30
0.0
 10
14.6231466917
 20
78.7395821074
 30
0.0
 10
15.1773667825
 20
78.9011718991
 30
0.0
 10
15.5707463845
 20
78.9671856744
 30
0.0
 10
15.9492468734
 20
78.9802812285
 30
0.0
 10
16.3093203163
 20
78.9402048231
 30
0.0
 10
16.64707239
 20
78.8467446965
 30
0.0
 10
16.8558345501
 20
78.7490324952
 30
0.0
 10
16.9541519165
 20
78.6922689086
 30
0.0
  0
SPLINE
  5
2E0
100
AcDbEntity
  8
0
100
AcDbSpline
 62
7
  6
BYLAYER
 70
0
 71
3
 72
9
 73
5
 74
0
 42
0.0000001
 43
0.0000001
 44
0.0000000001
 40
0.0
 40
0.0
 40
0.0
 40
0.0
 40
0.4968050381
 40
1.0
 40
1.0
 40
1.0
 40
1.0
 10
16.897232263
 20
64.8761356127
 30
0.0
 10
16.8163556467
 20
64.9228297725
 30
0.0
 10
16.660008651
 20
65.0284376319
 30
0.0
 10
16.5198011244
 20
65.1546182768
 30
0.0
 10
16.4538128767
 20
65.2223878479
 30
0.0
  0
SPLINE
  5
2E1
100
AcDbEntity
  8
0
100
AcDbSpline
 62
7
  6
BYLAYER
 70
0
 71
3
 72
11
 73
7
 74
0
 42
0.0000001
 43
0.0000001
 44
0.0000000001
 40
0.0
 40
0.0
 40
0.0
 40
0.0
 40
0.2199175666
 40
0.4573486968
 40
0.7168329524
 40
1.0
 40
1.0
 40
1.0
 40
1.0
 10
16.4538128767
 20
65.2223878479
 30
0.0
 10
16.3215083717
 20
65.3582638539
 30
0.0
 10
16.0834820329
 20
65.6785694649
 30
0.0
 10
15.8344242386
 20
66.248889456
 30
0.0
 10
15.6853287524
 20
66.9082754613
 30
0.0
 10
15.6552177464
 20
67.3771649542
 30
0.0
 10
15.6552159798
 20
67.6213581262
 30
0.0
  0
SPLINE
  5
2E2
100
AcDbEntity
  8
0
100
AcDbSpline
 62
7
  6
BYLAYER
 70
0
 71
3
 72
17
 73
13
 74
0
 42
0.0000001
 43
0.0000001
 44
0.0000000001
 40
0.0
 40
0.0
 40
0.0
 40
0.0
 40
0.044662623
 40
0.0911020213
 40
0.139847473
 40
0.1912738438
 40
0.3028350769
 40
0.4263168675
 40
0.5604674414
 40
0.7029249631
 40
0.8506010864
 40
1.0
 40
1.0
 40
1.0
 40
1.0
 10
17.7817176821
 20
64.1570801641
 30
0.0
 10
17.6870576873
 20
64.2476810628
 30
0.0
 10
17.5087825996
 20
64.4485253669
 30
0.0
 10
17.2845182077
 20
64.7936678551
 30
0.0
 10
17.1011097897
 20
65.1841122981
 30
0.0
 10
16.9076332838
 20
65.7757710792
 30
0.0
 10
16.783573659
 20
66.6133037819
 30
0.0
 10
16.8147916938
 20
67.7002157601
 30
0.0
 10
17.0192050829
 20
68.859767636
 30
0.0
 10
17.389353631
 20
70.0513610759
 30
0.0
 10
17.9119078908
 20
71.2330431972
 30
0.0
 10
18.3508189894
 20
71.9884236771
 30
0.0
 10
18.5916642625
 20
72.3546266506
 30
0.0
  0
SPLINE
  5
2E3
100
AcDbEntity
  8
0
100
AcDbSpline
 62
7
  6
BYLAYER
 70
0
 71
3
 72
24
 73
20
 74
0
 42
0.0000001
 43
0.0000001
 44
0.0000000001
 40
0.0
 40
0.0
 40
0.0
 40
0.0
 40
0.0213098757
 40
0.0429662852
 40
0.0880077741
 40
0.1364511864
 40
0.1890529757
 40
0.2461012924
 40
0.3074951058
 40
0.3728288649
 40
0.4414658136
 40
0.5126001221
 40
0.5853117261
 40
0.6586109903
 40
0.7314829261
 40
0.8029350068
 40
0.8720241128
 40
0.9379464412
 40
1.0
 40
1.0
 40
1.0
 40
1.0
 10
24.675098515
 20
58.5341935874
 30
0.0
 10
24.5800059506
 20
58.5992107394
 30
0.0
 10
24.3962812901
 20
58.7424775386
 30
0.0
 10
24.0589029351
 20
59.0792777287
 30
0.0
 10
23.7001478092
 20
59.5948490754
 30
0.0
 10
23.3902221632
 20
60.3261620449
 30
0.0
 10
23.1978380012
 20
61.1626351071
 30
0.0
 10
23.1253983717
 20
62.0872551455
 30
0.0
 10
23.1733440849
 20
63.0818284459
 30
0.0
 10
23.3403560861
 20
64.1265472486
 30
0.0
 10
23.622899814
 20
65.2003789045
 30
0.0
 10
24.0151445317
 20
66.2815216583
 30
0.0
 10
24.5090628692
 20
67.3478994121
 30
0.0
 10
25.0945293732
 20
68.3776720872
 30
0.0
 10
25.7595691685
 20
69.3497369061
 30
0.0
 10
26.4905551873
 20
70.2441106608
 30
0.0
 10
27.2725753079
 20
71.0427169779
 30
0.0
 10
28.0896369845
 20
71.7289159795
 30
0.0
 10
28.6658753035
 20
72.1150746734
 30
0.0
 10
28.9559058028
 20
72.2836099438
 30
0.0
  0
SPLINE
  5
2E4
100
AcDbEntity
  8
0
100
AcDbSpline
 62
7
  6
BYLAYER
 70
0
 71
3
 72
15
 73
11
 74
0
 42
0.0000001
 43
0.0000001
 44
0.0000000001
 40
0.0
 40
0.0
 40
0.0
 40
0.0
 40
0.1167431183
 40
0.2423686861
 40
0.3740028412
 40
0.5081694328
 40
0.6411912319
 40
0.7694838668
 40
0.8898818498
 40
1.0
 40
1.0
 40
1.0
 40
1.0
 10
67.9397134319
 20
37.2728513192
 30
0.0
 10
68.3084100648
 20
37.5001984742
 30
0.0
 10
69.032988898
 20
38.0401148098
 30
0.0
 10
70.0201949434
 20
39.0205868267
 30
0.0
 10
70.9167836078
 20
40.1677292077
 30
0.0
 10
71.6864092388
 20
41.4355057316
 30
0.0
 10
72.2983306869
 20
42.7729359184
 30
0.0
 10
72.7279146279
 20
44.126625773
 30
0.0
 10
72.9579830407
 20
45.442086171
 30
0.0
 10
72.9724134642
 20
46.3024938633
 30
0.0
 10
72.9381542953
 20
46.7096299602
 30
0.0
  0
SPLINE
  5
2E5
100
AcDbEntity
  8
0
100
AcDbSpline
 62
7
  6
BYLAYER
 70
0
 71
3
 72
9
 73
5
 74
0
 42
0.0000001
 43
0.0000001
 44
0.0000000001
 40
0.0
 40
0.0
 40
0.0
 40
0.0
 40
0.5256014651
 40
1.0
 40
1.0
 40
1.0
 40
1.0
 10
72.9181573146
 20
46.9072200505
 30
0.0
 10
72.8805039326
 20
47.2246000128
 30
0.0
 10
72.7582017028
 20
47.8244019454
 30
0.0
 10
72.5074770622
 20
48.386085181
 30
0.0
 10
72.3545577419
 20
48.6306886901
 30
0.0
  0
SPLINE
  5
2E6
100
AcDbEntity
  8
0
100
AcDbSpline
 62
7
  6
BYLAYER
 70
0
 71
3
 72
14
 73
10
 74
0
 42
0.0000001
 43
0.0000001
 44
0.0000000001
 40
0.0
 40
0.0
 40
0.0
 40
0.0
 40
0.2883479697
 40
0.4216235181
 40
0.5477974171
 40
0.6675538374
 40
0.781899779
 40
0.892161752
 40
1.0
 40
1.0
 40
1.0
 40
1.0
 10
67.8673477869
 20
48.0075556638
 30
0.0
 10
68.1217914713
 20
48.1544579166
 30
0.0
 10
68.5121072611
 20
48.3414727486
 30
0.0
 10
69.0472527687
 20
48.5031251217
 30
0.0
 10
69.4282103796
 20
48.5730286926
 30
0.0
 10
69.7957593326
 20
48.593809031
 30
0.0
 10
70.1467192159
 20
48.5652031959
 30
0.0
 10
70.4776423111
 20
48.486980534
 30
0.0
 10
70.6840621097
 20
48.4015815165
 30
0.0
 10
70.7817845411
 20
48.351343968
 30
0.0
  0
SPLINE
  5
2E7
100
AcDbEntity
  8
0
100
AcDbSpline
 62
7
  6
BYLAYER
 70
0
 71
3
 72
9
 73
5
 74
0
 42
0.0000001
 43
0.0000001
 44
0.0000000001
 40
0.0
 40
0.0
 40
0.0
 40
0.0
 40
0.4957661775
 40
1.0
 40
1.0
 40
1.0
 40
1.0
 10
61.3582896057
 20
37.2986340197
 30
0.0
 10
61.2587930167
 20
37.3663171178
 30
0.0
 10
61.0667853514
 20
37.5160417591
 30
0.0
 10
60.8953570408
 20
37.6888620038
 30
0.0
 10
60.8145122326
 20
37.7807508947
 30
0.0
  0
SPLINE
  5
2E8
100
AcDbEntity
  8
0
100
AcDbSpline
 62
7
  6
BYLAYER
 70
0
 71
3
 72
23
 73
19
 74
0
 42
0.0000001
 43
0.0000001
 44
0.0000000001
 40
0.0
 40
0.0
 40
0.0
 40
0.0
 40
0.0440552934
 40
0.0911618472
 40
0.1419890532
 40
0.19683508
 40
0.25568208
 40
0.3182561885
 40
0.3840843474
 40
0.4525451317
 40
0.5229081067
 40
0.594368451
 40
0.6660799058
 40
0.7371898828
 40
0.806868344
 40
0.8743281648
 40
0.9389015318
 40
1.0
 40
1.0
 40
1.0
 40
1.0
 10
60.8145122326
 20
37.7807508947
 30
0.0
 10
60.6644699994
 20
37.9512901625
 30
0.0
 10
60.3927614941
 20
38.3396604618
 30
0.0
 10
60.0946622531
 20
39.0123035758
 30
0.0
 10
59.8976868505
 20
39.7782427666
 30
0.0
 10
59.8042684128
 20
40.6237685897
 30
0.0
 10
59.8152145994
 20
41.5345009489
 30
0.0
 10
59.930021056
 20
42.4947484252
 30
0.0
 10
60.1464695529
 20
43.4878617111
 30
0.0
 10
60.4607110908
 20
44.4964764185
 30
0.0
 10
60.8672331225
 20
45.5028468543
 30
0.0
 10
61.3588414318
 20
46.4892093741
 30
0.0
 10
61.9268034614
 20
47.4381481019
 30
0.0
 10
62.5611121873
 20
48.3328846382
 30
0.0
 10
63.2505782512
 20
49.1575382207
 30
0.0
 10
63.983053034
 20
49.8977469499
 30
0.0
 10
64.7456384
 20
50.5402436438
 30
0.0
 10
65.2815408066
 20
50.9070729227
 30
0.0
 10
65.551386808
 20
51.0696223172
 30
0.0
  0
SPLINE
  5
2E9
100
AcDbEntity
  8
0
100
AcDbSpline
 62
7
  6
BYLAYER
 70
0
 71
3
 72
24
 73
20
 74
0
 42
0.0000001
 43
0.0000001
 44
0.0000000001
 40
0.0
 40
0.0
 40
0.0
 40
0.0
 40
0.0213129897
 40
0.0429839354
 40
0.0880827323
 40
0.1366082134
 40
0.1893022802
 40
0.2464408535
 40
0.3079136945
 40
0.373308766
 40
0.4419851098
 40
0.5131343162
 40
0.5858351693
 40
0.6590981119
 40
0.7319095999
 40
0.8032792264
 40
0.8722669428
 40
0.9380742291
 40
1.0
 40
1.0
 40
1.0
 40
1.0
 10
25.5606656989
 20
58.02473692
 30
0.0
 10
25.4660129824
 20
58.0904478721
 30
0.0
 10
25.2832099178
 20
58.2350869269
 30
0.0
 10
24.9478105947
 20
58.5745070866
 30
0.0
 10
24.5917772024
 20
59.093022403
 30
0.0
 10
24.2851869949
 20
59.8271630825
 30
0.0
 10
24.0961259783
 20
60.6659405086
 30
0.0
 10
24.0269517799
 20
61.5923245085
 30
0.0
 10
24.0780587279
 20
62.588099663
 30
0.0
 10
24.2480722697
 20
63.6334436098
 30
0.0
 10
24.5334080948
 20
64.7073213518
 30
0.0
 10
24.9281841077
 20
65.787942684
 30
0.0
 10
25.4243258512
 20
66.8532564006
 30
0.0
 10
26.0116682551
 20
67.8814613959
 30
0.0
 10
26.6782082433
 20
68.8515030851
 30
0.0
 10
27.4103004874
 20
69.7434535334
 30
0.0
 10
28.1930253447
 20
70.539306736
 30
0.0
 10
29.0103820124
 20
71.2224712155
 30
0.0
 10
29.5866044853
 20
71.606460704
 30
0.0
 10
29.8765453184
 20
71.7738571228
 30
0.0
  0
SPLINE
  5
2EA
100
AcDbEntity
  8
0
100
AcDbSpline
 62
7
  6
BYLAYER
 70
0
 71
3
 72
11
 73
7
 74
0
 42
0.0000001
 43
0.0000001
 44
0.0000000001
 40
0.0
 40
0.0
 40
0.0
 40
0.0
 40
0.2599832637
 40
0.51157946
 40
0.7573048136
 40
1.0
 40
1.0
 40
1.0
 40
1.0
 10
70.0843400772
 20
51.6915413203
 30
0.0
 10
70.0098423888
 20
51.8191091523
 30
0.0
 10
69.848854835
 20
52.0621257171
 30
0.0
 10
69.5677623434
 20
52.3894604102
 30
0.0
 10
69.2534607552
 20
52.67062901
 30
0.0
 10
69.0224027905
 20
52.8262328102
 30
0.0
 10
68.9029734761
 20
52.8951836044
 30
0.0
  0
SPLINE
  5
2EB
100
AcDbEntity
  8
0
100
AcDbSpline
 62
7
  6
BYLAYER
 70
0
 71
3
 72
11
 73
7
 74
0
 42
0.0000001
 43
0.0000001
 44
0.0000000001
 40
0.0
 40
0.0
 40
0.0
 40
0.0
 40
0.2432034922
 40
0.4892169603
 40
0.7406924573
 40
1.0
 40
1.0
 40
1.0
 40
1.0
 10
59.9097930996
 20
37.31818588
 30
0.0
 10
60.0246369509
 20
37.2518824369
 30
0.0
 10
60.2648216479
 20
37.1337282337
 30
0.0
 10
60.6485517306
 20
37.0043327016
 30
0.0
 10
61.0541204666
 20
36.9228145227
 30
0.0
 10
61.3325212296
 20
36.9011073038
 30
0.0
 10
61.473875222
 20
36.8979020827
 30
0.0
  0
SPLINE
  5
2EC
100
AcDbEntity
  8
0
100
AcDbSpline
 62
7
  6
BYLAYER
 70
0
 71
3
 72
14
 73
10
 74
0
 42
0.0000001
 43
0.0000001
 44
0.0000000001
 40
0.0
 40
0.0
 40
0.0
 40
0.0
 40
0.108047242
 40
0.2181324819
 40
0.3321060483
 40
0.4515032287
 40
0.5774636278
 40
0.710728722
 40
1.0
 40
1.0
 40
1.0
 40
1.0
 10
30.1470945478
 20
54.5012991668
 30
0.0
 10
29.9996447038
 20
54.5864272101
 30
0.0
 10
29.7161266859
 20
54.7842121069
 30
0.0
 10
29.3415768378
 20
55.1528928123
 30
0.0
 10
29.0193928407
 20
55.5904081793
 30
0.0
 10
28.7526622138
 20
56.0919099397
 30
0.0
 10
28.5433946141
 20
56.6523284564
 30
0.0
 10
28.3376693494
 20
57.4933207373
 30
0.0
 10
28.2844514874
 20
58.1624222358
 30
0.0
 10
28.2844481919
 20
58.6182518687
 30
0.0
  0
SPLINE
  5
2ED
100
AcDbEntity
  8
0
100
AcDbSpline
 62
7
  6
BYLAYER
 70
0
 71
3
 72
15
 73
11
 74
0
 42
0.0000001
 43
0.0000001
 44
0.0000000001
 40
0.0
 40
0.0
 40
0.0
 40
0.0
 40
0.116930066
 40
0.2292057056
 40
0.3406751338
 40
0.4553267815
 40
0.5766201933
 40
0.7070311067
 40
0.8480512374
 40
1.0
 40
1.0
 40
1.0
 40
1.0
 10
72.0397786699
 20
49.1342708811
 30
0.0
 10
71.9289705858
 20
49.311514974
 30
0.0
 10
71.6769125679
 20
49.6391482557
 30
0.0
 10
71.2028745347
 20
50.0299554039
 30
0.0
 10
70.6535005084
 20
50.2965871579
 30
0.0
 10
70.0423244051
 20
50.4329751032
 30
0.0
 10
69.3831626088
 20
50.438290191
 30
0.0
 10
68.6885846782
 20
50.3149118785
 30
0.0
 10
67.9709095219
 20
50.0665869321
 30
0.0
 10
67.5019288367
 20
49.829927333
 30
0.0
 10
67.2666880312
 20
49.6941118013
 30
0.0
  0
SPLINE
  5
2EE
100
AcDbEntity
  8
0
100
AcDbSpline
 62
7
  6
BYLAYER
 70
0
 71
3
 72
23
 73
19
 74
0
 42
0.0000001
 43
0.0000001
 44
0.0000000001
 40
0.0
 40
0.0
 40
0.0
 40
0.0
 40
0.0623829966
 40
0.1287483216
 40
0.1983454875
 40
0.2703350117
 40
0.3437231966
 40
0.4174660124
 40
0.4905030523
 40
0.561802224
 40
0.6304108086
 40
0.6955084609
 40
0.7564658875
 40
0.8129127284
 40
0.864821342
 40
0.9126035728
 40
0.9571855544
 40
1.0
 40
1.0
 40
1.0
 40
1.0
 10
19.3658692823
 20
75.2718190478
 30
0.0
 10
19.1504488923
 20
75.14744677
 30
0.0
 10
18.7224365202
 20
74.8613678272
 30
0.0
 10
18.1162707939
 20
74.351324156
 30
0.0
 10
17.5368747191
 20
73.7563738634
 30
0.0
 10
16.9965841173
 20
73.0894615202
 30
0.0
 10
16.5068724176
 20
72.3645930382
 30
0.0
 10
16.0781701638
 20
71.5972888495
 30
0.0
 10
15.7195944888
 20
70.8039126278
 30
0.0
 10
15.4388117996
 20
70.0013602928
 30
0.0
 10
15.2418318906
 20
69.2066759476
 30
0.0
 10
15.1328458116
 20
68.4366368609
 30
0.0
 10
15.114279533
 20
67.7073286478
 30
0.0
 10
15.1869195921
 20
67.0337926646
 30
0.0
 10
15.3501202992
 20
66.4298844234
 30
0.0
 10
15.6021518124
 20
65.908331703
 30
0.0
 10
15.9394136166
 20
65.4818546321
 30
0.0
 10
16.2196648392
 20
65.2673299775
 30
0.0
 10
16.3675113971
 20
65.1819714873
 30
0.0
  0
SPLINE
  5
2EF
100
AcDbEntity
  8
0
100
AcDbSpline
 62
7
  6
BYLAYER
 70
0
 71
3
 72
14
 73
10
 74
0
 42
0.0000001
 43
0.0000001
 44
0.0000000001
 40
0.0
 40
0.0
 40
0.0
 40
0.0
 40
0.1080447933
 40
0.2181272614
 40
0.3321081185
 40
0.4514976911
 40
0.5774427424
 40
0.7107276046
 40
1.0
 40
1.0
 40
1.0
 40
1.0
 10
22.3642271675
 20
75.5688228589
 30
0.0
 10
22.2659121353
 20
75.625584564
 30
0.0
 10
22.0571571149
 20
75.7232990067
 30
0.0
 10
21.7194099623
 20
75.8167563275
 30
0.0
 10
21.3593399199
 20
75.8568351702
 30
0.0
 10
20.9808382212
 20
75.8437461009
 30
0.0
 10
20.5874547803
 20
75.7777328491
 30
0.0
 10
20.0332300286
 20
75.6161433265
 30
0.0
 10
19.6290916288
 20
75.4237896332
 30
0.0
 10
19.3658692823
 20
75.2718190478
 30
0.0
  0
SPLINE
  5
2F0
100
AcDbEntity
  8
0
100
AcDbSpline
 62
7
  6
BYLAYER
 70
0
 71
3
 72
15
 73
11
 74
0
 42
0.0000001
 43
0.0000001
 44
0.0000000001
 40
0.0
 40
0.0
 40
0.0
 40
0.0
 40
0.1079977268
 40
0.2180563279
 40
0.3320169549
 40
0.4514000833
 40
0.5773217601
 40
0.7105452526
 40
0.8514819197
 40
1.0
 40
1.0
 40
1.0
 40
1.0
 10
71.1612747443
 20
50.7833672738
 30
0.0
 10
71.0253426081
 20
50.8613303178
 30
0.0
 10
70.7368354298
 20
50.9955272934
 30
0.0
 10
70.2702437839
 20
51.1233902505
 30
0.0
 10
69.7730138156
 20
51.1779840641
 30
0.0
 10
69.2504149602
 20
51.1591054338
 30
0.0
 10
68.7074426583
 20
51.0675393774
 30
0.0
 10
68.1490732454
 20
50.9044309083
 30
0.0
 10
67.5806844944
 20
50.6715190217
 30
0.0
 10
67.208019672
 20
50.4764355466
 30
0.0
 10
67.021393359
 20
50.3686874377
 30
0.0
  0
SPLINE
  5
2F1
100
AcDbEntity
  8
0
100
AcDbSpline
 62
7
  6
BYLAYER
 70
0
 71
3
 72
15
 73
11
 74
0
 42
0.0000001
 43
0.0000001
 44
0.0000000001
 40
0.0
 40
0.0
 40
0.0
 40
0.0
 40
0.1141546646
 40
0.2373264208
 40
0.3669765195
 40
0.500001082
 40
0.6330254939
 40
0.7626751532
 40
0.8858462166
 40
1.0
 40
1.0
 40
1.0
 40
1.0
 10
15.6552159798
 20
67.6213581262
 30
0.0
 10
15.6552135547
 20
67.9565559541
 30
0.0
 10
15.7166033601
 20
68.6540803235
 30
0.0
 10
15.9613499387
 20
69.7063763691
 30
0.0
 10
16.3534273263
 20
70.7722739413
 30
0.0
 10
16.8781847691
 20
71.8116894461
 30
0.0
 10
17.5159561466
 20
72.7858555757
 30
0.0
 10
18.2430014367
 20
73.6583571323
 30
0.0
 10
19.0319330046
 20
74.3964642758
 30
0.0
 10
19.6053057197
 20
74.7983925346
 30
0.0
 10
19.8955937465
 20
74.9659894046
 30
0.0
  0
SPLINE
  5
2F2
100
AcDbEntity
  8
0
100
AcDbSpline
 62
7
  6
BYLAYER
 70
0
 71
3
 72
15
 73
11
 74
0
 42
0.0000001
 43
0.0000001
 44
0.0000000001
 40
0.0
 40
0.0
 40
0.0
 40
0.0
 40
0.1141503488
 40
0.2373278355
 40
0.3669748484
 40
0.500000497
 40
0.633024523
 40
0.7626744025
 40
0.8858457074
 40
1.0
 40
1.0
 40
1.0
 40
1.0
 10
13.4264038571
 20
78.0896086452
 30
0.0
 10
13.1723646173
 20
77.9429398972
 30
0.0
 10
12.67057509
 20
77.5911781752
 30
0.0
 10
11.9801223106
 20
76.945235257
 30
0.0
 10
11.3438557265
 20
76.1816355404
 30
0.0
 10
10.7857014774
 20
75.3291001685
 30
0.0
 10
10.3264656448
 20
74.4194449657
 30
0.0
 10
9.9833378366
 20
73.4866233576
 30
0.0
 10
9.7691501889
 20
72.5657035199
 30
0.0
 10
9.715424902
 20
71.9552641305
 30
0.0
 10
9.7154270135
 20
71.6619151867
 30
0.0
  0
SPLINE
  5
2F3
100
AcDbEntity
  8
0
100
AcDbSpline
 62
7
  6
BYLAYER
 70
0
 71
3
 72
15
 73
11
 74
0
 42
0.0000001
 43
0.0000001
 44
0.0000000001
 40
0.0
 40
0.0
 40
0.0
 40
0.0
 40
0.114156122
 40
0.2373242383
 40
0.3669753506
 40
0.4999993656
 40
0.633023982
 40
0.7626739018
 40
0.8858454906
 40
1.0
 40
1.0
 40
1.0
 40
1.0
 10
34.1142981601
 20
69.3272447286
 30
0.0
 10
33.7151900941
 20
69.0968209548
 30
0.0
 10
32.9268911389
 20
68.5442402514
 30
0.0
 10
31.8422479796
 20
67.5294423993
 30
0.0
 10
30.8426715469
 20
66.3299059039
 30
0.0
 10
29.9658440023
 20
64.9905719431
 30
0.0
 10
29.2443856631
 20
63.5615437934
 30
0.0
 10
28.7053452565
 20
62.0961037899
 30
0.0
 10
28.3688588631
 20
60.6493659236
 30
0.0
 10
28.2844583362
 20
59.6903820579
 30
0.0
 10
28.2844616547
 20
59.2295389571
 30
0.0
  0
SPLINE
  5
2F4
100
AcDbEntity
  8
0
100
AcDbSpline
 62
7
  6
BYLAYER
 70
0
 71
3
 72
15
 73
11
 74
0
 42
0.0000001
 43
0.0000001
 44
0.0000000001
 40
0.0
 40
0.0
 40
0.0
 40
0.0
 40
0.1141522265
 40
0.2373213328
 40
0.3669699996
 40
0.499992758
 40
0.633016975
 40
0.7626663948
 40
0.8858479282
 40
1.0
 40
1.0
 40
1.0
 40
1.0
 10
15.6552390867
 20
68.233040931
 30
0.0
 10
15.6552366486
 20
68.526357468
 30
0.0
 10
15.7089559602
 20
69.136729417
 30
0.0
 10
15.9231163315
 20
70.0575513922
 30
0.0
 10
16.2662056364
 20
70.9902763749
 30
0.0
 10
16.7253863848
 20
71.8998427187
 30
0.0
 10
17.2834861279
 20
72.7523002168
 30
0.0
 10
17.9196931574
 20
73.5158468786
 30
0.0
 10
18.6100957592
 20
74.1617467716
 30
0.0
 10
19.1118496749
 20
74.513486685
 30
0.0
 10
19.3658692823
 20
74.6601440983
 30
0.0
  0
SPLINE
  5
2F5
100
AcDbEntity
  8
0
100
AcDbSpline
 62
7
  6
BYLAYER
 70
0
 71
3
 72
9
 73
5
 74
0
 42
0.0000001
 43
0.0000001
 44
0.0000000001
 40
0.0
 40
0.0
 40
0.0
 40
0.0
 40
0.2607467742
 40
1.0
 40
1.0
 40
1.0
 40
1.0
 10
13.1444190478
 20
78.2524089677
 30
0.0
 10
13.2092222391
 20
78.2898228843
 30
0.0
 10
13.4609503114
 20
78.4275882608
 30
0.0
 10
13.7259731095
 20
78.5419124496
 30
0.0
 10
13.9275493193
 20
78.6080479167
 30
0.0
  0
SPLINE
  5
2F6
100
AcDbEntity
  8
0
100
AcDbSpline
 62
7
  6
BYLAYER
 70
0
 71
3
 72
9
 73
5
 74
0
 42
0.0000001
 43
0.0000001
 44
0.0000000001
 40
0.0
 40
0.0
 40
0.0
 40
0.0
 40
0.5185794139
 40
1.0
 40
1.0
 40
1.0
 40
1.0
 10
13.9275493193
 20
78.6080479167
 30
0.0
 10
14.0809711391
 20
78.6583843316
 30
0.0
 10
14.3840741184
 20
78.7352468969
 30
0.0
 10
14.6963836875
 20
78.7605532914
 30
0.0
 10
14.8462560731
 20
78.7577674124
 30
0.0
  0
SPLINE
  5
2F7
100
AcDbEntity
  8
0
100
AcDbSpline
 62
7
  6
BYLAYER
 70
0
 71
3
 72
15
 73
11
 74
0
 42
0.0000001
 43
0.0000001
 44
0.0000000001
 40
0.0
 40
0.0
 40
0.0
 40
0.0
 40
0.1144576111
 40
0.237799925
 40
0.3675034135
 40
0.5004825313
 40
0.6333952525
 40
0.7629035729
 40
0.8859413159
 40
1.0
 40
1.0
 40
1.0
 40
1.0
 10
9.433532763
 20
71.8575959376
 30
0.0
 10
9.4354774513
 20
72.1504672695
 30
0.0
 10
9.4923957577
 20
72.7591582698
 30
0.0
 10
9.709755308
 20
73.6765555791
 30
0.0
 10
10.05449797
 20
74.60473036
 30
0.0
 10
10.5138940737
 20
75.5091229656
 30
0.0
 10
11.0708787057
 20
76.3563125307
 30
0.0
 10
11.7049179888
 20
77.1149344255
 30
0.0
 10
12.392357082
 20
77.7567965586
 30
0.0
 10
12.8916630933
 20
78.1064811204
 30
0.0
 10
13.1444190478
 20
78.2524089677
 30
0.0
  0
SPLINE
  5
2F8
100
AcDbEntity
  8
0
100
AcDbSpline
 62
7
  6
BYLAYER
 70
0
 71
3
 72
24
 73
20
 74
0
 42
0.0000001
 43
0.0000001
 44
0.0000000001
 40
0.0
 40
0.0
 40
0.0
 40
0.0
 40
0.0623807934
 40
0.1287350295
 40
0.1983276696
 40
0.2703103248
 40
0.3436917098
 40
0.4174296135
 40
0.4904604076
 40
0.5617529251
 40
0.6303561587
 40
0.6954492651
 40
0.7564013858
 40
0.8128426617
 40
0.864747174
 40
0.9125260062
 40
0.9571041814
 40
0.9786661827
 40
1.0
 40
1.0
 40
1.0
 40
1.0
 10
65.5369827591
 20
51.2256929091
 30
0.0
 10
65.2390415744
 20
51.0536775127
 30
0.0
 10
64.6470993131
 20
50.6580543896
 30
0.0
 10
63.8087946906
 20
49.9526446618
 30
0.0
 10
63.007502746
 20
49.1298541514
 30
0.0
 10
62.2602840456
 20
48.2075111444
 30
0.0
 10
61.582997271
 20
47.2050290252
 30
0.0
 10
60.9900900236
 20
46.1438483534
 30
0.0
 10
60.4941972344
 20
45.0465961471
 30
0.0
 10
60.1058903486
 20
43.9366630488
 30
0.0
 10
59.8334367352
 20
42.837617965
 30
0.0
 10
59.6826840847
 20
41.7726497634
 30
0.0
 10
59.6570367427
 20
40.7640090955
 30
0.0
 10
59.7575042695
 20
39.832532345
 30
0.0
 10
59.9832791829
 20
38.9972732321
 30
0.0
 10
60.3315099615
 20
38.2761096479
 30
0.0
 10
60.7254806121
 20
37.7785397481
 30
0.0
 10
61.0908520185
 20
37.4618932925
 30
0.0
 10
61.2883755414
 20
37.3302948779
 30
0.0
 10
61.3902643477
 20
37.2714579196
 30
0.0
  0
SPLINE
  5
2F9
100
AcDbEntity
  8
0
100
AcDbSpline
 62
7
  6
BYLAYER
 70
0
 71
3
 72
15
 73
11
 74
0
 42
0.0000001
 43
0.0000001
 44
0.0000000001
 40
0.0
 40
0.0
 40
0.0
 40
0.0
 40
0.116930066
 40
0.2292057056
 40
0.3406751338
 40
0.4553267815
 40
0.5766201933
 40
0.7070311067
 40
0.8480512374
 40
1.0
 40
1.0
 40
1.0
 40
1.0
 10
72.3545577419
 20
48.6306886901
 30
0.0
 10
72.2479778718
 20
48.8011695042
 30
0.0
 10
72.0055378818
 20
49.1163009577
 30
0.0
 10
71.5495881882
 20
49.4921956898
 30
0.0
 10
71.0211771718
 20
49.7486533113
 30
0.0
 10
70.4333223215
 20
49.8798369665
 30
0.0
 10
69.7993128159
 20
49.8849492412
 30
0.0
 10
69.1312385847
 20
49.7662787974
 30
0.0
 10
68.4409484715
 20
49.5274294324
 30
0.0
 10
67.9898631477
 20
49.2998002885
 30
0.0
 10
67.763598659
 20
49.1691672048
 30
0.0
  0
SPLINE
  5
2FA
100
AcDbEntity
  8
0
100
AcDbSpline
 62
7
  6
BYLAYER
 70
0
 71
3
 72
23
 73
19
 74
0
 42
0.0000001
 43
0.0000001
 44
0.0000000001
 40
0.0
 40
0.0
 40
0.0
 40
0.0
 40
0.0608738171
 40
0.1254186013
 40
0.1930100793
 40
0.2629543027
 40
0.3344231834
 40
0.4065388734
 40
0.4783981529
 40
0.54910471
 40
0.617807929
 40
0.6837396931
 40
0.7462541903
 40
0.8048726876
 40
0.85933924
 40
0.9096872559
 40
0.9563069926
 40
1.0
 40
1.0
 40
1.0
 40
1.0
 10
29.6637265944
 20
71.8967252907
 30
0.0
 10
29.3879446444
 20
71.7375034581
 30
0.0
 10
28.8394996702
 20
71.3744612924
 30
0.0
 10
28.0587471339
 20
70.7318705836
 30
0.0
 10
27.3080051711
 20
69.9855527557
 30
0.0
 10
26.6012355823
 20
69.1496825249
 30
0.0
 10
25.9515152793
 20
68.2395744036
 30
0.0
 10
25.3709199029
 20
67.2722257319
 30
0.0
 10
24.8702251152
 20
66.265643411
 30
0.0
 10
24.4587857885
 20
65.2385450225
 30
0.0
 10
24.1442749087
 20
64.2100142675
 30
0.0
 10
23.9325080419
 20
63.1990938679
 30
0.0
 10
23.8274552558
 20
62.2243717337
 30
0.0
 10
23.83127477
 20
61.3036028892
 30
0.0
 10
23.9443388122
 20
60.4534432086
 30
0.0
 10
24.1656028057
 20
59.6891126695
 30
0.0
 10
24.4922507862
 20
59.0251469875
 30
0.0
 10
24.7854337816
 20
58.6490468761
 30
0.0
 10
24.9459787164
 20
58.4863545815
 30
0.0
  0
SPLINE
  5
2FB
100
AcDbEntity
  8
0
100
AcDbSpline
 62
7
  6
BYLAYER
 70
0
 71
3
 72
9
 73
5
 74
0
 42
0.0000001
 43
0.0000001
 44
0.0000000001
 40
0.0
 40
0.0
 40
0.0
 40
0.0
 40
0.5030340603
 40
1.0
 40
1.0
 40
1.0
 40
1.0
 10
24.9459787164
 20
58.4863545815
 30
0.0
 10
25.0349153848
 20
58.3962283457
 30
0.0
 10
25.2235379481
 20
58.2283022826
 30
0.0
 10
25.4331339274
 20
58.0873339142
 30
0.0
 10
25.5414614941
 20
58.0247788188
 30
0.0
  0
SPLINE
  5
2FC
100
AcDbEntity
  8
0
100
AcDbSpline
 62
7
  6
BYLAYER
 70
0
 71
3
 72
15
 73
11
 74
0
 42
0.0000001
 43
0.0000001
 44
0.0000000001
 40
0.0
 40
0.0
 40
0.0
 40
0.0
 40
0.1141570171
 40
0.2373235409
 40
0.3669746241
 40
0.4999983967
 40
0.6330223922
 40
0.7626741268
 40
0.8858416767
 40
1.0
 40
1.0
 40
1.0
 40
1.0
 10
67.021393359
 20
50.3686874377
 30
0.0
 10
66.6199160372
 20
50.1368957815
 30
0.0
 10
65.8269443519
 20
49.5810424767
 30
0.0
 10
64.7358795904
 20
48.5602237208
 30
0.0
 10
63.7303768427
 20
47.3535861326
 30
0.0
 10
62.848353655
 20
46.0063150421
 30
0.0
 10
62.1226001226
 20
44.5688191019
 30
0.0
 10
61.5803761604
 20
43.0946999481
 30
0.0
 10
61.2418545166
 20
41.639388197
 30
0.0
 10
61.1569562279
 20
40.6747186749
 30
0.0
 10
61.1569562279
 20
40.2111279829
 30
0.0
  0
SPLINE
  5
2FD
100
AcDbEntity
  8
0
100
AcDbSpline
 62
7
  6
BYLAYER
 70
0
 71
3
 72
9
 73
5
 74
0
 42
0.0000001
 43
0.0000001
 44
0.0000000001
 40
0.0
 40
0.0
 40
0.0
 40
0.0
 40
0.2656196625
 40
1.0
 40
1.0
 40
1.0
 40
1.0
 10
72.8841522581
 20
46.9711107972
 30
0.0
 10
72.8808921306
 20
47.1261766679
 30
0.0
 10
72.8507690335
 20
47.7091149162
 30
0.0
 10
72.7431725439
 20
48.2905967147
 30
0.0
 10
72.6068550066
 20
48.6971706966
 30
0.0
  0
SPLINE
  5
2FE
100
AcDbEntity
  8
0
100
AcDbSpline
 62
7
  6
BYLAYER
 70
0
 71
3
 72
9
 73
5
 74
0
 42
0.0000001
 43
0.0000001
 44
0.0000000001
 40
0.0
 40
0.0
 40
0.0
 40
0.0
 40
0.2571851108
 40
1.0
 40
1.0
 40
1.0
 40
1.0
 10
72.6068550066
 20
48.6971706966
 30
0.0
 10
72.5871899361
 20
48.7558227686
 30
0.0
 10
72.5060798172
 20
48.9822713673
 30
0.0
 10
72.4057781
 20
49.2020070447
 30
0.0
 10
72.3198419898
 20
49.3586529578
 30
0.0
  0
SPLINE
  5
2FF
100
AcDbEntity
  8
0
100
AcDbSpline
 62
7
  6
BYLAYER
 70
0
 71
3
 72
11
 73
7
 74
0
 42
0.0000001
 43
0.0000001
 44
0.0000000001
 40
0.0
 40
0.0
 40
0.0
 40
0.0
 40
0.2613935321
 40
0.512812649
 40
0.7577007262
 40
1.0
 40
1.0
 40
1.0
 40
1.0
 10
72.3198419898
 20
49.3586529578
 30
0.0
 10
72.244707804
 20
49.4956089255
 30
0.0
 10
72.0797009048
 20
49.755211917
 30
0.0
 10
71.7830448151
 20
50.0995099273
 30
0.0
 10
71.4454957985
 20
50.3866825269
 30
0.0
 10
71.1950319346
 20
50.5380355957
 30
0.0
 10
71.0654869469
 20
50.6027298383
 30
0.0
  0
SPLINE
  5
300
100
AcDbEntity
  8
0
100
AcDbSpline
 62
7
  6
BYLAYER
 70
0
 71
3
 72
15
 73
11
 74
0
 42
0.0000001
 43
0.0000001
 44
0.0000000001
 40
0.0
 40
0.0
 40
0.0
 40
0.0
 40
0.1077673533
 40
0.2180640449
 40
0.3324877497
 40
0.452328183
 40
0.5785262132
 40
0.7117345855
 40
0.8523061035
 40
1.0
 40
1.0
 40
1.0
 40
1.0
 10
71.0583972105
 20
50.6062574936
 30
0.0
 10
70.9269211923
 20
50.6714368803
 30
0.0
 10
70.6496018508
 20
50.7817273481
 30
0.0
 10
70.2061958063
 20
50.8812141905
 30
0.0
 10
69.7366424919
 20
50.9153200425
 30
0.0
 10
69.2454341137
 20
50.8842145682
 30
0.0
 10
68.7367654562
 20
50.7886067656
 30
0.0
 10
68.2148637096
 20
50.6293647007
 30
0.0
 10
67.6846185171
 20
50.407656708
 30
0.0
 10
67.3366875728
 20
50.2248093309
 30
0.0
 10
67.1623857637
 20
50.124482785
 30
0.0
  0
SPLINE
  5
301
100
AcDbEntity
  8
0
100
AcDbSpline
 62
7
  6
BYLAYER
 70
0
 71
3
 72
14
 73
10
 74
0
 42
0.0000001
 43
0.0000001
 44
0.0000000001
 40
0.0
 40
0.0
 40
0.0
 40
0.0
 40
0.147506089
 40
0.2880123094
 40
0.5471985554
 40
0.6672037278
 40
0.7818066505
 40
0.8922259628
 40
1.0
 40
1.0
 40
1.0
 40
1.0
 10
61.4389398632
 20
40.2111286607
 30
0.0
 10
61.4391531868
 20
40.0125881964
 30
0.0
 10
61.4544264358
 20
39.6246192835
 30
0.0
 10
61.5469442566
 20
38.8934954662
 30
0.0
 10
61.7342731156
 20
38.2125719791
 30
0.0
 10
62.0258527159
 20
37.6135452518
 30
0.0
 10
62.2834924242
 20
37.225290093
 30
0.0
 10
62.5837640712
 20
36.8907475694
 30
0.0
 10
62.8124068099
 20
36.7041352238
 30
0.0
 10
62.9318119374
 20
36.6217617903
 30
0.0
  0
SPLINE
  5
302
100
AcDbEntity
  8
0
100
AcDbSpline
 62
7
  6
BYLAYER
 70
0
 71
3
 72
11
 73
7
 74
0
 42
0.0000001
 43
0.0000001
 44
0.0000000001
 40
0.0
 40
0.0
 40
0.0
 40
0.0
 40
0.2365014891
 40
0.4777365356
 40
0.7304862716
 40
1.0
 40
1.0
 40
1.0
 40
1.0
 10
62.9318119374
 20
36.6217617903
 30
0.0
 10
63.0943025785
 20
36.5096651637
 30
0.0
 10
63.4487912905
 20
36.3188352114
 30
0.0
 10
64.0400241759
 20
36.1526046984
 30
0.0
 10
64.6796053149
 20
36.1075196422
 30
0.0
 10
65.1152321178
 20
36.1560619146
 30
0.0
 10
65.3362971845
 20
36.197743698
 30
0.0
  0
SPLINE
  5
303
100
AcDbEntity
  8
0
100
AcDbSpline
 62
7
  6
BYLAYER
 70
0
 71
3
 72
9
 73
5
 74
0
 42
0.0000001
 43
0.0000001
 44
0.0000000001
 40
0.0
 40
0.0
 40
0.0
 40
0.0
 40
0.4764125688
 40
1.0
 40
1.0
 40
1.0
 40
1.0
 10
65.3362971845
 20
36.197743698
 30
0.0
 10
65.6561440093
 20
36.2580507664
 30
0.0
 10
66.3143920285
 20
36.458293169
 30
0.0
 10
66.9271665536
 20
36.7668562655
 30
0.0
 10
67.2349866217
 20
36.9490782521
 30
0.0
  0
SPLINE
  5
304
100
AcDbEntity
  8
0
100
AcDbSpline
 62
7
  6
BYLAYER
 70
0
 71
3
 72
17
 73
13
 74
0
 42
0.0000001
 43
0.0000001
 44
0.0000000001
 40
0.0
 40
0.0
 40
0.0
 40
0.0
 40
0.1141395738
 40
0.1747675581
 40
0.2373614704
 40
0.3669929516
 40
0.4999983876
 40
0.6330040485
 40
0.7626361841
 40
0.8252305723
 40
0.8858591142
 40
1.0
 40
1.0
 40
1.0
 40
1.0
 10
67.1623857637
 20
50.124482785
 30
0.0
 10
66.7708645239
 20
49.8977523183
 30
0.0
 10
66.2002206001
 20
49.4987184511
 30
0.0
 10
65.4897226435
 20
48.8813532785
 30
0.0
 10
64.7778804506
 20
48.1747832755
 30
0.0
 10
63.9504505422
 20
47.1818172464
 30
0.0
 10
63.0896853756
 20
45.8669824611
 30
0.0
 10
62.3813933107
 20
44.4641148047
 30
0.0
 10
61.9351776852
 20
43.2510496184
 30
0.0
 10
61.679192178
 20
42.2812840498
 30
0.0
 10
61.4997869529
 20
41.3572827426
 30
0.0
 10
61.4395352106
 20
40.6635664323
 30
0.0
 10
61.4389398632
 20
40.2111286607
 30
0.0
  0
SPLINE
  5
305
100
AcDbEntity
  8
0
100
AcDbSpline
 62
7
  6
BYLAYER
 70
0
 71
3
 72
15
 73
11
 74
0
 42
0.0000001
 43
0.0000001
 44
0.0000000001
 40
0.0
 40
0.0
 40
0.0
 40
0.0
 40
0.1518695448
 40
0.2922522051
 40
0.4216064406
 40
0.5417031111
 40
0.6554661671
 40
0.7668885685
 40
0.8803893563
 40
1.0
 40
1.0
 40
1.0
 40
1.0
 10
67.1623857637
 20
50.0446164307
 30
0.0
 10
67.4201384073
 20
50.1934291006
 30
0.0
 10
67.9338381582
 20
50.450996989
 30
0.0
 10
68.7203440903
 20
50.7142516408
 30
0.0
 10
69.4792717743
 20
50.8332104738
 30
0.0
 10
70.1958084545
 20
50.803350275
 30
0.0
 10
70.8543865286
 20
50.6219448147
 30
0.0
 10
71.4377755652
 20
50.2910062777
 30
0.0
 10
71.9300169912
 20
49.8197188368
 30
0.0
 10
72.1820051397
 20
49.4337903226
 30
0.0
 10
72.2907430785
 20
49.2261300098
 30
0.0
  0
SPLINE
  5
306
100
AcDbEntity
  8
0
100
AcDbSpline
 62
7
  6
BYLAYER
 70
0
 71
3
 72
9
 73
5
 74
0
 42
0.0000001
 43
0.0000001
 44
0.0000000001
 40
0.0
 40
0.0
 40
0.0
 40
0.0
 40
0.244856181
 40
1.0
 40
1.0
 40
1.0
 40
1.0
 10
72.2907430785
 20
49.2261300098
 30
0.0
 10
72.3111851281
 20
49.1870911751
 30
0.0
 10
72.3917895361
 20
49.0261556799
 30
0.0
 10
72.4609843404
 20
48.8595656483
 30
0.0
 10
72.5071716718
 20
48.7317506019
 30
0.0
  0
SPLINE
  5
307
100
AcDbEntity
  8
0
100
AcDbSpline
 62
7
  6
BYLAYER
 70
0
 71
3
 72
27
 73
23
 74
0
 42
0.0000001
 43
0.0000001
 44
0.0000000001
 40
0.0
 40
0.0
 40
0.0
 40
0.0
 40
0.0501408154
 40
0.0736855551
 40
0.0965054272
 40
0.1189077295
 40
0.1412295812
 40
0.1638128984
 40
0.1869814631
 40
0.2110165721
 40
0.2361479013
 40
0.290236487
 40
0.350002917
 40
0.4153313406
 40
0.4855276959
 40
0.5594887709
 40
0.6358391418
 40
0.7130446896
 40
0.7895182498
 40
0.863719215
 40
0.934258697
 40
1.0
 40
1.0
 40
1.0
 40
1.0
 10
65.3596312146
 20
36.2863929952
 30
0.0
 10
65.0605352385
 20
36.2298843289
 30
0.0
 10
64.6089110545
 20
36.1923670702
 30
0.0
 10
64.0256914395
 20
36.2620646152
 30
0.0
 10
63.6208844342
 20
36.3702295756
 30
0.0
 10
63.2435302085
 20
36.5346174472
 30
0.0
 10
62.8969327429
 20
36.7540184039
 30
0.0
 10
62.5840369607
 20
37.0263256276
 30
0.0
 10
62.3075547159
 20
37.3491919164
 30
0.0
 10
62.0693702628
 20
37.7196279693
 30
0.0
 10
61.7988076651
 20
38.2866197021
 30
0.0
 10
61.5717829639
 20
39.106307977
 30
0.0
 10
61.47930249
 20
40.1948832114
 30
0.0
 10
61.5597300912
 20
41.3816605494
 30
0.0
 10
61.810053569
 20
42.6316614424
 30
0.0
 10
62.2224337683
 20
43.9080138501
 30
0.0
 10
62.7844295726
 20
45.1723585756
 30
0.0
 10
63.4790298547
 20
46.3865184804
 30
0.0
 10
64.2852001949
 20
47.513692035
 30
0.0
 10
65.1786655845
 20
48.5199153811
 30
0.0
 10
66.132294886
 20
49.374599877
 30
0.0
 10
66.8167610951
 20
49.8450711264
 30
0.0
 10
67.1623857637
 20
50.0446164307
 30
0.0
  0
SPLINE
  5
308
100
AcDbEntity
  8
0
100
AcDbSpline
 62
7
  6
BYLAYER
 70
0
 71
3
 72
27
 73
23
 74
0
 42
0.0000001
 43
0.0000001
 44
0.0000000001
 40
0.0
 40
0.0
 40
0.0
 40
0.0
 40
0.0648147598
 40
0.1341536793
 40
0.2070351609
 40
0.2822746631
 40
0.3585340501
 40
0.4344241001
 40
0.508574045
 40
0.5797133087
 40
0.6467558694
 40
0.7088982213
 40
0.7657377557
 40
0.8174166872
 40
0.8415955945
 40
0.8648651647
 40
0.8874515515
 40
0.9096209503
 40
0.9316665936
 40
0.9538900332
 40
0.9765807731
 40
1.0
 40
1.0
 40
1.0
 40
1.0
 10
67.2666880312
 20
49.6941118013
 30
0.0
 10
66.9562416076
 20
49.514876545
 30
0.0
 10
66.3406969515
 20
49.0959505216
 30
0.0
 10
65.4779524616
 20
48.3395753355
 30
0.0
 10
64.6635183408
 20
47.4515590881
 30
0.0
 10
63.9193659528
 20
46.455994045
 30
0.0
 10
63.2654418357
 20
45.3795187943
 30
0.0
 10
62.7193619455
 20
44.2511917691
 30
0.0
 10
62.2958378047
 20
43.1013693179
 30
0.0
 10
62.0062650746
 20
41.9608753193
 30
0.0
 10
61.858460929
 20
40.8600632834
 30
0.0
 10
61.85679864
 20
39.8276681608
 30
0.0
 10
62.0020970592
 20
38.890690654
 30
0.0
 10
62.2505550792
 20
38.1937289043
 30
0.0
 10
62.522363332
 20
37.7162074094
 30
0.0
 10
62.7549650522
 20
37.4051149869
 30
0.0
 10
63.0191756104
 20
37.1356121062
 30
0.0
 10
63.3132750118
 20
36.9099221653
 30
0.0
 10
63.6349503633
 20
36.7296844434
 30
0.0
 10
63.9818513412
 20
36.5964846274
 30
0.0
 10
64.3511413843
 20
36.511011
 30
0.0
 10
64.6058197016
 20
36.486733135
 30
0.0
 10
64.7352656428
 20
36.4822047527
 30
0.0
  0
SPLINE
  5
309
100
AcDbEntity
  8
0
100
AcDbSpline
 62
7
  6
BYLAYER
 70
0
 71
3
 72
27
 73
23
 74
0
 42
0.0000001
 43
0.0000001
 44
0.0000000001
 40
0.0
 40
0.0
 40
0.0
 40
0.0
 40
0.0648147598
 40
0.1341536793
 40
0.2070351609
 40
0.2822746631
 40
0.3585340501
 40
0.4344241001
 40
0.508574045
 40
0.5797133087
 40
0.6467558694
 40
0.7088982213
 40
0.7657377557
 40
0.8174166872
 40
0.8415955945
 40
0.8648651647
 40
0.8874515515
 40
0.9096209503
 40
0.9316665936
 40
0.9538900332
 40
0.9765807731
 40
1.0
 40
1.0
 40
1.0
 40
1.0
 10
67.763598659
 20
49.1691672048
 30
0.0
 10
67.4649982476
 20
48.9967712059
 30
0.0
 10
66.8729415398
 20
48.5938305585
 30
0.0
 10
66.0431176475
 20
47.8663171309
 30
0.0
 10
65.2597606975
 20
47.0121858007
 30
0.0
 10
64.5440036707
 20
46.0546095208
 30
0.0
 10
63.9150319849
 20
45.0192104044
 30
0.0
 10
63.389789407
 20
43.9339380732
 30
0.0
 10
62.9824260971
 20
42.8279905382
 30
0.0
 10
62.703902881
 20
41.7310155008
 30
0.0
 10
62.5617386449
 20
40.6722082421
 30
0.0
 10
62.5601397855
 20
39.6792072447
 30
0.0
 10
62.6998939087
 20
38.7779829183
 30
0.0
 10
62.9388712695
 20
38.1076158296
 30
0.0
 10
63.2003078651
 20
37.6483155963
 30
0.0
 10
63.4240339707
 20
37.3490938361
 30
0.0
 10
63.6781627844
 20
37.0898746442
 30
0.0
 10
63.9610399431
 20
36.8727965784
 30
0.0
 10
64.270440809
 20
36.6994363661
 30
0.0
 10
64.6041047421
 20
36.5713191876
 30
0.0
 10
64.9593034185
 20
36.4891070622
 30
0.0
 10
65.2042637226
 20
36.4657555917
 30
0.0
 10
65.3287702665
 20
36.4614000034
 30
0.0
  0
SPLINE
  5
30A
100
AcDbEntity
  8
0
100
AcDbSpline
 62
7
  6
BYLAYER
 70
0
 71
3
 72
31
 73
27
 74
0
 42
0.0000001
 43
0.0000001
 44
0.0000000001
 40
0.0
 40
0.0
 40
0.0
 40
0.0
 40
0.0665267004
 40
0.1383088761
 40
0.2138662557
 40
0.2913891009
 40
0.3689141295
 40
0.4444724688
 40
0.5162549434
 40
0.5827820394
 40
0.6137818168
 40
0.6431742574
 40
0.6709651224
 40
0.6972337441
 40
0.7221324625
 40
0.7459014106
 40
0.768858601
 40
0.79139108
 40
0.8139230116
 40
0.8368797637
 40
0.8606494236
 40
0.8855470602
 40
0.9118118661
 40
0.939607422
 40
0.9690162942
 40
1.0
 40
1.0
 40
1.0
 40
1.0
 10
67.8673477869
 20
37.3965609378
 30
0.0
 10
68.2059846061
 20
37.5920718295
 30
0.0
 10
68.8748569454
 20
38.0609443395
 30
0.0
 10
69.7951902156
 20
38.921987829
 30
0.0
 10
70.6433243282
 20
39.9398047328
 30
0.0
 10
71.387320847
 20
41.0762158525
 30
0.0
 10
71.9994794099
 20
42.2887590616
 30
0.0
 10
72.4568773911
 20
43.5321627332
 30
0.0
 10
72.7423530158
 20
44.7598387319
 30
0.0
 10
72.8301364226
 20
45.7556004994
 30
0.0
 10
72.7993014349
 20
46.50186023
 30
0.0
 10
72.7294041678
 20
47.0163099
 30
0.0
 10
72.6125513107
 20
47.49371952
 30
0.0
 10
72.4498540464
 20
47.9296352085
 30
0.0
 10
72.2423012656
 20
48.3197144957
 30
0.0
 10
71.991796312
 20
48.660093604
 30
0.0
 10
71.700291027
 20
48.9468480219
 30
0.0
 10
71.3708919648
 20
49.1768456883
 30
0.0
 10
71.0070238778
 20
49.3471433458
 30
0.0
 10
70.6129369505
 20
49.4562246748
 30
0.0
 10
70.1929127308
 20
49.5029753889
 30
0.0
 10
69.7513425759
 20
49.4877151192
 30
0.0
 10
69.2924739129
 20
49.4107104227
 30
0.0
 10
68.820492293
 20
49.2731514323
 30
0.0
 10
68.3400585236
 20
49.0764052336
 30
0.0
 10
68.0250622612
 20
48.9115773349
 30
0.0
 10
67.8673477869
 20
48.8205213843
 30
0.0
  0
SPLINE
  5
30B
100
AcDbEntity
  8
0
100
AcDbSpline
 62
7
  6
BYLAYER
 70
0
 71
3
 72
29
 73
25
 74
0
 42
0.0000001
 43
0.0000001
 44
0.0000000001
 40
0.0
 40
0.0
 40
0.0
 40
0.0
 40
0.0665106849
 40
0.13823665
 40
0.2137333825
 40
0.2912357002
 40
0.368823601
 40
0.4445657871
 40
0.5166769348
 40
0.5836799515
 40
0.6445978448
 40
0.6727043198
 40
0.6992830328
 40
0.7244668189
 40
0.7484728694
 40
0.7715951223
 40
0.7941993176
 40
0.8166942544
 40
0.8395005106
 40
0.8630112895
 40
0.8875574084
 40
0.9133939637
 40
0.9407033271
 40
1.0
 40
1.0
 40
1.0
 40
1.0
 10
67.8673477869
 20
48.8205213843
 30
0.0
 10
67.5324442685
 20
48.627165902
 30
0.0
 10
66.8707565427
 20
48.1642596472
 30
0.0
 10
65.9591044691
 20
47.3150497459
 30
0.0
 10
65.1174656177
 20
46.3115404585
 30
0.0
 10
64.3768724004
 20
45.1906255545
 30
0.0
 10
63.7643334473
 20
43.9932784459
 30
0.0
 10
63.3023325858
 20
42.7634441105
 30
0.0
 10
63.0077822175
 20
41.5457847612
 30
0.0
 10
62.8915683056
 20
40.3845667953
 30
0.0
 10
62.9491753564
 20
39.4734796364
 30
0.0
 10
63.0951282545
 20
38.8161353339
 30
0.0
 10
63.2468438353
 20
38.3760373261
 30
0.0
 10
63.4427011428
 20
37.9799642301
 30
0.0
 10
63.6810142231
 20
37.6317211855
 30
0.0
 10
63.9599713273
 20
37.3351198975
 30
0.0
 10
64.2767758434
 20
37.0933513309
 30
0.0
 10
64.6282452792
 20
36.909370148
 30
0.0
 10
65.0104029232
 20
36.7849569792
 30
0.0
 10
65.4191470807
 20
36.7213633734
 30
0.0
 10
65.8501910732
 20
36.7185761639
 30
0.0
 10
66.2994721307
 20
36.7763794321
 30
0.0
 10
66.9343376386
 20
36.9373425606
 30
0.0
 10
67.3994249744
 20
37.1412762231
 30
0.0
 10
67.7029402661
 20
37.3048110921
 30
0.0
  0
SPLINE
  5
30C
100
AcDbEntity
  8
0
100
AcDbSpline
 62
7
  6
BYLAYER
 70
0
 71
3
 72
11
 73
7
 74
0
 42
0.0000001
 43
0.0000001
 44
0.0000000001
 40
0.0
 40
0.0
 40
0.0
 40
0.0
 40
0.281406232
 40
0.5407443856
 40
0.7790174819
 40
1.0
 40
1.0
 40
1.0
 40
1.0
 10
67.8673477869
 20
38.2095266583
 30
0.0
 10
67.6671145009
 20
38.0939226067
 30
0.0
 10
67.2681306697
 20
37.894887774
 30
0.0
 10
66.6569419701
 20
37.695807695
 30
0.0
 10
66.0689190932
 20
37.6133384385
 30
0.0
 10
65.6887322091
 20
37.6396803354
 30
0.0
 10
65.5104939412
 20
37.6742711426
 30
0.0
  0
SPLINE
  5
30D
100
AcDbEntity
  8
0
100
AcDbSpline
 62
7
  6
BYLAYER
 70
0
 71
3
 72
9
 73
5
 74
0
 42
0.0000001
 43
0.0000001
 44
0.0000000001
 40
0.0
 40
0.0
 40
0.0
 40
0.0
 40
0.5046720876
 40
1.0
 40
1.0
 40
1.0
 40
1.0
 10
65.5104939412
 20
37.6742711426
 30
0.0
 10
65.3968531659
 20
37.6963254758
 30
0.0
 10
65.1746772002
 20
37.7577782765
 30
0.0
 10
64.9657969593
 20
37.8555547705
 30
0.0
 10
64.8674018439
 20
37.9123648102
 30
0.0
  0
SPLINE
  5
30E
100
AcDbEntity
  8
0
100
AcDbSpline
 62
7
  6
BYLAYER
 70
0
 71
3
 72
19
 73
15
 74
0
 42
0.0000001
 43
0.0000001
 44
0.0000000001
 40
0.0
 40
0.0
 40
0.0
 40
0.0
 40
0.0589626226
 40
0.1212199459
 40
0.1862582931
 40
0.2535549006
 40
0.3922391623
 40
0.5317975799
 40
0.6665419295
 40
0.7305416213
 40
0.7915408984
 40
0.8491481386
 40
0.9031257057
 40
1.0
 40
1.0
 40
1.0
 40
1.0
 10
65.7460186115
 20
39.4342489218
 30
0.0
 10
65.9274529291
 20
39.5389994487
 30
0.0
 10
66.2887051231
 20
39.7751626038
 30
0.0
 10
66.8063427288
 20
40.1888446343
 30
0.0
 10
67.3076582335
 20
40.6662350833
 30
0.0
 10
67.9501196221
 20
41.3846545532
 30
0.0
 10
68.6622234692
 20
42.3907379644
 30
0.0
 10
69.3346348317
 20
43.7001356272
 30
0.0
 10
69.7246612801
 20
44.842793949
 30
0.0
 10
69.9120843858
 20
45.7475220093
 30
0.0
 10
69.9862417673
 20
46.393000175
 30
0.0
 10
69.9952001895
 20
47.0075914843
 30
0.0
 10
69.9228840763
 20
47.7451481692
 30
0.0
 10
69.7696466878
 20
48.2697297951
 30
0.0
 10
69.6150028595
 20
48.5772421749
 30
0.0
  0
SPLINE
  5
30F
100
AcDbEntity
  8
0
100
AcDbSpline
 62
7
  6
BYLAYER
 70
0
 71
3
 72
9
 73
5
 74
0
 42
0.0000001
 43
0.0000001
 44
0.0000000001
 40
0.0
 40
0.0
 40
0.0
 40
0.0
 40
0.4814197169
 40
1.0
 40
1.0
 40
1.0
 40
1.0
 10
9.8467001226
 20
70.0981626234
 30
0.0
 10
9.769347665
 20
70.2265689028
 30
0.0
 10
9.6351030021
 20
70.5097041293
 30
0.0
 10
9.5501138824
 20
70.8106452427
 30
0.0
 10
9.5169948366
 20
70.9686887046
 30
0.0
  0
SPLINE
  5
310
100
AcDbEntity
  8
0
100
AcDbSpline
 62
7
  6
BYLAYER
 70
0
 71
3
 72
9
 73
5
 74
0
 42
0.0000001
 43
0.0000001
 44
0.0000000001
 40
0.0
 40
0.0
 40
0.0
 40
0.0
 40
0.2394011295
 40
1.0
 40
1.0
 40
1.0
 40
1.0
 10
9.5169948366
 20
70.9686887046
 30
0.0
 10
9.5029026809
 20
71.0359362057
 30
0.0
 10
9.4523614693
 20
71.3185616614
 30
0.0
 10
9.4334234489
 20
71.6064482807
 30
0.0
 10
9.4334234489
 20
71.8247403628
 30
0.0
  0
SPLINE
  5
311
100
AcDbEntity
  8
0
100
AcDbSpline
 62
7
  6
BYLAYER
 70
0
 71
3
 72
15
 73
11
 74
0
 42
0.0000001
 43
0.0000001
 44
0.0000000001
 40
0.0
 40
0.0
 40
0.0
 40
0.0
 40
0.1080108029
 40
0.2180578129
 40
0.3319989077
 40
0.4513559179
 40
0.5772614712
 40
0.7104928294
 40
0.8514584887
 40
1.0
 40
1.0
 40
1.0
 40
1.0
 10
33.7859916946
 20
72.3050474988
 30
0.0
 10
33.650829929
 20
72.3830983348
 30
0.0
 10
33.3638329027
 20
72.5174685708
 30
0.0
 10
32.8994745349
 20
72.6459085442
 30
0.0
 10
32.4044409531
 20
72.7010675212
 30
0.0
 10
31.8840421244
 20
72.6830109182
 30
0.0
 10
31.3432580566
 20
72.5922847708
 30
0.0
 10
30.7870484837
 20
72.4301674865
 30
0.0
 10
30.2208458623
 20
72.1983217679
 30
0.0
 10
29.8496166826
 20
72.0040483425
 30
0.0
 10
29.6637265944
 20
71.8967252907
 30
0.0
  0
SPLINE
  5
312
100
AcDbEntity
  8
0
100
AcDbSpline
 62
7
  6
BYLAYER
 70
0
 71
3
 72
24
 73
20
 74
0
 42
0.0000001
 43
0.0000001
 44
0.0000000001
 40
0.0
 40
0.0
 40
0.0
 40
0.0
 40
0.062363207
 40
0.1286962655
 40
0.1982655163
 40
0.2702245293
 40
0.3435840729
 40
0.4173039979
 40
0.4903225744
 40
0.5616102536
 40
0.6302171788
 40
0.6953229132
 40
0.7562960852
 40
0.8127650301
 40
0.8647002939
 40
0.9125073767
 40
0.957103858
 40
0.9786686631
 40
1.0
 40
1.0
 40
1.0
 40
1.0
 10
64.8320207359
 20
51.7156318525
 30
0.0
 10
64.5306785862
 20
51.5416529199
 30
0.0
 10
63.931972207
 20
51.1415548424
 30
0.0
 10
63.0840348207
 20
50.4282263862
 30
0.0
 10
62.2734757947
 20
49.5962390491
 30
0.0
 10
61.5175258813
 20
48.6635931844
 30
0.0
 10
60.8322037694
 20
47.649887353
 30
0.0
 10
60.2321058071
 20
46.5767682758
 30
0.0
 10
59.7299993085
 20
45.4670822662
 30
0.0
 10
59.3365720633
 20
44.3444479818
 30
0.0
 10
59.0601871784
 20
43.2326675956
 30
0.0
 10
58.9067677288
 20
42.1551634336
 30
0.0
 10
58.8797686673
 20
41.1344157239
 30
0.0
 10
58.9802263354
 20
40.19148088
 30
0.0
 10
59.207339891
 20
39.3456168115
 30
0.0
 10
59.558241419
 20
38.6148887772
 30
0.0
 10
59.9556144704
 20
38.1102246312
 30
0.0
 10
60.3243596925
 20
37.7886827206
 30
0.0
 10
60.5237675276
 20
37.6549060178
 30
0.0
 10
60.6266424773
 20
37.5950529174
 30
0.0
  0
SPLINE
  5
313
100
AcDbEntity
  8
0
100
AcDbSpline
 62
7
  6
BYLAYER
 70
0
 71
3
 72
17
 73
13
 74
0
 42
0.0000001
 43
0.0000001
 44
0.0000000001
 40
0.0
 40
0.0
 40
0.0
 40
0.0
 40
0.1486159698
 40
0.2961164709
 40
0.4388205434
 40
0.5734109911
 40
0.6973174433
 40
0.8091103744
 40
0.860547827
 40
0.9092244328
 40
0.9555266743
 40
1.0
 40
1.0
 40
1.0
 40
1.0
 10
21.9309482204
 20
70.8932864072
 30
0.0
 10
21.6382360019
 20
70.4693031049
 30
0.0
 10
21.1029536009
 20
69.5903227352
 30
0.0
 10
20.461079377
 20
68.2076401487
 30
0.0
 10
19.99973832
 20
66.8052921256
 30
0.0
 10
19.7364006111
 20
65.435111819
 30
0.0
 10
19.68101753
 20
64.1475253228
 30
0.0
 10
19.8153899632
 20
63.1536029233
 30
0.0
 10
20.0368315796
 20
62.4514674573
 30
0.0
 10
20.2495230191
 20
61.9889125576
 30
0.0
 10
20.511460681
 20
61.5806466496
 30
0.0
 10
20.7209750763
 20
61.343721835
 30
0.0
 10
20.8323456133
 20
61.2371052051
 30
0.0
  0
SPLINE
  5
314
100
AcDbEntity
  8
0
100
AcDbSpline
 62
7
  6
BYLAYER
 70
0
 71
3
 72
9
 73
5
 74
0
 42
0.0000001
 43
0.0000001
 44
0.0000000001
 40
0.0
 40
0.0
 40
0.0
 40
0.0
 40
0.5000751383
 40
1.0
 40
1.0
 40
1.0
 40
1.0
 10
19.8427002133
 20
71.4925440765
 30
0.0
 10
19.6339756345
 20
71.6359739679
 30
0.0
 10
19.217145457
 20
71.9235989421
 30
0.0
 10
18.799934109
 20
72.210670917
 30
0.0
 10
18.5916644258
 20
72.3546267448
 30
0.0
  0
SPLINE
  5
315
100
AcDbEntity
  8
0
100
AcDbSpline
 62
7
  6
BYLAYER
 70
0
 71
3
 72
15
 73
11
 74
0
 42
0.0000001
 43
0.0000001
 44
0.0000000001
 40
0.0
 40
0.0
 40
0.0
 40
0.0
 40
0.1485414101
 40
0.2895049759
 40
0.4227349996
 40
0.5486405805
 40
0.6679982103
 40
0.7819397101
 40
0.8919877414
 40
1.0
 40
1.0
 40
1.0
 40
1.0
 10
64.8320207359
 20
51.6326937154
 30
0.0
 10
65.0190134235
 20
51.7406533495
 30
0.0
 10
65.3924411346
 20
51.9360794379
 30
0.0
 10
65.9619983437
 20
52.169297088
 30
0.0
 10
66.521502043
 20
52.3323770547
 30
0.0
 10
67.0654929926
 20
52.423640713
 30
0.0
 10
67.588980393
 20
52.4418111606
 30
0.0
 10
68.0869531716
 20
52.3863217983
 30
0.0
 10
68.5540717663
 20
52.2571242406
 30
0.0
 10
68.8427735768
 20
52.1219527396
 30
0.0
 10
68.9787389643
 20
52.0434378203
 30
0.0
  0
SPLINE
  5
316
100
AcDbEntity
  8
0
100
AcDbSpline
 62
7
  6
BYLAYER
 70
0
 71
3
 72
15
 73
11
 74
0
 42
0.0000001
 43
0.0000001
 44
0.0000000001
 40
0.0
 40
0.0
 40
0.0
 40
0.0
 40
0.1485378733
 40
0.2894841129
 40
0.4227076118
 40
0.5486217457
 40
0.6679929423
 40
0.7819418563
 40
0.8919950369
 40
1.0
 40
1.0
 40
1.0
 40
1.0
 10
61.1569562279
 20
40.2111279829
 30
0.0
 10
61.1569562279
 20
39.995386555
 30
0.0
 10
61.1743782485
 20
39.5746438684
 30
0.0
 10
61.2570499351
 20
38.9653083807
 30
0.0
 10
61.3952881916
 20
38.3996622564
 30
0.0
 10
61.5879070029
 20
37.8832500971
 30
0.0
 10
61.8334017266
 20
37.420969062
 30
0.0
 10
62.1299492901
 20
37.0175556025
 30
0.0
 10
62.4747221954
 20
36.6774834141
 30
0.0
 10
62.7357243741
 20
36.4949173825
 30
0.0
 10
62.8714737236
 20
36.4163023105
 30
0.0
  0
SPLINE
  5
317
100
AcDbEntity
  8
0
100
AcDbSpline
 62
7
  6
BYLAYER
 70
0
 71
3
 72
17
 73
13
 74
0
 42
0.0000001
 43
0.0000001
 44
0.0000000001
 40
0.0
 40
0.0
 40
0.0
 40
0.0
 40
0.1104827732
 40
0.169828307
 40
0.2315187651
 40
0.3604199869
 40
0.4939352609
 40
0.6283030655
 40
0.759695479
 40
0.8845364568
 40
0.9436190312
 40
1.0
 40
1.0
 40
1.0
 40
1.0
 10
59.8378106347
 20
40.555626431
 30
0.0
 10
59.799381171
 20
41.0138046325
 30
0.0
 10
59.8129408737
 20
41.7253227548
 30
0.0
 10
59.9435930106
 20
42.6803135014
 30
0.0
 10
60.1605521952
 20
43.6985325515
 30
0.0
 10
60.5787140789
 20
44.9852729133
 30
0.0
 10
61.280404717
 20
46.4842655631
 30
0.0
 10
62.1603013543
 20
47.8985519716
 30
0.0
 10
63.1813532803
 20
49.1684575838
 30
0.0
 10
64.1322000543
 20
50.0796990629
 30
0.0
 10
64.9285494229
 20
50.6860154344
 30
0.0
 10
65.3337817139
 20
50.9455709398
 30
0.0
 10
65.5369827591
 20
51.0628884176
 30
0.0
  0
SPLINE
  5
318
100
AcDbEntity
  8
0
100
AcDbSpline
 62
7
  6
BYLAYER
 70
0
 71
3
 72
15
 73
11
 74
0
 42
0.0000001
 43
0.0000001
 44
0.0000000001
 40
0.0
 40
0.0
 40
0.0
 40
0.0
 40
0.1085061339
 40
0.2189724499
 40
0.3331942614
 40
0.4526565054
 40
0.5784744339
 40
0.7114285343
 40
0.8519636581
 40
1.0
 40
1.0
 40
1.0
 40
1.0
 10
69.6837011706
 20
51.6364372805
 30
0.0
 10
69.5506781696
 20
51.7132530667
 30
0.0
 10
69.2686491612
 20
51.8459439293
 30
0.0
 10
68.812852653
 20
51.9746695631
 30
0.0
 10
68.3272757935
 20
52.0329086835
 30
0.0
 10
67.8169112728
 20
52.0206267255
 30
0.0
 10
67.2864555522
 20
51.9383214731
 30
0.0
 10
66.7405782661
 20
51.7870980268
 30
0.0
 10
66.1843400127
 20
51.5684439961
 30
0.0
 10
65.8191163255
 20
51.3840223443
 30
0.0
 10
65.6360886181
 20
51.281939646
 30
0.0
  0
SPLINE
  5
319
100
AcDbEntity
  8
0
100
AcDbSpline
 62
7
  6
BYLAYER
 70
0
 71
3
 72
24
 73
20
 74
0
 42
0.0000001
 43
0.0000001
 44
0.0000000001
 40
0.0
 40
0.0
 40
0.0
 40
0.0
 40
0.0213340092
 40
0.042896255
 40
0.0874750704
 40
0.1352546367
 40
0.1871597601
 40
0.2436013958
 40
0.3045535459
 40
0.3696462286
 40
0.4382485433
 40
0.5095398523
 40
0.5825694316
 40
0.6563063934
 40
0.7296873981
 40
0.80167017
 40
0.8712631482
 40
0.9376185716
 40
1.0
 40
1.0
 40
1.0
 40
1.0
 10
60.6853025074
 20
37.6784589924
 30
0.0
 10
60.583412791
 20
37.7372964878
 30
0.0
 10
60.3858864433
 20
37.868895069
 30
0.0
 10
60.0205121163
 20
38.1855473949
 30
0.0
 10
59.6265372686
 20
38.6831254726
 30
0.0
 10
59.2783074002
 20
39.4043019331
 30
0.0
 10
59.0525350764
 20
40.2395713724
 30
0.0
 10
58.9520724719
 20
41.1710542541
 30
0.0
 10
58.9777258811
 20
42.1796945349
 30
0.0
 10
59.1284825167
 20
43.2446547367
 30
0.0
 10
59.4009349476
 20
44.3436854981
 30
0.0
 10
59.7892369794
 20
45.4536007101
 30
0.0
 10
60.2851225889
 20
46.5508356893
 30
0.0
 10
60.8780210194
 20
47.6120051225
 30
0.0
 10
61.5553010401
 20
48.6144837785
 30
0.0
 10
62.3025180539
 20
49.5368286119
 30
0.0
 10
63.1038134887
 20
50.3596284555
 30
0.0
 10
63.9421272433
 20
51.0650458224
 30
0.0
 10
64.5340765227
 20
51.4606765706
 30
0.0
 10
64.8320207359
 20
51.6326937154
 30
0.0
  0
SPLINE
  5
31A
100
AcDbEntity
  8
0
100
AcDbSpline
 62
7
  6
BYLAYER
 70
0
 71
3
 72
10
 73
6
 74
0
 42
0.0000001
 43
0.0000001
 44
0.0000000001
 40
0.0
 40
0.0
 40
0.0
 40
0.0
 40
0.4697642315
 40
0.7274165881
 40
1.0
 40
1.0
 40
1.0
 40
1.0
 10
64.012143887
 20
38.8610074135
 30
0.0
 10
64.2996704234
 20
38.8783064641
 30
0.0
 10
64.7420435179
 20
38.9737564504
 30
0.0
 10
65.3121103533
 20
39.200460902
 30
0.0
 10
65.6012703663
 20
39.3506789823
 30
0.0
 10
65.7460186115
 20
39.4342489218
 30
0.0
  0
SPLINE
  5
31B
100
AcDbEntity
  8
0
100
AcDbSpline
 62
7
  6
BYLAYER
 70
0
 71
3
 72
15
 73
11
 74
0
 42
0.0000001
 43
0.0000001
 44
0.0000000001
 40
0.0
 40
0.0
 40
0.0
 40
0.0
 40
0.1080285194
 40
0.21806558
 40
0.3319824662
 40
0.4513141624
 40
0.5772030121
 40
0.7104332508
 40
0.8514179563
 40
1.0
 40
1.0
 40
1.0
 40
1.0
 10
69.0373989944
 20
52.1268438953
 30
0.0
 10
68.8997243137
 20
52.206943633
 30
0.0
 10
68.6072908415
 20
52.3449547732
 30
0.0
 10
68.1338285013
 20
52.4772056533
 30
0.0
 10
67.6289105097
 20
52.5344881511
 30
0.0
 10
67.0979833931
 20
52.5168479491
 30
0.0
 10
66.5461558628
 20
52.4248511326
 30
0.0
 10
65.9785141975
 20
52.2598002295
 30
0.0
 10
65.4006261886
 20
52.0234005607
 30
0.0
 10
65.0217445569
 20
51.8251682978
 30
0.0
 10
64.8320207359
 20
51.7156318525
 30
0.0
  0
SPLINE
  5
31C
100
AcDbEntity
  8
0
100
AcDbSpline
 62
7
  6
BYLAYER
 70
0
 71
3
 72
15
 73
11
 74
0
 42
0.0000001
 43
0.0000001
 44
0.0000000001
 40
0.0
 40
0.0
 40
0.0
 40
0.0
 40
0.1141546646
 40
0.2373264208
 40
0.3669765195
 40
0.500001082
 40
0.6330254939
 40
0.7626751532
 40
0.8858462166
 40
1.0
 40
1.0
 40
1.0
 40
1.0
 10
9.7154126664
 20
71.0506275877
 30
0.0
 10
9.7154102414
 20
71.3858254155
 30
0.0
 10
9.7768000467
 20
72.083349785
 30
0.0
 10
10.0215466253
 20
73.1356458305
 30
0.0
 10
10.4136240129
 20
74.2015434028
 30
0.0
 10
10.9383814557
 20
75.2409589075
 30
0.0
 10
11.5761528332
 20
76.2151250372
 30
0.0
 10
12.3031981233
 20
77.0876265938
 30
0.0
 10
13.0921296912
 20
77.8257337373
 30
0.0
 10
13.6655024064
 20
78.2276619961
 30
0.0
 10
13.9557904331
 20
78.395258866
 30
0.0
  0
SPLINE
  5
31D
100
AcDbEntity
  8
0
100
AcDbSpline
 62
7
  6
BYLAYER
 70
0
 71
3
 72
25
 73
21
 74
0
 42
0.0000001
 43
0.0000001
 44
0.0000000001
 40
0.0
 40
0.0
 40
0.0
 40
0.0
 40
0.0623787446
 40
0.1287240373
 40
0.1983128824
 40
0.270290269
 40
0.3436669005
 40
0.4173986337
 40
0.4904231847
 40
0.5617097966
 40
0.6303070788
 40
0.6953948417
 40
0.75634292
 40
0.812780939
 40
0.8646821354
 40
0.9124572753
 40
0.9351019417
 40
0.9571073388
 40
0.9786679162
 40
1.0
 40
1.0
 40
1.0
 40
1.0
 10
64.4063832878
 20
52.4497816628
 30
0.0
 10
64.0832897911
 20
52.2632446589
 30
0.0
 10
63.4414003588
 20
51.8342576741
 30
0.0
 10
62.5323787603
 20
51.0693109135
 30
0.0
 10
61.6634758885
 20
50.17712053
 30
0.0
 10
60.8532156724
 20
49.1769324248
 30
0.0
 10
60.1187848116
 20
48.0898644608
 30
0.0
 10
59.4758363069
 20
46.9391599018
 30
0.0
 10
58.9381012618
 20
45.7493405424
 30
0.0
 10
58.5170404599
 20
44.5457667684
 30
0.0
 10
58.2216149569
 20
43.3539983276
 30
0.0
 10
58.0581567187
 20
42.1991724121
 30
0.0
 10
58.0303030714
 20
41.1054421283
 30
0.0
 10
58.1392981971
 20
40.0952937359
 30
0.0
 10
58.3838852822
 20
39.1897582263
 30
0.0
 10
58.7047726982
 20
38.5260516002
 30
0.0
 10
59.0253038205
 20
38.0743740334
 30
0.0
 10
59.2911516791
 20
37.7795674261
 30
0.0
 10
59.5850925889
 20
37.5246193625
 30
0.0
 10
59.7993020807
 20
37.3819762781
 30
0.0
 10
59.9097930996
 20
37.31818588
 30
0.0
  0
SPLINE
  5
31E
100
AcDbEntity
  8
0
100
AcDbSpline
 62
7
  6
BYLAYER
 70
0
 71
3
 72
23
 73
19
 74
0
 42
0.0000001
 43
0.0000001
 44
0.0000000001
 40
0.0
 40
0.0
 40
0.0
 40
0.0
 40
0.0428145635
 40
0.0873969674
 40
0.1351797368
 40
0.187088796
 40
0.2435358269
 40
0.30449307
 40
0.3695900761
 40
0.4381975449
 40
0.5094953975
 40
0.5825313651
 40
0.6562735744
 40
0.7296618891
 40
0.8016519657
 40
0.8712498427
 40
0.9376165281
 40
1.0
 40
1.0
 40
1.0
 40
1.0
 10
70.86729373
 20
48.3047175119
 30
0.0
 10
71.0152176139
 20
48.2193112223
 30
0.0
 10
71.2956220084
 20
48.0046762705
 30
0.0
 10
71.6330612945
 20
47.57796583
 30
0.0
 10
71.8852271821
 20
47.0561316711
 30
0.0
 10
72.048513608
 20
46.4518983927
 30
0.0
 10
72.1211894937
 20
45.7780037111
 30
0.0
 10
72.1026110832
 20
45.0483119711
 30
0.0
 10
71.9935666973
 20
44.277873116
 30
0.0
 10
71.796484933
 20
43.4827801425
 30
0.0
 10
71.5155601364
 20
42.6798154329
 30
0.0
 10
71.1568006369
 20
41.8860295019
 30
0.0
 10
70.7278761341
 20
41.1183235149
 30
0.0
 10
70.2379080425
 20
40.3930689281
 30
0.0
 10
69.6973310712
 20
39.725796504
 30
0.0
 10
69.1176224708
 20
39.130521992
 30
0.0
 10
68.511127983
 20
38.6202017675
 30
0.0
 10
68.0828838843
 20
38.3339657393
 30
0.0
 10
67.8673477869
 20
38.2095266583
 30
0.0
  0
SPLINE
  5
31F
100
AcDbEntity
  8
0
100
AcDbSpline
 62
7
  6
BYLAYER
 70
0
 71
3
 72
15
 73
11
 74
0
 42
0.0000001
 43
0.0000001
 44
0.0000000001
 40
0.0
 40
0.0
 40
0.0
 40
0.0
 40
0.1080127374
 40
0.2180623886
 40
0.3320018128
 40
0.4513627816
 40
0.5772700077
 40
0.7104927397
 40
0.8514462087
 40
1.0
 40
1.0
 40
1.0
 40
1.0
 10
68.9029734761
 20
52.8951836044
 30
0.0
 10
68.7555273355
 20
52.9803095095
 30
0.0
 10
68.4424878988
 20
53.1269408478
 30
0.0
 10
67.9359350914
 20
53.2669673545
 30
0.0
 10
67.3959520165
 20
53.3272132011
 30
0.0
 10
66.8282900565
 20
53.3074396627
 30
0.0
 10
66.2384019295
 20
53.2085073225
 30
0.0
 10
65.6317175165
 20
53.0316587761
 30
0.0
 10
65.0141020018
 20
52.7787917602
 30
0.0
 10
64.6091702666
 20
52.5668600807
 30
0.0
 10
64.4063832878
 20
52.4497816628
 30
0.0
  0
SPLINE
  5
320
100
AcDbEntity
  8
0
100
AcDbSpline
 62
7
  6
BYLAYER
 70
0
 71
3
 72
15
 73
11
 74
0
 42
0.0000001
 43
0.0000001
 44
0.0000000001
 40
0.0
 40
0.0
 40
0.0
 40
0.0
 40
0.1141547525
 40
0.2373266147
 40
0.3669766522
 40
0.5000011484
 40
0.6330249448
 40
0.7626762052
 40
0.8858428754
 40
1.0
 40
1.0
 40
1.0
 40
1.0
 10
28.2844481919
 20
58.6182518687
 30
0.0
 10
28.2844445576
 20
59.1209436169
 30
0.0
 10
28.3765126458
 20
60.1670117308
 30
0.0
 10
28.7435612704
 20
61.7451240805
 30
0.0
 10
29.3315566261
 20
63.3436344912
 30
0.0
 10
30.1185312089
 20
64.9024248732
 30
0.0
 10
31.074980119
 20
66.3633785083
 30
0.0
 10
32.1653226732
 20
67.6718332272
 30
0.0
 10
33.3484496967
 20
68.7787888409
 30
0.0
 10
34.2083312158
 20
69.3815449777
 30
0.0
 10
34.643684736
 20
69.6328949495
 30
0.0
  0
ELLIPSE
  5
321
100
AcDbEntity
  8
0
100
AcDbEllipse
 62
7
  6
BYLAYER
 10
24.4351568832
 20
73.0794754609
 30
0.0
 11
21.6876468202
 21
-5.8431028174
 31
0.0
 40
0.1234044006
 41
1.4083197685
 42
1.5059089419
  0
ELLIPSE
  5
322
100
AcDbEntity
  8
0
100
AcDbEllipse
 62
7
  6
BYLAYER
 10
16.7143529729
 20
73.5626491643
 30
0.0
 11
13.1875686898
 21
-0.0925785092
 31
0.0
 40
0.2369410443
 41
-1.0748495181
 42
0.3072544044
  0
ELLIPSE
  5
323
100
AcDbEntity
  8
0
100
AcDbEllipse
 62
7
  6
BYLAYER
 10
24.4351568832
 20
73.0794754609
 30
0.0
 11
21.6876468202
 21
-5.8431028174
 31
0.0
 40
0.1234044006
 41
-1.7508110217
 42
-1.6532218483
  0
ELLIPSE
  5
324
100
AcDbEntity
  8
0
100
AcDbEllipse
 62
7
  6
BYLAYER
 10
12.5063464506
 20
76.4884560018
 30
0.0
 11
19.332154773
 21
-4.7655433459
 31
0.0
 40
0.1877164703
 41
6.8504820172
 42
6.9131211058
  0
ELLIPSE
  5
325
100
AcDbEntity
  8
0
100
AcDbEllipse
 62
7
  6
BYLAYER
 10
12.5063464506
 20
76.4884560018
 30
0.0
 11
19.332154773
 21
-4.7655433459
 31
0.0
 40
0.1877164703
 41
-1.0159176944
 42
-0.9532786058
  0
ENDSEC
  0
SECTION
  2
OBJECTS
  0
DICTIONARY
  5
C
100
AcDbDictionary
280
0
281
1
  3
ACAD_GROUP
350
D
  3
ACAD_MLINESTYLE
350
17
  3
ACAD_LAYOUT
350
1A
  3
ACAD_PLOTSETTINGS
350
19
  3
ACAD_PLOTSTYLENAME
350
E
  0
DICTIONARY
  5
D
102
{ACAD_REACTORS
330
C
102
}
100
AcDbDictionary
280
0
281
1
  0
ACDBDICTIONARYWDFLT
  5
E
102
{ACAD_REACTORS
330
C
102
}
100
AcDbDictionary
281
1
  3
Normal
350
F
100
AcDbDictionaryWithDefault
340
F
  0
DICTIONARY
  5
17
102
{ACAD_REACTORS
330
C
102
}
100
AcDbDictionary
280
0
281
1
  3
Standard
350
18
  0
DICTIONARY
  5
19
102
{ACAD_REACTORS
330
C
102
}
100
AcDbDictionary
281
1
  0
DICTIONARY
  5
1A
102
{ACAD_REACTORS
330
C
102
}
100
AcDbDictionary
281
1
  3
Model
350
326
  3
Layout1
350
327
  0
ACDBPLACEHOLDER
  5
F
102
{ACAD_REACTORS
330
E
102
}
  0
MLINESTYLE
  5
18
102
{ACAD_REACTORS
330
17
102
}
100
AcDbMlineStyle
  2
STANDARD
 70
0
  3

 62
256
 51
90.0
 52
90.0
 71
2
 49
0.5
 62
256
  6
BYLAYER
 49
-0.5
 62
256
  6
BYLAYER
  0
LAYOUT
  5
326
102
{ACAD_REACTORS
330
1A
102
}
100
AcDbPlotSettings
  1

  2
none_device
  4

  6

 40
0.0
 41
0.0
 42
0.0
 43
0.0
 44
210.0
 45
297.0
 46
0.0
 47
0.0
 48
0.0
 49
0.0
140
0.0
141
0.0
142
1.0
143
1.0
 70
1024
 72
1
 73
0
 74
0
  7

 75
0
147
1.0
148
0.0
149
0.0
100
AcDbLayout
  1
Model
 70
0
 71
0
 10
0.0
 20
0.0
 11
210.0
 21
297.0
 12
0.0
 22
0.0
 32
0.0
 14
0.0
 24
0.0
 34
0.0
 15
0.0
 25
0.0
 35
0.0
146
0.0
 13
0.0
 23
0.0
 33
0.0
 16
1.0
 26
0.0
 36
0.0
 17
0.0
 27
1.0
 37
0.0
 76
0
330
210
345
0
346
0
  0
LAYOUT
  5
327
102
{ACAD_REACTORS
330
1A
102
}
100
AcDbPlotSettings
  1

  2
none_device
  4

  6

 40
0.0
 41
0.0
 42
0.0
 43
0.0
 44
210.0
 45
297.0
 46
0.0
 47
0.0
 48
0.0
 49
0.0
140
0.0
141
0.0
142
1.0
143
1.0
 70
0
 72
1
 73
0
 74
0
  7

 75
0
147
1.0
148
0.0
149
0.0
100
AcDbLayout
  1
Layout1
 70
0
 71
1
 10
0.0
 20
0.0
 11
210.0
 21
297.0
 12
0.0
 22
0.0
 32
0.0
 14
0.0
 24
0.0
 34
0.0
 15
0.0
 25
0.0
 35
0.0
146
0.0
 13
0.0
 23
0.0
 33
0.0
 16
1.0
 26
0.0
 36
0.0
 17
0.0
 27
1.0
 37
0.0
 76
0
330
211
345
0
346
0
  0
ENDSEC
  0
EOF
