999
DXF file: C:\Users\sesa63760\Dev\_Creo\CAD\MCADPE0010599_3D-CAD\drw0001_4.dxf
999
Pro/ENGINEER 2019471 by Parametric Technology Corporation
  0
SECTION
  2
HEADER
  9
$ACADVER
  1
AC1024
  9
$DWGCODEPAGE
  3
ANSI_1252
  9
$EXTMAX
 10
59.3332671137
 20
83.9141920607
 30
0.0
  9
$EXTMIN
 10
0.0
 20
0.0
 30
0.0
  9
$LIMMIN
 10
0.0
 20
0.0
  9
$LIMMAX
 10
59.3332671137
 20
83.9141920607
  9
$VIEWCTR
 10
29.6666335568
 20
41.9570960304
  9
$VIEWSIZE
 40
83.9141920607
  9
$CLAYER
  8
0
  9
$LTSCALE
 40
5.4699621491
  9
$CELTYPE
  6
BYLAYER
  9
$DIMSCALE
 40
1.0
  9
$DIMASZ
 40
0.706348418
  9
$DIMEXO
 40
1.0
  9
$DIMDLI
 40
3.7792465758
  9
$DIMEXE
 40
1.0
  9
$DIMCEN
 40
0.8950847153
  9
$DIMLFAC
 40
1.0
  9
$DIMBLK
  1
_FILLED
  9
$DIMALT
 70
0
  9
$DIMALTF
 40
0.0393700787
  9
$DIMTXT
 40
0.9888877852
  9
$DIMTOL
 70
1
  9
$DIMLIM
 70
0
  9
$DIMTFAC
 40
1.0
  9
$DIMTP
 40
0.01
  9
$DIMTM
 40
0.01
  9
$DIMGAP
 40
0.625
  9
$DIMDSEP
 70
46
  9
$AUNITS
 70
0
  9
$PDMODE
 70
3
  9
$PDSIZE
 40
0.3125
  9
$HANDSEED
  5
309
  9
$TILEMODE
 70
1
  9
$MEASUREMENT
 70
1
  9
$INSUNITS
 70
4
  0
ENDSEC
  0
SECTION
  2
CLASSES
  0
CLASS
  1
ACDBDICTIONARYWDFLT
  2
AcDbDictionaryWithDefault
  3
AutoCAD 2000
 90
0
 91
1
280
0
281
0
  0
CLASS
  1
ACDBPLACEHOLDER
  2
AcDbPlaceHolder
  3
AutoCAD 2000
 90
0
 91
1
280
0
281
0
  0
CLASS
  1
LAYOUT
  2
AcDbLayout
  3
AutoCAD 2000
 90
0
 91
0
280
0
281
0
  0
ENDSEC
  0
SECTION
  2
TABLES
  0
TABLE
  2
VPORT
  5
8
100
AcDbSymbolTable
 70
2
  0
VPORT
  5
1F4
100
AcDbSymbolTableRecord
100
AcDbViewportTableRecord
  2
*ACTIVE
 70
0
 10
0.0
 20
0.0
 11
1.0
 21
1.0
 12
29.6666335568
 22
41.9570960304
 13
0.0
 23
0.0
 14
1.0
 24
1.0
 15
0.0
 25
0.0
 16
0.0
 26
0.0
 36
1.0
 17
0.0
 27
0.0
 37
0.0
 40
83.9141920607
 41
0.7070707071
 42
50.0
 43
0.0
 44
0.0
 50
0.0
 51
0.0
 71
0
 72
100
 73
1
 74
1
 75
0
 76
0
 77
0
 78
0
  0
ENDTAB
  0
TABLE
  2
LTYPE
  5
5
100
AcDbSymbolTable
 70
6
  0
LTYPE
  5
14
100
AcDbSymbolTableRecord
100
AcDbLinetypeTableRecord
  2
BYBLOCK
 70
0
  3

 72
65
 73
0
 40
0.0
  0
LTYPE
  5
15
100
AcDbSymbolTableRecord
100
AcDbLinetypeTableRecord
  2
BYLAYER
 70
0
  3

 72
65
 73
0
 40
0.0
  0
LTYPE
  5
16
100
AcDbSymbolTableRecord
100
AcDbLinetypeTableRecord
  2
CONTINUOUS
 70
64
  3
Solid line
 72
65
 73
0
 40
0.0
  0
LTYPE
  5
1F5
100
AcDbSymbolTableRecord
100
AcDbLinetypeTableRecord
  2
CENTER
 70
64
  3
____ _ ____ _ ____ _ ____ _ ____ _ ____ _ ____
 72
65
 73
4
 40
0.6
 49
0.375
 74
0
 49
-0.075
 74
0
 49
0.075
 74
0
 49
-0.075
 74
0
  0
LTYPE
  5
1F6
100
AcDbSymbolTableRecord
100
AcDbLinetypeTableRecord
  2
HIDDEN
 70
64
  3
- - - - - - - - - - - - - - - - - - - -
 72
65
 73
2
 40
0.2
 49
0.1
 74
0
 49
-0.1
 74
0
  0
LTYPE
  5
1F7
100
AcDbSymbolTableRecord
100
AcDbLinetypeTableRecord
  2
PHANTOM
 70
64
  3
_____ _ _ _____ _ _ _____ _ _ _____
 72
65
 73
6
 40
0.8
 49
0.45
 74
0
 49
-0.05
 74
0
 49
0.1
 74
0
 49
-0.05
 74
0
 49
0.1
 74
0
 49
-0.05
 74
0
  0
LTYPE
  5
1F8
100
AcDbSymbolTableRecord
100
AcDbLinetypeTableRecord
  2
DOT
 70
64
  3
. . . . . . . . . . . . . . . . . . . .
 72
65
 73
2
 40
0.2
 49
0.1
 74
0
 49
-0.1
 74
0
  0
LTYPE
  5
1F9
100
AcDbSymbolTableRecord
100
AcDbLinetypeTableRecord
  2
DASHED
 70
64
  3
- - - - - - - - - - - - - - - - - - - -
 72
65
 73
2
 40
0.2
 49
0.1
 74
0
 49
-0.1
 74
0
  0
ENDTAB
  0
TABLE
  2
LAYER
  5
2
100
AcDbSymbolTable
 70
36
  0
LAYER
  5
10
100
AcDbSymbolTableRecord
100
AcDbLayerTableRecord
  2
0
 70
0
 62
7
  6
CONTINUOUS
370
-3
390
F
  0
LAYER
  5
1FA
100
AcDbSymbolTableRecord
100
AcDbLayerTableRecord
  2
DEFAULT_1
 70
0
 62
7
  6
CENTER
370
-3
390
F
  0
LAYER
  5
1FB
100
AcDbSymbolTableRecord
100
AcDbLayerTableRecord
  2
DEFAULT_2
 70
0
 62
7
  6
HIDDEN
370
-3
390
F
  0
LAYER
  5
1FC
100
AcDbSymbolTableRecord
100
AcDbLayerTableRecord
  2
DEFAULT_3
 70
0
 62
7
  6
PHANTOM
370
-3
390
F
  0
LAYER
  5
1FD
100
AcDbSymbolTableRecord
100
AcDbLayerTableRecord
  2
00_COMPONENTS
 70
0
 62
7
  6
CONTINUOUS
370
-3
390
F
  0
LAYER
  5
1FE
100
AcDbSymbolTableRecord
100
AcDbLayerTableRecord
  2
01_1_DEFAULT_DATUMS
 70
0
 62
7
  6
CONTINUOUS
370
-3
390
F
  0
LAYER
  5
1FF
100
AcDbSymbolTableRecord
100
AcDbLayerTableRecord
  2
01_PLANES
 70
0
 62
7
  6
CONTINUOUS
370
-3
390
F
  0
LAYER
  5
200
100
AcDbSymbolTableRecord
100
AcDbLayerTableRecord
  2
02_COORD_SYS
 70
0
 62
7
  6
CONTINUOUS
370
-3
390
F
  0
LAYER
  5
201
100
AcDbSymbolTableRecord
100
AcDbLayerTableRecord
  2
03_AXES
 70
0
 62
7
  6
CONTINUOUS
370
-3
390
F
  0
LAYER
  5
202
100
AcDbSymbolTableRecord
100
AcDbLayerTableRecord
  2
04_POINTS
 70
0
 62
7
  6
CONTINUOUS
370
-3
390
F
  0
LAYER
  5
203
100
AcDbSymbolTableRecord
100
AcDbLayerTableRecord
  2
05_CURVES
 70
0
 62
7
  6
CONTINUOUS
370
-3
390
F
  0
LAYER
  5
204
100
AcDbSymbolTableRecord
100
AcDbLayerTableRecord
  2
06_SURFS
 70
0
 62
7
  6
CONTINUOUS
370
-3
390
F
  0
LAYER
  5
205
100
AcDbSymbolTableRecord
100
AcDbLayerTableRecord
  2
07_COSMETICS
 70
0
 62
7
  6
CONTINUOUS
370
-3
390
F
  0
LAYER
  5
206
100
AcDbSymbolTableRecord
100
AcDbLayerTableRecord
  2
10_NOTES
 70
0
 62
7
  6
CONTINUOUS
370
-3
390
F
  0
LAYER
  5
207
100
AcDbSymbolTableRecord
100
AcDbLayerTableRecord
  2
11_NOTES_PUB
 70
0
 62
7
  6
CONTINUOUS
370
-3
390
F
  0
LAYER
  5
208
100
AcDbSymbolTableRecord
100
AcDbLayerTableRecord
  2
13_REF_GTOL
 70
0
 62
7
  6
CONTINUOUS
370
-3
390
F
  0
LAYER
  5
209
100
AcDbSymbolTableRecord
100
AcDbLayerTableRecord
  2
16_MISC
 70
0
 62
7
  6
CONTINUOUS
370
-3
390
F
  0
LAYER
  5
20A
100
AcDbSymbolTableRecord
100
AcDbLayerTableRecord
  2
17_NO_PRINT
 70
0
 62
7
  6
CONTINUOUS
370
-3
390
F
  0
LAYER
  5
20B
100
AcDbSymbolTableRecord
100
AcDbLayerTableRecord
  2
18_DATUM_CAMS_JOINTS
 70
0
 62
7
  6
CONTINUOUS
370
-3
390
F
  0
LAYER
  5
20C
100
AcDbSymbolTableRecord
100
AcDbLayerTableRecord
  2
19_DATUM_FUNCTIONAL
 70
0
 62
7
  6
CONTINUOUS
370
-3
390
F
  0
LAYER
  5
20D
100
AcDbSymbolTableRecord
100
AcDbLayerTableRecord
  2
20_DATUM_KINEMATIC_SCHEME
 70
0
 62
7
  6
CONTINUOUS
370
-3
390
F
  0
ENDTAB
  0
TABLE
  2
STYLE
  5
3
100
AcDbSymbolTable
 70
1
  0
STYLE
  5
11
100
AcDbSymbolTableRecord
100
AcDbTextStyleTableRecord
  2
STANDARD
 70
0
 40
0.0
 41
1.0
 50
0.0
 71
0
 42
0.2
  3
ARIAL.TTF
  4

  0
STYLE
  5
20E
100
AcDbSymbolTableRecord
100
AcDbTextStyleTableRecord
  2
TEXTSTYLE_1
 70
0
 40
0.0
 41
0.8
 50
0.0
 71
0
 42
0.2
  3
gdt
  4

  0
ENDTAB
  0
TABLE
  2
VIEW
  5
6
100
AcDbSymbolTable
 70
0
  0
ENDTAB
  0
TABLE
  2
UCS
  5
7
100
AcDbSymbolTable
 70
0
  0
ENDTAB
  0
TABLE
  2
APPID
  5
9
100
AcDbSymbolTable
 70
1
  0
APPID
  5
20F
100
AcDbSymbolTableRecord
100
AcDbRegAppTableRecord
  2
ACAD
 70
0
  0
ENDTAB
  0
TABLE
  2
BLOCK_RECORD
  5
1
100
AcDbSymbolTable
 70
0
  0
BLOCK_RECORD
  5
210
100
AcDbSymbolTableRecord
100
AcDbBlockTableRecord
  2
*Model_Space
  0
BLOCK_RECORD
  5
211
100
AcDbSymbolTableRecord
100
AcDbBlockTableRecord
  2
*Paper_Space
  0
BLOCK_RECORD
  5
212
100
AcDbSymbolTableRecord
100
AcDbBlockTableRecord
  2
_FILLED
  0
ENDTAB
  0
TABLE
  2
DIMSTYLE
  5
A
100
AcDbSymbolTable
 70
1
100
AcDbDimStyleTable
 71
0
  0
DIMSTYLE
105
213
100
AcDbSymbolTableRecord
100
AcDbDimStyleTableRecord
  2
STANDARD
 70
0
  3

  4

 40
1.0
 41
0.706348418
 42
1.0
 43
0.38
 44
1.0
 45
0.0
 46
0.0
 47
0.01
 48
0.01
140
0.9888877852
141
0.09
142
0.0
143
25.4
144
1.0
145
0.0
146
1.0
147
0.625
 71
1
 72
0
 73
0
 74
0
 75
0
 76
0
 77
1
 78
8
 79
2
170
0
171
1
172
0
173
0
174
0
175
0
176
0
177
0
178
0
270
2
179
2
271
2
272
2
273
2
274
2
275
0
280
0
281
0
282
0
283
1
284
8
285
0
286
0
287
3
288
0
340
11
278
46
341
212
342
212
343
212
344
212
  0
ENDTAB
  0
ENDSEC
  0
SECTION
  2
BLOCKS
  0
BLOCK
  5
20
100
AcDbEntity
  8
0
100
AcDbBlockBegin
  2
*Model_Space
 70
0
 10
0.0
 20
0.0
 30
0.0
  3
*Model_Space
  1

  0
ENDBLK
  5
21
100
AcDbEntity
  8
0
100
AcDbBlockEnd
  0
BLOCK
  5
1C
100
AcDbEntity
  8
0
100
AcDbBlockBegin
  2
*Paper_Space
 70
0
 10
0.0
 20
0.0
 30
0.0
  3
*Paper_Space
  1

  0
ENDBLK
  5
1D
100
AcDbEntity
  8
0
100
AcDbBlockEnd
  0
BLOCK
  5
214
100
AcDbEntity
  8
0
100
AcDbBlockBegin
  2
_FILLED
 70
64
 10
0.0
 20
0.0
  3
_FILLED
  1

  0
SOLID
  5
215
100
AcDbEntity
  8
0
  6
BYBLOCK
 62
0
100
AcDbTrace
 10
0.0
 20
0.0
 11
-1.0
 21
0.25
 12
-1.0
 22
-0.25
 13
-1.0
 23
-0.25
  0
ENDBLK
  5
216
100
AcDbEntity
  8
0
  6
BYBLOCK
 62
0
100
AcDbBlockEnd
  0
ENDSEC
  0
SECTION
  2
ENTITIES
  0
LINE
  5
217
100
AcDbEntity
  8
0
100
AcDbLine
 62
7
  6
BYLAYER
 10
28.6494596774
 20
6.0084083954
 11
34.7994596773
 21
6.0084083954
  0
LINE
  5
218
100
AcDbEntity
  8
0
100
AcDbLine
 62
7
  6
BYLAYER
 10
34.7994596773
 20
6.0328801372
 11
28.6494596774
 21
6.0328801372
  0
LINE
  5
219
100
AcDbEntity
  8
0
100
AcDbLine
 62
7
  6
BYLAYER
 10
28.6494596774
 20
6.3213137375
 11
34.7994596773
 21
6.3213137375
  0
LINE
  5
21A
100
AcDbEntity
  8
0
100
AcDbLine
 62
7
  6
BYLAYER
 10
34.7994596773
 20
7.1726453506
 11
28.6494596774
 21
7.1726453506
  0
LINE
  5
21B
100
AcDbEntity
  8
0
100
AcDbLine
 62
7
  6
BYLAYER
 10
28.6494596774
 20
8.5517847531
 11
34.7994596773
 21
8.5517847531
  0
LINE
  5
21C
100
AcDbEntity
  8
0
100
AcDbLine
 62
7
  6
BYLAYER
 10
28.6494596774
 20
8.7387379866
 11
34.7994596773
 21
8.7387379866
  0
LINE
  5
21D
100
AcDbEntity
  8
0
100
AcDbLine
 62
7
  6
BYLAYER
 10
28.6494596773
 20
8.8758384314
 11
34.7994596773
 21
8.8758384314
  0
LINE
  5
21E
100
AcDbEntity
  8
0
100
AcDbLine
 62
7
  6
BYLAYER
 10
34.7994596773
 20
8.9247819151
 11
28.6494596773
 21
8.9247819151
  0
LINE
  5
21F
100
AcDbEntity
  8
0
100
AcDbLine
 62
7
  6
BYLAYER
 10
28.6494596773
 20
9.2678370482
 11
34.7994596773
 21
9.2678370482
  0
LINE
  5
220
100
AcDbEntity
  8
0
100
AcDbLine
 62
7
  6
BYLAYER
 10
34.7994596773
 20
10.0970242211
 11
28.6494596773
 21
10.0970242211
  0
LINE
  5
221
100
AcDbEntity
  8
0
100
AcDbLine
 62
7
  6
BYLAYER
 10
26.0744596773
 20
14.8151884998
 11
32.2244596774
 21
14.8151884998
  0
LINE
  5
222
100
AcDbEntity
  8
0
100
AcDbLine
 62
7
  6
BYLAYER
 10
32.2244596774
 20
14.8396602417
 11
26.0744596773
 21
14.8396602417
  0
LINE
  5
223
100
AcDbEntity
  8
0
100
AcDbLine
 62
7
  6
BYLAYER
 10
26.0744596773
 20
15.128093842
 11
32.2244596774
 21
15.128093842
  0
LINE
  5
224
100
AcDbEntity
  8
0
100
AcDbLine
 62
7
  6
BYLAYER
 10
34.7994596773
 20
17.1098871694
 11
32.2244596774
 21
16.7960736101
  0
LINE
  5
225
100
AcDbEntity
  8
0
100
AcDbLine
 62
7
  6
BYLAYER
 10
32.2244596774
 20
15.979425455
 11
26.0744596773
 21
15.979425455
  0
LINE
  5
226
100
AcDbEntity
  8
0
100
AcDbLine
 62
7
  6
BYLAYER
 10
32.2244596774
 20
16.5462414561
 11
34.7994596773
 21
16.5462414561
  0
LINE
  5
227
100
AcDbEntity
  8
0
100
AcDbLine
 62
7
  6
BYLAYER
 10
26.0744596773
 20
17.3585648575
 11
32.2244596774
 21
17.3585648575
  0
LINE
  5
228
100
AcDbEntity
  8
0
100
AcDbLine
 62
7
  6
BYLAYER
 10
26.0744596773
 20
17.5455180911
 11
32.2244596774
 21
17.5455180911
  0
LINE
  5
229
100
AcDbEntity
  8
0
100
AcDbLine
 62
7
  6
BYLAYER
 10
26.0744596773
 20
17.6826185359
 11
32.2244596774
 21
17.6826185359
  0
LINE
  5
22A
100
AcDbEntity
  8
0
100
AcDbLine
 62
7
  6
BYLAYER
 10
32.2244596774
 20
17.7315620196
 11
26.0744596773
 21
17.7315620196
  0
LINE
  5
22B
100
AcDbEntity
  8
0
100
AcDbLine
 62
7
  6
BYLAYER
 10
26.0744596773
 20
18.0746171527
 11
32.2244596774
 21
18.0746171527
  0
LINE
  5
22C
100
AcDbEntity
  8
0
100
AcDbLine
 62
7
  6
BYLAYER
 10
32.2244596774
 20
18.9038043256
 11
26.0744596773
 21
18.9038043256
  0
LINE
  5
22D
100
AcDbEntity
  8
0
100
AcDbLine
 62
7
  6
BYLAYER
 10
31.0615104198
 20
14.8151884998
 11
33.164418522
 21
12.7279551557
  0
LINE
  5
22E
100
AcDbEntity
  8
0
100
AcDbLine
 62
7
  6
BYLAYER
 10
33.2784996059
 20
12.7365937584
 11
31.1842949807
 21
14.8151884998
  0
LINE
  5
22F
100
AcDbEntity
  8
0
100
AcDbLine
 62
7
  6
BYLAYER
 10
32.0514599135
 20
14.8151884998
 11
33.6593932689
 21
13.2192404358
  0
LINE
  5
230
100
AcDbEntity
  8
0
100
AcDbLine
 62
7
  6
BYLAYER
 10
31.3994596773
 20
26.0996027048
 11
27.8494596773
 21
26.0996027048
  0
LINE
  5
231
100
AcDbEntity
  8
0
100
AcDbLine
 62
7
  6
BYLAYER
 10
27.8494596773
 20
26.2214720482
 11
31.3994596773
 21
26.2214720482
  0
LINE
  5
232
100
AcDbEntity
  8
0
100
AcDbLine
 62
7
  6
BYLAYER
 10
30.3944596773
 20
60.2217855238
 11
30.6530383211
 21
60.5330185487
  0
LINE
  5
233
100
AcDbEntity
  8
0
100
AcDbLine
 62
7
  6
BYLAYER
 10
28.3968213846
 20
24.1080075717
 11
30.5894185221
 21
21.9317537208
  0
LINE
  5
234
100
AcDbEntity
  8
0
100
AcDbLine
 62
7
  6
BYLAYER
 10
30.7034996059
 20
21.9403923235
 11
28.4578723409
 21
24.1692810234
  0
LINE
  5
235
100
AcDbEntity
  8
0
100
AcDbLine
 62
7
  6
BYLAYER
 10
29.0993997832
 20
24.3932366463
 11
31.0843932689
 21
22.423039001
  0
LINE
  5
236
100
AcDbEntity
  8
0
100
AcDbLine
 62
7
  6
BYLAYER
 10
27.1994596748
 20
32.4217058586
 11
32.0494596748
 21
32.4217058586
  0
LINE
  5
237
100
AcDbEntity
  8
0
100
AcDbLine
 62
7
  6
BYLAYER
 10
33.3076447919
 20
64.9000789017
 11
33.3084489105
 21
64.9017287631
  0
LINE
  5
238
100
AcDbEntity
  8
0
100
AcDbLine
 62
7
  6
BYLAYER
 10
30.6530383211
 20
55.7191697133
 11
30.3944596773
 21
55.4079366883
  0
LINE
  5
239
100
AcDbEntity
  8
0
100
AcDbLine
 62
7
  6
BYLAYER
 10
27.8244596748
 20
33.3698185633
 11
31.4244596748
 21
33.3698185633
  0
LINE
  5
23A
100
AcDbEntity
  8
0
100
AcDbLine
 62
7
  6
BYLAYER
 10
31.4244596748
 20
33.4154447653
 11
27.8244596748
 21
33.4154447653
  0
LINE
  5
23B
100
AcDbEntity
  8
0
100
AcDbLine
 62
7
  6
BYLAYER
 10
27.8244596748
 20
34.2464740325
 11
31.4244596748
 21
34.2464740325
  0
LINE
  5
23C
100
AcDbEntity
  8
0
100
AcDbLine
 62
7
  6
BYLAYER
 10
27.8244596748
 20
34.7681080064
 11
31.4244596748
 21
34.7681080064
  0
LINE
  5
23D
100
AcDbEntity
  8
0
100
AcDbLine
 62
7
  6
BYLAYER
 10
27.1994596748
 20
35.276404519
 11
32.0494596748
 21
35.276404519
  0
LINE
  5
23E
100
AcDbEntity
  8
0
100
AcDbLine
 62
7
  6
BYLAYER
 10
32.0494596748
 20
35.8372630383
 11
27.1994596748
 21
35.8372630383
  0
LINE
  5
23F
100
AcDbEntity
  8
0
100
AcDbLine
 62
7
  6
BYLAYER
 10
32.0494596748
 20
35.8733613142
 11
31.3994596773
 21
35.8733613142
  0
LINE
  5
240
100
AcDbEntity
  8
0
100
AcDbLine
 62
7
  6
BYLAYER
 10
27.8494596773
 20
35.8733613142
 11
27.1994596748
 21
35.8733613142
  0
LINE
  5
241
100
AcDbEntity
  8
0
100
AcDbLine
 62
7
  6
BYLAYER
 10
27.8494596773
 20
35.9083941214
 11
31.3994596773
 21
35.9083941214
  0
LINE
  5
242
100
AcDbEntity
  8
0
100
AcDbLine
 62
7
  6
BYLAYER
 10
27.8494596773
 20
36.8211876572
 11
31.3994596773
 21
36.8211876572
  0
LINE
  5
243
100
AcDbEntity
  8
0
100
AcDbLine
 62
7
  6
BYLAYER
 10
26.0744596773
 20
14.8151892755
 11
26.0744596773
 21
52.5033612005
  0
LINE
  5
244
100
AcDbEntity
  8
0
100
AcDbLine
 62
7
  6
BYLAYER
 10
27.1994596748
 20
32.4217058586
 11
27.1994596748
 21
35.8733613143
  0
LINE
  5
245
100
AcDbEntity
  8
0
100
AcDbLine
 62
7
  6
BYLAYER
 10
27.8244596748
 20
34.7681080064
 11
27.8244596748
 21
33.3698185633
  0
LINE
  5
246
100
AcDbEntity
  8
0
100
AcDbLine
 62
7
  6
BYLAYER
 10
27.8494596773
 20
36.8211876572
 11
27.8494596773
 21
35.8733613142
  0
LINE
  5
247
100
AcDbEntity
  8
0
100
AcDbLine
 62
7
  6
BYLAYER
 10
27.8494596773
 20
32.4217058586
 11
27.8494596773
 21
26.0996027048
  0
LINE
  5
248
100
AcDbEntity
  8
0
100
AcDbLine
 62
7
  6
BYLAYER
 10
28.0744596773
 20
52.2779029152
 11
28.0744596773
 21
50.9593953422
  0
LINE
  5
249
100
AcDbEntity
  8
0
100
AcDbLine
 62
7
  6
BYLAYER
 10
30.7332518976
 20
21.8146419559
 11
30.7034996059
 21
21.9403923235
  0
LINE
  5
24A
100
AcDbEntity
  8
0
100
AcDbLine
 62
7
  6
BYLAYER
 10
33.3082518976
 20
12.6108433908
 11
33.2784996059
 21
12.7365937584
  0
LINE
  5
24B
100
AcDbEntity
  8
0
100
AcDbLine
 62
7
  6
BYLAYER
 10
28.6494596774
 20
6.008409171
 11
28.6494596773
 21
14.8151884998
  0
LINE
  5
24C
100
AcDbEntity
  8
0
100
AcDbLine
 62
7
  6
BYLAYER
 10
28.6494596774
 20
52.7675474522
 11
28.6494596774
 21
77.3920975738
  0
LINE
  5
24D
100
AcDbEntity
  8
0
100
AcDbLine
 62
7
  6
BYLAYER
 10
29.2994596773
 20
61.1800074397
 11
29.2994596773
 21
58.4298028662
  0
LINE
  5
24E
100
AcDbEntity
  8
0
100
AcDbLine
 62
7
  6
BYLAYER
 10
29.2994596773
 20
56.7424744084
 11
29.2994596773
 21
53.0204263398
  0
LINE
  5
24F
100
AcDbEntity
  8
0
100
AcDbLine
 62
7
  6
BYLAYER
 10
29.3994596773
 20
54.4402041905
 11
29.3994596773
 21
56.7424744084
  0
LINE
  5
250
100
AcDbEntity
  8
0
100
AcDbLine
 62
7
  6
BYLAYER
 10
29.3994596773
 20
59.8495807168
 11
29.3994596773
 21
61.1800074397
  0
LINE
  5
251
100
AcDbEntity
  8
0
100
AcDbLine
 62
7
  6
BYLAYER
 10
30.3685195697
 20
77.2944412955
 11
30.3685195697
 21
75.7999297783
  0
LINE
  5
252
100
AcDbEntity
  8
0
100
AcDbLine
 62
7
  6
BYLAYER
 10
30.3944596773
 20
56.7424744084
 11
30.3944596773
 21
55.4079366883
  0
LINE
  5
253
100
AcDbEntity
  8
0
100
AcDbLine
 62
7
  6
BYLAYER
 10
30.3944596773
 20
60.2217855238
 11
30.3944596773
 21
61.1800074397
  0
LINE
  5
254
100
AcDbEntity
  8
0
100
AcDbLine
 62
7
  6
BYLAYER
 10
30.5944596773
 20
61.1800074397
 11
30.5944596773
 21
60.6610207634
  0
LINE
  5
255
100
AcDbEntity
  8
0
100
AcDbLine
 62
7
  6
BYLAYER
 10
30.5944596773
 20
56.7424744084
 11
30.5944596773
 21
55.8471719279
  0
LINE
  5
256
100
AcDbEntity
  8
0
100
AcDbLine
 62
7
  6
BYLAYER
 10
28.4639774365
 20
42.289375636
 11
30.5894185221
 21
40.179777266
  0
LINE
  5
257
100
AcDbEntity
  8
0
100
AcDbLine
 62
7
  6
BYLAYER
 10
30.7034996059
 20
40.1884158687
 11
28.5250283928
 21
42.3506490877
  0
LINE
  5
258
100
AcDbEntity
  8
0
100
AcDbLine
 62
7
  6
BYLAYER
 10
29.2057124947
 20
42.5357399187
 11
31.0843932689
 21
40.6710625462
  0
LINE
  5
259
100
AcDbEntity
  8
0
100
AcDbLine
 62
7
  6
BYLAYER
 10
30.7332518976
 20
40.0626655011
 11
30.7034996059
 21
40.1884158687
  0
LINE
  5
25A
100
AcDbEntity
  8
0
100
AcDbLine
 62
7
  6
BYLAYER
 10
30.7944596773
 20
55.6486626976
 11
30.7944596773
 21
55.7146049609
  0
LINE
  5
25B
100
AcDbEntity
  8
0
100
AcDbLine
 62
7
  6
BYLAYER
 10
30.7944596773
 20
60.462511533
 11
30.7944596773
 21
60.5284537964
  0
LINE
  5
25C
100
AcDbEntity
  8
0
100
AcDbLine
 62
7
  6
BYLAYER
 10
31.2244596773
 20
50.9593953422
 11
31.2244596773
 21
52.2779029152
  0
LINE
  5
25D
100
AcDbEntity
  8
0
100
AcDbLine
 62
7
  6
BYLAYER
 10
31.3994596773
 20
26.0996027048
 11
31.3994596773
 21
32.4217058586
  0
LINE
  5
25E
100
AcDbEntity
  8
0
100
AcDbLine
 62
7
  6
BYLAYER
 10
31.3994596773
 20
35.8733613142
 11
31.3994596773
 21
36.8211876572
  0
LINE
  5
25F
100
AcDbEntity
  8
0
100
AcDbLine
 62
7
  6
BYLAYER
 10
31.4244596748
 20
33.3698185633
 11
31.4244596748
 21
34.7681080064
  0
LINE
  5
260
100
AcDbEntity
  8
0
100
AcDbLine
 62
7
  6
BYLAYER
 10
32.0494596748
 20
35.8733613142
 11
32.0494596748
 21
32.4217058586
  0
LINE
  5
261
100
AcDbEntity
  8
0
100
AcDbLine
 62
7
  6
BYLAYER
 10
32.2244596774
 20
52.5277350692
 11
32.2244596774
 21
14.8151892755
  0
LINE
  5
262
100
AcDbEntity
  8
0
100
AcDbLine
 62
7
  6
BYLAYER
 10
32.6944596773
 20
60.5284537964
 11
32.6944596773
 21
60.462511533
  0
LINE
  5
263
100
AcDbEntity
  8
0
100
AcDbLine
 62
7
  6
BYLAYER
 10
32.6944596773
 20
55.7146049609
 11
32.6944596773
 21
55.6486626976
  0
LINE
  5
264
100
AcDbEntity
  8
0
100
AcDbLine
 62
7
  6
BYLAYER
 10
32.8944596773
 20
55.8471719279
 11
32.8944596773
 21
56.7424744084
  0
LINE
  5
265
100
AcDbEntity
  8
0
100
AcDbLine
 62
7
  6
BYLAYER
 10
32.8944596773
 20
60.6610207634
 11
32.8944596773
 21
61.1800074397
  0
LINE
  5
266
100
AcDbEntity
  8
0
100
AcDbLine
 62
7
  6
BYLAYER
 10
33.0944596773
 20
56.7424744084
 11
33.0944596773
 21
55.4079366883
  0
LINE
  5
267
100
AcDbEntity
  8
0
100
AcDbLine
 62
7
  6
BYLAYER
 10
33.0944596773
 20
60.2217855238
 11
33.0944596773
 21
61.1800074397
  0
LINE
  5
268
100
AcDbEntity
  8
0
100
AcDbLine
 62
7
  6
BYLAYER
 10
30.7326447919
 20
40.0595444655
 11
30.7334489105
 21
40.061194327
  0
LINE
  5
269
100
AcDbEntity
  8
0
100
AcDbLine
 62
7
  6
BYLAYER
 10
26.0744596773
 20
43.9609291532
 11
32.2244596774
 21
43.9609291532
  0
LINE
  5
26A
100
AcDbEntity
  8
0
100
AcDbLine
 62
7
  6
BYLAYER
 10
33.7994596773
 20
75.7999297783
 11
33.7994596773
 21
77.2944412955
  0
LINE
  5
26B
100
AcDbEntity
  8
0
100
AcDbLine
 62
7
  6
BYLAYER
 10
34.1494596773
 20
53.0204263398
 11
34.1494596773
 21
56.7424744084
  0
LINE
  5
26C
100
AcDbEntity
  8
0
100
AcDbLine
 62
7
  6
BYLAYER
 10
34.1494596773
 20
58.4298028662
 11
34.1494596773
 21
61.1800074397
  0
LINE
  5
26D
100
AcDbEntity
  8
0
100
AcDbLine
 62
7
  6
BYLAYER
 10
34.7994596773
 20
77.3920975738
 11
34.7994596773
 21
6.008409171
  0
LINE
  5
26E
100
AcDbEntity
  8
0
100
AcDbLine
 62
7
  6
BYLAYER
 10
32.2244596774
 20
44.9308465928
 11
26.0744596773
 21
44.9308465928
  0
LINE
  5
26F
100
AcDbEntity
  8
0
100
AcDbLine
 62
7
  6
BYLAYER
 10
26.0744596773
 20
45.5191363213
 11
32.2244596774
 21
45.5191363213
  0
LINE
  5
270
100
AcDbEntity
  8
0
100
AcDbLine
 62
7
  6
BYLAYER
 10
26.0744596773
 20
45.6710882252
 11
32.2244596774
 21
45.6710882252
  0
LINE
  5
271
100
AcDbEntity
  8
0
100
AcDbLine
 62
7
  6
BYLAYER
 10
32.2244596774
 20
46.7347381898
 11
26.0744596773
 21
46.7347381898
  0
LINE
  5
272
100
AcDbEntity
  8
0
100
AcDbLine
 62
7
  6
BYLAYER
 10
26.0744596773
 20
47.4745644258
 11
32.2244596774
 21
47.4745644258
  0
LINE
  5
273
100
AcDbEntity
  8
0
100
AcDbLine
 62
7
  6
BYLAYER
 10
32.2244596774
 20
47.6200923684
 11
26.0744596773
 21
47.6200923684
  0
LINE
  5
274
100
AcDbEntity
  8
0
100
AcDbLine
 62
7
  6
BYLAYER
 10
26.0744596773
 20
48.9917047474
 11
32.2244596774
 21
48.9917047474
  0
LINE
  5
275
100
AcDbEntity
  8
0
100
AcDbLine
 62
7
  6
BYLAYER
 10
30.7326447919
 20
21.8115209203
 11
30.7334489105
 21
21.8131707818
  0
LINE
  5
276
100
AcDbEntity
  8
0
100
AcDbLine
 62
7
  6
BYLAYER
 10
32.2244596774
 20
49.9837061225
 11
26.0744596773
 21
49.9837061225
  0
LINE
  5
277
100
AcDbEntity
  8
0
100
AcDbLine
 62
7
  6
BYLAYER
 10
26.0744596773
 20
50.4783278554
 11
32.2244596774
 21
50.4783278554
  0
LINE
  5
278
100
AcDbEntity
  8
0
100
AcDbLine
 62
7
  6
BYLAYER
 10
32.2244596774
 20
50.5505768831
 11
26.0744596773
 21
50.5505768831
  0
LINE
  5
279
100
AcDbEntity
  8
0
100
AcDbLine
 62
7
  6
BYLAYER
 10
31.2244596773
 20
50.9593953422
 11
28.0744596773
 21
50.9593953422
  0
LINE
  5
27A
100
AcDbEntity
  8
0
100
AcDbLine
 62
7
  6
BYLAYER
 10
33.3082518976
 20
64.9031999373
 11
33.2784996059
 21
65.0289503049
  0
LINE
  5
27B
100
AcDbEntity
  8
0
100
AcDbLine
 62
7
  6
BYLAYER
 10
32.2244596774
 20
52.4781077616
 11
34.7994596773
 21
52.7919213209
  0
LINE
  5
27C
100
AcDbEntity
  8
0
100
AcDbLine
 62
7
  6
BYLAYER
 10
26.6816769988
 20
52.5277350692
 11
28.6494596774
 21
52.7675474522
  0
LINE
  5
27D
100
AcDbEntity
  8
0
100
AcDbLine
 62
7
  6
BYLAYER
 10
26.0744596773
 20
52.5033612005
 11
26.2744596774
 21
52.5277350692
  0
LINE
  5
27E
100
AcDbEntity
  8
0
100
AcDbLine
 62
7
  6
BYLAYER
 10
31.2244596773
 20
52.2779029152
 11
28.0744596773
 21
52.2779029152
  0
LINE
  5
27F
100
AcDbEntity
  8
0
100
AcDbLine
 62
7
  6
BYLAYER
 10
26.2744596774
 20
52.5277350692
 11
32.2244596774
 21
52.5277350692
  0
LINE
  5
280
100
AcDbEntity
  8
0
100
AcDbLine
 62
7
  6
BYLAYER
 10
34.7994596773
 20
53.0204263398
 11
34.1494596773
 21
53.0204263398
  0
LINE
  5
281
100
AcDbEntity
  8
0
100
AcDbLine
 62
7
  6
BYLAYER
 10
29.2994596773
 20
53.0204263398
 11
28.6494596774
 21
53.0204263398
  0
LINE
  5
282
100
AcDbEntity
  8
0
100
AcDbLine
 62
7
  6
BYLAYER
 10
33.0944596773
 20
55.4079366883
 11
32.8358810336
 21
55.7191697133
  0
LINE
  5
283
100
AcDbEntity
  8
0
100
AcDbLine
 62
7
  6
BYLAYER
 10
29.3994596773
 20
54.4402041905
 11
34.1494596773
 21
54.4402041905
  0
LINE
  5
284
100
AcDbEntity
  8
0
100
AcDbLine
 62
7
  6
BYLAYER
 10
29.2994596773
 20
54.5483632327
 11
29.3994596773
 21
54.5483632327
  0
LINE
  5
285
100
AcDbEntity
  8
0
100
AcDbLine
 62
7
  6
BYLAYER
 10
30.3944596773
 20
55.4079366883
 11
33.0944596773
 21
55.4079366883
  0
LINE
  5
286
100
AcDbEntity
  8
0
100
AcDbLine
 62
7
  6
BYLAYER
 10
30.7944596773
 20
55.6486626976
 11
32.6944596773
 21
55.6486626976
  0
LINE
  5
287
100
AcDbEntity
  8
0
100
AcDbLine
 62
7
  6
BYLAYER
 10
32.6944596773
 20
55.7146049609
 11
30.7944596773
 21
55.7146049609
  0
LINE
  5
288
100
AcDbEntity
  8
0
100
AcDbLine
 62
7
  6
BYLAYER
 10
32.8358810336
 20
60.5330185487
 11
33.0944596773
 21
60.2217855238
  0
LINE
  5
289
100
AcDbEntity
  8
0
100
AcDbLine
 62
7
  6
BYLAYER
 10
33.3076447919
 20
12.6077223552
 11
33.3084489104
 21
12.6093722167
  0
LINE
  5
28A
100
AcDbEntity
  8
0
100
AcDbLine
 62
7
  6
BYLAYER
 10
34.1494596773
 20
56.7424744084
 11
29.2994596773
 21
56.7424744084
  0
LINE
  5
28B
100
AcDbEntity
  8
0
100
AcDbLine
 62
7
  6
BYLAYER
 10
29.2994596773
 20
58.4298028662
 11
34.1494596773
 21
58.4298028662
  0
LINE
  5
28C
100
AcDbEntity
  8
0
100
AcDbLine
 62
7
  6
BYLAYER
 10
34.1494596773
 20
59.8495807168
 11
29.3994596773
 21
59.8495807168
  0
LINE
  5
28D
100
AcDbEntity
  8
0
100
AcDbLine
 62
7
  6
BYLAYER
 10
29.3994596773
 20
59.9577397591
 11
29.2994596773
 21
59.9577397591
  0
LINE
  5
28E
100
AcDbEntity
  8
0
100
AcDbLine
 62
7
  6
BYLAYER
 10
30.3944596774
 20
60.2217855238
 11
33.0944596773
 21
60.2217855238
  0
LINE
  5
28F
100
AcDbEntity
  8
0
100
AcDbLine
 62
7
  6
BYLAYER
 10
30.7944596773
 20
60.462511533
 11
32.6944596773
 21
60.462511533
  0
LINE
  5
290
100
AcDbEntity
  8
0
100
AcDbLine
 62
7
  6
BYLAYER
 10
30.7944596773
 20
60.5284537964
 11
32.6944596774
 21
60.5284537964
  0
LINE
  5
291
100
AcDbEntity
  8
0
100
AcDbLine
 62
7
  6
BYLAYER
 10
28.6494596773
 20
61.1800074397
 11
34.7994596773
 21
61.1800074397
  0
LINE
  5
292
100
AcDbEntity
  8
0
100
AcDbLine
 62
7
  6
BYLAYER
 10
31.0389774365
 20
67.1299100722
 11
33.1644185221
 21
65.0203117022
  0
LINE
  5
293
100
AcDbEntity
  8
0
100
AcDbLine
 62
7
  6
BYLAYER
 10
33.2784996059
 20
65.0289503049
 11
31.1000283928
 21
67.1911835238
  0
LINE
  5
294
100
AcDbEntity
  8
0
100
AcDbLine
 62
7
  6
BYLAYER
 10
31.7807124947
 20
67.3762743548
 11
33.6593932689
 21
65.5115969823
  0
LINE
  5
295
100
AcDbEntity
  8
0
100
AcDbLine
 62
7
  6
BYLAYER
 10
34.7994596773
 20
61.2056373749
 11
28.6494596773
 21
61.2056373749
  0
LINE
  5
296
100
AcDbEntity
  8
0
100
AcDbLine
 62
7
  6
BYLAYER
 10
28.6494596773
 20
61.9552278937
 11
34.7994596773
 21
61.9552278937
  0
LINE
  5
297
100
AcDbEntity
  8
0
100
AcDbLine
 62
7
  6
BYLAYER
 10
28.6494596773
 20
68.8014635894
 11
34.7994596773
 21
68.8014635894
  0
LINE
  5
298
100
AcDbEntity
  8
0
100
AcDbLine
 62
7
  6
BYLAYER
 10
34.7994596773
 20
69.771381029
 11
28.6494596773
 21
69.771381029
  0
LINE
  5
299
100
AcDbEntity
  8
0
100
AcDbLine
 62
7
  6
BYLAYER
 10
28.6494596773
 20
70.3596707575
 11
34.7994596773
 21
70.3596707575
  0
LINE
  5
29A
100
AcDbEntity
  8
0
100
AcDbLine
 62
7
  6
BYLAYER
 10
28.6494596773
 20
70.5116226613
 11
34.7994596773
 21
70.5116226613
  0
LINE
  5
29B
100
AcDbEntity
  8
0
100
AcDbLine
 62
7
  6
BYLAYER
 10
34.7994596773
 20
71.5752726259
 11
28.6494596774
 21
71.5752726259
  0
LINE
  5
29C
100
AcDbEntity
  8
0
100
AcDbLine
 62
7
  6
BYLAYER
 10
28.6494596774
 20
72.315098862
 11
34.7994596773
 21
72.315098862
  0
LINE
  5
29D
100
AcDbEntity
  8
0
100
AcDbLine
 62
7
  6
BYLAYER
 10
34.7994596773
 20
72.4606268046
 11
28.6494596774
 21
72.4606268046
  0
LINE
  5
29E
100
AcDbEntity
  8
0
100
AcDbLine
 62
7
  6
BYLAYER
 10
28.6494596774
 20
73.8322391836
 11
34.7994596773
 21
73.8322391836
  0
LINE
  5
29F
100
AcDbEntity
  8
0
100
AcDbLine
 62
7
  6
BYLAYER
 10
34.7994596773
 20
74.8242405587
 11
28.6494596774
 21
74.8242405587
  0
LINE
  5
2A0
100
AcDbEntity
  8
0
100
AcDbLine
 62
7
  6
BYLAYER
 10
28.6494596774
 20
75.3188622915
 11
34.7994596773
 21
75.3188622915
  0
LINE
  5
2A1
100
AcDbEntity
  8
0
100
AcDbLine
 62
7
  6
BYLAYER
 10
34.7994596773
 20
75.3911113193
 11
28.6494596774
 21
75.3911113193
  0
LINE
  5
2A2
100
AcDbEntity
  8
0
100
AcDbLine
 62
7
  6
BYLAYER
 10
30.3685195697
 20
75.7999297783
 11
33.7994596773
 21
75.7999297783
  0
LINE
  5
2A3
100
AcDbEntity
  8
0
100
AcDbLine
 62
7
  6
BYLAYER
 10
33.7994596773
 20
77.2944412955
 11
30.3685195697
 21
77.2944412955
  0
LINE
  5
2A4
100
AcDbEntity
  8
0
100
AcDbLine
 62
7
  6
BYLAYER
 10
28.6494596774
 20
77.3846437254
 11
34.7994596773
 21
77.3846437254
  0
LINE
  5
2A5
100
AcDbEntity
  8
0
100
AcDbLine
 62
7
  6
BYLAYER
 10
28.6494596774
 20
77.3920975738
 11
34.7994596773
 21
77.3920975738
  0
ARC
  5
2A6
100
AcDbEntity
  8
0
100
AcDbCircle
 62
7
  6
BYLAYER
 10
29.6298235713
 20
23.7342007762
 40
2.1759742938
100
AcDbArc
 50
301.3710543405
 51
317.7599246918
  0
ARC
  5
2A7
100
AcDbEntity
  8
0
100
AcDbCircle
 62
7
  6
BYLAYER
 10
29.6317050272
 20
23.7309841524
 40
2.1722484516
100
AcDbArc
 50
300.2175514871
 51
301.3728503405
  0
ARC
  5
2A8
100
AcDbEntity
  8
0
100
AcDbCircle
 62
7
  6
BYLAYER
 10
29.6382414022
 20
23.7248550095
 40
2.1634600646
100
AcDbArc
 50
317.7932991709
 51
321.8905415608
  0
ARC
  5
2A9
100
AcDbEntity
  8
0
100
AcDbCircle
 62
7
  6
BYLAYER
 10
29.6470776243
 20
23.7189004347
 40
2.1528366475
100
AcDbArc
 50
321.8742825925
 51
341.1490744818
  0
ARC
  5
2AA
100
AcDbEntity
  8
0
100
AcDbCircle
 62
7
  6
BYLAYER
 10
29.6013415269
 20
23.7186599906
 40
2.1522821095
100
AcDbArc
 50
198.8239950201
 51
217.2290606402
  0
ARC
  5
2AB
100
AcDbEntity
  8
0
100
AcDbCircle
 62
7
  6
BYLAYER
 10
29.6250228857
 20
23.4272240511
 40
1.9590154909
100
AcDbArc
 50
269.9835277149
 51
304.4325891824
  0
ARC
  5
2AC
100
AcDbEntity
  8
0
100
AcDbCircle
 62
7
  6
BYLAYER
 10
29.6462337957
 20
23.4058113614
 40
1.9282587005
100
AcDbArc
 50
325.1195170253
 51
355.6634337873
  0
ARC
  5
2AD
100
AcDbEntity
  8
0
100
AcDbCircle
 62
7
  6
BYLAYER
 10
29.631705969
 20
23.5156475244
 40
1.905300645
100
AcDbArc
 50
304.2311222588
 51
318.2984406081
  0
ARC
  5
2AE
100
AcDbEntity
  8
0
100
AcDbCircle
 62
7
  6
BYLAYER
 10
29.6359422487
 20
23.5112398743
 40
1.8992056202
100
AcDbArc
 50
318.3126997142
 51
322.82671405
  0
ARC
  5
2AF
100
AcDbEntity
  8
0
100
AcDbCircle
 62
7
  6
BYLAYER
 10
29.6249504079
 20
23.4031768181
 40
1.7593421141
100
AcDbArc
 50
269.9840185789
 51
303.2434869962
  0
ARC
  5
2B0
100
AcDbEntity
  8
0
100
AcDbCircle
 62
7
  6
BYLAYER
 10
29.6480636528
 20
23.3808637196
 40
1.7263596506
100
AcDbArc
 50
326.3024313668
 51
10.162189599
  0
ARC
  5
2B1
100
AcDbEntity
  8
0
100
AcDbCircle
 62
7
  6
BYLAYER
 10
29.6239243264
 20
41.8632442571
 40
2.1921190517
100
AcDbArc
 50
270.0139925563
 51
277.3158521183
  0
ARC
  5
2B2
100
AcDbEntity
  8
0
100
AcDbCircle
 62
7
  6
BYLAYER
 10
29.625032335
 20
41.8599079142
 40
2.1886688802
100
AcDbArc
 50
277.298204184
 51
291.4200430773
  0
ARC
  5
2B3
100
AcDbEntity
  8
0
100
AcDbCircle
 62
7
  6
BYLAYER
 10
29.6262034097
 20
41.8554643658
 40
2.1841046416
100
AcDbArc
 50
291.4340150347
 51
299.8754354324
  0
ARC
  5
2B4
100
AcDbEntity
  8
0
100
AcDbCircle
 62
7
  6
BYLAYER
 10
29.628429406
 20
41.8502423042
 40
2.1784714207
100
AcDbArc
 50
302.0034032917
 51
303.8326374629
  0
ARC
  5
2B5
100
AcDbEntity
  8
0
100
AcDbCircle
 62
7
  6
BYLAYER
 10
29.631413453
 20
41.8454545724
 40
2.1728298902
100
AcDbArc
 50
299.8877855992
 51
302.0035834205
  0
ARC
  5
2B6
100
AcDbEntity
  8
0
100
AcDbCircle
 62
7
  6
BYLAYER
 10
29.6359025711
 20
41.8408533156
 40
2.1665578954
100
AcDbArc
 50
303.8101391834
 51
322.7102052644
  0
ARC
  5
2B7
100
AcDbEntity
  8
0
100
AcDbCircle
 62
7
  6
BYLAYER
 10
29.6472804267
 20
41.8327857785
 40
2.1526182529
100
AcDbArc
 50
322.6975824846
 51
341.1493939543
  0
ARC
  5
2B8
100
AcDbEntity
  8
0
100
AcDbCircle
 62
7
  6
BYLAYER
 10
29.6250228857
 20
41.6752475963
 40
1.9590154909
100
AcDbArc
 50
269.9835277149
 51
304.4325891824
  0
ARC
  5
2B9
100
AcDbEntity
  8
0
100
AcDbCircle
 62
7
  6
BYLAYER
 10
29.6458090936
 20
41.6540161971
 40
1.9287107798
100
AcDbArc
 50
325.1223139725
 51
352.7364551418
  0
ARC
  5
2BA
100
AcDbEntity
  8
0
100
AcDbCircle
 62
7
  6
BYLAYER
 10
29.631705969
 20
41.7636710696
 40
1.905300645
100
AcDbArc
 50
304.2311222588
 51
318.2984406081
  0
ARC
  5
2BB
100
AcDbEntity
  8
0
100
AcDbCircle
 62
7
  6
BYLAYER
 10
29.6359422487
 20
41.7592634195
 40
1.8992056202
100
AcDbArc
 50
318.3126997142
 51
322.82671405
  0
ARC
  5
2BC
100
AcDbEntity
  8
0
100
AcDbCircle
 62
7
  6
BYLAYER
 10
29.6232230582
 20
41.6484561796
 40
1.7565402786
100
AcDbArc
 50
225.2684862225
 51
303.2434869962
  0
ARC
  5
2BD
100
AcDbEntity
  8
0
100
AcDbCircle
 62
7
  6
BYLAYER
 10
29.6044385011
 20
41.6297907608
 40
1.7299676659
100
AcDbArc
 50
177.5868514837
 51
225.2753858117
  0
ARC
  5
2BE
100
AcDbEntity
  8
0
100
AcDbCircle
 62
7
  6
BYLAYER
 10
29.647740991
 20
41.6290014738
 40
1.7266916558
100
AcDbArc
 50
326.3052184964
 51
4.0906228931
  0
ARC
  5
2BF
100
AcDbEntity
  8
0
100
AcDbCircle
 62
7
  6
BYLAYER
 10
30.7922301471
 20
60.7270967712
 40
0.197770515
100
AcDbArc
 50
180.038746908
 51
270.0324271382
  0
ARC
  5
2C0
100
AcDbEntity
  8
0
100
AcDbCircle
 62
7
  6
BYLAYER
 10
30.7922301471
 20
55.9132479357
 40
0.197770515
100
AcDbArc
 50
180.038746908
 51
270.0324271418
  0
ARC
  5
2C1
100
AcDbEntity
  8
0
100
AcDbCircle
 62
7
  6
BYLAYER
 10
32.199345544
 20
13.1529849442
 40
2.1773881852
100
AcDbArc
 50
88.0408674856
 51
89.3371189048
  0
ARC
  5
2C2
100
AcDbEntity
  8
0
100
AcDbCircle
 62
7
  6
BYLAYER
 10
32.2048235713
 20
14.5304022111
 40
2.1759742938
100
AcDbArc
 50
301.3710543404
 51
317.7599246917
  0
ARC
  5
2C3
100
AcDbEntity
  8
0
100
AcDbCircle
 62
7
  6
BYLAYER
 10
32.2067050272
 20
14.5271855872
 40
2.1722484515
100
AcDbArc
 50
300.217551487
 51
301.3728503404
  0
ARC
  5
2C4
100
AcDbEntity
  8
0
100
AcDbCircle
 62
7
  6
BYLAYER
 10
32.2132414014
 20
14.5210564451
 40
2.1634600658
100
AcDbArc
 50
317.7932991709
 51
321.8905415603
  0
ARC
  5
2C5
100
AcDbEntity
  8
0
100
AcDbCircle
 62
7
  6
BYLAYER
 10
32.2220776243
 20
14.5151018696
 40
2.1528366475
100
AcDbArc
 50
321.8742825919
 51
341.1490744817
  0
ARC
  5
2C6
100
AcDbEntity
  8
0
100
AcDbCircle
 62
7
  6
BYLAYER
 10
32.1772043673
 20
13.1694064684
 40
2.1528128599
100
AcDbArc
 50
128.1920466252
 51
179.9420298275
  0
ARC
  5
2C7
100
AcDbEntity
  8
0
100
AcDbCircle
 62
7
  6
BYLAYER
 10
32.1763415269
 20
14.5148614255
 40
2.1522821095
100
AcDbArc
 50
198.8239950201
 51
217.2290606399
  0
ARC
  5
2C8
100
AcDbEntity
  8
0
100
AcDbCircle
 62
7
  6
BYLAYER
 10
32.2000228857
 20
14.2234254859
 40
1.9590154909
100
AcDbArc
 50
269.9835277149
 51
304.4325891824
  0
ARC
  5
2C9
100
AcDbEntity
  8
0
100
AcDbCircle
 62
7
  6
BYLAYER
 10
32.2212337957
 20
14.2020127962
 40
1.9282587005
100
AcDbArc
 50
325.1195170253
 51
355.6634337878
  0
ARC
  5
2CA
100
AcDbEntity
  8
0
100
AcDbCircle
 62
7
  6
BYLAYER
 10
32.206705969
 20
14.3118489593
 40
1.905300645
100
AcDbArc
 50
304.2311222588
 51
318.2984406082
  0
ARC
  5
2CB
100
AcDbEntity
  8
0
100
AcDbCircle
 62
7
  6
BYLAYER
 10
32.2109422486
 20
14.3074413092
 40
1.8992056202
100
AcDbArc
 50
318.3126997142
 51
322.82671405
  0
ARC
  5
2CC
100
AcDbEntity
  8
0
100
AcDbCircle
 62
7
  6
BYLAYER
 10
32.1999504078
 20
14.199378253
 40
1.7593421141
100
AcDbArc
 50
269.9840185789
 51
303.2434869961
  0
ARC
  5
2CD
100
AcDbEntity
  8
0
100
AcDbCircle
 62
7
  6
BYLAYER
 10
32.2230636528
 20
14.1770651544
 40
1.7263596506
100
AcDbArc
 50
326.3024313668
 51
10.1621895992
  0
ARC
  5
2CE
100
AcDbEntity
  8
0
100
AcDbCircle
 62
7
  6
BYLAYER
 10
32.1989243264
 20
66.7037786933
 40
2.1921190517
100
AcDbArc
 50
270.0139925563
 51
277.3158521183
  0
ARC
  5
2CF
100
AcDbEntity
  8
0
100
AcDbCircle
 62
7
  6
BYLAYER
 10
32.200032335
 20
66.7004423503
 40
2.1886688802
100
AcDbArc
 50
277.298204184
 51
291.4200430772
  0
ARC
  5
2D0
100
AcDbEntity
  8
0
100
AcDbCircle
 62
7
  6
BYLAYER
 10
32.2012034097
 20
66.6959988019
 40
2.1841046416
100
AcDbArc
 50
291.4340150346
 51
299.8754354324
  0
ARC
  5
2D1
100
AcDbEntity
  8
0
100
AcDbCircle
 62
7
  6
BYLAYER
 10
32.203429406
 20
66.6907767404
 40
2.1784714206
100
AcDbArc
 50
302.0034032917
 51
303.8326374629
  0
ARC
  5
2D2
100
AcDbEntity
  8
0
100
AcDbCircle
 62
7
  6
BYLAYER
 10
32.206413453
 20
66.6859890086
 40
2.1728298902
100
AcDbArc
 50
299.8877855993
 51
302.0035834205
  0
ARC
  5
2D3
100
AcDbEntity
  8
0
100
AcDbCircle
 62
7
  6
BYLAYER
 10
32.2109025704
 20
66.6813877523
 40
2.1665578963
100
AcDbArc
 50
303.8101391834
 51
322.7102052644
  0
ARC
  5
2D4
100
AcDbEntity
  8
0
100
AcDbCircle
 62
7
  6
BYLAYER
 10
32.2222804267
 20
66.6733202146
 40
2.1526182529
100
AcDbArc
 50
322.6975824846
 51
341.1493939541
  0
ARC
  5
2D5
100
AcDbEntity
  8
0
100
AcDbCircle
 62
7
  6
BYLAYER
 10
32.2000228857
 20
66.5157820324
 40
1.9590154909
100
AcDbArc
 50
269.9835277149
 51
304.4325891824
  0
ARC
  5
2D6
100
AcDbEntity
  8
0
100
AcDbCircle
 62
7
  6
BYLAYER
 10
32.2208090936
 20
66.4945506333
 40
1.9287107798
100
AcDbArc
 50
325.1223139726
 51
352.7364551416
  0
ARC
  5
2D7
100
AcDbEntity
  8
0
100
AcDbCircle
 62
7
  6
BYLAYER
 10
32.2067059691
 20
66.6042055057
 40
1.905300645
100
AcDbArc
 50
304.2311222588
 51
318.2984406084
  0
ARC
  5
2D8
100
AcDbEntity
  8
0
100
AcDbCircle
 62
7
  6
BYLAYER
 10
32.2109422486
 20
66.5997978557
 40
1.8992056202
100
AcDbArc
 50
318.3126997144
 51
322.8267140502
  0
ARC
  5
2D9
100
AcDbEntity
  8
0
100
AcDbCircle
 62
7
  6
BYLAYER
 10
32.1999504079
 20
66.4917347995
 40
1.7593421141
100
AcDbArc
 50
269.9840185789
 51
303.2434869962
  0
ARC
  5
2DA
100
AcDbEntity
  8
0
100
AcDbCircle
 62
7
  6
BYLAYER
 10
32.222740991
 20
66.4695359099
 40
1.7266916558
100
AcDbArc
 50
326.3052184964
 51
4.0906228926
  0
SPLINE
  5
2DB
100
AcDbEntity
  8
0
100
AcDbSpline
 62
7
  6
BYLAYER
 70
0
 71
3
 72
15
 73
11
 74
0
 42
0.0000001
 43
0.0000001
 44
0.0000000001
 40
0.0
 40
0.0
 40
0.0
 40
0.0
 40
0.1247006999
 40
0.2493963568
 40
0.3741763093
 40
0.4991134586
 40
0.6241848324
 40
0.7493544064
 40
0.8747102189
 40
1.0
 40
1.0
 40
1.0
 40
1.0
 10
27.6813015123
 20
41.4913660553
 30
0.0
 10
27.6914260771
 20
41.3718056285
 30
0.0
 10
27.7340570895
 20
41.1339684274
 30
0.0
 10
27.86334767
 20
40.7957871333
 30
0.0
 10
28.0533135546
 20
40.4871962965
 30
0.0
 10
28.2972999537
 20
40.2188167957
 30
0.0
 10
28.5869899297
 20
39.9999540368
 30
0.0
 10
28.9123983403
 20
39.8379627394
 30
0.0
 10
29.2621509785
 20
39.7386494955
 30
0.0
 10
29.5039045142
 20
39.7162321863
 30
0.0
 10
29.6244596773
 20
39.7162321863
 30
0.0
  0
SPLINE
  5
2DC
100
AcDbEntity
  8
0
100
AcDbSpline
 62
7
  6
BYLAYER
 70
0
 71
3
 72
15
 73
11
 74
0
 42
0.0000001
 43
0.0000001
 44
0.0000000001
 40
0.0
 40
0.0
 40
0.0
 40
0.0
 40
0.1254224772
 40
0.2508719739
 40
0.3761110026
 40
0.5012077298
 40
0.6261143527
 40
0.7508510638
 40
0.8754603665
 40
1.0
 40
1.0
 40
1.0
 40
1.0
 10
29.6244596773
 20
24.5341709855
 30
0.0
 10
29.7665324538
 20
24.5341709855
 30
0.0
 10
30.0514720607
 20
24.5062831465
 30
0.0
 10
30.4619321284
 20
24.3828133545
 30
0.0
 10
30.840384827
 20
24.1820093901
 30
0.0
 10
31.172123882
 20
23.9119284958
 30
0.0
 10
31.4443964632
 20
23.5826938993
 30
0.0
 10
31.6467289299
 20
23.2069918889
 30
0.0
 10
31.7713715692
 20
22.7994730032
 30
0.0
 10
31.7994500537
 20
22.5164558386
 30
0.0
 10
31.799446986
 20
22.3753831066
 30
0.0
  0
SPLINE
  5
2DD
100
AcDbEntity
  8
0
100
AcDbSpline
 62
7
  6
BYLAYER
 70
0
 71
3
 72
15
 73
11
 74
0
 42
0.0000001
 43
0.0000001
 44
0.0000000001
 40
0.0
 40
0.0
 40
0.0
 40
0.0
 40
0.1254224772
 40
0.2508719739
 40
0.3761110026
 40
0.5012077298
 40
0.6261143527
 40
0.7508510638
 40
0.8754603665
 40
1.0
 40
1.0
 40
1.0
 40
1.0
 10
29.6244596773
 20
42.648138253
 30
0.0
 10
29.7665324538
 20
42.648138253
 30
0.0
 10
30.0514720607
 20
42.6202504139
 30
0.0
 10
30.4619321284
 20
42.496780622
 30
0.0
 10
30.840384827
 20
42.2959766575
 30
0.0
 10
31.172123882
 20
42.0258957632
 30
0.0
 10
31.4443964632
 20
41.6966611668
 30
0.0
 10
31.6467289299
 20
41.3209591563
 30
0.0
 10
31.7713715692
 20
40.9134402706
 30
0.0
 10
31.7994500537
 20
40.630423106
 30
0.0
 10
31.799446986
 20
40.489350374
 30
0.0
  0
SPLINE
  5
2DE
100
AcDbEntity
  8
0
100
AcDbSpline
 62
7
  6
BYLAYER
 70
0
 71
3
 72
15
 73
11
 74
0
 42
0.0000001
 43
0.0000001
 44
0.0000000001
 40
0.0
 40
0.0
 40
0.0
 40
0.0
 40
0.023628763
 40
0.0474780385
 40
0.0801664615
 40
0.1712691856
 40
0.293752218
 40
0.4433873481
 40
0.6151215966
 40
1.0
 40
1.0
 40
1.0
 40
1.0
 10
31.2280684575
 20
22.3031110202
 30
0.0
 10
31.227205464
 20
22.3019003077
 30
0.0
 10
31.2231997585
 20
22.30295432
 30
0.0
 10
31.2191041356
 20
22.3050015977
 30
0.0
 10
31.210919171
 20
22.3099076332
 30
0.0
 10
31.1985860276
 20
22.3190369817
 30
0.0
 10
31.1807501447
 20
22.3334528439
 30
0.0
 10
31.159677652
 20
22.3517484925
 30
0.0
 10
31.126791918
 20
22.3816582754
 30
0.0
 10
31.1015818285
 20
22.4059785622
 30
0.0
 10
31.0843932689
 20
22.423039001
 30
0.0
  0
SPLINE
  5
2DF
100
AcDbEntity
  8
0
100
AcDbSpline
 62
7
  6
BYLAYER
 70
0
 71
3
 72
15
 73
11
 74
0
 42
0.0000001
 43
0.0000001
 44
0.0000000001
 40
0.0
 40
0.0
 40
0.0
 40
0.0
 40
0.1246699653
 40
0.2493820823
 40
0.3741535943
 40
0.49908718
 40
0.6241604768
 40
0.7493347349
 40
0.8746947403
 40
1.0
 40
1.0
 40
1.0
 40
1.0
 10
27.6767254705
 20
23.3118923411
 30
0.0
 10
27.6827163026
 20
23.1892372851
 30
0.0
 10
27.7182370799
 20
22.9443811774
 30
0.0
 10
27.8404893454
 20
22.5944107907
 30
0.0
 10
28.02722758
 20
22.2737480357
 30
0.0
 10
28.2715148984
 20
21.9939991275
 30
0.0
 10
28.5646591563
 20
21.7653322965
 30
0.0
 10
28.8960254873
 20
21.5957779397
 30
0.0
 10
29.253501732
 20
21.4917044785
 30
0.0
 10
29.5010326318
 20
21.4682086411
 30
0.0
 10
29.6244596773
 20
21.4682086411
 30
0.0
  0
SPLINE
  5
2E0
100
AcDbEntity
  8
0
100
AcDbSpline
 62
7
  6
BYLAYER
 70
0
 71
3
 72
15
 73
11
 74
0
 42
0.0000001
 43
0.0000001
 44
0.0000000001
 40
0.0
 40
0.0
 40
0.0
 40
0.0
 40
0.1245357383
 40
0.2491411699
 40
0.373875812
 40
0.4987843471
 40
0.6238847266
 40
0.7491273483
 40
0.8745798221
 40
1.0
 40
1.0
 40
1.0
 40
1.0
 10
27.4494723687
 20
22.3753831048
 30
0.0
 10
27.4494754362
 20
22.5164513556
 30
0.0
 10
27.4775397719
 20
22.7994599084
 30
0.0
 10
27.6021829985
 20
23.2069681854
 30
0.0
 10
27.8045108511
 20
23.5826661398
 30
0.0
 10
28.0767789096
 20
23.9119092231
 30
0.0
 10
28.4085215839
 20
24.1820026189
 30
0.0
 10
28.7869851025
 20
24.3828111266
 30
0.0
 10
29.1974493515
 20
24.5062828537
 30
0.0
 10
29.4823895749
 20
24.5341709855
 30
0.0
 10
29.6244596773
 20
24.5341709855
 30
0.0
  0
SPLINE
  5
2E1
100
AcDbEntity
  8
0
100
AcDbSpline
 62
7
  6
BYLAYER
 70
0
 71
3
 72
15
 73
11
 74
0
 42
0.0000001
 43
0.0000001
 44
0.0000000001
 40
0.0
 40
0.0
 40
0.0
 40
0.0
 40
0.1247006999
 40
0.2493963568
 40
0.3741763093
 40
0.4991134586
 40
0.6241848324
 40
0.7493544064
 40
0.8747102189
 40
1.0
 40
1.0
 40
1.0
 40
1.0
 10
30.2563015123
 20
66.3319004914
 30
0.0
 10
30.2664260771
 20
66.2123400647
 30
0.0
 10
30.3090570895
 20
65.9745028635
 30
0.0
 10
30.43834767
 20
65.6363215694
 30
0.0
 10
30.6283135546
 20
65.3277307326
 30
0.0
 10
30.8722999537
 20
65.0593512319
 30
0.0
 10
31.1619899297
 20
64.8404884729
 30
0.0
 10
31.4873983403
 20
64.6784971755
 30
0.0
 10
31.8371509785
 20
64.5791839316
 30
0.0
 10
32.0789045142
 20
64.5567666225
 30
0.0
 10
32.1994596773
 20
64.5567666225
 30
0.0
  0
SPLINE
  5
2E2
100
AcDbEntity
  8
0
100
AcDbSpline
 62
7
  6
BYLAYER
 70
0
 71
3
 72
15
 73
11
 74
0
 42
0.0000001
 43
0.0000001
 44
0.0000000001
 40
0.0
 40
0.0
 40
0.0
 40
0.0
 40
0.0236287629
 40
0.0474780385
 40
0.0801664615
 40
0.1712691856
 40
0.2937522179
 40
0.4433873481
 40
0.6151215966
 40
1.0
 40
1.0
 40
1.0
 40
1.0
 10
33.8030684575
 20
65.3916690015
 30
0.0
 10
33.802205464
 20
65.3904582891
 30
0.0
 10
33.7981997585
 20
65.3915123014
 30
0.0
 10
33.7941041356
 20
65.393559579
 30
0.0
 10
33.785919171
 20
65.3984656145
 30
0.0
 10
33.7735860276
 20
65.407594963
 30
0.0
 10
33.7557501447
 20
65.4220108252
 30
0.0
 10
33.734677652
 20
65.4403064739
 30
0.0
 10
33.701791918
 20
65.4702162567
 30
0.0
 10
33.6765818285
 20
65.4945365436
 30
0.0
 10
33.6593932689
 20
65.5115969823
 30
0.0
  0
SPLINE
  5
2E3
100
AcDbEntity
  8
0
100
AcDbSpline
 62
7
  6
BYLAYER
 70
0
 71
3
 72
15
 73
11
 74
0
 42
0.0000001
 43
0.0000001
 44
0.0000000001
 40
0.0
 40
0.0
 40
0.0
 40
0.0
 40
0.1245357383
 40
0.2491411699
 40
0.373875812
 40
0.4987843471
 40
0.6238847266
 40
0.7491273483
 40
0.8745798221
 40
1.0
 40
1.0
 40
1.0
 40
1.0
 10
30.0244723686
 20
65.3298848084
 30
0.0
 10
30.0244754362
 20
65.4709530592
 30
0.0
 10
30.0525397719
 20
65.753961612
 30
0.0
 10
30.1771829985
 20
66.161469889
 30
0.0
 10
30.3795108511
 20
66.5371678434
 30
0.0
 10
30.6517789096
 20
66.8664109267
 30
0.0
 10
30.9835215839
 20
67.1365043225
 30
0.0
 10
31.3619851025
 20
67.3373128302
 30
0.0
 10
31.7724493515
 20
67.4607845573
 30
0.0
 10
32.0573895749
 20
67.4886726891
 30
0.0
 10
32.1994596773
 20
67.4886726891
 30
0.0
  0
SPLINE
  5
2E4
100
AcDbEntity
  8
0
100
AcDbSpline
 62
7
  6
BYLAYER
 70
0
 71
3
 72
15
 73
11
 74
0
 42
0.0000001
 43
0.0000001
 44
0.0000000001
 40
0.0
 40
0.0
 40
0.0
 40
0.0
 40
0.0236287629
 40
0.0474780385
 40
0.0801664615
 40
0.1712691856
 40
0.2937522179
 40
0.4433873481
 40
0.6151215966
 40
1.0
 40
1.0
 40
1.0
 40
1.0
 10
33.8030684575
 20
13.099312455
 30
0.0
 10
33.802205464
 20
13.0981017426
 30
0.0
 10
33.7981997585
 20
13.0991557549
 30
0.0
 10
33.7941041356
 20
13.1012030325
 30
0.0
 10
33.785919171
 20
13.106109068
 30
0.0
 10
33.7735860276
 20
13.1152384165
 30
0.0
 10
33.7557501447
 20
13.1296542787
 30
0.0
 10
33.734677652
 20
13.1479499274
 30
0.0
 10
33.701791918
 20
13.1778597103
 30
0.0
 10
33.6765818285
 20
13.2021799971
 30
0.0
 10
33.6593932689
 20
13.2192404358
 30
0.0
  0
SPLINE
  5
2E5
100
AcDbEntity
  8
0
100
AcDbSpline
 62
7
  6
BYLAYER
 70
0
 71
3
 72
15
 73
11
 74
0
 42
0.0000001
 43
0.0000001
 44
0.0000000001
 40
0.0
 40
0.0
 40
0.0
 40
0.0
 40
0.1246699653
 40
0.2493820823
 40
0.3741535943
 40
0.49908718
 40
0.6241604768
 40
0.7493347349
 40
0.8746947403
 40
1.0
 40
1.0
 40
1.0
 40
1.0
 10
30.2517254705
 20
14.108093776
 30
0.0
 10
30.2577163026
 20
13.98543872
 30
0.0
 10
30.2932370799
 20
13.7405826122
 30
0.0
 10
30.4154893454
 20
13.3906122255
 30
0.0
 10
30.60222758
 20
13.0699494705
 30
0.0
 10
30.8465148984
 20
12.7902005624
 30
0.0
 10
31.1396591563
 20
12.5615337313
 30
0.0
 10
31.4710254873
 20
12.3919793746
 30
0.0
 10
31.828501732
 20
12.2879059133
 30
0.0
 10
32.0760326318
 20
12.264410076
 30
0.0
 10
32.1994596773
 20
12.264410076
 30
0.0
  0
SPLINE
  5
2E6
100
AcDbEntity
  8
0
100
AcDbSpline
 62
7
  6
BYLAYER
 70
0
 71
3
 72
15
 73
11
 74
0
 42
0.0000001
 43
0.0000001
 44
0.0000000001
 40
0.0
 40
0.0
 40
0.0
 40
0.0
 40
0.1245357383
 40
0.2491411699
 40
0.373875812
 40
0.4987843471
 40
0.6238847266
 40
0.7491273483
 40
0.8745798221
 40
1.0
 40
1.0
 40
1.0
 40
1.0
 10
27.4494723687
 20
40.4893503723
 30
0.0
 10
27.4494754362
 20
40.630418623
 30
0.0
 10
27.4775397719
 20
40.9134271758
 30
0.0
 10
27.6021829985
 20
41.3209354528
 30
0.0
 10
27.8045108511
 20
41.6966334072
 30
0.0
 10
28.0767789096
 20
42.0258764906
 30
0.0
 10
28.4085215839
 20
42.2959698863
 30
0.0
 10
28.7869851025
 20
42.4967783941
 30
0.0
 10
29.1974493515
 20
42.6202501212
 30
0.0
 10
29.4823895749
 20
42.648138253
 30
0.0
 10
29.6244596773
 20
42.648138253
 30
0.0
  0
SPLINE
  5
2E7
100
AcDbEntity
  8
0
100
AcDbSpline
 62
7
  6
BYLAYER
 70
0
 71
3
 72
15
 73
11
 74
0
 42
0.0000001
 43
0.0000001
 44
0.0000000001
 40
0.0
 40
0.0
 40
0.0
 40
0.0
 40
0.023628763
 40
0.0474780385
 40
0.0801664615
 40
0.1712691856
 40
0.293752218
 40
0.4433873481
 40
0.6151215966
 40
1.0
 40
1.0
 40
1.0
 40
1.0
 10
31.2280684575
 20
40.5511345654
 30
0.0
 10
31.227205464
 20
40.5499238529
 30
0.0
 10
31.2231997585
 20
40.5509778652
 30
0.0
 10
31.2191041356
 20
40.5530251429
 30
0.0
 10
31.210919171
 20
40.5579311784
 30
0.0
 10
31.1985860276
 20
40.5670605269
 30
0.0
 10
31.1807501447
 20
40.5814763891
 30
0.0
 10
31.159677652
 20
40.5997720377
 30
0.0
 10
31.126791918
 20
40.6296818206
 30
0.0
 10
31.1015818285
 20
40.6540021074
 30
0.0
 10
31.0843932689
 20
40.6710625462
 30
0.0
  0
SPLINE
  5
2E8
100
AcDbEntity
  8
0
100
AcDbSpline
 62
7
  6
BYLAYER
 70
0
 71
3
 72
15
 73
11
 74
0
 42
0.0000001
 43
0.0000001
 44
0.0000000001
 40
0.0
 40
0.0
 40
0.0
 40
0.0
 40
0.1254893881
 40
0.2509075423
 40
0.3761335406
 40
0.5012166226
 40
0.6261134961
 40
0.750846647
 40
0.8754566241
 40
1.0
 40
1.0
 40
1.0
 40
1.0
 10
32.2737831523
 20
15.3291003712
 30
0.0
 10
32.4127555702
 20
15.3243477564
 30
0.0
 10
32.6904435548
 20
15.2883119389
 30
0.0
 10
33.0883797042
 20
15.1564268955
 30
0.0
 10
33.4537223779
 20
14.9514584082
 30
0.0
 10
33.7729843799
 20
14.6811686464
 30
0.0
 10
34.0343744155
 20
14.3552537087
 30
0.0
 10
34.2282722916
 20
13.9857377716
 30
0.0
 10
34.3475844027
 20
13.5864165636
 30
0.0
 10
34.374449987
 20
13.3095899335
 30
0.0
 10
34.374446986
 20
13.1715845414
 30
0.0
  0
SPLINE
  5
2E9
100
AcDbEntity
  8
0
100
AcDbSpline
 62
7
  6
BYLAYER
 70
0
 71
3
 72
15
 73
11
 74
0
 42
0.0000001
 43
0.0000001
 44
0.0000000001
 40
0.0
 40
0.0
 40
0.0
 40
0.0
 40
0.1254224772
 40
0.2508719739
 40
0.3761110026
 40
0.5012077298
 40
0.6261143527
 40
0.7508510638
 40
0.8754603665
 40
1.0
 40
1.0
 40
1.0
 40
1.0
 10
32.1994596773
 20
67.4886726891
 30
0.0
 10
32.3415324538
 20
67.4886726891
 30
0.0
 10
32.6264720607
 20
67.4607848501
 30
0.0
 10
33.0369321284
 20
67.3373150581
 30
0.0
 10
33.415384827
 20
67.1365110937
 30
0.0
 10
33.747123882
 20
66.8664301994
 30
0.0
 10
34.0193964632
 20
66.5371956029
 30
0.0
 10
34.2217289299
 20
66.1614935925
 30
0.0
 10
34.3463715692
 20
65.7539747068
 30
0.0
 10
34.3744500537
 20
65.4709575422
 30
0.0
 10
34.374446986
 20
65.3298848102
 30
0.0
  0
SPLINE
  5
2EA
100
AcDbEntity
  8
0
100
AcDbSpline
 62
7
  6
BYLAYER
 70
0
 71
3
 72
15
 73
11
 74
0
 42
0.0000001
 43
0.0000001
 44
0.0000000001
 40
0.0
 40
0.0
 40
0.0
 40
0.0
 40
0.1254224772
 40
0.2508719739
 40
0.3761110026
 40
0.5012077298
 40
0.6261143527
 40
0.7508510638
 40
0.8754603665
 40
1.0
 40
1.0
 40
1.0
 40
1.0
 10
32.1994596773
 20
11.0127966607
 30
0.0
 10
32.0573869009
 20
11.0127966607
 30
0.0
 10
31.772447294
 20
11.0406844998
 30
0.0
 10
31.3619872263
 20
11.1641542917
 30
0.0
 10
30.9835345277
 20
11.3649582562
 30
0.0
 10
30.6517954727
 20
11.6350391505
 30
0.0
 10
30.3795228915
 20
11.9642737469
 30
0.0
 10
30.1771904248
 20
12.3399757574
 30
0.0
 10
30.0525477855
 20
12.7474946431
 30
0.0
 10
30.024469301
 20
13.0305118077
 30
0.0
 10
30.0244723686
 20
13.1715845397
 30
0.0
  0
SPLINE
  5
2EB
100
AcDbEntity
  8
0
100
AcDbSpline
 62
7
  6
BYLAYER
 70
0
 71
3
 72
15
 73
11
 74
0
 42
0.0000001
 43
0.0000001
 44
0.0000000001
 40
0.0
 40
0.0
 40
0.0
 40
0.0
 40
0.1245571802
 40
0.2491629406
 40
0.3738689113
 40
0.4987416213
 40
0.623817315
 40
0.7490613134
 40
0.8745256074
 40
1.0
 40
1.0
 40
1.0
 40
1.0
 10
27.8963417367
 20
23.6546833987
 30
0.0
 10
27.8765077067
 20
23.531386683
 30
0.0
 10
27.8637512634
 20
23.2795601208
 30
0.0
 10
27.9265684398
 20
22.9071444878
 30
0.0
 10
28.0684769875
 20
22.5566194668
 30
0.0
 10
28.282803783
 20
22.244549806
 30
0.0
 10
28.5595434585
 20
21.9854562924
 30
0.0
 10
28.8857976006
 20
21.7911735539
 30
0.0
 10
29.2462440429
 20
21.6710233023
 30
0.0
 10
29.4986582549
 20
21.6438347724
 30
0.0
 10
29.6244596773
 20
21.6438347724
 30
0.0
  0
SPLINE
  5
2EC
100
AcDbEntity
  8
0
100
AcDbSpline
 62
7
  6
BYLAYER
 70
0
 71
3
 72
15
 73
11
 74
0
 42
0.0000001
 43
0.0000001
 44
0.0000000001
 40
0.0
 40
0.0
 40
0.0
 40
0.0
 40
0.3781076234
 40
0.5476063109
 40
0.6961486778
 40
0.8189621069
 40
0.911985739
 40
0.9719861781
 40
0.9894927795
 40
1.0
 40
1.0
 40
1.0
 40
1.0
 10
30.5894185221
 20
40.179777266
 30
0.0
 10
30.6062772328
 20
40.1630442176
 30
0.0
 10
30.63103801
 20
40.1391521065
 30
0.0
 10
30.6633597305
 20
40.1096829446
 30
0.0
 10
30.684246938
 20
40.0915062231
 30
0.0
 10
30.7019934574
 20
40.0769980862
 30
0.0
 10
30.715878209
 20
40.0667210537
 30
0.0
 10
30.7250988177
 20
40.06099732
 30
0.0
 10
30.730225649
 20
40.0590951661
 30
0.0
 10
30.7321638996
 20
40.0591086197
 30
0.0
 10
30.7327117311
 20
40.0594768309
 30
0.0
  0
SPLINE
  5
2ED
100
AcDbEntity
  8
0
100
AcDbSpline
 62
7
  6
BYLAYER
 70
0
 71
3
 72
15
 73
11
 74
0
 42
0.0000001
 43
0.0000001
 44
0.0000000001
 40
0.0
 40
0.0
 40
0.0
 40
0.0
 40
0.3781076234
 40
0.5476063109
 40
0.6961486778
 40
0.8189621069
 40
0.911985739
 40
0.9719861781
 40
0.9894927795
 40
1.0
 40
1.0
 40
1.0
 40
1.0
 10
30.5894185221
 20
21.9317537208
 30
0.0
 10
30.6062772328
 20
21.9150206724
 30
0.0
 10
30.63103801
 20
21.8911285613
 30
0.0
 10
30.6633597305
 20
21.8616593994
 30
0.0
 10
30.684246938
 20
21.8434826779
 30
0.0
 10
30.7019934574
 20
21.828974541
 30
0.0
 10
30.715878209
 20
21.8186975085
 30
0.0
 10
30.7250988177
 20
21.8129737748
 30
0.0
 10
30.730225649
 20
21.8110716209
 30
0.0
 10
30.7321638996
 20
21.8110850745
 30
0.0
 10
30.7327117311
 20
21.8114532857
 30
0.0
  0
SPLINE
  5
2EE
100
AcDbEntity
  8
0
100
AcDbSpline
 62
7
  6
BYLAYER
 70
0
 71
3
 72
11
 73
7
 74
0
 42
0.0000001
 43
0.0000001
 44
0.0000000001
 40
0.0
 40
0.0
 40
0.0
 40
0.0
 40
0.2505503861
 40
0.5010356373
 40
0.7506071112
 40
1.0
 40
1.0
 40
1.0
 40
1.0
 10
32.6944596774
 20
60.5284537964
 30
0.0
 10
32.7153704148
 20
60.5284537964
 30
0.0
 10
32.7574723737
 20
60.5350920199
 30
0.0
 10
32.8142317825
 20
60.5638891157
 30
0.0
 10
32.859259541
 20
60.6087394373
 30
0.0
 10
32.8785320688
 20
60.6465886274
 30
0.0
 10
32.8849059427
 20
60.6664028114
 30
0.0
  0
SPLINE
  5
2EF
100
AcDbEntity
  8
0
100
AcDbSpline
 62
7
  6
BYLAYER
 70
0
 71
3
 72
15
 73
11
 74
0
 42
0.0000001
 43
0.0000001
 44
0.0000000001
 40
0.0
 40
0.0
 40
0.0
 40
0.0
 40
0.1254224772
 40
0.2508719739
 40
0.3761110026
 40
0.5012077298
 40
0.6261143527
 40
0.7508510638
 40
0.8754603665
 40
1.0
 40
1.0
 40
1.0
 40
1.0
 10
29.6244596773
 20
20.2165952259
 30
0.0
 10
29.4823869009
 20
20.2165952259
 30
0.0
 10
29.197447294
 20
20.2444830649
 30
0.0
 10
28.7869872263
 20
20.3679528569
 30
0.0
 10
28.4085345277
 20
20.5687568213
 30
0.0
 10
28.0767954727
 20
20.8388377156
 30
0.0
 10
27.8045228915
 20
21.168072312
 30
0.0
 10
27.6021904248
 20
21.5437743225
 30
0.0
 10
27.4775477855
 20
21.9512932082
 30
0.0
 10
27.449469301
 20
22.2343103728
 30
0.0
 10
27.4494723687
 20
22.3753831048
 30
0.0
  0
SPLINE
  5
2F0
100
AcDbEntity
  8
0
100
AcDbSpline
 62
7
  6
BYLAYER
 70
0
 71
3
 72
15
 73
11
 74
0
 42
0.0000001
 43
0.0000001
 44
0.0000000001
 40
0.0
 40
0.0
 40
0.0
 40
0.0
 40
0.1245585893
 40
0.2492329849
 40
0.3740517923
 40
0.4990251862
 40
0.6241129626
 40
0.7493303852
 40
0.8747354552
 40
1.0
 40
1.0
 40
1.0
 40
1.0
 10
30.1391759161
 20
65.9787017941
 30
0.0
 10
30.1753099396
 20
65.8727287277
 30
0.0
 10
30.2643152838
 20
65.6659575676
 30
0.0
 10
30.4445248072
 20
65.3805576098
 30
0.0
 10
30.6670552286
 20
65.1261700544
 30
0.0
 10
30.9266773585
 20
64.9092258167
 30
0.0
 10
31.2169263083
 20
64.7347067417
 30
0.0
 10
31.5310297865
 20
64.6069286492
 30
0.0
 10
31.8611635132
 20
64.5292069123
 30
0.0
 10
32.0868610086
 20
64.5116597069
 30
0.0
 10
32.1994596773
 20
64.5116597069
 30
0.0
  0
SPLINE
  5
2F1
100
AcDbEntity
  8
0
100
AcDbSpline
 62
7
  6
BYLAYER
 70
0
 71
3
 72
15
 73
11
 74
0
 42
0.0000001
 43
0.0000001
 44
0.0000000001
 40
0.0
 40
0.0
 40
0.0
 40
0.0
 40
0.1254224772
 40
0.2508719739
 40
0.3761110026
 40
0.5012077298
 40
0.6261143527
 40
0.7508510638
 40
0.8754603665
 40
1.0
 40
1.0
 40
1.0
 40
1.0
 10
32.1994596773
 20
63.1710969295
 30
0.0
 10
32.0573869009
 20
63.1710969295
 30
0.0
 10
31.772447294
 20
63.1989847685
 30
0.0
 10
31.3619872263
 20
63.3224545605
 30
0.0
 10
30.9835345277
 20
63.5232585249
 30
0.0
 10
30.6517954727
 20
63.7933394192
 30
0.0
 10
30.3795228915
 20
64.1225740156
 30
0.0
 10
30.1771904248
 20
64.4982760261
 30
0.0
 10
30.0525477855
 20
64.9057949118
 30
0.0
 10
30.024469301
 20
65.1888120764
 30
0.0
 10
30.0244723686
 20
65.3298848084
 30
0.0
  0
SPLINE
  5
2F2
100
AcDbEntity
  8
0
100
AcDbSpline
 62
7
  6
BYLAYER
 70
0
 71
3
 72
15
 73
11
 74
0
 42
0.0000001
 43
0.0000001
 44
0.0000000001
 40
0.0
 40
0.0
 40
0.0
 40
0.0
 40
0.1245357383
 40
0.2491411699
 40
0.373875812
 40
0.4987843471
 40
0.6238847266
 40
0.7491273483
 40
0.8745798221
 40
1.0
 40
1.0
 40
1.0
 40
1.0
 10
34.374446986
 20
65.3298848102
 30
0.0
 10
34.3744439185
 20
65.1888165594
 30
0.0
 10
34.3463795828
 20
64.9058080066
 30
0.0
 10
34.2217363562
 20
64.4982997296
 30
0.0
 10
34.0194085035
 20
64.1226017752
 30
0.0
 10
33.747140445
 20
63.7933586919
 30
0.0
 10
33.4153977708
 20
63.5232652961
 30
0.0
 10
33.0369342522
 20
63.3224567884
 30
0.0
 10
32.6264700032
 20
63.1989850612
 30
0.0
 10
32.3415297798
 20
63.1710969295
 30
0.0
 10
32.1994596773
 20
63.1710969295
 30
0.0
  0
SPLINE
  5
2F3
100
AcDbEntity
  8
0
100
AcDbSpline
 62
7
  6
BYLAYER
 70
0
 71
3
 72
15
 73
11
 74
0
 42
0.0000001
 43
0.0000001
 44
0.0000000001
 40
0.0
 40
0.0
 40
0.0
 40
0.0
 40
0.1254224772
 40
0.2508719739
 40
0.3761110026
 40
0.5012077298
 40
0.6261143527
 40
0.7508510638
 40
0.8754603665
 40
1.0
 40
1.0
 40
1.0
 40
1.0
 10
29.6244596773
 20
38.3305624933
 30
0.0
 10
29.4823869009
 20
38.3305624933
 30
0.0
 10
29.197447294
 20
38.3584503324
 30
0.0
 10
28.7869872263
 20
38.4819201243
 30
0.0
 10
28.4085345277
 20
38.6827240888
 30
0.0
 10
28.0767954727
 20
38.9528049831
 30
0.0
 10
27.8045228915
 20
39.2820395795
 30
0.0
 10
27.6021904248
 20
39.65774159
 30
0.0
 10
27.4775477855
 20
40.0652604757
 30
0.0
 10
27.449469301
 20
40.3482776403
 30
0.0
 10
27.4494723687
 20
40.4893503723
 30
0.0
  0
SPLINE
  5
2F4
100
AcDbEntity
  8
0
100
AcDbSpline
 62
7
  6
BYLAYER
 70
0
 71
3
 72
15
 73
11
 74
0
 42
0.0000001
 43
0.0000001
 44
0.0000000001
 40
0.0
 40
0.0
 40
0.0
 40
0.0
 40
0.1245357383
 40
0.2491411699
 40
0.373875812
 40
0.4987843471
 40
0.6238847266
 40
0.7491273483
 40
0.8745798221
 40
1.0
 40
1.0
 40
1.0
 40
1.0
 10
34.374446986
 20
13.1715845414
 30
0.0
 10
34.3744439185
 20
13.0305162907
 30
0.0
 10
34.3463795828
 20
12.7475077379
 30
0.0
 10
34.2217363562
 20
12.3399994609
 30
0.0
 10
34.0194085035
 20
11.9643015064
 30
0.0
 10
33.747140445
 20
11.6350584231
 30
0.0
 10
33.4153977708
 20
11.3649650273
 30
0.0
 10
33.0369342522
 20
11.1641565196
 30
0.0
 10
32.6264700032
 20
11.0406847925
 30
0.0
 10
32.3415297798
 20
11.0127966607
 30
0.0
 10
32.1994596773
 20
11.0127966607
 30
0.0
  0
SPLINE
  5
2F5
100
AcDbEntity
  8
0
100
AcDbSpline
 62
7
  6
BYLAYER
 70
0
 71
3
 72
11
 73
7
 74
0
 42
0.0000001
 43
0.0000001
 44
0.0000000001
 40
0.0
 40
0.0
 40
0.0
 40
0.0
 40
0.2505503861
 40
0.5010356373
 40
0.7506071112
 40
1.0
 40
1.0
 40
1.0
 40
1.0
 10
32.6944596773
 20
55.7146049609
 30
0.0
 10
32.7153704148
 20
55.7146049609
 30
0.0
 10
32.7574723736
 20
55.7212431844
 30
0.0
 10
32.8142317825
 20
55.7500402802
 30
0.0
 10
32.859259541
 20
55.7948906018
 30
0.0
 10
32.8785320688
 20
55.8327397919
 30
0.0
 10
32.8849059427
 20
55.852553976
 30
0.0
  0
SPLINE
  5
2F6
100
AcDbEntity
  8
0
100
AcDbSpline
 62
7
  6
BYLAYER
 70
0
 71
3
 72
15
 73
11
 74
0
 42
0.0000001
 43
0.0000001
 44
0.0000000001
 40
0.0
 40
0.0
 40
0.0
 40
0.0
 40
0.3781076234
 40
0.5476063109
 40
0.6961486778
 40
0.8189621069
 40
0.911985739
 40
0.9719861781
 40
0.9894927795
 40
1.0
 40
1.0
 40
1.0
 40
1.0
 10
33.164418522
 20
12.7279551557
 30
0.0
 10
33.1812772328
 20
12.7112221073
 30
0.0
 10
33.20603801
 20
12.6873299961
 30
0.0
 10
33.2383597305
 20
12.6578608342
 30
0.0
 10
33.259246938
 20
12.6396841127
 30
0.0
 10
33.2769934574
 20
12.6251759758
 30
0.0
 10
33.290878209
 20
12.6148989433
 30
0.0
 10
33.3000988177
 20
12.6091752097
 30
0.0
 10
33.305225649
 20
12.6072730557
 30
0.0
 10
33.3071638996
 20
12.6072865093
 30
0.0
 10
33.3077117311
 20
12.6076547206
 30
0.0
  0
SPLINE
  5
2F7
100
AcDbEntity
  8
0
100
AcDbSpline
 62
7
  6
BYLAYER
 70
0
 71
3
 72
15
 73
11
 74
0
 42
0.0000001
 43
0.0000001
 44
0.0000000001
 40
0.0
 40
0.0
 40
0.0
 40
0.0
 40
0.1245357383
 40
0.2491411699
 40
0.373875812
 40
0.4987843471
 40
0.6238847266
 40
0.7491273483
 40
0.8745798221
 40
1.0
 40
1.0
 40
1.0
 40
1.0
 10
31.799446986
 20
22.3753831066
 30
0.0
 10
31.7994439185
 20
22.2343148558
 30
0.0
 10
31.7713795828
 20
21.951306303
 30
0.0
 10
31.6467363562
 20
21.543798026
 30
0.0
 10
31.4444085035
 20
21.1681000716
 30
0.0
 10
31.172140445
 20
20.8388569883
 30
0.0
 10
30.8403977708
 20
20.5687635925
 30
0.0
 10
30.4619342522
 20
20.3679550848
 30
0.0
 10
30.0514700032
 20
20.2444833576
 30
0.0
 10
29.7665297798
 20
20.2165952259
 30
0.0
 10
29.6244596773
 20
20.2165952259
 30
0.0
  0
SPLINE
  5
2F8
100
AcDbEntity
  8
0
100
AcDbSpline
 62
7
  6
BYLAYER
 70
0
 71
3
 72
15
 73
11
 74
0
 42
0.0000001
 43
0.0000001
 44
0.0000000001
 40
0.0
 40
0.0
 40
0.0
 40
0.0
 40
0.1245585893
 40
0.2492329849
 40
0.3740517923
 40
0.4990251862
 40
0.6241129626
 40
0.7493303852
 40
0.8747354552
 40
1.0
 40
1.0
 40
1.0
 40
1.0
 10
27.5641759161
 20
41.138167358
 30
0.0
 10
27.6003099396
 20
41.0321942916
 30
0.0
 10
27.6893152838
 20
40.8254231315
 30
0.0
 10
27.8695248072
 20
40.5400231736
 30
0.0
 10
28.0920552286
 20
40.2856356183
 30
0.0
 10
28.3516773585
 20
40.0686913805
 30
0.0
 10
28.6419263083
 20
39.8941723056
 30
0.0
 10
28.9560297865
 20
39.7663942131
 30
0.0
 10
29.2861635132
 20
39.6886724761
 30
0.0
 10
29.5118610086
 20
39.6711252708
 30
0.0
 10
29.6244596773
 20
39.6711252708
 30
0.0
  0
SPLINE
  5
2F9
100
AcDbEntity
  8
0
100
AcDbSpline
 62
7
  6
BYLAYER
 70
0
 71
3
 72
15
 73
11
 74
0
 42
0.0000001
 43
0.0000001
 44
0.0000000001
 40
0.0
 40
0.0
 40
0.0
 40
0.0
 40
0.1245357383
 40
0.2491411699
 40
0.373875812
 40
0.4987843471
 40
0.6238847266
 40
0.7491273483
 40
0.8745798221
 40
1.0
 40
1.0
 40
1.0
 40
1.0
 10
31.799446986
 20
40.489350374
 30
0.0
 10
31.7994439185
 20
40.3482821233
 30
0.0
 10
31.7713795828
 20
40.0652735705
 30
0.0
 10
31.6467363562
 20
39.6577652935
 30
0.0
 10
31.4444085035
 20
39.282067339
 30
0.0
 10
31.172140445
 20
38.9528242557
 30
0.0
 10
30.8403977708
 20
38.68273086
 30
0.0
 10
30.4619342522
 20
38.4819223522
 30
0.0
 10
30.0514700032
 20
38.3584506251
 30
0.0
 10
29.7665297798
 20
38.3305624933
 30
0.0
 10
29.6244596773
 20
38.3305624933
 30
0.0
  0
SPLINE
  5
2FA
100
AcDbEntity
  8
0
100
AcDbSpline
 62
7
  6
BYLAYER
 70
0
 71
3
 72
15
 73
11
 74
0
 42
0.0000001
 43
0.0000001
 44
0.0000000001
 40
0.0
 40
0.0
 40
0.0
 40
0.0
 40
0.1245571802
 40
0.2491629406
 40
0.3738689113
 40
0.4987416213
 40
0.623817315
 40
0.7490613134
 40
0.8745256074
 40
1.0
 40
1.0
 40
1.0
 40
1.0
 10
30.4713417366
 20
14.4508848335
 30
0.0
 10
30.4515077066
 20
14.3275881179
 30
0.0
 10
30.4387512634
 20
14.0757615556
 30
0.0
 10
30.5015684398
 20
13.7033459227
 30
0.0
 10
30.6434769875
 20
13.3528209016
 30
0.0
 10
30.857803783
 20
13.0407512408
 30
0.0
 10
31.1345434585
 20
12.7816577273
 30
0.0
 10
31.4607976006
 20
12.5873749888
 30
0.0
 10
31.8212440429
 20
12.4672247371
 30
0.0
 10
32.0736582549
 20
12.4400362073
 30
0.0
 10
32.1994596773
 20
12.4400362073
 30
0.0
  0
SPLINE
  5
2FB
100
AcDbEntity
  8
0
100
AcDbSpline
 62
7
  6
BYLAYER
 70
0
 71
3
 72
15
 73
11
 74
0
 42
0.0000001
 43
0.0000001
 44
0.0000000001
 40
0.0
 40
0.0
 40
0.0
 40
0.0
 40
0.3781076234
 40
0.5476063109
 40
0.6961486778
 40
0.8189621069
 40
0.911985739
 40
0.971986178
 40
0.9894927795
 40
1.0
 40
1.0
 40
1.0
 40
1.0
 10
33.1644185221
 20
65.0203117022
 30
0.0
 10
33.1812772328
 20
65.0035786538
 30
0.0
 10
33.20603801
 20
64.9796865426
 30
0.0
 10
33.2383597305
 20
64.9502173807
 30
0.0
 10
33.259246938
 20
64.9320406592
 30
0.0
 10
33.2769934574
 20
64.9175325223
 30
0.0
 10
33.290878209
 20
64.9072554898
 30
0.0
 10
33.3000988177
 20
64.9015317562
 30
0.0
 10
33.305225649
 20
64.8996296022
 30
0.0
 10
33.3071638996
 20
64.8996430558
 30
0.0
 10
33.3077117311
 20
64.9000112671
 30
0.0
  0
SPLINE
  5
2FC
100
AcDbEntity
  8
0
100
AcDbSpline
 62
7
  6
BYLAYER
 70
0
 71
3
 72
15
 73
11
 74
0
 42
0.0000001
 43
0.0000001
 44
0.0000000001
 40
0.0
 40
0.0
 40
0.0
 40
0.0
 40
0.1245460142
 40
0.249153318
 40
0.3738798646
 40
0.4987803071
 40
0.6238719862
 40
0.7491092583
 40
0.8745690752
 40
1.0
 40
1.0
 40
1.0
 40
1.0
 10
30.4509478783
 20
66.541171344
 30
0.0
 10
30.4461117851
 20
66.424791302
 30
0.0
 10
30.4601423324
 20
66.1902975269
 30
0.0
 10
30.5516432036
 20
65.8504359132
 30
0.0
 10
30.7098335391
 20
65.5355122285
 30
0.0
 10
30.9282972868
 20
65.2584381163
 30
0.0
 10
31.198209374
 20
65.0304748733
 30
0.0
 10
31.508623212
 20
64.8606158366
 30
0.0
 10
31.8468453929
 20
64.756036819
 30
0.0
 10
32.0821515941
 20
64.7323927538
 30
0.0
 10
32.1994596773
 20
64.7323927538
 30
0.0
  0
ELLIPSE
  5
2FD
100
AcDbEntity
  8
0
100
AcDbEllipse
 62
7
  6
BYLAYER
 10
32.1994596773
 20
13.7599598964
 30
0.0
 11
-0.0
 21
2.2823901025
 31
0.0
 40
0.9529484016
 41
-3.4966351041
 42
-2.786550203
  0
ELLIPSE
  5
2FE
100
AcDbEntity
  8
0
100
AcDbEllipse
 62
7
  6
BYLAYER
 10
30.7944596773
 20
60.7032375423
 30
0.0
 11
-0.0
 21
0.2407260093
 31
0.0
 40
0.8308200706
 41
-3.926990817
 42
-3.1415926536
  0
ELLIPSE
  5
2FF
100
AcDbEntity
  8
0
100
AcDbEllipse
 62
7
  6
BYLAYER
 10
30.7944596773
 20
60.7032375423
 30
0.0
 11
0.1510215578
 21
0.1620210013
 31
0.0
 40
0.8092786196
 41
2.4266148433
 42
3.2120130067
  0
ELLIPSE
  5
300
100
AcDbEntity
  8
0
100
AcDbEllipse
 62
7
  6
BYLAYER
 10
32.6944596773
 20
60.7032375423
 30
0.0
 11
0.1510215578
 21
-0.1620210013
 31
0.0
 40
0.8092786196
 41
-0.0704203531
 42
0.7149778103
  0
ELLIPSE
  5
301
100
AcDbEntity
  8
0
100
AcDbEllipse
 62
7
  6
BYLAYER
 10
32.6944596773
 20
60.7032375423
 30
0.0
 11
0.0
 21
0.2407260093
 31
0.0
 40
0.8308200706
 41
-3.1415926536
 42
-2.3561944902
  0
ELLIPSE
  5
302
100
AcDbEntity
  8
0
100
AcDbEllipse
 62
7
  6
BYLAYER
 10
32.1994596773
 20
13.1110833774
 30
0.0
 11
2.175
 21
0.0
 31
0.0
 40
0.7311965013
 41
-1.9258387774
 42
-1.2157538762
  0
ELLIPSE
  5
303
100
AcDbEntity
  8
0
100
AcDbEllipse
 62
7
  6
BYLAYER
 10
30.7944596773
 20
55.8893887068
 30
0.0
 11
0.1510215578
 21
0.1620210013
 31
0.0
 40
0.8092786196
 41
2.4266148433
 42
3.2120130067
  0
ELLIPSE
  5
304
100
AcDbEntity
  8
0
100
AcDbEllipse
 62
7
  6
BYLAYER
 10
32.6944596773
 20
55.8893887068
 30
0.0
 11
0.1510215578
 21
-0.1620210013
 31
0.0
 40
0.8092786196
 41
-0.0704203531
 42
0.7149778103
  0
ELLIPSE
  5
305
100
AcDbEntity
  8
0
100
AcDbEllipse
 62
7
  6
BYLAYER
 10
30.7944596773
 20
55.8893887068
 30
0.0
 11
-0.0
 21
0.2407260093
 31
0.0
 40
0.8308200706
 41
-3.926990817
 42
-3.1415926536
  0
ELLIPSE
  5
306
100
AcDbEntity
  8
0
100
AcDbEllipse
 62
7
  6
BYLAYER
 10
32.6944596773
 20
55.8893887068
 30
0.0
 11
-0.0
 21
0.2407260093
 31
0.0
 40
0.8308200706
 41
-3.1415926536
 42
-2.3561944902
  0
ENDSEC
  0
SECTION
  2
OBJECTS
  0
DICTIONARY
  5
C
100
AcDbDictionary
280
0
281
1
  3
ACAD_GROUP
350
D
  3
ACAD_MLINESTYLE
350
17
  3
ACAD_LAYOUT
350
1A
  3
ACAD_PLOTSETTINGS
350
19
  3
ACAD_PLOTSTYLENAME
350
E
  0
DICTIONARY
  5
D
102
{ACAD_REACTORS
330
C
102
}
100
AcDbDictionary
280
0
281
1
  0
ACDBDICTIONARYWDFLT
  5
E
102
{ACAD_REACTORS
330
C
102
}
100
AcDbDictionary
281
1
  3
Normal
350
F
100
AcDbDictionaryWithDefault
340
F
  0
DICTIONARY
  5
17
102
{ACAD_REACTORS
330
C
102
}
100
AcDbDictionary
280
0
281
1
  3
Standard
350
18
  0
DICTIONARY
  5
19
102
{ACAD_REACTORS
330
C
102
}
100
AcDbDictionary
281
1
  0
DICTIONARY
  5
1A
102
{ACAD_REACTORS
330
C
102
}
100
AcDbDictionary
281
1
  3
Model
350
307
  3
Layout1
350
308
  0
ACDBPLACEHOLDER
  5
F
102
{ACAD_REACTORS
330
E
102
}
  0
MLINESTYLE
  5
18
102
{ACAD_REACTORS
330
17
102
}
100
AcDbMlineStyle
  2
STANDARD
 70
0
  3

 62
256
 51
90.0
 52
90.0
 71
2
 49
0.5
 62
256
  6
BYLAYER
 49
-0.5
 62
256
  6
BYLAYER
  0
LAYOUT
  5
307
102
{ACAD_REACTORS
330
1A
102
}
100
AcDbPlotSettings
  1

  2
none_device
  4

  6

 40
0.0
 41
0.0
 42
0.0
 43
0.0
 44
210.0
 45
297.0
 46
0.0
 47
0.0
 48
0.0
 49
0.0
140
0.0
141
0.0
142
1.0
143
1.0
 70
1024
 72
1
 73
0
 74
0
  7

 75
0
147
1.0
148
0.0
149
0.0
100
AcDbLayout
  1
Model
 70
0
 71
0
 10
0.0
 20
0.0
 11
210.0
 21
297.0
 12
0.0
 22
0.0
 32
0.0
 14
0.0
 24
0.0
 34
0.0
 15
0.0
 25
0.0
 35
0.0
146
0.0
 13
0.0
 23
0.0
 33
0.0
 16
1.0
 26
0.0
 36
0.0
 17
0.0
 27
1.0
 37
0.0
 76
0
330
210
345
0
346
0
  0
LAYOUT
  5
308
102
{ACAD_REACTORS
330
1A
102
}
100
AcDbPlotSettings
  1

  2
none_device
  4

  6

 40
0.0
 41
0.0
 42
0.0
 43
0.0
 44
210.0
 45
297.0
 46
0.0
 47
0.0
 48
0.0
 49
0.0
140
0.0
141
0.0
142
1.0
143
1.0
 70
0
 72
1
 73
0
 74
0
  7

 75
0
147
1.0
148
0.0
149
0.0
100
AcDbLayout
  1
Layout1
 70
0
 71
1
 10
0.0
 20
0.0
 11
210.0
 21
297.0
 12
0.0
 22
0.0
 32
0.0
 14
0.0
 24
0.0
 34
0.0
 15
0.0
 25
0.0
 35
0.0
146
0.0
 13
0.0
 23
0.0
 33
0.0
 16
1.0
 26
0.0
 36
0.0
 17
0.0
 27
1.0
 37
0.0
 76
0
330
211
345
0
346
0
  0
ENDSEC
  0
EOF
