999
DXF file: C:\Users\sesa63760\Dev\_Creo\CAD\MCADPD0005308_3D-CAD\drw0001_7.dxf
999
Pro/ENGINEER 2019471 by Parametric Technology Corporation
  0
SECTION
  2
HEADER
  9
$ACADVER
  1
AC1024
  9
$DWGCODEPAGE
  3
ANSI_1252
  9
$EXTMAX
 10
227.5313308136
 20
321.7943107221
 30
0.0
  9
$EXTMIN
 10
0.0
 20
0.0
 30
0.0
  9
$LIMMIN
 10
0.0
 20
0.0
  9
$LIMMAX
 10
227.5313308136
 20
321.7943107221
  9
$VIEWCTR
 10
113.7656654068
 20
160.8971553611
  9
$VIEWSIZE
 40
321.7943107221
  9
$CLAYER
  8
0
  9
$LTSCALE
 40
20.976221736
  9
$CELTYPE
  6
BYLAYER
  9
$DIMSCALE
 40
1.0
  9
$DIMASZ
 40
2.7087063192
  9
$DIMEXO
 40
1.0
  9
$DIMDLI
 40
14.4926622903
  9
$DIMEXE
 40
1.0
  9
$DIMCEN
 40
3.4324726477
  9
$DIMLFAC
 40
1.0
  9
$DIMBLK
  1
_FILLED
  9
$DIMALT
 70
0
  9
$DIMALTF
 40
0.0393700787
  9
$DIMTXT
 40
3.7921888469
  9
$DIMTOL
 70
1
  9
$DIMLIM
 70
0
  9
$DIMTFAC
 40
1.0
  9
$DIMTP
 40
0.01
  9
$DIMTM
 40
0.01
  9
$DIMGAP
 40
0.625
  9
$DIMDSEP
 70
46
  9
$AUNITS
 70
0
  9
$PDMODE
 70
3
  9
$PDSIZE
 40
0.3125
  9
$HANDSEED
  5
2CF
  9
$TILEMODE
 70
1
  9
$MEASUREMENT
 70
1
  9
$INSUNITS
 70
4
  0
ENDSEC
  0
SECTION
  2
CLASSES
  0
CLASS
  1
ACDBDICTIONARYWDFLT
  2
AcDbDictionaryWithDefault
  3
AutoCAD 2000
 90
0
 91
1
280
0
281
0
  0
CLASS
  1
ACDBPLACEHOLDER
  2
AcDbPlaceHolder
  3
AutoCAD 2000
 90
0
 91
1
280
0
281
0
  0
CLASS
  1
LAYOUT
  2
AcDbLayout
  3
AutoCAD 2000
 90
0
 91
0
280
0
281
0
  0
ENDSEC
  0
SECTION
  2
TABLES
  0
TABLE
  2
VPORT
  5
8
100
AcDbSymbolTable
 70
2
  0
VPORT
  5
1F4
100
AcDbSymbolTableRecord
100
AcDbViewportTableRecord
  2
*ACTIVE
 70
0
 10
0.0
 20
0.0
 11
1.0
 21
1.0
 12
113.7656654068
 22
160.8971553611
 13
0.0
 23
0.0
 14
1.0
 24
1.0
 15
0.0
 25
0.0
 16
0.0
 26
0.0
 36
1.0
 17
0.0
 27
0.0
 37
0.0
 40
321.7943107221
 41
0.7070707071
 42
50.0
 43
0.0
 44
0.0
 50
0.0
 51
0.0
 71
0
 72
100
 73
1
 74
1
 75
0
 76
0
 77
0
 78
0
  0
ENDTAB
  0
TABLE
  2
LTYPE
  5
5
100
AcDbSymbolTable
 70
6
  0
LTYPE
  5
14
100
AcDbSymbolTableRecord
100
AcDbLinetypeTableRecord
  2
BYBLOCK
 70
0
  3

 72
65
 73
0
 40
0.0
  0
LTYPE
  5
15
100
AcDbSymbolTableRecord
100
AcDbLinetypeTableRecord
  2
BYLAYER
 70
0
  3

 72
65
 73
0
 40
0.0
  0
LTYPE
  5
16
100
AcDbSymbolTableRecord
100
AcDbLinetypeTableRecord
  2
CONTINUOUS
 70
64
  3
Solid line
 72
65
 73
0
 40
0.0
  0
LTYPE
  5
1F5
100
AcDbSymbolTableRecord
100
AcDbLinetypeTableRecord
  2
CENTER
 70
64
  3
____ _ ____ _ ____ _ ____ _ ____ _ ____ _ ____
 72
65
 73
4
 40
0.6
 49
0.375
 74
0
 49
-0.075
 74
0
 49
0.075
 74
0
 49
-0.075
 74
0
  0
LTYPE
  5
1F6
100
AcDbSymbolTableRecord
100
AcDbLinetypeTableRecord
  2
HIDDEN
 70
64
  3
- - - - - - - - - - - - - - - - - - - -
 72
65
 73
2
 40
0.2
 49
0.1
 74
0
 49
-0.1
 74
0
  0
LTYPE
  5
1F7
100
AcDbSymbolTableRecord
100
AcDbLinetypeTableRecord
  2
PHANTOM
 70
64
  3
_____ _ _ _____ _ _ _____ _ _ _____
 72
65
 73
6
 40
0.8
 49
0.45
 74
0
 49
-0.05
 74
0
 49
0.1
 74
0
 49
-0.05
 74
0
 49
0.1
 74
0
 49
-0.05
 74
0
  0
LTYPE
  5
1F8
100
AcDbSymbolTableRecord
100
AcDbLinetypeTableRecord
  2
DOT
 70
64
  3
. . . . . . . . . . . . . . . . . . . .
 72
65
 73
2
 40
0.2
 49
0.1
 74
0
 49
-0.1
 74
0
  0
LTYPE
  5
1F9
100
AcDbSymbolTableRecord
100
AcDbLinetypeTableRecord
  2
DASHED
 70
64
  3
- - - - - - - - - - - - - - - - - - - -
 72
65
 73
2
 40
0.2
 49
0.1
 74
0
 49
-0.1
 74
0
  0
ENDTAB
  0
TABLE
  2
LAYER
  5
2
100
AcDbSymbolTable
 70
36
  0
LAYER
  5
10
100
AcDbSymbolTableRecord
100
AcDbLayerTableRecord
  2
0
 70
0
 62
7
  6
CONTINUOUS
370
-3
390
F
  0
LAYER
  5
1FA
100
AcDbSymbolTableRecord
100
AcDbLayerTableRecord
  2
DEFAULT_1
 70
0
 62
7
  6
CENTER
370
-3
390
F
  0
LAYER
  5
1FB
100
AcDbSymbolTableRecord
100
AcDbLayerTableRecord
  2
DEFAULT_2
 70
0
 62
7
  6
HIDDEN
370
-3
390
F
  0
LAYER
  5
1FC
100
AcDbSymbolTableRecord
100
AcDbLayerTableRecord
  2
DEFAULT_3
 70
0
 62
7
  6
PHANTOM
370
-3
390
F
  0
LAYER
  5
1FD
100
AcDbSymbolTableRecord
100
AcDbLayerTableRecord
  2
00_COMPONENTS
 70
0
 62
7
  6
CONTINUOUS
370
-3
390
F
  0
LAYER
  5
1FE
100
AcDbSymbolTableRecord
100
AcDbLayerTableRecord
  2
01_1_DEFAULT_DATUMS
 70
0
 62
7
  6
CONTINUOUS
370
-3
390
F
  0
LAYER
  5
1FF
100
AcDbSymbolTableRecord
100
AcDbLayerTableRecord
  2
01_PLANES
 70
0
 62
7
  6
CONTINUOUS
370
-3
390
F
  0
LAYER
  5
200
100
AcDbSymbolTableRecord
100
AcDbLayerTableRecord
  2
02_COORD_SYS
 70
0
 62
7
  6
CONTINUOUS
370
-3
390
F
  0
LAYER
  5
201
100
AcDbSymbolTableRecord
100
AcDbLayerTableRecord
  2
03_AXES
 70
0
 62
7
  6
CONTINUOUS
370
-3
390
F
  0
LAYER
  5
202
100
AcDbSymbolTableRecord
100
AcDbLayerTableRecord
  2
04_POINTS
 70
0
 62
7
  6
CONTINUOUS
370
-3
390
F
  0
LAYER
  5
203
100
AcDbSymbolTableRecord
100
AcDbLayerTableRecord
  2
05_CURVES
 70
0
 62
7
  6
CONTINUOUS
370
-3
390
F
  0
LAYER
  5
204
100
AcDbSymbolTableRecord
100
AcDbLayerTableRecord
  2
06_SURFS
 70
0
 62
7
  6
CONTINUOUS
370
-3
390
F
  0
LAYER
  5
205
100
AcDbSymbolTableRecord
100
AcDbLayerTableRecord
  2
07_COSMETICS
 70
0
 62
7
  6
CONTINUOUS
370
-3
390
F
  0
LAYER
  5
206
100
AcDbSymbolTableRecord
100
AcDbLayerTableRecord
  2
10_NOTES
 70
0
 62
7
  6
CONTINUOUS
370
-3
390
F
  0
LAYER
  5
207
100
AcDbSymbolTableRecord
100
AcDbLayerTableRecord
  2
11_NOTES_PUB
 70
0
 62
7
  6
CONTINUOUS
370
-3
390
F
  0
LAYER
  5
208
100
AcDbSymbolTableRecord
100
AcDbLayerTableRecord
  2
13_REF_GTOL
 70
0
 62
7
  6
CONTINUOUS
370
-3
390
F
  0
LAYER
  5
209
100
AcDbSymbolTableRecord
100
AcDbLayerTableRecord
  2
16_MISC
 70
0
 62
7
  6
CONTINUOUS
370
-3
390
F
  0
LAYER
  5
20A
100
AcDbSymbolTableRecord
100
AcDbLayerTableRecord
  2
17_NO_PRINT
 70
0
 62
7
  6
CONTINUOUS
370
-3
390
F
  0
LAYER
  5
20B
100
AcDbSymbolTableRecord
100
AcDbLayerTableRecord
  2
18_DATUM_CAMS_JOINTS
 70
0
 62
7
  6
CONTINUOUS
370
-3
390
F
  0
LAYER
  5
20C
100
AcDbSymbolTableRecord
100
AcDbLayerTableRecord
  2
19_DATUM_FUNCTIONAL
 70
0
 62
7
  6
CONTINUOUS
370
-3
390
F
  0
LAYER
  5
20D
100
AcDbSymbolTableRecord
100
AcDbLayerTableRecord
  2
20_DATUM_KINEMATIC_SCHEME
 70
0
 62
7
  6
CONTINUOUS
370
-3
390
F
  0
ENDTAB
  0
TABLE
  2
STYLE
  5
3
100
AcDbSymbolTable
 70
1
  0
STYLE
  5
11
100
AcDbSymbolTableRecord
100
AcDbTextStyleTableRecord
  2
STANDARD
 70
0
 40
0.0
 41
1.0
 50
0.0
 71
0
 42
0.2
  3
ARIAL.TTF
  4

  0
STYLE
  5
20E
100
AcDbSymbolTableRecord
100
AcDbTextStyleTableRecord
  2
TEXTSTYLE_1
 70
0
 40
0.0
 41
0.8
 50
0.0
 71
0
 42
0.2
  3
gdt
  4

  0
ENDTAB
  0
TABLE
  2
VIEW
  5
6
100
AcDbSymbolTable
 70
0
  0
ENDTAB
  0
TABLE
  2
UCS
  5
7
100
AcDbSymbolTable
 70
0
  0
ENDTAB
  0
TABLE
  2
APPID
  5
9
100
AcDbSymbolTable
 70
1
  0
APPID
  5
20F
100
AcDbSymbolTableRecord
100
AcDbRegAppTableRecord
  2
ACAD
 70
0
  0
ENDTAB
  0
TABLE
  2
BLOCK_RECORD
  5
1
100
AcDbSymbolTable
 70
0
  0
BLOCK_RECORD
  5
210
100
AcDbSymbolTableRecord
100
AcDbBlockTableRecord
  2
*Model_Space
  0
BLOCK_RECORD
  5
211
100
AcDbSymbolTableRecord
100
AcDbBlockTableRecord
  2
*Paper_Space
  0
BLOCK_RECORD
  5
212
100
AcDbSymbolTableRecord
100
AcDbBlockTableRecord
  2
_FILLED
  0
ENDTAB
  0
TABLE
  2
DIMSTYLE
  5
A
100
AcDbSymbolTable
 70
1
100
AcDbDimStyleTable
 71
0
  0
DIMSTYLE
105
213
100
AcDbSymbolTableRecord
100
AcDbDimStyleTableRecord
  2
STANDARD
 70
0
  3

  4

 40
1.0
 41
2.7087063192
 42
1.0
 43
0.38
 44
1.0
 45
0.0
 46
0.0
 47
0.01
 48
0.01
140
3.7921888469
141
0.09
142
0.0
143
25.4
144
1.0
145
0.0
146
1.0
147
0.625
 71
1
 72
0
 73
0
 74
0
 75
0
 76
0
 77
1
 78
8
 79
2
170
0
171
1
172
0
173
0
174
0
175
0
176
0
177
0
178
0
270
2
179
2
271
2
272
2
273
2
274
2
275
0
280
0
281
0
282
0
283
1
284
8
285
0
286
0
287
3
288
0
340
11
278
46
341
212
342
212
343
212
344
212
  0
ENDTAB
  0
ENDSEC
  0
SECTION
  2
BLOCKS
  0
BLOCK
  5
20
100
AcDbEntity
  8
0
100
AcDbBlockBegin
  2
*Model_Space
 70
0
 10
0.0
 20
0.0
 30
0.0
  3
*Model_Space
  1

  0
ENDBLK
  5
21
100
AcDbEntity
  8
0
100
AcDbBlockEnd
  0
BLOCK
  5
1C
100
AcDbEntity
  8
0
100
AcDbBlockBegin
  2
*Paper_Space
 70
0
 10
0.0
 20
0.0
 30
0.0
  3
*Paper_Space
  1

  0
ENDBLK
  5
1D
100
AcDbEntity
  8
0
100
AcDbBlockEnd
  0
BLOCK
  5
214
100
AcDbEntity
  8
0
100
AcDbBlockBegin
  2
_FILLED
 70
64
 10
0.0
 20
0.0
  3
_FILLED
  1

  0
SOLID
  5
215
100
AcDbEntity
  8
0
  6
BYBLOCK
 62
0
100
AcDbTrace
 10
0.0
 20
0.0
 11
-1.0
 21
0.25
 12
-1.0
 22
-0.25
 13
-1.0
 23
-0.25
  0
ENDBLK
  5
216
100
AcDbEntity
  8
0
  6
BYBLOCK
 62
0
100
AcDbBlockEnd
  0
ENDSEC
  0
SECTION
  2
ENTITIES
  0
LINE
  5
217
100
AcDbEntity
  8
0
100
AcDbLine
 62
7
  6
BYLAYER
 10
24.1595384921
 20
88.6849015317
 11
24.1595384921
 21
234.6849015317
  0
LINE
  5
218
100
AcDbEntity
  8
0
100
AcDbLine
 62
7
  6
BYLAYER
 10
24.8963987713
 20
234.6849015317
 11
24.8963987713
 21
88.6849015317
  0
LINE
  5
219
100
AcDbEntity
  8
0
100
AcDbLine
 62
7
  6
BYLAYER
 10
26.8595384921
 20
151.7591354402
 11
26.8595384921
 21
171.6106676232
  0
LINE
  5
21A
100
AcDbEntity
  8
0
100
AcDbLine
 62
7
  6
BYLAYER
 10
35.5339204186
 20
152.1899739961
 11
35.4874185715
 21
152.9886213389
  0
LINE
  5
21B
100
AcDbEntity
  8
0
100
AcDbLine
 62
7
  6
BYLAYER
 10
35.4874185715
 20
170.3811817245
 11
35.5339204186
 21
171.1798290674
  0
LINE
  5
21C
100
AcDbEntity
  8
0
100
AcDbLine
 62
7
  6
BYLAYER
 10
37.5595384921
 20
155.1849015317
 11
37.5595384921
 21
168.1849015317
  0
LINE
  5
21D
100
AcDbEntity
  8
0
100
AcDbLine
 62
7
  6
BYLAYER
 10
38.3595384921
 20
168.1849015317
 11
38.3595384921
 21
155.1849015317
  0
LINE
  5
21E
100
AcDbEntity
  8
0
100
AcDbLine
 62
7
  6
BYLAYER
 10
38.4274876846
 20
155.1849015317
 11
38.4274876846
 21
168.1849015317
  0
LINE
  5
21F
100
AcDbEntity
  8
0
100
AcDbLine
 62
7
  6
BYLAYER
 10
39.0048379523
 20
88.6849016969
 11
39.0048379538
 21
155.1849015317
  0
LINE
  5
220
100
AcDbEntity
  8
0
100
AcDbLine
 62
7
  6
BYLAYER
 10
39.0048379538
 20
168.1849015317
 11
39.0048379491
 21
234.684901447
  0
LINE
  5
221
100
AcDbEntity
  8
0
100
AcDbLine
 62
7
  6
BYLAYER
 10
41.8915892997
 20
168.1849015317
 11
41.8915892997
 21
155.1849015317
  0
LINE
  5
222
100
AcDbEntity
  8
0
100
AcDbLine
 62
7
  6
BYLAYER
 10
42.4689395689
 20
234.6849015228
 11
42.4689395689
 21
168.1849015317
  0
LINE
  5
223
100
AcDbEntity
  8
0
100
AcDbLine
 62
7
  6
BYLAYER
 10
42.4689395689
 20
155.1849015317
 11
42.4689395689
 21
88.6849015399
  0
LINE
  5
224
100
AcDbEntity
  8
0
100
AcDbLine
 62
7
  6
BYLAYER
 10
29.6595384921
 20
83.1849015317
 11
198.6595384921
 21
83.1849015317
  0
LINE
  5
225
100
AcDbEntity
  8
0
100
AcDbLine
 62
7
  6
BYLAYER
 10
24.1595384921
 20
88.6849015317
 11
204.1595384921
 21
88.6849015317
  0
LINE
  5
226
100
AcDbEntity
  8
0
100
AcDbLine
 62
7
  6
BYLAYER
 10
84.1595384921
 20
134.6849015009
 11
84.1595384921
 21
188.6849015273
  0
LINE
  5
227
100
AcDbEntity
  8
0
100
AcDbLine
 62
7
  6
BYLAYER
 10
85.1595384921
 20
188.6849015317
 11
85.1595384921
 21
134.6849015317
  0
LINE
  5
228
100
AcDbEntity
  8
0
100
AcDbLine
 62
7
  6
BYLAYER
 10
87.1595384921
 20
191.6849015317
 11
87.1595384921
 21
190.6849015317
  0
LINE
  5
229
100
AcDbEntity
  8
0
100
AcDbLine
 62
7
  6
BYLAYER
 10
87.1595384921
 20
132.6849015317
 11
87.1595384921
 21
131.6849015317
  0
LINE
  5
22A
100
AcDbEntity
  8
0
100
AcDbLine
 62
7
  6
BYLAYER
 10
141.159538523
 20
131.6849015317
 11
87.1595384965
 21
131.6849015317
  0
LINE
  5
22B
100
AcDbEntity
  8
0
100
AcDbLine
 62
7
  6
BYLAYER
 10
87.1595384921
 20
132.6849015317
 11
141.1595384921
 21
132.6849015317
  0
LINE
  5
22C
100
AcDbEntity
  8
0
100
AcDbLine
 62
7
  6
BYLAYER
 10
169.3595384921
 20
133.0849015317
 11
146.1595384921
 21
133.0849015317
  0
LINE
  5
22D
100
AcDbEntity
  8
0
100
AcDbLine
 62
7
  6
BYLAYER
 10
84.1595384921
 20
134.6849015317
 11
85.1595384921
 21
134.6849015317
  0
LINE
  5
22E
100
AcDbEntity
  8
0
100
AcDbLine
 62
7
  6
BYLAYER
 10
143.1595384921
 20
134.6849015317
 11
144.1595384921
 21
134.6849015317
  0
LINE
  5
22F
100
AcDbEntity
  8
0
100
AcDbLine
 62
7
  6
BYLAYER
 10
96.1667399945
 20
152.9522500316
 11
96.1667399945
 21
170.4175530315
  0
LINE
  5
230
100
AcDbEntity
  8
0
100
AcDbLine
 62
7
  6
BYLAYER
 10
117.495574296
 20
139.4333279955
 11
117.7964724372
 21
139.4826178198
  0
LINE
  5
231
100
AcDbEntity
  8
0
100
AcDbLine
 62
7
  6
BYLAYER
 10
120.1594299192
 20
141.9937843089
 11
119.5906197195
 21
141.9010719747
  0
LINE
  5
232
100
AcDbEntity
  8
0
100
AcDbLine
 62
7
  6
BYLAYER
 10
117.495574296
 20
139.4333279955
 11
117.4581081947
 21
139.4274823753
  0
LINE
  5
233
100
AcDbEntity
  8
0
100
AcDbLine
 62
7
  6
BYLAYER
 10
117.5918380654
 20
141.9010743322
 11
119.5906197195
 21
141.9010743322
  0
LINE
  5
234
100
AcDbEntity
  8
0
100
AcDbLine
 62
7
  6
BYLAYER
 10
110.7270217733
 20
141.901106523
 11
108.7282401192
 21
141.901106523
  0
LINE
  5
235
100
AcDbEntity
  8
0
100
AcDbLine
 62
7
  6
BYLAYER
 10
110.8607732951
 20
139.4278493862
 11
110.8255604208
 21
139.4333265323
  0
LINE
  5
236
100
AcDbEntity
  8
0
100
AcDbLine
 62
7
  6
BYLAYER
 10
110.5431786881
 20
139.4793146863
 11
110.8255604208
 21
139.4333265323
  0
LINE
  5
237
100
AcDbEntity
  8
0
100
AcDbLine
 62
7
  6
BYLAYER
 10
108.7282401192
 20
141.9011056182
 11
108.1594299194
 21
141.9938229223
  0
LINE
  5
238
100
AcDbEntity
  8
0
100
AcDbLine
 62
7
  6
BYLAYER
 10
113.7171514117
 20
180.4528924415
 11
111.9448282217
 21
177.1196373131
  0
LINE
  5
239
100
AcDbEntity
  8
0
100
AcDbLine
 62
7
  6
BYLAYER
 10
108.1594299194
 20
181.3759801411
 11
108.1594299194
 21
141.9938229223
  0
LINE
  5
23A
100
AcDbEntity
  8
0
100
AcDbLine
 62
7
  6
BYLAYER
 10
108.7282401192
 20
141.9011056182
 11
108.7282401192
 21
181.4686988979
  0
LINE
  5
23B
100
AcDbEntity
  8
0
100
AcDbLine
 62
7
  6
BYLAYER
 10
110.7270217733
 20
175.5849015317
 11
110.7270257476
 21
181.4687492968
  0
LINE
  5
23C
100
AcDbEntity
  8
0
100
AcDbLine
 62
7
  6
BYLAYER
 10
110.7270257476
 20
141.9010245476
 11
110.7270217733
 21
175.1849015317
  0
LINE
  5
23D
100
AcDbEntity
  8
0
100
AcDbLine
 62
7
  6
BYLAYER
 10
112.2595384921
 20
144.9849015317
 11
112.2595384921
 21
175.1849015317
  0
LINE
  5
23E
100
AcDbEntity
  8
0
100
AcDbLine
 62
7
  6
BYLAYER
 10
112.4595384921
 20
175.5849015317
 11
112.4595384921
 21
144.9849015317
  0
LINE
  5
23F
100
AcDbEntity
  8
0
100
AcDbLine
 62
7
  6
BYLAYER
 10
111.1540209253
 20
141.4064187444
 11
110.8607996993
 21
139.4280301798
  0
LINE
  5
240
100
AcDbEntity
  8
0
100
AcDbLine
 62
7
  6
BYLAYER
 10
117.1648334848
 20
181.963417306
 11
117.4580329962
 21
183.9418090889
  0
LINE
  5
241
100
AcDbEntity
  8
0
100
AcDbLine
 62
7
  6
BYLAYER
 10
134.4011907504
 20
171.5096414191
 11
132.1521182773
 21
170.4180036538
  0
LINE
  5
242
100
AcDbEntity
  8
0
100
AcDbLine
 62
7
  6
BYLAYER
 10
93.9176418294
 20
151.8606652002
 11
96.1667414586
 21
152.9522470149
  0
LINE
  5
243
100
AcDbEntity
  8
0
100
AcDbLine
 62
7
  6
BYLAYER
 10
27.0536873815
 20
151.696205998
 11
35.5339204186
 21
152.1899739961
  0
LINE
  5
244
100
AcDbEntity
  8
0
100
AcDbLine
 62
7
  6
BYLAYER
 10
35.4874185715
 20
152.9886213389
 11
26.8595384921
 21
152.4862564799
  0
LINE
  5
245
100
AcDbEntity
  8
0
100
AcDbLine
 62
7
  6
BYLAYER
 10
84.1595384921
 20
155.1849015317
 11
38.4274876846
 21
155.1849015317
  0
LINE
  5
246
100
AcDbEntity
  8
0
100
AcDbLine
 62
7
  6
BYLAYER
 10
37.5595384921
 20
155.1849015317
 11
38.3595384921
 21
155.1849015317
  0
LINE
  5
247
100
AcDbEntity
  8
0
100
AcDbLine
 62
7
  6
BYLAYER
 10
189.9595384921
 20
155.1849015317
 11
190.7595384921
 21
155.1849015317
  0
LINE
  5
248
100
AcDbEntity
  8
0
100
AcDbLine
 62
7
  6
BYLAYER
 10
198.067416895
 20
161.0849015317
 11
196.7595384921
 21
161.0849015317
  0
LINE
  5
249
100
AcDbEntity
  8
0
100
AcDbLine
 62
7
  6
BYLAYER
 10
195.5595384921
 20
161.0849015317
 11
194.2516600893
 21
161.0849015317
  0
LINE
  5
24A
100
AcDbEntity
  8
0
100
AcDbLine
 62
7
  6
BYLAYER
 10
194.2516600893
 20
162.2849015317
 11
195.5595384921
 21
162.2849015317
  0
LINE
  5
24B
100
AcDbEntity
  8
0
100
AcDbLine
 62
7
  6
BYLAYER
 10
196.7595384921
 20
162.2849015317
 11
198.067416895
 21
162.2849015317
  0
LINE
  5
24C
100
AcDbEntity
  8
0
100
AcDbLine
 62
7
  6
BYLAYER
 10
201.2653896027
 20
151.696205998
 11
192.7851565657
 21
152.1899739961
  0
LINE
  5
24D
100
AcDbEntity
  8
0
100
AcDbLine
 62
7
  6
BYLAYER
 10
201.4595384921
 20
152.4862564799
 11
192.8316584128
 21
152.9886213389
  0
LINE
  5
24E
100
AcDbEntity
  8
0
100
AcDbLine
 62
7
  6
BYLAYER
 10
96.1667399815
 20
170.4175530051
 11
93.9176401677
 21
171.5091344393
  0
LINE
  5
24F
100
AcDbEntity
  8
0
100
AcDbLine
 62
7
  6
BYLAYER
 10
132.1521198575
 20
152.9518026653
 11
134.4011925282
 21
151.860165307
  0
LINE
  5
250
100
AcDbEntity
  8
0
100
AcDbLine
 62
7
  6
BYLAYER
 10
110.8607996995
 20
183.9417728837
 11
111.1540209255
 21
181.9633843191
  0
LINE
  5
251
100
AcDbEntity
  8
0
100
AcDbLine
 62
7
  6
BYLAYER
 10
117.458032996
 20
139.4279939746
 11
117.1648334845
 21
141.4063857574
  0
LINE
  5
252
100
AcDbEntity
  8
0
100
AcDbLine
 62
7
  6
BYLAYER
 10
115.8595384921
 20
144.9849015317
 11
115.8595384921
 21
175.5849015317
  0
LINE
  5
253
100
AcDbEntity
  8
0
100
AcDbLine
 62
7
  6
BYLAYER
 10
116.0595384921
 20
175.1849015317
 11
116.0595384921
 21
144.9849015317
  0
LINE
  5
254
100
AcDbEntity
  8
0
100
AcDbLine
 62
7
  6
BYLAYER
 10
117.5918380654
 20
175.1849015317
 11
117.5918340909
 21
141.9010075878
  0
LINE
  5
255
100
AcDbEntity
  8
0
100
AcDbLine
 62
7
  6
BYLAYER
 10
117.5918340909
 20
181.4688101932
 11
117.5918380654
 21
175.5849015317
  0
LINE
  5
256
100
AcDbEntity
  8
0
100
AcDbLine
 62
7
  6
BYLAYER
 10
119.5906197195
 20
181.4687296402
 11
119.5906197195
 21
141.9010719747
  0
LINE
  5
257
100
AcDbEntity
  8
0
100
AcDbLine
 62
7
  6
BYLAYER
 10
120.1594299192
 20
141.9937843089
 11
120.1594299192
 21
181.3760187545
  0
LINE
  5
258
100
AcDbEntity
  8
0
100
AcDbLine
 62
7
  6
BYLAYER
 10
192.8316584128
 20
170.3811817245
 11
201.4595384921
 21
170.8835465836
  0
LINE
  5
259
100
AcDbEntity
  8
0
100
AcDbLine
 62
7
  6
BYLAYER
 10
201.2653896027
 20
171.6735970654
 11
192.7851565657
 21
171.1798290674
  0
LINE
  5
25A
100
AcDbEntity
  8
0
100
AcDbLine
 62
7
  6
BYLAYER
 10
190.7595384921
 20
168.1849015317
 11
189.9595384921
 21
168.1849015317
  0
LINE
  5
25B
100
AcDbEntity
  8
0
100
AcDbLine
 62
7
  6
BYLAYER
 10
38.3595384921
 20
168.1849015317
 11
37.5595384921
 21
168.1849015317
  0
LINE
  5
25C
100
AcDbEntity
  8
0
100
AcDbLine
 62
7
  6
BYLAYER
 10
38.4274876846
 20
168.1849015317
 11
84.1595384921
 21
168.1849015317
  0
LINE
  5
25D
100
AcDbEntity
  8
0
100
AcDbLine
 62
7
  6
BYLAYER
 10
26.8595384921
 20
170.8835465836
 11
35.4874185715
 21
170.3811817245
  0
LINE
  5
25E
100
AcDbEntity
  8
0
100
AcDbLine
 62
7
  6
BYLAYER
 10
27.0536873815
 20
171.6735970654
 11
35.5339204186
 21
171.1798290674
  0
LINE
  5
25F
100
AcDbEntity
  8
0
100
AcDbLine
 62
7
  6
BYLAYER
 10
108.7282401192
 20
175.1849015317
 11
112.2595384921
 21
175.1849015317
  0
LINE
  5
260
100
AcDbEntity
  8
0
100
AcDbLine
 62
7
  6
BYLAYER
 10
116.0595384921
 20
175.1849015317
 11
119.593057154
 21
175.1849015317
  0
LINE
  5
261
100
AcDbEntity
  8
0
100
AcDbLine
 62
7
  6
BYLAYER
 10
108.7282401192
 20
175.5849015317
 11
112.4595384921
 21
175.5849015317
  0
LINE
  5
262
100
AcDbEntity
  8
0
100
AcDbLine
 62
7
  6
BYLAYER
 10
115.8595384921
 20
175.5849015317
 11
119.5906197195
 21
175.5849015317
  0
LINE
  5
263
100
AcDbEntity
  8
0
100
AcDbLine
 62
7
  6
BYLAYER
 10
115.9236339912
 20
176.3849015317
 11
112.3863020182
 21
176.3849015317
  0
LINE
  5
264
100
AcDbEntity
  8
0
100
AcDbLine
 62
7
  6
BYLAYER
 10
116.365509074
 20
177.1188810419
 11
114.6005002909
 21
180.4521361703
  0
LINE
  5
265
100
AcDbEntity
  8
0
100
AcDbLine
 62
7
  6
BYLAYER
 10
132.1521198443
 20
170.4180004254
 11
132.1521198443
 21
152.9518026386
  0
LINE
  5
266
100
AcDbEntity
  8
0
100
AcDbLine
 62
7
  6
BYLAYER
 10
110.8232576293
 20
183.936438666
 11
110.522352983
 21
183.8871442757
  0
LINE
  5
267
100
AcDbEntity
  8
0
100
AcDbLine
 62
7
  6
BYLAYER
 10
108.1594299194
 20
181.3759801411
 11
108.7282401192
 21
181.4686988979
  0
LINE
  5
268
100
AcDbEntity
  8
0
100
AcDbLine
 62
7
  6
BYLAYER
 10
110.8232576293
 20
183.936438666
 11
110.860724443
 21
183.9422848261
  0
LINE
  5
269
100
AcDbEntity
  8
0
100
AcDbLine
 62
7
  6
BYLAYER
 10
110.7270217733
 20
181.468696542
 11
108.7282401192
 21
181.468696542
  0
LINE
  5
26A
100
AcDbEntity
  8
0
100
AcDbLine
 62
7
  6
BYLAYER
 10
117.5918380654
 20
181.4687287297
 11
119.5906197195
 21
181.4687287297
  0
LINE
  5
26B
100
AcDbEntity
  8
0
100
AcDbLine
 62
7
  6
BYLAYER
 10
117.458059322
 20
183.9419893705
 11
117.4932694968
 21
183.9365130619
  0
LINE
  5
26C
100
AcDbEntity
  8
0
100
AcDbLine
 62
7
  6
BYLAYER
 10
117.7756287301
 20
183.8905320903
 11
117.4932694968
 21
183.9365130619
  0
LINE
  5
26D
100
AcDbEntity
  8
0
100
AcDbLine
 62
7
  6
BYLAYER
 10
119.5906197195
 20
181.4687296402
 11
120.1594299192
 21
181.3760187545
  0
LINE
  5
26E
100
AcDbEntity
  8
0
100
AcDbLine
 62
7
  6
BYLAYER
 10
141.1595384921
 20
131.6849015317
 11
141.1595384921
 21
132.6849015317
  0
LINE
  5
26F
100
AcDbEntity
  8
0
100
AcDbLine
 62
7
  6
BYLAYER
 10
141.1595384921
 20
190.6849015317
 11
141.1595384921
 21
191.6849015317
  0
LINE
  5
270
100
AcDbEntity
  8
0
100
AcDbLine
 62
7
  6
BYLAYER
 10
143.1595384921
 20
134.6849015317
 11
143.1595384921
 21
188.6849015317
  0
LINE
  5
271
100
AcDbEntity
  8
0
100
AcDbLine
 62
7
  6
BYLAYER
 10
144.1595384921
 20
188.6849015626
 11
144.1595384921
 21
134.6849015361
  0
LINE
  5
272
100
AcDbEntity
  8
0
100
AcDbLine
 62
7
  6
BYLAYER
 10
144.1595384921
 20
188.6849015317
 11
143.1595384921
 21
188.6849015317
  0
LINE
  5
273
100
AcDbEntity
  8
0
100
AcDbLine
 62
7
  6
BYLAYER
 10
85.1595384921
 20
188.6849015317
 11
84.1595384921
 21
188.6849015317
  0
LINE
  5
274
100
AcDbEntity
  8
0
100
AcDbLine
 62
7
  6
BYLAYER
 10
146.1595384921
 20
190.2849015317
 11
169.3595384921
 21
190.2849015317
  0
LINE
  5
275
100
AcDbEntity
  8
0
100
AcDbLine
 62
7
  6
BYLAYER
 10
141.1595384921
 20
190.6849015317
 11
87.1595384921
 21
190.6849015317
  0
LINE
  5
276
100
AcDbEntity
  8
0
100
AcDbLine
 62
7
  6
BYLAYER
 10
87.1595384613
 20
191.6849015317
 11
141.1595384878
 21
191.6849015317
  0
LINE
  5
277
100
AcDbEntity
  8
0
100
AcDbLine
 62
7
  6
BYLAYER
 10
171.3595384921
 20
188.2849015317
 11
171.3595384921
 21
135.0849015317
  0
LINE
  5
278
100
AcDbEntity
  8
0
100
AcDbLine
 62
7
  6
BYLAYER
 10
185.8501374154
 20
88.6849015406
 11
185.8501374154
 21
234.6849015236
  0
LINE
  5
279
100
AcDbEntity
  8
0
100
AcDbLine
 62
7
  6
BYLAYER
 10
192.7851565657
 20
171.1798290674
 11
192.8316584128
 21
170.3811817245
  0
LINE
  5
27A
100
AcDbEntity
  8
0
100
AcDbLine
 62
7
  6
BYLAYER
 10
189.314239032
 20
234.6849013666
 11
189.3142390352
 21
88.6849016164
  0
LINE
  5
27B
100
AcDbEntity
  8
0
100
AcDbLine
 62
7
  6
BYLAYER
 10
189.9595384921
 20
155.1849015317
 11
189.9595384921
 21
168.1849015317
  0
LINE
  5
27C
100
AcDbEntity
  8
0
100
AcDbLine
 62
7
  6
BYLAYER
 10
190.7595384921
 20
168.1849015317
 11
190.7595384921
 21
155.1849015317
  0
LINE
  5
27D
100
AcDbEntity
  8
0
100
AcDbLine
 62
7
  6
BYLAYER
 10
192.8316584128
 20
152.9886213389
 11
192.7851565657
 21
152.1899739961
  0
LINE
  5
27E
100
AcDbEntity
  8
0
100
AcDbLine
 62
7
  6
BYLAYER
 10
204.1595384921
 20
234.6849015317
 11
24.1595384921
 21
234.6849015317
  0
LINE
  5
27F
100
AcDbEntity
  8
0
100
AcDbLine
 62
7
  6
BYLAYER
 10
29.6595384921
 20
240.1849015317
 11
198.6595384921
 21
240.1849015317
  0
LINE
  5
280
100
AcDbEntity
  8
0
100
AcDbLine
 62
7
  6
BYLAYER
 10
195.5595384921
 20
158.2367136018
 11
195.5595384921
 21
161.0849015317
  0
LINE
  5
281
100
AcDbEntity
  8
0
100
AcDbLine
 62
7
  6
BYLAYER
 10
195.5595384921
 20
162.2849015317
 11
195.5595384921
 21
165.1330894616
  0
LINE
  5
282
100
AcDbEntity
  8
0
100
AcDbLine
 62
7
  6
BYLAYER
 10
196.7595384921
 20
165.1330894616
 11
196.7595384921
 21
162.2849015317
  0
LINE
  5
283
100
AcDbEntity
  8
0
100
AcDbLine
 62
7
  6
BYLAYER
 10
196.7595384921
 20
161.0849015317
 11
196.7595384921
 21
158.2367136018
  0
LINE
  5
284
100
AcDbEntity
  8
0
100
AcDbLine
 62
7
  6
BYLAYER
 10
201.4595384921
 20
171.6106676232
 11
201.4595384921
 21
151.7591354402
  0
LINE
  5
285
100
AcDbEntity
  8
0
100
AcDbLine
 62
7
  6
BYLAYER
 10
203.422678213
 20
88.6849015317
 11
203.422678213
 21
234.6849015317
  0
LINE
  5
286
100
AcDbEntity
  8
0
100
AcDbLine
 62
7
  6
BYLAYER
 10
204.1595384921
 20
234.6849015317
 11
204.1595384921
 21
88.6849015317
  0
ARC
  5
287
100
AcDbEntity
  8
0
100
AcDbCircle
 62
7
  6
BYLAYER
 10
29.6595384921
 20
88.6849015317
 40
5.5
100
AcDbArc
 50
179.9997827804
 51
270.0
  0
ARC
  5
288
100
AcDbEntity
  8
0
100
AcDbCircle
 62
7
  6
BYLAYER
 10
35.3595384921
 20
155.1849015317
 40
3.0
100
AcDbArc
 50
273.3323277668
 51
360.0
  0
ARC
  5
289
100
AcDbEntity
  8
0
100
AcDbCircle
 62
7
  6
BYLAYER
 10
87.1595384921
 20
134.6849015317
 40
3.0
100
AcDbArc
 50
180.0000002946
 51
270.0
  0
ARC
  5
28A
100
AcDbEntity
  8
0
100
AcDbCircle
 62
7
  6
BYLAYER
 10
111.2281506482
 20
141.8998173011
 40
2.4991277991
100
AcDbArc
 50
179.9735234676
 51
260.7297094156
  0
ARC
  5
28B
100
AcDbEntity
  8
0
100
AcDbCircle
 62
7
  6
BYLAYER
 10
110.6583490973
 20
141.9925676852
 40
2.4988805613
100
AcDbArc
 50
179.9712212759
 51
259.9015748495
  0
ARC
  5
28C
100
AcDbEntity
  8
0
100
AcDbCircle
 62
7
  6
BYLAYER
 10
35.3595384921
 20
155.1849015317
 40
2.2
100
AcDbArc
 50
273.3323278051
 51
360.0
  0
ARC
  5
28D
100
AcDbEntity
  8
0
100
AcDbCircle
 62
7
  6
BYLAYER
 10
87.1595384921
 20
134.6849015317
 40
2.0
100
AcDbArc
 50
180.0
 51
270.0
  0
ARC
  5
28E
100
AcDbEntity
  8
0
100
AcDbCircle
 62
7
  6
BYLAYER
 10
111.2271820955
 20
141.901196224
 40
0.5001563773
100
AcDbArc
 50
180.0196665087
 51
261.5922641154
  0
ARC
  5
28F
100
AcDbEntity
  8
0
100
AcDbCircle
 62
7
  6
BYLAYER
 10
29.6595384921
 20
234.6849015317
 40
5.5
100
AcDbArc
 50
90.0
 51
180.0002172195
  0
ARC
  5
290
100
AcDbEntity
  8
0
100
AcDbCircle
 62
7
  6
BYLAYER
 10
35.3595384921
 20
168.1849015317
 40
3.0
100
AcDbArc
 50
0.0
 51
86.6676720683
  0
ARC
  5
291
100
AcDbEntity
  8
0
100
AcDbCircle
 62
7
  6
BYLAYER
 10
87.1595384921
 20
188.6849015317
 40
3.0
100
AcDbArc
 50
90.0000002946
 51
180.0
  0
ARC
  5
292
100
AcDbEntity
  8
0
100
AcDbCircle
 62
7
  6
BYLAYER
 10
111.2277478118
 20
181.4702439416
 40
2.4991450178
100
AcDbArc
 50
99.3256852523
 51
180.0354189718
  0
ARC
  5
293
100
AcDbEntity
  8
0
100
AcDbCircle
 62
7
  6
BYLAYER
 10
110.6583490807
 20
181.3772353779
 40
2.4988805589
100
AcDbArc
 50
100.0984249781
 51
180.028779052
  0
ARC
  5
294
100
AcDbEntity
  8
0
100
AcDbCircle
 62
7
  6
BYLAYER
 10
35.3595384921
 20
168.1849015317
 40
2.2
100
AcDbArc
 50
0.0
 51
86.667672195
  0
ARC
  5
295
100
AcDbEntity
  8
0
100
AcDbCircle
 62
7
  6
BYLAYER
 10
87.1595384921
 20
188.6849015317
 40
2.0
100
AcDbArc
 50
90.0
 51
180.0
  0
ARC
  5
296
100
AcDbEntity
  8
0
100
AcDbCircle
 62
7
  6
BYLAYER
 10
111.2271630969
 20
181.4686227809
 40
0.5001373653
100
AcDbArc
 50
98.4027178908
 51
179.9855063168
  0
ARC
  5
297
100
AcDbEntity
  8
0
100
AcDbCircle
 62
7
  6
BYLAYER
 10
114.1586252081
 20
180.2181566601
 40
0.5
100
AcDbArc
 50
27.9018934881
 51
151.9999999998
  0
ARC
  5
298
100
AcDbEntity
  8
0
100
AcDbCircle
 62
7
  6
BYLAYER
 10
112.3863020182
 20
176.8849015317
 40
0.5
100
AcDbArc
 50
151.9999999997
 51
270.0
  0
ARC
  5
299
100
AcDbEntity
  8
0
100
AcDbCircle
 62
7
  6
BYLAYER
 10
198.6595384921
 20
88.6849015317
 40
5.5
100
AcDbArc
 50
270.0
 51
360.0
  0
ARC
  5
29A
100
AcDbEntity
  8
0
100
AcDbCircle
 62
7
  6
BYLAYER
 10
141.1595384921
 20
134.6849015317
 40
3.0
100
AcDbArc
 50
270.0000002946
 51
360.0
  0
ARC
  5
29B
100
AcDbEntity
  8
0
100
AcDbCircle
 62
7
  6
BYLAYER
 10
192.9595384921
 20
155.1849015317
 40
3.0
100
AcDbArc
 50
179.9999999809
 51
266.6676720683
  0
ARC
  5
29C
100
AcDbEntity
  8
0
100
AcDbCircle
 62
7
  6
BYLAYER
 10
117.0911113119
 20
141.8995280528
 40
2.4991452295
100
AcDbArc
 50
279.3250358083
 51
0.0353932436
  0
ARC
  5
29D
100
AcDbEntity
  8
0
100
AcDbCircle
 62
7
  6
BYLAYER
 10
117.6605107799
 20
141.9925290577
 40
2.4988805852
100
AcDbArc
 50
280.0977924218
 51
0.0287793857
  0
ARC
  5
29E
100
AcDbEntity
  8
0
100
AcDbCircle
 62
7
  6
BYLAYER
 10
192.9595384921
 20
155.1849015317
 40
2.2
100
AcDbArc
 50
180.0
 51
266.667672195
  0
ARC
  5
29F
100
AcDbEntity
  8
0
100
AcDbCircle
 62
7
  6
BYLAYER
 10
146.1595384921
 20
135.0849015317
 40
2.0
100
AcDbArc
 50
189.3749406914
 51
270.0
  0
ARC
  5
2A0
100
AcDbEntity
  8
0
100
AcDbCircle
 62
7
  6
BYLAYER
 10
169.3595384921
 20
135.0849015317
 40
2.0
100
AcDbArc
 50
270.0
 51
360.0
  0
ARC
  5
2A1
100
AcDbEntity
  8
0
100
AcDbCircle
 62
7
  6
BYLAYER
 10
141.1595384921
 20
134.6849015317
 40
2.0
100
AcDbArc
 50
270.0
 51
360.0
  0
ARC
  5
2A2
100
AcDbEntity
  8
0
100
AcDbCircle
 62
7
  6
BYLAYER
 10
114.1595384921
 20
144.9849015317
 40
1.9
100
AcDbArc
 50
180.0
 51
360.0
  0
ARC
  5
2A3
100
AcDbEntity
  8
0
100
AcDbCircle
 62
7
  6
BYLAYER
 10
114.1595384921
 20
144.9849015317
 40
1.7
100
AcDbArc
 50
180.0
 51
360.0
  0
ARC
  5
2A4
100
AcDbEntity
  8
0
100
AcDbCircle
 62
7
  6
BYLAYER
 10
117.0916869146
 20
141.9011562797
 40
0.5001471985
100
AcDbArc
 50
278.4045244245
 51
359.9829661738
  0
CIRCLE
  5
2A5
100
AcDbEntity
  8
0
100
AcDbCircle
 62
7
  6
BYLAYER
 10
114.1595384921
 20
161.6849015317
 40
22.5
  0
ARC
  5
2A6
100
AcDbEntity
  8
0
100
AcDbCircle
 62
7
  6
BYLAYER
 10
114.1595384921
 20
161.6849015317
 40
20.5
100
AcDbArc
 50
81.5701571566
 51
98.430396551
  0
ARC
  5
2A7
100
AcDbEntity
  8
0
100
AcDbCircle
 62
7
  6
BYLAYER
 10
114.1595384921
 20
161.6849015317
 40
20.5
100
AcDbArc
 50
261.5695270398
 51
278.4298032619
  0
ARC
  5
2A8
100
AcDbEntity
  8
0
100
AcDbCircle
 62
7
  6
BYLAYER
 10
114.1595384921
 20
161.6849015317
 40
20.0
100
AcDbArc
 50
154.1107772618
 51
205.8892227392
  0
ARC
  5
2A9
100
AcDbEntity
  8
0
100
AcDbCircle
 62
7
  6
BYLAYER
 10
114.1595384921
 20
161.6849015317
 40
20.0
100
AcDbArc
 50
334.1093525858
 51
25.8906474155
  0
ARC
  5
2AA
100
AcDbEntity
  8
0
100
AcDbCircle
 62
7
  6
BYLAYER
 10
141.1595384921
 20
188.6849015317
 40
3.0
100
AcDbArc
 50
0.0000002946
 51
90.0
  0
ARC
  5
2AB
100
AcDbEntity
  8
0
100
AcDbCircle
 62
7
  6
BYLAYER
 10
117.0907096236
 20
181.47001946
 40
2.499125706
100
AcDbArc
 50
359.9735522155
 51
80.7304067011
  0
ARC
  5
2AC
100
AcDbEntity
  8
0
100
AcDbCircle
 62
7
  6
BYLAYER
 10
117.6605107628
 20
181.3772740063
 40
2.4988805876
100
AcDbArc
 50
359.97122094
 51
79.9022074023
  0
ARC
  5
2AD
100
AcDbEntity
  8
0
100
AcDbCircle
 62
7
  6
BYLAYER
 10
146.1595384921
 20
188.2849015317
 40
2.0
100
AcDbArc
 50
90.0
 51
170.625447925
  0
ARC
  5
2AE
100
AcDbEntity
  8
0
100
AcDbCircle
 62
7
  6
BYLAYER
 10
141.1595384921
 20
188.6849015317
 40
2.0
100
AcDbArc
 50
0.0
 51
90.0
  0
ARC
  5
2AF
100
AcDbEntity
  8
0
100
AcDbCircle
 62
7
  6
BYLAYER
 10
117.0916772299
 20
181.46863857
 40
0.5001568905
100
AcDbArc
 50
0.0196603979
 51
81.5928932422
  0
ARC
  5
2B0
100
AcDbEntity
  8
0
100
AcDbCircle
 62
7
  6
BYLAYER
 10
115.9236339912
 20
176.8849015317
 40
0.5
100
AcDbArc
 50
270.0
 51
27.9018934882
  0
CIRCLE
  5
2B1
100
AcDbEntity
  8
0
100
AcDbCircle
 62
7
  6
BYLAYER
 10
196.1595384921
 20
161.6849015317
 40
4.15
  0
CIRCLE
  5
2B2
100
AcDbEntity
  8
0
100
AcDbCircle
 62
7
  6
BYLAYER
 10
196.1595384921
 20
161.6849015317
 40
3.5
  0
ARC
  5
2B3
100
AcDbEntity
  8
0
100
AcDbCircle
 62
7
  6
BYLAYER
 10
192.9595384921
 20
168.1849015317
 40
3.0
100
AcDbArc
 50
93.3323277668
 51
179.9999998733
  0
ARC
  5
2B4
100
AcDbEntity
  8
0
100
AcDbCircle
 62
7
  6
BYLAYER
 10
192.9595384921
 20
168.1849015317
 40
2.2
100
AcDbArc
 50
93.3323278051
 51
180.0000000001
  0
ARC
  5
2B5
100
AcDbEntity
  8
0
100
AcDbCircle
 62
7
  6
BYLAYER
 10
169.3595384921
 20
188.2849015317
 40
2.0
100
AcDbArc
 50
0.0
 51
90.0
  0
ARC
  5
2B6
100
AcDbEntity
  8
0
100
AcDbCircle
 62
7
  6
BYLAYER
 10
196.1595384921
 20
161.6849015317
 40
2.0
100
AcDbArc
 50
162.5423968763
 51
197.4576031237
  0
ARC
  5
2B7
100
AcDbEntity
  8
0
100
AcDbCircle
 62
7
  6
BYLAYER
 10
196.1595384921
 20
161.6849015317
 40
2.0
100
AcDbArc
 50
342.5423968763
 51
17.4576031237
  0
ARC
  5
2B8
100
AcDbEntity
  8
0
100
AcDbCircle
 62
7
  6
BYLAYER
 10
198.6595384921
 20
234.6849015317
 40
5.5
100
AcDbArc
 50
359.9997827804
 51
90.0
  0
SPLINE
  5
2B9
100
AcDbEntity
  8
0
100
AcDbSpline
 62
7
  6
BYLAYER
 70
0
 71
3
 72
12
 73
8
 74
0
 42
0.0000001
 43
0.0000001
 44
0.0000000001
 40
0.0
 40
0.0
 40
0.0
 40
0.0
 40
0.0922144677
 40
0.3251545126
 40
0.4788770775
 40
0.6463492048
 40
1.0
 40
1.0
 40
1.0
 40
1.0
 10
108.1594299176
 20
141.9938159668
 30
0.0
 10
107.6524348814
 20
142.1026541657
 30
0.0
 10
105.885735348
 20
142.5860392175
 30
0.0
 10
103.4391008453
 20
143.7949406575
 30
0.0
 10
100.9784450159
 20
145.7243515533
 30
0.0
 10
98.3835998727
 20
148.5108914577
 30
0.0
 10
96.9080102801
 20
151.1068975255
 30
0.0
 10
96.1667335558
 20
152.9522474455
 30
0.0
  0
SPLINE
  5
2BA
100
AcDbEntity
  8
0
100
AcDbSpline
 62
7
  6
BYLAYER
 70
0
 71
3
 72
12
 73
8
 74
0
 42
0.0000001
 43
0.0000001
 44
0.0000000001
 40
0.0
 40
0.0
 40
0.0
 40
0.0
 40
0.3535992518
 40
0.5210884557
 40
0.6748429418
 40
0.9077901675
 40
1.0
 40
1.0
 40
1.0
 40
1.0
 10
96.1667305623
 20
170.4175568203
 30
0.0
 10
96.9078757391
 20
172.2626455053
 30
0.0
 10
98.3833354896
 20
174.8584881594
 30
0.0
 10
100.9781365671
 20
177.6450501662
 30
0.0
 10
103.4389220484
 20
179.5747642022
 30
0.0
 10
105.8857033102
 20
180.7839948447
 30
0.0
 10
107.6525013119
 20
181.2669690196
 30
0.0
 10
108.1594299168
 20
181.3759903304
 30
0.0
  0
SPLINE
  5
2BB
100
AcDbEntity
  8
0
100
AcDbSpline
 62
7
  6
BYLAYER
 70
0
 71
3
 72
12
 73
8
 74
0
 42
0.0000001
 43
0.0000001
 44
0.0000000001
 40
0.0
 40
0.0
 40
0.0
 40
0.0
 40
0.2777922422
 40
0.5396384859
 40
0.7779529416
 40
0.890333459
 40
1.0
 40
1.0
 40
1.0
 40
1.0
 10
189.3142390356
 20
88.6849015741
 30
0.0
 10
189.3154057013
 20
87.9708984596
 30
0.0
 10
189.1001799394
 20
86.5733785447
 30
0.0
 10
188.1757824255
 20
84.7594171091
 30
0.0
 10
186.9522498713
 20
83.6871607651
 30
0.0
 10
185.8390898285
 20
83.2573455667
 30
0.0
 10
185.2659858169
 20
83.1849015317
 30
0.0
 10
184.9841120116
 20
83.1849015317
 30
0.0
  0
SPLINE
  5
2BC
100
AcDbEntity
  8
0
100
AcDbSpline
 62
7
  6
BYLAYER
 70
0
 71
3
 72
17
 73
13
 74
0
 42
0.0000001
 43
0.0000001
 44
0.0000000001
 40
0.0
 40
0.0
 40
0.0
 40
0.0
 40
0.034843508
 40
0.0616685734
 40
0.0960957443
 40
0.138412072
 40
0.1884426411
 40
0.3102164867
 40
0.457922282
 40
0.6263772866
 40
0.8095741569
 40
1.0
 40
1.0
 40
1.0
 40
1.0
 10
43.3349660123
 20
83.184901531
 30
0.0
 10
43.2689990146
 20
83.1856364245
 30
0.0
 10
43.1658765659
 20
83.2751527862
 30
0.0
 10
43.0763533111
 20
83.4286170728
 30
0.0
 10
42.9973458351
 20
83.6101929231
 30
0.0
 10
42.9231002653
 20
83.8381154532
 30
0.0
 10
42.8206598562
 20
84.230784145
 30
0.0
 10
42.7104597684
 20
84.8261465754
 30
0.0
 10
42.6063443631
 20
85.6490462844
 30
0.0
 10
42.5281418635
 20
86.5915176874
 30
0.0
 10
42.479988333
 20
87.6169095412
 30
0.0
 10
42.468946413
 20
88.3243580227
 30
0.0
 10
42.4689406966
 20
88.6849015317
 30
0.0
  0
SPLINE
  5
2BD
100
AcDbEntity
  8
0
100
AcDbSpline
 62
7
  6
BYLAYER
 70
0
 71
3
 72
17
 73
13
 74
0
 42
0.0000001
 43
0.0000001
 44
0.0000000001
 40
0.0
 40
0.0
 40
0.0
 40
0.0
 40
0.1904222094
 40
0.373609227
 40
0.5420080494
 40
0.6896719274
 40
0.8114766017
 40
0.8615352963
 40
0.9038748857
 40
0.9383133321
 40
0.9651420312
 40
1.0
 40
1.0
 40
1.0
 40
1.0
 10
185.8501934684
 20
88.684901531
 30
0.0
 10
185.8501888968
 20
88.3243647884
 30
0.0
 10
185.8391401368
 20
87.616941682
 30
0.0
 10
185.7910022026
 20
86.5916812563
 30
0.0
 10
185.7128489372
 20
85.6494105798
 30
0.0
 10
185.6087501037
 20
84.8266364329
 30
0.0
 10
185.4985410255
 20
84.231243107
 30
0.0
 10
185.3960941528
 20
83.8384163853
 30
0.0
 10
185.3218456692
 20
83.6103682857
 30
0.0
 10
185.2428434815
 20
83.4287169463
 30
0.0
 10
185.1533069467
 20
83.27517559
 30
0.0
 10
185.0501575187
 20
83.1856857873
 30
0.0
 10
184.9841636868
 20
83.1849015693
 30
0.0
  0
SPLINE
  5
2BE
100
AcDbEntity
  8
0
100
AcDbSpline
 62
7
  6
BYLAYER
 70
0
 71
3
 72
12
 73
8
 74
0
 42
0.0000001
 43
0.0000001
 44
0.0000000001
 40
0.0
 40
0.0
 40
0.0
 40
0.0
 40
0.1096965688
 40
0.2220813807
 40
0.4603384116
 40
0.7222298391
 40
1.0
 40
1.0
 40
1.0
 40
1.0
 10
43.3349649727
 20
83.1849015317
 30
0.0
 10
43.0530120194
 20
83.1849015317
 30
0.0
 10
42.4798120717
 20
83.2573554345
 30
0.0
 10
41.3667297973
 20
83.6872705499
 30
0.0
 10
40.1433223883
 20
84.7594413367
 30
0.0
 10
39.2183116745
 20
86.5733474348
 30
0.0
 10
39.0046978709
 20
87.9709493316
 30
0.0
 10
39.0048379514
 20
88.6849016143
 30
0.0
  0
SPLINE
  5
2BF
100
AcDbEntity
  8
0
100
AcDbSpline
 62
7
  6
BYLAYER
 70
0
 71
3
 72
12
 73
8
 74
0
 42
0.0000001
 43
0.0000001
 44
0.0000000001
 40
0.0
 40
0.0
 40
0.0
 40
0.0
 40
0.2777922422
 40
0.5396384859
 40
0.7779529416
 40
0.890333459
 40
1.0
 40
1.0
 40
1.0
 40
1.0
 10
39.0048379487
 20
234.6849014894
 30
0.0
 10
39.003671283
 20
235.3989046039
 30
0.0
 10
39.2188970449
 20
236.7964245188
 30
0.0
 10
40.1432945588
 20
238.6103859544
 30
0.0
 10
41.366827113
 20
239.6826422984
 30
0.0
 10
42.4799871558
 20
240.1124574968
 30
0.0
 10
43.0530911674
 20
240.1849015317
 30
0.0
 10
43.3349649727
 20
240.1849015317
 30
0.0
  0
SPLINE
  5
2C0
100
AcDbEntity
  8
0
100
AcDbSpline
 62
7
  6
BYLAYER
 70
0
 71
3
 72
13
 73
9
 74
0
 42
0.0000001
 43
0.0000001
 44
0.0000000001
 40
0.0
 40
0.0
 40
0.0
 40
0.0
 40
0.2656162301
 40
0.5219634412
 40
0.6456277889
 40
0.7659457616
 40
0.8837336232
 40
1.0
 40
1.0
 40
1.0
 40
1.0
 10
24.8963987713
 20
88.6849016143
 30
0.0
 10
24.8963987621
 20
87.9729303272
 30
0.0
 10
25.1326808431
 20
86.5624000587
 30
0.0
 10
26.0084067924
 20
85.0213762015
 30
0.0
 10
26.9853893426
 20
84.0908374167
 30
0.0
 10
27.8154241521
 20
83.5751457102
 30
0.0
 10
28.7182910819
 20
83.2570499198
 30
0.0
 10
29.3478921674
 20
83.1849015317
 30
0.0
 10
29.6595384921
 20
83.1849015317
 30
0.0
  0
SPLINE
  5
2C1
100
AcDbEntity
  8
0
100
AcDbSpline
 62
7
  6
BYLAYER
 70
0
 71
3
 72
17
 73
13
 74
0
 42
0.0000001
 43
0.0000001
 44
0.0000000001
 40
0.0
 40
0.0
 40
0.0
 40
0.0
 40
0.1904222101
 40
0.373609227
 40
0.5420080493
 40
0.6896719275
 40
0.8114766017
 40
0.8615352964
 40
0.9038748857
 40
0.9383133321
 40
0.9651420312
 40
1.0
 40
1.0
 40
1.0
 40
1.0
 10
42.4688835159
 20
234.6849015324
 30
0.0
 10
42.4688880784
 20
235.0454382763
 30
0.0
 10
42.4799368356
 20
235.7528613832
 30
0.0
 10
42.5280747835
 20
236.7781218081
 30
0.0
 10
42.6062280505
 20
237.720392483
 30
0.0
 10
42.7103268802
 20
238.5431666304
 30
0.0
 10
42.8205359579
 20
239.1385599568
 30
0.0
 10
42.9229828311
 20
239.5313866783
 30
0.0
 10
42.9972313151
 20
239.7594347778
 30
0.0
 10
43.0762335029
 20
239.9410861171
 30
0.0
 10
43.1657700376
 20
240.0946274733
 30
0.0
 10
43.2689194656
 20
240.1841172761
 30
0.0
 10
43.3349132975
 20
240.1849014942
 30
0.0
  0
SPLINE
  5
2C2
100
AcDbEntity
  8
0
100
AcDbSpline
 62
7
  6
BYLAYER
 70
0
 71
3
 72
12
 73
8
 74
0
 42
0.0000001
 43
0.0000001
 44
0.0000000001
 40
0.0
 40
0.0
 40
0.0
 40
0.0
 40
0.0922201585
 40
0.3251586423
 40
0.4788797498
 40
0.6463504751
 40
1.0
 40
1.0
 40
1.0
 40
1.0
 10
120.1594299209
 20
181.3760250768
 30
0.0
 10
120.6664406784
 20
181.2671511649
 30
0.0
 10
122.4331537929
 20
180.783867629
 30
0.0
 10
124.8797652108
 20
179.5749640184
 30
0.0
 10
127.3403803492
 20
177.6456399402
 30
0.0
 10
129.9352142107
 20
174.8592118627
 30
0.0
 10
131.4108250841
 20
172.2632976585
 30
0.0
 10
132.1521256967
 20
170.418002776
 30
0.0
  0
SPLINE
  5
2C3
100
AcDbEntity
  8
0
100
AcDbSpline
 62
7
  6
BYLAYER
 70
0
 71
3
 72
12
 73
8
 74
0
 42
0.0000001
 43
0.0000001
 44
0.0000000001
 40
0.0
 40
0.0
 40
0.0
 40
0.0
 40
0.3536130727
 40
0.5211011865
 40
0.674852054
 40
0.90779303
 40
1.0
 40
1.0
 40
1.0
 40
1.0
 10
132.1521290168
 20
152.9517989538
 30
0.0
 10
131.4109249451
 20
151.1066878007
 30
0.0
 10
129.935388214
 20
148.5108637993
 30
0.0
 10
127.3405228553
 20
145.7243805733
 30
0.0
 10
124.8797528192
 20
143.7948359824
 30
0.0
 10
122.4330596364
 20
142.5857117342
 30
0.0
 10
120.6663355334
 20
142.1027827643
 30
0.0
 10
120.1594299218
 20
141.9937744001
 30
0.0
  0
SPLINE
  5
2C4
100
AcDbEntity
  8
0
100
AcDbSpline
 62
7
  6
BYLAYER
 70
0
 71
3
 72
17
 73
13
 74
0
 42
0.0000001
 43
0.0000001
 44
0.0000000001
 40
0.0
 40
0.0
 40
0.0
 40
0.0
 40
0.034843508
 40
0.0616685734
 40
0.0960957443
 40
0.138412072
 40
0.1884426412
 40
0.3102164867
 40
0.4579222819
 40
0.6263772866
 40
0.8095741575
 40
1.0
 40
1.0
 40
1.0
 40
1.0
 10
184.984110972
 20
240.1849015324
 30
0.0
 10
185.0500779697
 20
240.1841666389
 30
0.0
 10
185.1532004184
 20
240.0946502773
 30
0.0
 10
185.2427236732
 20
239.9411859907
 30
0.0
 10
185.3217311492
 20
239.7596101404
 30
0.0
 10
185.395976719
 20
239.5316876102
 30
0.0
 10
185.498417128
 20
239.1390189183
 30
0.0
 10
185.6086172158
 20
238.5436564883
 30
0.0
 10
185.7127326213
 20
237.7207567794
 30
0.0
 10
185.7909351208
 20
236.7782853752
 30
0.0
 10
185.8390886511
 20
235.7528935211
 30
0.0
 10
185.8501305713
 20
235.0454450396
 30
0.0
 10
185.8501362877
 20
234.6849015317
 30
0.0
  0
SPLINE
  5
2C5
100
AcDbEntity
  8
0
100
AcDbSpline
 62
7
  6
BYLAYER
 70
0
 71
3
 72
12
 73
8
 74
0
 42
0.0000001
 43
0.0000001
 44
0.0000000001
 40
0.0
 40
0.0
 40
0.0
 40
0.0
 40
0.1096965688
 40
0.2220813807
 40
0.4603384116
 40
0.7222298391
 40
1.0
 40
1.0
 40
1.0
 40
1.0
 10
184.9841120116
 20
240.1849015317
 30
0.0
 10
185.2660649648
 20
240.1849015317
 30
0.0
 10
185.8392649126
 20
240.1124476289
 30
0.0
 10
186.952347187
 20
239.6825325136
 30
0.0
 10
188.175754596
 20
238.6103617267
 30
0.0
 10
189.1007653098
 20
236.7964556287
 30
0.0
 10
189.3143791134
 20
235.3988537318
 30
0.0
 10
189.3142390329
 20
234.6849014491
 30
0.0
  0
SPLINE
  5
2C6
100
AcDbEntity
  8
0
100
AcDbSpline
 62
7
  6
BYLAYER
 70
0
 71
3
 72
13
 73
9
 74
0
 42
0.0000001
 43
0.0000001
 44
0.0000000001
 40
0.0
 40
0.0
 40
0.0
 40
0.0
 40
0.2656162301
 40
0.5219634412
 40
0.6456277889
 40
0.7659457616
 40
0.8837336232
 40
1.0
 40
1.0
 40
1.0
 40
1.0
 10
203.422678213
 20
234.6849014491
 30
0.0
 10
203.4226782222
 20
235.3968727362
 30
0.0
 10
203.1863961412
 20
236.8074030048
 30
0.0
 10
202.3106701919
 20
238.348426862
 30
0.0
 10
201.3336876417
 20
239.2789656467
 30
0.0
 10
200.5036528322
 20
239.7946573532
 30
0.0
 10
199.6007859024
 20
240.1127531437
 30
0.0
 10
198.9711848169
 20
240.1849015317
 30
0.0
 10
198.6595384921
 20
240.1849015317
 30
0.0
  0
SPLINE
  5
2C7
100
AcDbEntity
  8
0
100
AcDbSpline
 62
7
  6
BYLAYER
 70
0
 71
3
 72
13
 73
9
 74
0
 42
0.0000001
 43
0.0000001
 44
0.0000000001
 40
0.0
 40
0.0
 40
0.0
 40
0.0
 40
0.1162663768
 40
0.2340542384
 40
0.3543722111
 40
0.4780365589
 40
0.7343837699
 40
1.0
 40
1.0
 40
1.0
 40
1.0
 10
29.6595384921
 20
240.1849015317
 30
0.0
 10
29.3478921689
 20
240.1849015317
 30
0.0
 10
28.7182910863
 20
240.1127531444
 30
0.0
 10
27.8154241604
 20
239.7946573569
 30
0.0
 10
26.9853893537
 20
239.278965655
 30
0.0
 10
26.0084068054
 20
238.3484268782
 30
0.0
 10
25.1326808542
 20
236.8074030327
 30
0.0
 10
24.8963987666
 20
235.3968727729
 30
0.0
 10
24.8963987713
 20
234.6849014894
 30
0.0
  0
SPLINE
  5
2C8
100
AcDbEntity
  8
0
100
AcDbSpline
 62
7
  6
BYLAYER
 70
0
 71
3
 72
13
 73
9
 74
0
 42
0.0000001
 43
0.0000001
 44
0.0000000001
 40
0.0
 40
0.0
 40
0.0
 40
0.0
 40
0.1162663768
 40
0.2340542384
 40
0.3543722111
 40
0.4780365589
 40
0.7343837699
 40
1.0
 40
1.0
 40
1.0
 40
1.0
 10
198.6595384921
 20
83.1849015317
 30
0.0
 10
198.9711848154
 20
83.1849015317
 30
0.0
 10
199.600785898
 20
83.2570499191
 30
0.0
 10
200.5036528239
 20
83.5751457066
 30
0.0
 10
201.3336876306
 20
84.0908374085
 30
0.0
 10
202.3106701788
 20
85.0213761853
 30
0.0
 10
203.1863961301
 20
86.5624000307
 30
0.0
 10
203.4226782177
 20
87.9729302905
 30
0.0
 10
203.422678213
 20
88.6849015741
 30
0.0
  0
ELLIPSE
  5
2C9
100
AcDbEntity
  8
0
100
AcDbEllipse
 62
7
  6
BYLAYER
 10
27.0536873815
 20
152.4975609461
 30
0.0
 11
0.0231631179
 21
0.8016953062
 31
0.0
 40
0.5754044402
 41
-3.525247139
 42
-3.0914219876
  0
ELLIPSE
  5
2CA
100
AcDbEntity
  8
0
100
AcDbEllipse
 62
7
  6
BYLAYER
 10
27.0536873815
 20
170.8722421173
 30
0.0
 11
-0.0231631179
 21
0.8016953062
 31
0.0
 40
0.5754044402
 41
-0.050170666
 42
0.3836544854
  0
ELLIPSE
  5
2CB
100
AcDbEntity
  8
0
100
AcDbEllipse
 62
7
  6
BYLAYER
 10
201.2653896027
 20
152.4975609462
 30
0.0
 11
-0.0231631179
 21
0.8016953062
 31
0.0
 40
0.5754044402
 41
-3.1917633196
 42
-2.7579381682
  0
ELLIPSE
  5
2CC
100
AcDbEntity
  8
0
100
AcDbEllipse
 62
7
  6
BYLAYER
 10
201.2653896027
 20
170.8722421173
 30
0.0
 11
0.0231631179
 21
0.8016953062
 31
0.0
 40
0.5754044402
 41
-0.3836544854
 42
0.050170666
  0
ENDSEC
  0
SECTION
  2
OBJECTS
  0
DICTIONARY
  5
C
100
AcDbDictionary
280
0
281
1
  3
ACAD_GROUP
350
D
  3
ACAD_MLINESTYLE
350
17
  3
ACAD_LAYOUT
350
1A
  3
ACAD_PLOTSETTINGS
350
19
  3
ACAD_PLOTSTYLENAME
350
E
  0
DICTIONARY
  5
D
102
{ACAD_REACTORS
330
C
102
}
100
AcDbDictionary
280
0
281
1
  0
ACDBDICTIONARYWDFLT
  5
E
102
{ACAD_REACTORS
330
C
102
}
100
AcDbDictionary
281
1
  3
Normal
350
F
100
AcDbDictionaryWithDefault
340
F
  0
DICTIONARY
  5
17
102
{ACAD_REACTORS
330
C
102
}
100
AcDbDictionary
280
0
281
1
  3
Standard
350
18
  0
DICTIONARY
  5
19
102
{ACAD_REACTORS
330
C
102
}
100
AcDbDictionary
281
1
  0
DICTIONARY
  5
1A
102
{ACAD_REACTORS
330
C
102
}
100
AcDbDictionary
281
1
  3
Model
350
2CD
  3
Layout1
350
2CE
  0
ACDBPLACEHOLDER
  5
F
102
{ACAD_REACTORS
330
E
102
}
  0
MLINESTYLE
  5
18
102
{ACAD_REACTORS
330
17
102
}
100
AcDbMlineStyle
  2
STANDARD
 70
0
  3

 62
256
 51
90.0
 52
90.0
 71
2
 49
0.5
 62
256
  6
BYLAYER
 49
-0.5
 62
256
  6
BYLAYER
  0
LAYOUT
  5
2CD
102
{ACAD_REACTORS
330
1A
102
}
100
AcDbPlotSettings
  1

  2
none_device
  4

  6

 40
0.0
 41
0.0
 42
0.0
 43
0.0
 44
210.0
 45
297.0
 46
0.0
 47
0.0
 48
0.0
 49
0.0
140
0.0
141
0.0
142
1.0
143
1.0
 70
1024
 72
1
 73
0
 74
0
  7

 75
0
147
1.0
148
0.0
149
0.0
100
AcDbLayout
  1
Model
 70
0
 71
0
 10
0.0
 20
0.0
 11
210.0
 21
297.0
 12
0.0
 22
0.0
 32
0.0
 14
0.0
 24
0.0
 34
0.0
 15
0.0
 25
0.0
 35
0.0
146
0.0
 13
0.0
 23
0.0
 33
0.0
 16
1.0
 26
0.0
 36
0.0
 17
0.0
 27
1.0
 37
0.0
 76
0
330
210
345
0
346
0
  0
LAYOUT
  5
2CE
102
{ACAD_REACTORS
330
1A
102
}
100
AcDbPlotSettings
  1

  2
none_device
  4

  6

 40
0.0
 41
0.0
 42
0.0
 43
0.0
 44
210.0
 45
297.0
 46
0.0
 47
0.0
 48
0.0
 49
0.0
140
0.0
141
0.0
142
1.0
143
1.0
 70
0
 72
1
 73
0
 74
0
  7

 75
0
147
1.0
148
0.0
149
0.0
100
AcDbLayout
  1
Layout1
 70
0
 71
1
 10
0.0
 20
0.0
 11
210.0
 21
297.0
 12
0.0
 22
0.0
 32
0.0
 14
0.0
 24
0.0
 34
0.0
 15
0.0
 25
0.0
 35
0.0
146
0.0
 13
0.0
 23
0.0
 33
0.0
 16
1.0
 26
0.0
 36
0.0
 17
0.0
 27
1.0
 37
0.0
 76
0
330
211
345
0
346
0
  0
ENDSEC
  0
EOF
