999
DXF file: C:\Users\sesa63760\Dev\_Creo\CAD\MCADPD0005316_3D-CAD\drw0001_2.dxf
999
Pro/ENGINEER 2019471 by Parametric Technology Corporation
  0
SECTION
  2
HEADER
  9
$ACADVER
  1
AC1024
  9
$DWGCODEPAGE
  3
ANSI_1252
  9
$EXTMAX
 10
366.2398864396
 20
517.9678393932
 30
0.0
  9
$EXTMIN
 10
0.0
 20
0.0
 30
0.0
  9
$LIMMIN
 10
0.0
 20
0.0
  9
$LIMMAX
 10
366.2398864396
 20
517.9678393932
  9
$VIEWCTR
 10
183.1199432198
 20
258.9839196966
  9
$VIEWSIZE
 40
517.9678393932
  9
$CLAYER
  8
0
  9
$LTSCALE
 40
33.7638295308
  9
$CELTYPE
  6
BYLAYER
  9
$DIMSCALE
 40
1.0
  9
$DIMASZ
 40
4.3599986481
  9
$DIMEXO
 40
1.0
  9
$DIMDLI
 40
23.3277367667
  9
$DIMEXE
 40
1.0
  9
$DIMCEN
 40
5.5249902869
  9
$DIMLFAC
 40
1.0
  9
$DIMBLK
  1
_FILLED
  9
$DIMALT
 70
0
  9
$DIMALTF
 40
0.0393700787
  9
$DIMTXT
 40
6.1039981073
  9
$DIMTOL
 70
1
  9
$DIMLIM
 70
0
  9
$DIMTFAC
 40
1.0
  9
$DIMTP
 40
0.01
  9
$DIMTM
 40
0.01
  9
$DIMGAP
 40
0.625
  9
$DIMDSEP
 70
46
  9
$AUNITS
 70
0
  9
$PDMODE
 70
3
  9
$PDSIZE
 40
0.3125
  9
$HANDSEED
  5
286
  9
$TILEMODE
 70
1
  9
$MEASUREMENT
 70
1
  9
$INSUNITS
 70
4
  0
ENDSEC
  0
SECTION
  2
CLASSES
  0
CLASS
  1
ACDBDICTIONARYWDFLT
  2
AcDbDictionaryWithDefault
  3
AutoCAD 2000
 90
0
 91
1
280
0
281
0
  0
CLASS
  1
ACDBPLACEHOLDER
  2
AcDbPlaceHolder
  3
AutoCAD 2000
 90
0
 91
1
280
0
281
0
  0
CLASS
  1
LAYOUT
  2
AcDbLayout
  3
AutoCAD 2000
 90
0
 91
0
280
0
281
0
  0
ENDSEC
  0
SECTION
  2
TABLES
  0
TABLE
  2
VPORT
  5
8
100
AcDbSymbolTable
 70
2
  0
VPORT
  5
1F4
100
AcDbSymbolTableRecord
100
AcDbViewportTableRecord
  2
*ACTIVE
 70
0
 10
0.0
 20
0.0
 11
1.0
 21
1.0
 12
183.1199432198
 22
258.9839196966
 13
0.0
 23
0.0
 14
1.0
 24
1.0
 15
0.0
 25
0.0
 16
0.0
 26
0.0
 36
1.0
 17
0.0
 27
0.0
 37
0.0
 40
517.9678393932
 41
0.7070707071
 42
50.0
 43
0.0
 44
0.0
 50
0.0
 51
0.0
 71
0
 72
100
 73
1
 74
1
 75
0
 76
0
 77
0
 78
0
  0
ENDTAB
  0
TABLE
  2
LTYPE
  5
5
100
AcDbSymbolTable
 70
6
  0
LTYPE
  5
14
100
AcDbSymbolTableRecord
100
AcDbLinetypeTableRecord
  2
BYBLOCK
 70
0
  3

 72
65
 73
0
 40
0.0
  0
LTYPE
  5
15
100
AcDbSymbolTableRecord
100
AcDbLinetypeTableRecord
  2
BYLAYER
 70
0
  3

 72
65
 73
0
 40
0.0
  0
LTYPE
  5
16
100
AcDbSymbolTableRecord
100
AcDbLinetypeTableRecord
  2
CONTINUOUS
 70
64
  3
Solid line
 72
65
 73
0
 40
0.0
  0
LTYPE
  5
1F5
100
AcDbSymbolTableRecord
100
AcDbLinetypeTableRecord
  2
CENTER
 70
64
  3
____ _ ____ _ ____ _ ____ _ ____ _ ____ _ ____
 72
65
 73
4
 40
0.6
 49
0.375
 74
0
 49
-0.075
 74
0
 49
0.075
 74
0
 49
-0.075
 74
0
  0
LTYPE
  5
1F6
100
AcDbSymbolTableRecord
100
AcDbLinetypeTableRecord
  2
HIDDEN
 70
64
  3
- - - - - - - - - - - - - - - - - - - -
 72
65
 73
2
 40
0.2
 49
0.1
 74
0
 49
-0.1
 74
0
  0
LTYPE
  5
1F7
100
AcDbSymbolTableRecord
100
AcDbLinetypeTableRecord
  2
PHANTOM
 70
64
  3
_____ _ _ _____ _ _ _____ _ _ _____
 72
65
 73
6
 40
0.8
 49
0.45
 74
0
 49
-0.05
 74
0
 49
0.1
 74
0
 49
-0.05
 74
0
 49
0.1
 74
0
 49
-0.05
 74
0
  0
LTYPE
  5
1F8
100
AcDbSymbolTableRecord
100
AcDbLinetypeTableRecord
  2
DOT
 70
64
  3
. . . . . . . . . . . . . . . . . . . .
 72
65
 73
2
 40
0.2
 49
0.1
 74
0
 49
-0.1
 74
0
  0
LTYPE
  5
1F9
100
AcDbSymbolTableRecord
100
AcDbLinetypeTableRecord
  2
DASHED
 70
64
  3
- - - - - - - - - - - - - - - - - - - -
 72
65
 73
2
 40
0.2
 49
0.1
 74
0
 49
-0.1
 74
0
  0
ENDTAB
  0
TABLE
  2
LAYER
  5
2
100
AcDbSymbolTable
 70
36
  0
LAYER
  5
10
100
AcDbSymbolTableRecord
100
AcDbLayerTableRecord
  2
0
 70
0
 62
7
  6
CONTINUOUS
370
-3
390
F
  0
LAYER
  5
1FA
100
AcDbSymbolTableRecord
100
AcDbLayerTableRecord
  2
DEFAULT_1
 70
0
 62
7
  6
CENTER
370
-3
390
F
  0
LAYER
  5
1FB
100
AcDbSymbolTableRecord
100
AcDbLayerTableRecord
  2
DEFAULT_2
 70
0
 62
7
  6
HIDDEN
370
-3
390
F
  0
LAYER
  5
1FC
100
AcDbSymbolTableRecord
100
AcDbLayerTableRecord
  2
DEFAULT_3
 70
0
 62
7
  6
PHANTOM
370
-3
390
F
  0
LAYER
  5
1FD
100
AcDbSymbolTableRecord
100
AcDbLayerTableRecord
  2
00_COMPONENTS
 70
0
 62
7
  6
CONTINUOUS
370
-3
390
F
  0
LAYER
  5
1FE
100
AcDbSymbolTableRecord
100
AcDbLayerTableRecord
  2
01_1_DEFAULT_DATUMS
 70
0
 62
7
  6
CONTINUOUS
370
-3
390
F
  0
LAYER
  5
1FF
100
AcDbSymbolTableRecord
100
AcDbLayerTableRecord
  2
01_PLANES
 70
0
 62
7
  6
CONTINUOUS
370
-3
390
F
  0
LAYER
  5
200
100
AcDbSymbolTableRecord
100
AcDbLayerTableRecord
  2
02_COORD_SYS
 70
0
 62
7
  6
CONTINUOUS
370
-3
390
F
  0
LAYER
  5
201
100
AcDbSymbolTableRecord
100
AcDbLayerTableRecord
  2
03_AXES
 70
0
 62
7
  6
CONTINUOUS
370
-3
390
F
  0
LAYER
  5
202
100
AcDbSymbolTableRecord
100
AcDbLayerTableRecord
  2
04_POINTS
 70
0
 62
7
  6
CONTINUOUS
370
-3
390
F
  0
LAYER
  5
203
100
AcDbSymbolTableRecord
100
AcDbLayerTableRecord
  2
05_CURVES
 70
0
 62
7
  6
CONTINUOUS
370
-3
390
F
  0
LAYER
  5
204
100
AcDbSymbolTableRecord
100
AcDbLayerTableRecord
  2
06_SURFS
 70
0
 62
7
  6
CONTINUOUS
370
-3
390
F
  0
LAYER
  5
205
100
AcDbSymbolTableRecord
100
AcDbLayerTableRecord
  2
07_COSMETICS
 70
0
 62
7
  6
CONTINUOUS
370
-3
390
F
  0
LAYER
  5
206
100
AcDbSymbolTableRecord
100
AcDbLayerTableRecord
  2
10_NOTES
 70
0
 62
7
  6
CONTINUOUS
370
-3
390
F
  0
LAYER
  5
207
100
AcDbSymbolTableRecord
100
AcDbLayerTableRecord
  2
11_NOTES_PUB
 70
0
 62
7
  6
CONTINUOUS
370
-3
390
F
  0
LAYER
  5
208
100
AcDbSymbolTableRecord
100
AcDbLayerTableRecord
  2
13_REF_GTOL
 70
0
 62
7
  6
CONTINUOUS
370
-3
390
F
  0
LAYER
  5
209
100
AcDbSymbolTableRecord
100
AcDbLayerTableRecord
  2
16_MISC
 70
0
 62
7
  6
CONTINUOUS
370
-3
390
F
  0
LAYER
  5
20A
100
AcDbSymbolTableRecord
100
AcDbLayerTableRecord
  2
17_NO_PRINT
 70
0
 62
7
  6
CONTINUOUS
370
-3
390
F
  0
LAYER
  5
20B
100
AcDbSymbolTableRecord
100
AcDbLayerTableRecord
  2
18_DATUM_CAMS_JOINTS
 70
0
 62
7
  6
CONTINUOUS
370
-3
390
F
  0
LAYER
  5
20C
100
AcDbSymbolTableRecord
100
AcDbLayerTableRecord
  2
19_DATUM_FUNCTIONAL
 70
0
 62
7
  6
CONTINUOUS
370
-3
390
F
  0
LAYER
  5
20D
100
AcDbSymbolTableRecord
100
AcDbLayerTableRecord
  2
20_DATUM_KINEMATIC_SCHEME
 70
0
 62
7
  6
CONTINUOUS
370
-3
390
F
  0
ENDTAB
  0
TABLE
  2
STYLE
  5
3
100
AcDbSymbolTable
 70
1
  0
STYLE
  5
11
100
AcDbSymbolTableRecord
100
AcDbTextStyleTableRecord
  2
STANDARD
 70
0
 40
0.0
 41
1.0
 50
0.0
 71
0
 42
0.2
  3
ARIAL.TTF
  4

  0
STYLE
  5
20E
100
AcDbSymbolTableRecord
100
AcDbTextStyleTableRecord
  2
TEXTSTYLE_1
 70
0
 40
0.0
 41
0.8
 50
0.0
 71
0
 42
0.2
  3
gdt
  4

  0
ENDTAB
  0
TABLE
  2
VIEW
  5
6
100
AcDbSymbolTable
 70
0
  0
ENDTAB
  0
TABLE
  2
UCS
  5
7
100
AcDbSymbolTable
 70
0
  0
ENDTAB
  0
TABLE
  2
APPID
  5
9
100
AcDbSymbolTable
 70
1
  0
APPID
  5
20F
100
AcDbSymbolTableRecord
100
AcDbRegAppTableRecord
  2
ACAD
 70
0
  0
ENDTAB
  0
TABLE
  2
BLOCK_RECORD
  5
1
100
AcDbSymbolTable
 70
0
  0
BLOCK_RECORD
  5
210
100
AcDbSymbolTableRecord
100
AcDbBlockTableRecord
  2
*Model_Space
  0
BLOCK_RECORD
  5
211
100
AcDbSymbolTableRecord
100
AcDbBlockTableRecord
  2
*Paper_Space
  0
BLOCK_RECORD
  5
212
100
AcDbSymbolTableRecord
100
AcDbBlockTableRecord
  2
_FILLED
  0
ENDTAB
  0
TABLE
  2
DIMSTYLE
  5
A
100
AcDbSymbolTable
 70
1
100
AcDbDimStyleTable
 71
0
  0
DIMSTYLE
105
213
100
AcDbSymbolTableRecord
100
AcDbDimStyleTableRecord
  2
STANDARD
 70
0
  3

  4

 40
1.0
 41
4.3599986481
 42
1.0
 43
0.38
 44
1.0
 45
0.0
 46
0.0
 47
0.01
 48
0.01
140
6.1039981073
141
0.09
142
0.0
143
25.4
144
1.0
145
0.0
146
1.0
147
0.625
 71
1
 72
0
 73
0
 74
0
 75
0
 76
0
 77
1
 78
8
 79
2
170
0
171
1
172
0
173
0
174
0
175
0
176
0
177
0
178
0
270
2
179
2
271
2
272
2
273
2
274
2
275
0
280
0
281
0
282
0
283
1
284
8
285
0
286
0
287
3
288
0
340
11
278
46
341
212
342
212
343
212
344
212
  0
ENDTAB
  0
ENDSEC
  0
SECTION
  2
BLOCKS
  0
BLOCK
  5
20
100
AcDbEntity
  8
0
100
AcDbBlockBegin
  2
*Model_Space
 70
0
 10
0.0
 20
0.0
 30
0.0
  3
*Model_Space
  1

  0
ENDBLK
  5
21
100
AcDbEntity
  8
0
100
AcDbBlockEnd
  0
BLOCK
  5
1C
100
AcDbEntity
  8
0
100
AcDbBlockBegin
  2
*Paper_Space
 70
0
 10
0.0
 20
0.0
 30
0.0
  3
*Paper_Space
  1

  0
ENDBLK
  5
1D
100
AcDbEntity
  8
0
100
AcDbBlockEnd
  0
BLOCK
  5
214
100
AcDbEntity
  8
0
100
AcDbBlockBegin
  2
_FILLED
 70
64
 10
0.0
 20
0.0
  3
_FILLED
  1

  0
SOLID
  5
215
100
AcDbEntity
  8
0
  6
BYBLOCK
 62
0
100
AcDbTrace
 10
0.0
 20
0.0
 11
-1.0
 21
0.25
 12
-1.0
 22
-0.25
 13
-1.0
 23
-0.25
  0
ENDBLK
  5
216
100
AcDbEntity
  8
0
  6
BYBLOCK
 62
0
100
AcDbBlockEnd
  0
ENDSEC
  0
SECTION
  2
ENTITIES
  0
LINE
  5
217
100
AcDbEntity
  8
0
100
AcDbLine
 62
7
  6
BYLAYER
 10
40.1558933739
 20
268.1829179555
 11
40.1558933739
 21
285.0982792138
  0
LINE
  5
218
100
AcDbEntity
  8
0
100
AcDbLine
 62
7
  6
BYLAYER
 10
43.0558933739
 20
163.3829179555
 11
43.0558933739
 21
268.1829179555
  0
LINE
  5
219
100
AcDbEntity
  8
0
100
AcDbLine
 62
7
  6
BYLAYER
 10
45.6558933739
 20
288.5829179555
 11
45.6558933739
 21
288.6531738693
  0
LINE
  5
21A
100
AcDbEntity
  8
0
100
AcDbLine
 62
7
  6
BYLAYER
 10
53.1558933739
 20
268.1829179555
 11
53.1558933739
 21
163.3829179555
  0
LINE
  5
21B
100
AcDbEntity
  8
0
100
AcDbLine
 62
7
  6
BYLAYER
 10
58.9481348786
 20
289.4515051505
 11
58.9481348786
 21
289.3396024082
  0
LINE
  5
21C
100
AcDbEntity
  8
0
100
AcDbLine
 62
7
  6
BYLAYER
 10
59.6552416598
 20
289.5827804086
 11
59.6552416598
 21
289.6820733978
  0
LINE
  5
21D
100
AcDbEntity
  8
0
100
AcDbLine
 62
7
  6
BYLAYER
 10
52.6758933738
 20
268.1829179555
 11
52.6792005019
 21
285.0982074676
  0
LINE
  5
21E
100
AcDbEntity
  8
0
100
AcDbLine
 62
7
  6
BYLAYER
 10
61.6558933739
 20
290.4742236341
 11
61.6558933739
 21
290.5829179555
  0
LINE
  5
21F
100
AcDbEntity
  8
0
100
AcDbLine
 62
7
  6
BYLAYER
 10
43.0558933739
 20
163.3829179555
 11
328.2558933739
 21
163.3829179555
  0
LINE
  5
220
100
AcDbEntity
  8
0
100
AcDbLine
 62
7
  6
BYLAYER
 10
140.6558933739
 20
290.5829179555
 11
140.6558933739
 21
297.1829179555
  0
LINE
  5
221
100
AcDbEntity
  8
0
100
AcDbLine
 62
7
  6
BYLAYER
 10
144.1558933739
 20
290.5829179555
 11
144.1558933739
 21
298.1829179555
  0
LINE
  5
222
100
AcDbEntity
  8
0
100
AcDbLine
 62
7
  6
BYLAYER
 10
163.6558933739
 20
312.6829179555
 11
163.6558933739
 21
298.1829179555
  0
LINE
  5
223
100
AcDbEntity
  8
0
100
AcDbLine
 62
7
  6
BYLAYER
 10
176.6883226512
 20
351.2483470458
 11
175.4258933748
 21
322.3339628769
  0
LINE
  5
224
100
AcDbEntity
  8
0
100
AcDbLine
 62
7
  6
BYLAYER
 10
176.6007976889
 20
322.2467241861
 11
177.9905046718
 21
351.1829179555
  0
LINE
  5
225
100
AcDbEntity
  8
0
100
AcDbLine
 62
7
  6
BYLAYER
 10
193.3212640038
 20
351.1829179555
 11
194.7109788871
 21
322.246723597
  0
LINE
  5
226
100
AcDbEntity
  8
0
100
AcDbLine
 62
7
  6
BYLAYER
 10
195.8858933739
 20
322.3339628567
 11
194.6234640958
 21
351.2483470622
  0
LINE
  5
227
100
AcDbEntity
  8
0
100
AcDbLine
 62
7
  6
BYLAYER
 10
40.1558933739
 20
268.1829179555
 11
331.1558933739
 21
268.1829179555
  0
LINE
  5
228
100
AcDbEntity
  8
0
100
AcDbLine
 62
7
  6
BYLAYER
 10
207.6558933739
 20
312.6829179555
 11
207.6558933739
 21
298.1829179555
  0
LINE
  5
229
100
AcDbEntity
  8
0
100
AcDbLine
 62
7
  6
BYLAYER
 10
52.6792005019
 20
285.0982074676
 11
318.6326476723
 21
285.0980600971
  0
LINE
  5
22A
100
AcDbEntity
  8
0
100
AcDbLine
 62
7
  6
BYLAYER
 10
45.5055869703
 20
288.5829179555
 11
54.9195471027
 21
288.5829179555
  0
LINE
  5
22B
100
AcDbEntity
  8
0
100
AcDbLine
 62
7
  6
BYLAYER
 10
316.3922396451
 20
288.5829179555
 11
325.882888411
 21
288.5829179555
  0
LINE
  5
22C
100
AcDbEntity
  8
0
100
AcDbLine
 62
7
  6
BYLAYER
 10
52.9213260453
 20
290.5829179555
 11
61.6408671604
 21
290.5829179555
  0
LINE
  5
22D
100
AcDbEntity
  8
0
100
AcDbLine
 62
7
  6
BYLAYER
 10
61.8731259275
 20
290.5829179555
 11
309.4386608203
 21
290.5829179555
  0
LINE
  5
22E
100
AcDbEntity
  8
0
100
AcDbLine
 62
7
  6
BYLAYER
 10
309.6896890808
 20
290.5829179555
 11
318.3904607025
 21
290.5829179555
  0
LINE
  5
22F
100
AcDbEntity
  8
0
100
AcDbLine
 62
7
  6
BYLAYER
 10
227.1558933739
 20
290.5829179555
 11
227.1558933739
 21
298.1829179555
  0
LINE
  5
230
100
AcDbEntity
  8
0
100
AcDbLine
 62
7
  6
BYLAYER
 10
230.6558933739
 20
290.5829179555
 11
230.6558933739
 21
297.1829179555
  0
LINE
  5
231
100
AcDbEntity
  8
0
100
AcDbLine
 62
7
  6
BYLAYER
 10
230.6558933739
 20
297.1829179555
 11
140.6558933739
 21
297.1829179555
  0
LINE
  5
232
100
AcDbEntity
  8
0
100
AcDbLine
 62
7
  6
BYLAYER
 10
141.6558933739
 20
298.1829179555
 11
229.6558933739
 21
298.1829179555
  0
LINE
  5
233
100
AcDbEntity
  8
0
100
AcDbLine
 62
7
  6
BYLAYER
 10
207.6558933739
 20
312.6829179555
 11
205.7005177242
 21
312.6829179555
  0
LINE
  5
234
100
AcDbEntity
  8
0
100
AcDbLine
 62
7
  6
BYLAYER
 10
165.6112690266
 20
312.6829179555
 11
163.6558933739
 21
312.6829179555
  0
LINE
  5
235
100
AcDbEntity
  8
0
100
AcDbLine
 62
7
  6
BYLAYER
 10
205.6556050923
 20
314.6829179555
 11
203.8782791429
 21
314.6829179555
  0
LINE
  5
236
100
AcDbEntity
  8
0
100
AcDbLine
 62
7
  6
BYLAYER
 10
167.4335076043
 20
314.6829179555
 11
165.6559305724
 21
314.6829179555
  0
LINE
  5
237
100
AcDbEntity
  8
0
100
AcDbLine
 62
7
  6
BYLAYER
 10
193.3212640038
 20
351.1829179555
 11
177.9905046718
 21
351.1829179555
  0
LINE
  5
238
100
AcDbEntity
  8
0
100
AcDbLine
 62
7
  6
BYLAYER
 10
193.1248917646
 20
352.6829179555
 11
178.1868949832
 21
352.6829179555
  0
LINE
  5
239
100
AcDbEntity
  8
0
100
AcDbLine
 62
7
  6
BYLAYER
 10
309.6558933739
 20
290.4736508176
 11
309.6558933739
 21
290.5829179555
  0
LINE
  5
23A
100
AcDbEntity
  8
0
100
AcDbLine
 62
7
  6
BYLAYER
 10
318.6358933739
 20
268.1829179555
 11
318.6326476723
 21
285.0980600971
  0
LINE
  5
23B
100
AcDbEntity
  8
0
100
AcDbLine
 62
7
  6
BYLAYER
 10
318.1558933739
 20
163.3829179555
 11
318.1558933739
 21
268.1829179555
  0
LINE
  5
23C
100
AcDbEntity
  8
0
100
AcDbLine
 62
7
  6
BYLAYER
 10
322.9481348786
 20
289.4515051505
 11
322.9481348786
 21
288.5829179555
  0
LINE
  5
23D
100
AcDbEntity
  8
0
100
AcDbLine
 62
7
  6
BYLAYER
 10
323.6552416598
 20
288.5829179555
 11
323.6552416598
 21
289.4515051505
  0
LINE
  5
23E
100
AcDbEntity
  8
0
100
AcDbLine
 62
7
  6
BYLAYER
 10
325.6558933739
 20
288.5829179555
 11
325.6558933739
 21
288.6531738693
  0
LINE
  5
23F
100
AcDbEntity
  8
0
100
AcDbLine
 62
7
  6
BYLAYER
 10
328.2558933739
 20
268.1829179555
 11
328.2558933739
 21
163.3829179555
  0
LINE
  5
240
100
AcDbEntity
  8
0
100
AcDbLine
 62
7
  6
BYLAYER
 10
331.1558933739
 20
268.1829179555
 11
331.1558933739
 21
285.0982475056
  0
ARC
  5
241
100
AcDbEntity
  8
0
100
AcDbCircle
 62
7
  6
BYLAYER
 10
51.6231698194
 20
268.1523809717
 40
22.5247900682
100
AcDbArc
 50
81.1872486898
 51
84.7566772051
  0
ARC
  5
242
100
AcDbEntity
  8
0
100
AcDbCircle
 62
7
  6
BYLAYER
 10
54.9780338922
 20
268.1975225213
 40
22.4796791773
100
AcDbArc
 50
114.7943402566
 51
131.2513691067
  0
ARC
  5
243
100
AcDbEntity
  8
0
100
AcDbCircle
 62
7
  6
BYLAYER
 10
54.9780338922
 20
268.1975225213
 40
22.4796791773
100
AcDbArc
 50
95.2494389926
 51
114.5000170612
  0
ARC
  5
244
100
AcDbEntity
  8
0
100
AcDbCircle
 62
7
  6
BYLAYER
 10
51.6279291009
 20
268.2026901571
 40
22.4743754363
100
AcDbArc
 50
70.9911968338
 51
80.1288901652
  0
ARC
  5
245
100
AcDbEntity
  8
0
100
AcDbCircle
 62
7
  6
BYLAYER
 10
51.6372659228
 20
268.2495147966
 40
22.426643391
100
AcDbArc
 50
80.1318827153
 51
81.1848170925
  0
ARC
  5
246
100
AcDbEntity
  8
0
100
AcDbCircle
 62
7
  6
BYLAYER
 10
53.4115603474
 20
307.6230203443
 40
19.1076044735
100
AcDbArc
 50
286.526606953
 51
286.8808682264
  0
ARC
  5
247
100
AcDbEntity
  8
0
100
AcDbCircle
 62
7
  6
BYLAYER
 10
53.4224350906
 20
307.5871041834
 40
19.0700780813
100
AcDbArc
 50
286.8809381533
 51
287.0008780079
  0
ARC
  5
248
100
AcDbEntity
  8
0
100
AcDbCircle
 62
7
  6
BYLAYER
 10
53.6496416828
 20
306.3801650693
 40
17.7269557633
100
AcDbArc
 50
269.5531400463
 51
274.1718585073
  0
ARC
  5
249
100
AcDbEntity
  8
0
100
AcDbCircle
 62
7
  6
BYLAYER
 10
53.6598879457
 20
306.2889364889
 40
17.6352238738
100
AcDbArc
 50
274.1602195532
 51
275.4216491795
  0
ARC
  5
24A
100
AcDbEntity
  8
0
100
AcDbCircle
 62
7
  6
BYLAYER
 10
47.3029550897
 20
279.3370702404
 40
9.0044375392
100
AcDbArc
 50
99.9882581102
 51
101.0667388153
  0
ARC
  5
24B
100
AcDbEntity
  8
0
100
AcDbCircle
 62
7
  6
BYLAYER
 10
141.6558933739
 20
297.1829179555
 40
1.0
100
AcDbArc
 50
90.0
 51
180.0
  0
ARC
  5
24C
100
AcDbEntity
  8
0
100
AcDbCircle
 62
7
  6
BYLAYER
 10
61.2313410907
 20
291.3001066369
 40
0.9640215784
100
AcDbArc
 50
306.347125359
 51
307.2316462099
  0
ARC
  5
24D
100
AcDbEntity
  8
0
100
AcDbCircle
 62
7
  6
BYLAYER
 10
167.5787536009
 20
322.6807617406
 40
9.032478515
100
AcDbArc
 50
356.5416856838
 51
357.2457060879
  0
ARC
  5
24E
100
AcDbEntity
  8
0
100
AcDbCircle
 62
7
  6
BYLAYER
 10
167.4335076012
 20
322.6829179555
 40
8.0
100
AcDbArc
 50
270.000000032
 51
357.5000001672
  0
ARC
  5
24F
100
AcDbEntity
  8
0
100
AcDbCircle
 62
7
  6
BYLAYER
 10
165.6558933739
 20
312.6829179555
 40
2.0
100
AcDbArc
 50
90.0
 51
180.0
  0
ARC
  5
250
100
AcDbEntity
  8
0
100
AcDbCircle
 62
7
  6
BYLAYER
 10
178.1868949832
 20
351.1829179555
 40
1.5
100
AcDbArc
 50
90.0
 51
177.4999998237
  0
ARC
  5
251
100
AcDbEntity
  8
0
100
AcDbCircle
 62
7
  6
BYLAYER
 10
315.6226064488
 20
268.1547047293
 40
22.5226128997
100
AcDbArc
 50
82.9693520494
 51
84.7523447494
  0
ARC
  5
252
100
AcDbEntity
  8
0
100
AcDbCircle
 62
7
  6
BYLAYER
 10
316.3337528556
 20
268.1975225213
 40
22.4796791773
100
AcDbArc
 50
48.7486302152
 51
65.2033584911
  0
ARC
  5
253
100
AcDbEntity
  8
0
100
AcDbCircle
 62
7
  6
BYLAYER
 10
316.3337528556
 20
268.1975225213
 40
22.4796791773
100
AcDbArc
 50
65.4993077608
 51
84.7505610074
  0
ARC
  5
254
100
AcDbEntity
  8
0
100
AcDbCircle
 62
7
  6
BYLAYER
 10
315.6294668009
 20
268.208518083
 40
22.4683644706
100
AcDbArc
 50
70.9900636191
 51
82.9699181642
  0
ARC
  5
255
100
AcDbEntity
  8
0
100
AcDbCircle
 62
7
  6
BYLAYER
 10
317.6516010607
 20
306.1806400132
 40
17.5272378949
100
AcDbArc
 50
265.7419741722
 51
270.5280369613
  0
ARC
  5
256
100
AcDbEntity
  8
0
100
AcDbCircle
 62
7
  6
BYLAYER
 10
324.0130687773
 20
279.3617805624
 40
8.9793866737
100
AcDbArc
 50
78.4426238544
 51
80.0086123305
  0
ARC
  5
257
100
AcDbEntity
  8
0
100
AcDbCircle
 62
7
  6
BYLAYER
 10
229.6558933739
 20
297.1829179555
 40
1.0
100
AcDbArc
 50
0.0
 51
90.0
  0
ARC
  5
258
100
AcDbEntity
  8
0
100
AcDbCircle
 62
7
  6
BYLAYER
 10
310.0859381285
 20
291.3069595249
 40
0.9728184197
100
AcDbArc
 50
232.8047174006
 51
233.691681335
  0
ARC
  5
259
100
AcDbEntity
  8
0
100
AcDbCircle
 62
7
  6
BYLAYER
 10
203.7681637544
 20
322.681747469
 40
9.0676261221
100
AcDbArc
 50
182.7498490651
 51
183.4580308775
  0
ARC
  5
25A
100
AcDbEntity
  8
0
100
AcDbCircle
 62
7
  6
BYLAYER
 10
203.8782791465
 20
322.6829179555
 40
8.0
100
AcDbArc
 50
182.5000000206
 51
269.9999999797
  0
ARC
  5
25B
100
AcDbEntity
  8
0
100
AcDbCircle
 62
7
  6
BYLAYER
 10
205.6558933739
 20
312.6829179555
 40
2.0
100
AcDbArc
 50
0.0
 51
90.0
  0
ARC
  5
25C
100
AcDbEntity
  8
0
100
AcDbCircle
 62
7
  6
BYLAYER
 10
193.1248949507
 20
351.1829234989
 40
1.5000021475
100
AcDbArc
 50
2.4997942596
 51
90.0001217016
  0
SPLINE
  5
25D
100
AcDbEntity
  8
0
100
AcDbSpline
 62
7
  6
BYLAYER
 70
0
 71
3
 72
9
 73
5
 74
0
 42
0.0000001
 43
0.0000001
 44
0.0000000001
 40
0.0
 40
0.0
 40
0.0
 40
0.0
 40
0.2686880435
 40
1.0
 40
1.0
 40
1.0
 40
1.0
 10
54.9195471028
 20
288.5829179555
 30
0.0
 10
55.2766750481
 20
288.6086458122
 30
0.0
 10
56.602705328
 20
288.7454005162
 30
0.0
 10
57.9126357352
 20
289.0275730394
 30
0.0
 10
58.8469204025
 20
289.3047941805
 30
0.0
  0
SPLINE
  5
25E
100
AcDbEntity
  8
0
100
AcDbSpline
 62
7
  6
BYLAYER
 70
0
 71
3
 72
11
 73
7
 74
0
 42
0.0000001
 43
0.0000001
 44
0.0000000001
 40
0.0
 40
0.0
 40
0.0
 40
0.0
 40
0.3521277196
 40
0.643000382
 40
0.8621601765
 40
1.0
 40
1.0
 40
1.0
 40
1.0
 10
58.998265791
 20
289.3503832602
 30
0.0
 10
59.3403415615
 20
289.4549721221
 30
0.0
 10
59.9595612815
 20
289.6637667835
 30
0.0
 10
60.7743486898
 20
289.9873245586
 30
0.0
 10
61.3697459535
 20
290.2664528704
 30
0.0
 10
61.6899274437
 20
290.4406346148
 30
0.0
 10
61.8026933977
 20
290.5236440525
 30
0.0
  0
SPLINE
  5
25F
100
AcDbEntity
  8
0
100
AcDbSpline
 62
7
  6
BYLAYER
 70
0
 71
3
 72
9
 73
5
 74
0
 42
0.0000001
 43
0.0000001
 44
0.0000000001
 40
0.0
 40
0.0
 40
0.0
 40
0.0
 40
0.2854085788
 40
1.0
 40
1.0
 40
1.0
 40
1.0
 10
61.814611714
 20
290.5325566491
 30
0.0
 10
61.8204613237
 20
290.537003587
 30
0.0
 10
61.8407482167
 20
290.5528419938
 30
0.0
 10
61.8602963357
 20
290.5697319078
 30
0.0
 10
61.8731259275
 20
290.5829179555
 30
0.0
  0
SPLINE
  5
260
100
AcDbEntity
  8
0
100
AcDbSpline
 62
7
  6
BYLAYER
 70
0
 71
3
 72
9
 73
5
 74
0
 42
0.0000001
 43
0.0000001
 44
0.0000000001
 40
0.0
 40
0.0
 40
0.0
 40
0.0
 40
0.2146867084
 40
1.0
 40
1.0
 40
1.0
 40
1.0
 10
309.4386608203
 20
290.5829179555
 30
0.0
 10
309.4425577502
 20
290.5789127537
 30
0.0
 10
309.4612491884
 20
290.56078174
 30
0.0
 10
309.4815560294
 20
290.5443926581
 30
0.0
 10
309.497836774
 20
290.5320321254
 30
0.0
  0
SPLINE
  5
261
100
AcDbEntity
  8
0
100
AcDbSpline
 62
7
  6
BYLAYER
 70
0
 71
3
 72
13
 73
9
 74
0
 42
0.0000001
 43
0.0000001
 44
0.0000000001
 40
0.0
 40
0.0
 40
0.0
 40
0.0
 40
0.0499954408
 40
0.1273620827
 40
0.2293385315
 40
0.3528172516
 40
0.6521121293
 40
1.0
 40
1.0
 40
1.0
 40
1.0
 10
309.5099029789
 20
290.5230212722
 30
0.0
 10
309.606617454
 20
290.4519284715
 30
0.0
 10
309.8744774159
 20
290.3017373547
 30
0.0
 10
310.3701291296
 20
290.0626874729
 30
0.0
 10
311.041999264
 20
289.7833705058
 30
0.0
 10
312.226804268
 20
289.3542086995
 30
0.0
 10
314.0154748054
 20
288.865351092
 30
0.0
 10
315.559163272
 20
288.6429503447
 30
0.0
 10
316.392239645
 20
288.5829349662
 30
0.0
  0
SPLINE
  5
262
100
AcDbEntity
  8
0
100
AcDbSpline
 62
7
  6
BYLAYER
 70
0
 71
3
 72
9
 73
5
 74
0
 42
0.0000001
 43
0.0000001
 44
0.0000000001
 40
0.0
 40
0.0
 40
0.0
 40
0.0
 40
0.3901981943
 40
1.0
 40
1.0
 40
1.0
 40
1.0
 10
61.622097667
 20
290.5829179555
 30
0.0
 10
61.5871509636
 20
290.5480975456
 30
0.0
 10
61.4820406412
 20
290.4757618065
 30
0.0
 10
61.3727049344
 20
290.4128817153
 30
0.0
 10
61.304853332
 20
290.376273325
 30
0.0
  0
SPLINE
  5
263
100
AcDbEntity
  8
0
100
AcDbSpline
 62
7
  6
BYLAYER
 70
0
 71
3
 72
9
 73
5
 74
0
 42
0.0000001
 43
0.0000001
 44
0.0000000001
 40
0.0
 40
0.0
 40
0.0
 40
0.0
 40
0.4140236524
 40
1.0
 40
1.0
 40
1.0
 40
1.0
 10
61.304853332
 20
290.376273325
 30
0.0
 10
61.0873346192
 20
290.2589141225
 30
0.0
 10
60.5432254664
 20
290.0109689329
 30
0.0
 10
59.9855147893
 20
289.797339248
 30
0.0
 10
59.6552416598
 20
289.6820733979
 30
0.0
  0
SPLINE
  5
264
100
AcDbEntity
  8
0
100
AcDbSpline
 62
7
  6
BYLAYER
 70
0
 71
3
 72
23
 73
19
 74
0
 42
0.0000001
 43
0.0000001
 44
0.0000000001
 40
0.0
 40
0.0
 40
0.0
 40
0.0
 40
0.0011934465
 40
0.0047978389
 40
0.0107993673
 40
0.0191843445
 40
0.0299389916
 40
0.0430376904
 40
0.0761024357
 40
0.1180438074
 40
0.1684697278
 40
0.2269026784
 40
0.2927984127
 40
0.3655059997
 40
0.4443370902
 40
0.6172020932
 40
0.8048727955
 40
1.0
 40
1.0
 40
1.0
 40
1.0
 10
40.1558939941
 20
285.0982792138
 30
0.0
 10
40.1532315041
 20
285.0940678416
 30
0.0
 10
40.1919221188
 20
285.1058040331
 30
0.0
 10
40.2188314482
 20
285.0979299866
 30
0.0
 10
40.3041639805
 20
285.1076173434
 30
0.0
 10
40.4044623274
 20
285.1098571169
 30
0.0
 10
40.5406965323
 20
285.1163544991
 30
0.0
 10
40.7773360347
 20
285.1243886385
 30
0.0
 10
41.1455492825
 20
285.135281404
 30
0.0
 10
41.668865939
 20
285.1460022494
 30
0.0
 10
42.2984591059
 20
285.1545084708
 30
0.0
 10
43.0279843858
 20
285.1598495001
 30
0.0
 10
43.8505850538
 20
285.1614874991
 30
0.0
 10
44.7583310536
 20
285.159404986
 30
0.0
 10
46.1126362602
 20
285.1513497808
 30
0.0
 10
47.946826704
 20
285.1332014934
 30
0.0
 10
50.266472534
 20
285.1078715165
 30
0.0
 10
51.8645802491
 20
285.0978479868
 30
0.0
 10
52.6792004578
 20
285.0981891001
 30
0.0
  0
SPLINE
  5
265
100
AcDbEntity
  8
0
100
AcDbSpline
 62
7
  6
BYLAYER
 70
0
 71
3
 72
9
 73
5
 74
0
 42
0.0000001
 43
0.0000001
 44
0.0000000001
 40
0.0
 40
0.0
 40
0.0
 40
0.0
 40
0.4738583003
 40
1.0
 40
1.0
 40
1.0
 40
1.0
 10
203.8782783097
 20
314.6829179555
 30
0.0
 10
204.1023044884
 20
314.682917956
 30
0.0
 10
204.5796619943
 20
314.5845885396
 30
0.0
 10
204.9765819284
 20
314.2997025158
 30
0.0
 10
205.1470032901
 20
314.118511325
 30
0.0
  0
SPLINE
  5
266
100
AcDbEntity
  8
0
100
AcDbSpline
 62
7
  6
BYLAYER
 70
0
 71
3
 72
9
 73
5
 74
0
 42
0.0000001
 43
0.0000001
 44
0.0000000001
 40
0.0
 40
0.0
 40
0.0
 40
0.0
 40
0.5137479485
 40
1.0
 40
1.0
 40
1.0
 40
1.0
 10
205.1470032901
 20
314.118511325
 30
0.0
 10
205.3307362191
 20
313.9231673384
 30
0.0
 10
205.6094814891
 20
313.4625754958
 30
0.0
 10
205.7005167747
 20
312.9367388179
 30
0.0
 10
205.7005167709
 20
312.6829179555
 30
0.0
  0
SPLINE
  5
267
100
AcDbEntity
  8
0
100
AcDbSpline
 62
7
  6
BYLAYER
 70
0
 71
3
 72
9
 73
5
 74
0
 42
0.0000001
 43
0.0000001
 44
0.0000000001
 40
0.0
 40
0.0
 40
0.0
 40
0.0
 40
0.2255150025
 40
1.0
 40
1.0
 40
1.0
 40
1.0
 10
58.9481348786
 20
289.4515051505
 30
0.0
 10
58.6823156035
 20
289.3707293762
 30
0.0
 10
57.495867391
 20
289.0388979607
 30
0.0
 10
56.2759915301
 20
288.8227857642
 30
0.0
 10
55.326142888
 20
288.7326067031
 30
0.0
  0
SPLINE
  5
268
100
AcDbEntity
  8
0
100
AcDbSpline
 62
7
  6
BYLAYER
 70
0
 71
3
 72
9
 73
5
 74
0
 42
0.0000001
 43
0.0000001
 44
0.0000000001
 40
0.0
 40
0.0
 40
0.0
 40
0.0
 40
0.2753602163
 40
1.0
 40
1.0
 40
1.0
 40
1.0
 10
53.5113874102
 20
288.6537484435
 30
0.0
 10
52.9973339439
 20
288.6578633482
 30
0.0
 10
51.1315640598
 20
288.7561685573
 30
0.0
 10
49.2850217773
 20
289.1464192182
 30
0.0
 10
47.9990391244
 20
289.5664159869
 30
0.0
  0
SPLINE
  5
269
100
AcDbEntity
  8
0
100
AcDbSpline
 62
7
  6
BYLAYER
 70
0
 71
3
 72
23
 73
19
 74
0
 42
0.0000001
 43
0.0000001
 44
0.0000000001
 40
0.0
 40
0.0
 40
0.0
 40
0.0
 40
0.0011904244
 40
0.004790556
 40
0.0107902729
 40
0.0191741428
 40
0.0299209135
 40
0.0430048796
 40
0.0760512493
 40
0.117996299
 40
0.1684381066
 40
0.2268925312
 40
0.2927962274
 40
0.3655139885
 40
0.4443455222
 40
0.6172584406
 40
0.8048796584
 40
1.0
 40
1.0
 40
1.0
 40
1.0
 10
331.155892757
 20
285.0982393223
 30
0.0
 10
331.1585749971
 20
285.0940555074
 30
0.0
 10
331.1198858379
 20
285.1058104228
 30
0.0
 10
331.0930645853
 20
285.0979622501
 30
0.0
 10
331.0077241576
 20
285.1076241006
 30
0.0
 10
330.9074863347
 20
285.1098185673
 30
0.0
 10
330.7713462113
 20
285.1163093313
 30
0.0
 10
330.5348828775
 20
285.1243858603
 30
0.0
 10
330.1667913524
 20
285.135250514
 30
0.0
 10
329.6434727325
 20
285.1459406551
 30
0.0
 10
329.0137118098
 20
285.1545206404
 30
0.0
 10
328.2840009247
 20
285.1598822892
 30
0.0
 10
327.4612388059
 20
285.1615984644
 30
0.0
 10
326.5534194972
 20
285.1594769252
 30
0.0
 10
325.1988757835
 20
285.1515098667
 30
0.0
 10
323.3646986487
 20
285.1333178812
 30
0.0
 10
321.0450997455
 20
285.107936614
 30
0.0
 10
319.4472355014
 20
285.0977377523
 30
0.0
 10
318.6326477153
 20
285.0980600971
 30
0.0
  0
SPLINE
  5
26A
100
AcDbEntity
  8
0
100
AcDbSpline
 62
7
  6
BYLAYER
 70
0
 71
3
 72
13
 73
9
 74
0
 42
0.0000001
 43
0.0000001
 44
0.0000000001
 40
0.0
 40
0.0
 40
0.0
 40
0.0
 40
0.1597474319
 40
0.3160041006
 40
0.4650592087
 40
0.6029725332
 40
0.8339321833
 40
1.0
 40
1.0
 40
1.0
 40
1.0
 10
194.7170475247
 20
322.1348119268
 30
0.0
 10
194.7681429378
 20
321.2892078979
 30
0.0
 10
195.1072026311
 20
319.6217724542
 30
0.0
 10
196.2389811151
 20
317.4007844073
 30
0.0
 10
197.7986329718
 20
315.6130238105
 30
0.0
 10
200.019539886
 20
313.9692824593
 30
0.0
 10
202.7095754
 20
312.9124627704
 30
0.0
 10
204.8198541616
 20
312.6829207683
 30
0.0
 10
205.7005177242
 20
312.6829179555
 30
0.0
  0
SPLINE
  5
26B
100
AcDbEntity
  8
0
100
AcDbSpline
 62
7
  6
BYLAYER
 70
0
 71
3
 72
9
 73
5
 74
0
 42
0.0000001
 43
0.0000001
 44
0.0000000001
 40
0.0
 40
0.0
 40
0.0
 40
0.0
 40
0.2438258708
 40
1.0
 40
1.0
 40
1.0
 40
1.0
 10
328.6509386915
 20
287.0023864931
 30
0.0
 10
328.4418148225
 20
287.1393626252
 30
0.0
 10
327.5574943477
 20
287.6598523852
 30
0.0
 10
326.5716467216
 20
288.0037407208
 30
0.0
 10
325.8120811166
 20
288.1591062718
 30
0.0
  0
SPLINE
  5
26C
100
AcDbEntity
  8
0
100
AcDbSpline
 62
7
  6
BYLAYER
 70
0
 71
3
 72
9
 73
5
 74
0
 42
0.0000001
 43
0.0000001
 44
0.0000000001
 40
0.0
 40
0.0
 40
0.0
 40
0.0
 40
0.2430110025
 40
1.0
 40
1.0
 40
1.0
 40
1.0
 10
325.5709936742
 20
288.204984453
 30
0.0
 10
325.3735048677
 20
288.239785944
 30
0.0
 10
324.556197092
 20
288.3561510902
 30
0.0
 10
323.7247070973
 20
288.3653521185
 30
0.0
 10
323.1016858619
 20
288.3200742464
 30
0.0
  0
SPLINE
  5
26D
100
AcDbEntity
  8
0
100
AcDbSpline
 62
7
  6
BYLAYER
 70
0
 71
3
 72
9
 73
5
 74
0
 42
0.0000001
 43
0.0000001
 44
0.0000000001
 40
0.0
 40
0.0
 40
0.0
 40
0.0
 40
0.2392948504
 40
1.0
 40
1.0
 40
1.0
 40
1.0
 10
323.1016858619
 20
288.3200742464
 30
0.0
 10
322.699735472
 20
288.2908626283
 30
0.0
 10
321.026549737
 20
288.0794117932
 30
0.0
 10
319.4049784906
 20
287.5361970722
 30
0.0
 10
318.2403416957
 20
287.0023792061
 30
0.0
  0
SPLINE
  5
26E
100
AcDbEntity
  8
0
100
AcDbSpline
 62
7
  6
BYLAYER
 70
0
 71
3
 72
14
 73
10
 74
0
 42
0.0000001
 43
0.0000001
 44
0.0000000001
 40
0.0
 40
0.0
 40
0.0
 40
0.0
 40
0.0157592226
 40
0.062432834
 40
0.1418774562
 40
0.2556861669
 40
0.4040830062
 40
0.5819257919
 40
1.0
 40
1.0
 40
1.0
 40
1.0
 10
175.4258933404
 20
322.3339620919
 30
0.0
 10
175.4256231985
 20
322.3277748227
 30
0.0
 10
175.4634872794
 20
322.3292043104
 30
0.0
 10
175.5054910437
 20
322.3161547371
 30
0.0
 10
175.6071207802
 20
322.3106692593
 30
0.0
 10
175.7374316303
 20
322.29838484
 30
0.0
 10
175.9113376817
 20
322.2870190922
 30
0.0
 10
176.2026206087
 20
322.2682810772
 30
0.0
 10
176.4367248261
 20
322.2553479339
 30
0.0
 10
176.6007958737
 20
322.2467233123
 30
0.0
  0
SPLINE
  5
26F
100
AcDbEntity
  8
0
100
AcDbSpline
 62
7
  6
BYLAYER
 70
0
 71
3
 72
9
 73
5
 74
0
 42
0.0000001
 43
0.0000001
 44
0.0000000001
 40
0.0
 40
0.0
 40
0.0
 40
0.0
 40
0.4858312433
 40
1.0
 40
1.0
 40
1.0
 40
1.0
 10
165.6112690143
 20
312.6829179555
 30
0.0
 10
165.6112690143
 20
312.9272491037
 30
0.0
 10
165.6955007504
 20
313.433683324
 30
0.0
 10
165.9544001785
 20
313.8815373741
 30
0.0
 10
166.1255108022
 20
314.0754085892
 30
0.0
  0
SPLINE
  5
270
100
AcDbEntity
  8
0
100
AcDbSpline
 62
7
  6
BYLAYER
 70
0
 71
3
 72
9
 73
5
 74
0
 42
0.0000001
 43
0.0000001
 44
0.0000000001
 40
0.0
 40
0.0
 40
0.0
 40
0.0
 40
0.5265525103
 40
1.0
 40
1.0
 40
1.0
 40
1.0
 10
166.1255108022
 20
314.0754085892
 30
0.0
 10
166.2968730589
 20
314.2695649086
 30
0.0
 10
166.7038586364
 20
314.5761633133
 30
0.0
 10
167.2006623292
 20
314.6829179555
 30
0.0
 10
167.4335075927
 20
314.6829179555
 30
0.0
  0
SPLINE
  5
271
100
AcDbEntity
  8
0
100
AcDbSpline
 62
7
  6
BYLAYER
 70
0
 71
3
 72
13
 73
9
 74
0
 42
0.0000001
 43
0.0000001
 44
0.0000000001
 40
0.0
 40
0.0
 40
0.0
 40
0.0
 40
0.1597447814
 40
0.3159978084
 40
0.4650506467
 40
0.6029709682
 40
0.8339327522
 40
1.0
 40
1.0
 40
1.0
 40
1.0
 10
176.5947835233
 20
322.1359016086
 30
0.0
 10
176.5436825661
 20
321.2902620156
 30
0.0
 10
176.2050068623
 20
319.6226835154
 30
0.0
 10
175.0730246522
 20
317.4016301267
 30
0.0
 10
173.5133689106
 20
315.6137529092
 30
0.0
 10
171.2926954074
 20
313.9693461372
 30
0.0
 10
168.6023781297
 20
312.9124683133
 30
0.0
 10
166.4919814359
 20
312.6829249701
 30
0.0
 10
165.6112690266
 20
312.6829179555
 30
0.0
  0
SPLINE
  5
272
100
AcDbEntity
  8
0
100
AcDbSpline
 62
7
  6
BYLAYER
 70
0
 71
3
 72
16
 73
12
 74
0
 42
0.0000001
 43
0.0000001
 44
0.0000000001
 40
0.0
 40
0.0
 40
0.0
 40
0.0
 40
0.4056082922
 40
0.5782375946
 40
0.7251668019
 40
0.8430996976
 40
0.9294356543
 40
0.9600332088
 40
0.9820325059
 40
0.9953502279
 40
1.0
 40
1.0
 40
1.0
 40
1.0
 10
177.9905215168
 20
351.18303831
 30
0.0
 10
177.8143037084
 20
351.1896054021
 30
0.0
 10
177.5630641768
 20
351.199278748
 30
0.0
 10
177.2481685152
 20
351.2129990739
 30
0.0
 10
177.0580063708
 20
351.2219208327
 30
0.0
 10
176.9059976713
 20
351.230157064
 30
0.0
 10
176.8030792098
 20
351.2359162328
 30
0.0
 10
176.7442056635
 20
351.2410520914
 30
0.0
 10
176.7134069913
 20
351.2427336818
 30
0.0
 10
176.7002068809
 20
351.2465699637
 30
0.0
 10
176.6882302161
 20
351.2463276388
 30
0.0
 10
176.6883083856
 20
351.2483476374
 30
0.0
  0
SPLINE
  5
273
100
AcDbEntity
  8
0
100
AcDbSpline
 62
7
  6
BYLAYER
 70
0
 71
3
 72
9
 73
5
 74
0
 42
0.0000001
 43
0.0000001
 44
0.0000000001
 40
0.0
 40
0.0
 40
0.0
 40
0.0
 40
0.2222602233
 40
1.0
 40
1.0
 40
1.0
 40
1.0
 10
322.9481348786
 20
289.4515051505
 30
0.0
 10
322.5791326573
 20
289.3393746809
 30
0.0
 10
320.9042140705
 20
288.8858473276
 30
0.0
 10
319.1625978356
 20
288.6663457551
 30
0.0
 10
317.8131295102
 20
288.6541464453
 30
0.0
  0
SPLINE
  5
274
100
AcDbEntity
  8
0
100
AcDbSpline
 62
7
  6
BYLAYER
 70
0
 71
3
 72
14
 73
10
 74
0
 42
0.0000001
 43
0.0000001
 44
0.0000000001
 40
0.0
 40
0.0
 40
0.0
 40
0.0
 40
0.3613123601
 40
0.5232056473
 40
0.6674587697
 40
0.7906051896
 40
0.8891829316
 40
0.9598475218
 40
1.0
 40
1.0
 40
1.0
 40
1.0
 10
316.350235522
 20
288.7017808983
 30
0.0
 10
315.5123709191
 20
288.7643421342
 30
0.0
 10
314.3033569358
 20
288.9412902098
 30
0.0
 10
312.7965614754
 20
289.3153853039
 30
0.0
 10
311.8419468658
 20
289.6099147605
 30
0.0
 10
311.0432097511
 20
289.9031184132
 30
0.0
 10
310.414974676
 20
290.1674169195
 30
0.0
 10
309.9826897315
 20
290.3863684817
 30
0.0
 10
309.7557454491
 20
290.5170579134
 30
0.0
 10
309.6895964918
 20
290.5829548406
 30
0.0
  0
SPLINE
  5
275
100
AcDbEntity
  8
0
100
AcDbSpline
 62
7
  6
BYLAYER
 70
0
 71
3
 72
9
 73
5
 74
0
 42
0.0000001
 43
0.0000001
 44
0.0000000001
 40
0.0
 40
0.0
 40
0.0
 40
0.0
 40
0.3877385854
 40
1.0
 40
1.0
 40
1.0
 40
1.0
 10
178.5131628453
 20
352.6829108965
 30
0.0
 10
178.4382742074
 20
352.6829120024
 30
0.0
 10
178.2616778929
 20
352.5505659476
 30
0.0
 10
178.1896443264
 20
352.3718136614
 30
0.0
 10
178.1496085446
 20
352.2605436592
 30
0.0
  0
SPLINE
  5
276
100
AcDbEntity
  8
0
100
AcDbSpline
 62
7
  6
BYLAYER
 70
0
 71
3
 72
9
 73
5
 74
0
 42
0.0000001
 43
0.0000001
 44
0.0000000001
 40
0.0
 40
0.0
 40
0.0
 40
0.0
 40
0.2186148776
 40
1.0
 40
1.0
 40
1.0
 40
1.0
 10
178.1496085446
 20
352.2605436592
 30
0.0
 10
178.1226636111
 20
352.185656579
 30
0.0
 10
178.0227521449
 20
351.834874924
 30
0.0
 10
177.9905184874
 20
351.4675027774
 30
0.0
 10
177.9905215168
 20
351.18303831
 30
0.0
  0
SPLINE
  5
277
100
AcDbEntity
  8
0
100
AcDbSpline
 62
7
  6
BYLAYER
 70
0
 71
3
 72
9
 73
5
 74
0
 42
0.0000001
 43
0.0000001
 44
0.0000000001
 40
0.0
 40
0.0
 40
0.0
 40
0.0
 40
0.2662735891
 40
1.0
 40
1.0
 40
1.0
 40
1.0
 10
52.6791940031
 20
285.0982131511
 30
0.0
 10
52.7092707369
 20
285.2681361308
 30
0.0
 10
52.8297862665
 20
285.9049227723
 30
0.0
 10
52.9637580126
 20
286.5391746047
 30
0.0
 10
53.0714158503
 20
287.0023341181
 30
0.0
  0
SPLINE
  5
278
100
AcDbEntity
  8
0
100
AcDbSpline
 62
7
  6
BYLAYER
 70
0
 71
3
 72
9
 73
5
 74
0
 42
0.0000001
 43
0.0000001
 44
0.0000000001
 40
0.0
 40
0.0
 40
0.0
 40
0.0
 40
0.2711503917
 40
1.0
 40
1.0
 40
1.0
 40
1.0
 10
53.0714158503
 20
287.0023341181
 30
0.0
 10
53.1049774411
 20
287.1439618693
 30
0.0
 10
53.2340448841
 20
287.6647627512
 30
0.0
 10
53.3752899668
 20
288.1844047753
 30
0.0
 10
53.5136146459
 20
288.5503728643
 30
0.0
  0
SPLINE
  5
279
100
AcDbEntity
  8
0
100
AcDbSpline
 62
7
  6
BYLAYER
 70
0
 71
3
 72
9
 73
5
 74
0
 42
0.0000001
 43
0.0000001
 44
0.0000000001
 40
0.0
 40
0.0
 40
0.0
 40
0.0
 40
0.2711771041
 40
1.0
 40
1.0
 40
1.0
 40
1.0
 10
193.3212623414
 20
351.1827450019
 30
0.0
 10
193.3212621236
 20
351.2782873074
 30
0.0
 10
193.3089071964
 20
351.6300246707
 30
0.0
 10
193.2560239262
 20
351.9838674265
 30
0.0
 10
193.1738245226
 20
352.227137426
 30
0.0
  0
SPLINE
  5
27A
100
AcDbEntity
  8
0
100
AcDbSpline
 62
7
  6
BYLAYER
 70
0
 71
3
 72
10
 73
6
 74
0
 42
0.0000001
 43
0.0000001
 44
0.0000000001
 40
0.0
 40
0.0
 40
0.0
 40
0.0
 40
0.3395214666
 40
0.6168969861
 40
1.0
 40
1.0
 40
1.0
 40
1.0
 10
193.1738245226
 20
352.227137426
 30
0.0
 10
193.1515284857
 20
352.2931227819
 30
0.0
 10
193.1032339844
 20
352.4116875802
 30
0.0
 10
193.0017826162
 20
352.5858216034
 30
0.0
 10
192.8772159454
 20
352.6829174762
 30
0.0
 10
192.7986250846
 20
352.6829186417
 30
0.0
  0
SPLINE
  5
27B
100
AcDbEntity
  8
0
100
AcDbSpline
 62
7
  6
BYLAYER
 70
0
 71
3
 72
16
 73
12
 74
0
 42
0.0000001
 43
0.0000001
 44
0.0000000001
 40
0.0
 40
0.0
 40
0.0
 40
0.0
 40
0.0046764951
 40
0.0180491042
 40
0.0400846037
 40
0.0706535056
 40
0.1568152288
 40
0.2747533747
 40
0.4217174744
 40
0.5947404485
 40
1.0
 40
1.0
 40
1.0
 40
1.0
 10
194.6234696554
 20
351.2483473049
 30
0.0
 10
194.6235488572
 20
351.2463157153
 30
0.0
 10
194.6115053442
 20
351.2465869085
 30
0.0
 10
194.598274729
 20
351.242730003
 30
0.0
 10
194.5674432802
 20
351.2410600377
 30
0.0
 10
194.5086407572
 20
351.2359216229
 30
0.0
 10
194.4058098538
 20
351.2301595421
 30
0.0
 10
194.2538577986
 20
351.2219486562
 30
0.0
 10
194.0635062647
 20
351.2130277896
 30
0.0
 10
193.7485801716
 20
351.1992016203
 30
0.0
 10
193.4973292522
 20
351.1893001538
 30
0.0
 10
193.3212623414
 20
351.1827450019
 30
0.0
  0
SPLINE
  5
27C
100
AcDbEntity
  8
0
100
AcDbSpline
 62
7
  6
BYLAYER
 70
0
 71
3
 72
9
 73
5
 74
0
 42
0.0000001
 43
0.0000001
 44
0.0000000001
 40
0.0
 40
0.0
 40
0.0
 40
0.0
 40
0.2276440111
 40
1.0
 40
1.0
 40
1.0
 40
1.0
 10
317.8003468608
 20
288.5829540455
 30
0.0
 10
317.8396928775
 20
288.464813566
 30
0.0
 10
318.0048804211
 20
287.9432946966
 30
0.0
 10
318.1431758911
 20
287.4135352505
 30
0.0
 10
318.2403402607
 20
287.0023852783
 30
0.0
  0
SPLINE
  5
27D
100
AcDbEntity
  8
0
100
AcDbSpline
 62
7
  6
BYLAYER
 70
0
 71
3
 72
9
 73
5
 74
0
 42
0.0000001
 43
0.0000001
 44
0.0000000001
 40
0.0
 40
0.0
 40
0.0
 40
0.0
 40
0.2333227541
 40
1.0
 40
1.0
 40
1.0
 40
1.0
 10
318.2403556322
 20
287.0023863689
 30
0.0
 10
318.2741746525
 20
286.8550053394
 30
0.0
 10
318.4138160948
 20
286.222158879
 30
0.0
 10
318.5451337871
 20
285.5873135448
 30
0.0
 10
318.6326411153
 20
285.0982131511
 30
0.0
  0
SPLINE
  5
27E
100
AcDbEntity
  8
0
100
AcDbSpline
 62
7
  6
BYLAYER
 70
0
 71
3
 72
14
 73
10
 74
0
 42
0.0000001
 43
0.0000001
 44
0.0000000001
 40
0.0
 40
0.0
 40
0.0
 40
0.0
 40
0.0157573666
 40
0.0624293841
 40
0.1418728648
 40
0.2556810198
 40
0.4040780859
 40
0.5819218981
 40
1.0
 40
1.0
 40
1.0
 40
1.0
 10
195.8858933587
 20
322.3339632025
 30
0.0
 10
195.8861664514
 20
322.3277767736
 30
0.0
 10
195.8482977839
 20
322.3292043967
 30
0.0
 10
195.8063020021
 20
322.3161565049
 30
0.0
 10
195.7046693558
 20
322.3106702253
 30
0.0
 10
195.5743604963
 20
322.2983861381
 30
0.0
 10
195.4004529065
 20
322.2870201924
 30
0.0
 10
195.1091673965
 20
322.268282068
 30
0.0
 10
194.8750603725
 20
322.2553487837
 30
0.0
 10
194.7109872865
 20
322.2467240823
 30
0.0
  0
SPLINE
  5
27F
100
AcDbEntity
  8
0
100
AcDbSpline
 62
7
  6
BYLAYER
 70
0
 71
3
 72
9
 73
5
 74
0
 42
0.0000001
 43
0.0000001
 44
0.0000000001
 40
0.0
 40
0.0
 40
0.0
 40
0.0
 40
0.2446798058
 40
1.0
 40
1.0
 40
1.0
 40
1.0
 10
42.6607680282
 20
287.0023340745
 30
0.0
 10
42.8757986149
 20
287.1431804105
 30
0.0
 10
43.782714161
 20
287.675303887
 30
0.0
 10
44.7957787567
 20
288.0217290009
 30
0.0
 10
45.5745328022
 20
288.1740636088
 30
0.0
  0
SPLINE
  5
280
100
AcDbEntity
  8
0
100
AcDbSpline
 62
7
  6
BYLAYER
 70
0
 71
3
 72
9
 73
5
 74
0
 42
0.0000001
 43
0.0000001
 44
0.0000000001
 40
0.0
 40
0.0
 40
0.0
 40
0.0
 40
0.4777453678
 40
1.0
 40
1.0
 40
1.0
 40
1.0
 10
45.7411682395
 20
288.205030391
 30
0.0
 10
46.9193969215
 20
288.412562327
 30
0.0
 10
49.4805152431
 20
288.3509026916
 30
0.0
 10
51.8825274532
 20
287.5472683962
 30
0.0
 10
53.0714158401
 20
287.0023340745
 30
0.0
  0
ELLIPSE
  5
281
100
AcDbEntity
  8
0
100
AcDbEllipse
 62
7
  6
BYLAYER
 10
53.0408596367
 20
268.1975225211
 30
0.0
 11
22.4796791775
 21
0.0
 31
0.0
 40
1.0
 41
1.3416397695
 42
1.4791763325
  0
ELLIPSE
  5
282
100
AcDbEntity
  8
0
100
AcDbEllipse
 62
7
  6
BYLAYER
 10
53.0408596367
 20
268.1975225211
 30
0.0
 11
0.0
 21
22.4796791775
 31
0.0
 40
1.0
 41
-0.2708863061
 42
-0.2291565573
  0
ELLIPSE
  5
283
100
AcDbEntity
  8
0
100
AcDbEllipse
 62
7
  6
BYLAYER
 10
53.0408596367
 20
268.1975225211
 30
0.0
 11
22.4796791775
 21
-0.0
 31
0.0
 40
1.0
 41
1.2721379129
 42
1.2999100207
  0
ENDSEC
  0
SECTION
  2
OBJECTS
  0
DICTIONARY
  5
C
100
AcDbDictionary
280
0
281
1
  3
ACAD_GROUP
350
D
  3
ACAD_MLINESTYLE
350
17
  3
ACAD_LAYOUT
350
1A
  3
ACAD_PLOTSETTINGS
350
19
  3
ACAD_PLOTSTYLENAME
350
E
  0
DICTIONARY
  5
D
102
{ACAD_REACTORS
330
C
102
}
100
AcDbDictionary
280
0
281
1
  0
ACDBDICTIONARYWDFLT
  5
E
102
{ACAD_REACTORS
330
C
102
}
100
AcDbDictionary
281
1
  3
Normal
350
F
100
AcDbDictionaryWithDefault
340
F
  0
DICTIONARY
  5
17
102
{ACAD_REACTORS
330
C
102
}
100
AcDbDictionary
280
0
281
1
  3
Standard
350
18
  0
DICTIONARY
  5
19
102
{ACAD_REACTORS
330
C
102
}
100
AcDbDictionary
281
1
  0
DICTIONARY
  5
1A
102
{ACAD_REACTORS
330
C
102
}
100
AcDbDictionary
281
1
  3
Model
350
284
  3
Layout1
350
285
  0
ACDBPLACEHOLDER
  5
F
102
{ACAD_REACTORS
330
E
102
}
  0
MLINESTYLE
  5
18
102
{ACAD_REACTORS
330
17
102
}
100
AcDbMlineStyle
  2
STANDARD
 70
0
  3

 62
256
 51
90.0
 52
90.0
 71
2
 49
0.5
 62
256
  6
BYLAYER
 49
-0.5
 62
256
  6
BYLAYER
  0
LAYOUT
  5
284
102
{ACAD_REACTORS
330
1A
102
}
100
AcDbPlotSettings
  1

  2
none_device
  4

  6

 40
0.0
 41
0.0
 42
0.0
 43
0.0
 44
210.0
 45
297.0
 46
0.0
 47
0.0
 48
0.0
 49
0.0
140
0.0
141
0.0
142
1.0
143
1.0
 70
1024
 72
1
 73
0
 74
0
  7

 75
0
147
1.0
148
0.0
149
0.0
100
AcDbLayout
  1
Model
 70
0
 71
0
 10
0.0
 20
0.0
 11
210.0
 21
297.0
 12
0.0
 22
0.0
 32
0.0
 14
0.0
 24
0.0
 34
0.0
 15
0.0
 25
0.0
 35
0.0
146
0.0
 13
0.0
 23
0.0
 33
0.0
 16
1.0
 26
0.0
 36
0.0
 17
0.0
 27
1.0
 37
0.0
 76
0
330
210
345
0
346
0
  0
LAYOUT
  5
285
102
{ACAD_REACTORS
330
1A
102
}
100
AcDbPlotSettings
  1

  2
none_device
  4

  6

 40
0.0
 41
0.0
 42
0.0
 43
0.0
 44
210.0
 45
297.0
 46
0.0
 47
0.0
 48
0.0
 49
0.0
140
0.0
141
0.0
142
1.0
143
1.0
 70
0
 72
1
 73
0
 74
0
  7

 75
0
147
1.0
148
0.0
149
0.0
100
AcDbLayout
  1
Layout1
 70
0
 71
1
 10
0.0
 20
0.0
 11
210.0
 21
297.0
 12
0.0
 22
0.0
 32
0.0
 14
0.0
 24
0.0
 34
0.0
 15
0.0
 25
0.0
 35
0.0
146
0.0
 13
0.0
 23
0.0
 33
0.0
 16
1.0
 26
0.0
 36
0.0
 17
0.0
 27
1.0
 37
0.0
 76
0
330
211
345
0
346
0
  0
ENDSEC
  0
EOF
