999
DXF file: C:\Users\sesa63760\OneDrive - Schneider Electric\Documents\7-Dev\_Creo\CAD\MCADUE0000010_3D-CAD\drw0001_1.dxf
999
Pro/ENGINEER 2019471 by Parametric Technology Corporation
  0
SECTION
  2
HEADER
  9
$ACADVER
  1
AC1024
  9
$DWGCODEPAGE
  3
ANSI_1252
  9
$EXTMAX
 10
1257.4164765265
 20
1778.3461596589
 30
0.0
  9
$EXTMIN
 10
0.0
 20
0.0
 30
0.0
  9
$LIMMIN
 10
0.0
 20
0.0
  9
$LIMMAX
 10
1257.4164765265
 20
1778.3461596589
  9
$VIEWCTR
 10
628.7082382632
 20
889.1730798294
  9
$VIEWSIZE
 40
1778.3461596589
  9
$CLAYER
  8
0
  9
$LTSCALE
 40
115.9218237407
  9
$CELTYPE
  6
BYLAYER
  9
$DIMSCALE
 40
1.0
  9
$DIMASZ
 40
14.9692437682
  9
$DIMEXO
 40
1.0
  9
$DIMDLI
 40
80.0914418572
  9
$DIMEXE
 40
1.0
  9
$DIMCEN
 40
18.969025703
  9
$DIMLFAC
 40
1.0
  9
$DIMBLK
  1
_FILLED
  9
$DIMALT
 70
0
  9
$DIMALTF
 40
0.0393700787
  9
$DIMTXT
 40
20.9569412754
  9
$DIMTOL
 70
1
  9
$DIMLIM
 70
0
  9
$DIMTFAC
 40
1.0
  9
$DIMTP
 40
0.01
  9
$DIMTM
 40
0.01
  9
$DIMGAP
 40
0.625
  9
$DIMDSEP
 70
46
  9
$AUNITS
 70
0
  9
$PDMODE
 70
3
  9
$PDSIZE
 40
0.3125
  9
$HANDSEED
  5
3A2
  9
$TILEMODE
 70
1
  9
$MEASUREMENT
 70
1
  9
$INSUNITS
 70
4
  0
ENDSEC
  0
SECTION
  2
CLASSES
  0
CLASS
  1
ACDBDICTIONARYWDFLT
  2
AcDbDictionaryWithDefault
  3
AutoCAD 2000
 90
0
 91
1
280
0
281
0
  0
CLASS
  1
ACDBPLACEHOLDER
  2
AcDbPlaceHolder
  3
AutoCAD 2000
 90
0
 91
1
280
0
281
0
  0
CLASS
  1
LAYOUT
  2
AcDbLayout
  3
AutoCAD 2000
 90
0
 91
0
280
0
281
0
  0
ENDSEC
  0
SECTION
  2
TABLES
  0
TABLE
  2
VPORT
  5
8
100
AcDbSymbolTable
 70
2
  0
VPORT
  5
1F4
100
AcDbSymbolTableRecord
100
AcDbViewportTableRecord
  2
*ACTIVE
 70
0
 10
0.0
 20
0.0
 11
1.0
 21
1.0
 12
628.7082382632
 22
889.1730798294
 13
0.0
 23
0.0
 14
1.0
 24
1.0
 15
0.0
 25
0.0
 16
0.0
 26
0.0
 36
1.0
 17
0.0
 27
0.0
 37
0.0
 40
1778.3461596589
 41
0.7070707071
 42
50.0
 43
0.0
 44
0.0
 50
0.0
 51
0.0
 71
0
 72
100
 73
1
 74
1
 75
0
 76
0
 77
0
 78
0
  0
ENDTAB
  0
TABLE
  2
LTYPE
  5
5
100
AcDbSymbolTable
 70
6
  0
LTYPE
  5
14
100
AcDbSymbolTableRecord
100
AcDbLinetypeTableRecord
  2
BYBLOCK
 70
0
  3

 72
65
 73
0
 40
0.0
  0
LTYPE
  5
15
100
AcDbSymbolTableRecord
100
AcDbLinetypeTableRecord
  2
BYLAYER
 70
0
  3

 72
65
 73
0
 40
0.0
  0
LTYPE
  5
16
100
AcDbSymbolTableRecord
100
AcDbLinetypeTableRecord
  2
CONTINUOUS
 70
64
  3
Solid line
 72
65
 73
0
 40
0.0
  0
LTYPE
  5
1F5
100
AcDbSymbolTableRecord
100
AcDbLinetypeTableRecord
  2
CENTER
 70
64
  3
____ _ ____ _ ____ _ ____ _ ____ _ ____ _ ____
 72
65
 73
4
 40
0.6
 49
0.375
 74
0
 49
-0.075
 74
0
 49
0.075
 74
0
 49
-0.075
 74
0
  0
LTYPE
  5
1F6
100
AcDbSymbolTableRecord
100
AcDbLinetypeTableRecord
  2
HIDDEN
 70
64
  3
- - - - - - - - - - - - - - - - - - - -
 72
65
 73
2
 40
0.2
 49
0.1
 74
0
 49
-0.1
 74
0
  0
LTYPE
  5
1F7
100
AcDbSymbolTableRecord
100
AcDbLinetypeTableRecord
  2
PHANTOM
 70
64
  3
_____ _ _ _____ _ _ _____ _ _ _____
 72
65
 73
6
 40
0.8
 49
0.45
 74
0
 49
-0.05
 74
0
 49
0.1
 74
0
 49
-0.05
 74
0
 49
0.1
 74
0
 49
-0.05
 74
0
  0
LTYPE
  5
1F8
100
AcDbSymbolTableRecord
100
AcDbLinetypeTableRecord
  2
DOT
 70
64
  3
. . . . . . . . . . . . . . . . . . . .
 72
65
 73
2
 40
0.2
 49
0.1
 74
0
 49
-0.1
 74
0
  0
LTYPE
  5
1F9
100
AcDbSymbolTableRecord
100
AcDbLinetypeTableRecord
  2
DASHED
 70
64
  3
- - - - - - - - - - - - - - - - - - - -
 72
65
 73
2
 40
0.2
 49
0.1
 74
0
 49
-0.1
 74
0
  0
ENDTAB
  0
TABLE
  2
LAYER
  5
2
100
AcDbSymbolTable
 70
36
  0
LAYER
  5
10
100
AcDbSymbolTableRecord
100
AcDbLayerTableRecord
  2
0
 70
0
 62
7
  6
CONTINUOUS
370
-3
390
F
  0
LAYER
  5
1FA
100
AcDbSymbolTableRecord
100
AcDbLayerTableRecord
  2
DEFAULT_1
 70
0
 62
7
  6
CENTER
370
-3
390
F
  0
LAYER
  5
1FB
100
AcDbSymbolTableRecord
100
AcDbLayerTableRecord
  2
DEFAULT_2
 70
0
 62
8
  6
HIDDEN
370
-3
390
F
  0
LAYER
  5
1FC
100
AcDbSymbolTableRecord
100
AcDbLayerTableRecord
  2
DEFAULT_3
 70
0
 62
7
  6
PHANTOM
370
-3
390
F
  0
LAYER
  5
1FD
100
AcDbSymbolTableRecord
100
AcDbLayerTableRecord
  2
00_COMPONENTS
 70
0
 62
7
  6
CONTINUOUS
370
-3
390
F
  0
LAYER
  5
1FE
100
AcDbSymbolTableRecord
100
AcDbLayerTableRecord
  2
01_1_DEFAULT_DATUMS
 70
0
 62
7
  6
CONTINUOUS
370
-3
390
F
  0
LAYER
  5
1FF
100
AcDbSymbolTableRecord
100
AcDbLayerTableRecord
  2
01_PLANES
 70
0
 62
7
  6
CONTINUOUS
370
-3
390
F
  0
LAYER
  5
200
100
AcDbSymbolTableRecord
100
AcDbLayerTableRecord
  2
02_COORD_SYS
 70
0
 62
7
  6
CONTINUOUS
370
-3
390
F
  0
LAYER
  5
201
100
AcDbSymbolTableRecord
100
AcDbLayerTableRecord
  2
03_AXES
 70
0
 62
7
  6
CONTINUOUS
370
-3
390
F
  0
LAYER
  5
202
100
AcDbSymbolTableRecord
100
AcDbLayerTableRecord
  2
04_POINTS
 70
0
 62
7
  6
CONTINUOUS
370
-3
390
F
  0
LAYER
  5
203
100
AcDbSymbolTableRecord
100
AcDbLayerTableRecord
  2
05_CURVES
 70
0
 62
7
  6
CONTINUOUS
370
-3
390
F
  0
LAYER
  5
204
100
AcDbSymbolTableRecord
100
AcDbLayerTableRecord
  2
06_SURFS
 70
0
 62
7
  6
CONTINUOUS
370
-3
390
F
  0
LAYER
  5
205
100
AcDbSymbolTableRecord
100
AcDbLayerTableRecord
  2
07_COSMETICS
 70
0
 62
7
  6
CONTINUOUS
370
-3
390
F
  0
LAYER
  5
206
100
AcDbSymbolTableRecord
100
AcDbLayerTableRecord
  2
10_NOTES
 70
0
 62
7
  6
CONTINUOUS
370
-3
390
F
  0
LAYER
  5
207
100
AcDbSymbolTableRecord
100
AcDbLayerTableRecord
  2
11_NOTES_PUB
 70
0
 62
7
  6
CONTINUOUS
370
-3
390
F
  0
LAYER
  5
208
100
AcDbSymbolTableRecord
100
AcDbLayerTableRecord
  2
13_REF_GTOL
 70
0
 62
7
  6
CONTINUOUS
370
-3
390
F
  0
LAYER
  5
209
100
AcDbSymbolTableRecord
100
AcDbLayerTableRecord
  2
16_MISC
 70
0
 62
7
  6
CONTINUOUS
370
-3
390
F
  0
LAYER
  5
20A
100
AcDbSymbolTableRecord
100
AcDbLayerTableRecord
  2
17_NO_PRINT
 70
0
 62
7
  6
CONTINUOUS
370
-3
390
F
  0
LAYER
  5
20B
100
AcDbSymbolTableRecord
100
AcDbLayerTableRecord
  2
18_DATUM_CAMS_JOINTS
 70
0
 62
7
  6
CONTINUOUS
370
-3
390
F
  0
LAYER
  5
20C
100
AcDbSymbolTableRecord
100
AcDbLayerTableRecord
  2
19_DATUM_FUNCTIONAL
 70
0
 62
7
  6
CONTINUOUS
370
-3
390
F
  0
LAYER
  5
20D
100
AcDbSymbolTableRecord
100
AcDbLayerTableRecord
  2
20_DATUM_KINEMATIC_SCHEME
 70
0
 62
7
  6
CONTINUOUS
370
-3
390
F
  0
ENDTAB
  0
TABLE
  2
STYLE
  5
3
100
AcDbSymbolTable
 70
1
  0
STYLE
  5
11
100
AcDbSymbolTableRecord
100
AcDbTextStyleTableRecord
  2
STANDARD
 70
0
 40
0.0
 41
0.8
 50
0.0
 71
0
 42
0.2
  3
txt
  4

  0
STYLE
  5
20E
100
AcDbSymbolTableRecord
100
AcDbTextStyleTableRecord
  2
TEXTSTYLE_1
 70
0
 40
0.0
 41
0.8
 50
0.0
 71
0
 42
0.2
  3
gdt
  4

  0
ENDTAB
  0
TABLE
  2
VIEW
  5
6
100
AcDbSymbolTable
 70
0
  0
ENDTAB
  0
TABLE
  2
UCS
  5
7
100
AcDbSymbolTable
 70
0
  0
ENDTAB
  0
TABLE
  2
APPID
  5
9
100
AcDbSymbolTable
 70
1
  0
APPID
  5
20F
100
AcDbSymbolTableRecord
100
AcDbRegAppTableRecord
  2
ACAD
 70
0
  0
ENDTAB
  0
TABLE
  2
BLOCK_RECORD
  5
1
100
AcDbSymbolTable
 70
0
  0
BLOCK_RECORD
  5
210
100
AcDbSymbolTableRecord
100
AcDbBlockTableRecord
  2
*Model_Space
  0
BLOCK_RECORD
  5
211
100
AcDbSymbolTableRecord
100
AcDbBlockTableRecord
  2
*Paper_Space
  0
BLOCK_RECORD
  5
212
100
AcDbSymbolTableRecord
100
AcDbBlockTableRecord
  2
_FILLED
  0
ENDTAB
  0
TABLE
  2
DIMSTYLE
  5
A
100
AcDbSymbolTable
 70
1
100
AcDbDimStyleTable
 71
0
  0
DIMSTYLE
105
213
100
AcDbSymbolTableRecord
100
AcDbDimStyleTableRecord
  2
STANDARD
 70
0
  3

  4

 40
1.0
 41
14.9692437682
 42
1.0
 43
0.38
 44
1.0
 45
0.0
 46
0.0
 47
0.01
 48
0.01
140
20.9569412754
141
0.09
142
0.0
143
25.4
144
1.0
145
0.0
146
1.0
147
0.625
 71
1
 72
0
 73
0
 74
0
 75
0
 76
0
 77
1
 78
8
 79
2
170
0
171
1
172
0
173
0
174
0
175
0
176
0
177
0
178
0
270
2
179
2
271
2
272
2
273
2
274
2
275
0
280
0
281
0
282
0
283
1
284
8
285
0
286
0
287
3
288
0
340
11
278
46
341
212
342
212
343
212
344
212
  0
ENDTAB
  0
ENDSEC
  0
SECTION
  2
BLOCKS
  0
BLOCK
  5
20
100
AcDbEntity
  8
0
100
AcDbBlockBegin
  2
*Model_Space
 70
0
 10
0.0
 20
0.0
 30
0.0
  3
*Model_Space
  1

  0
ENDBLK
  5
21
100
AcDbEntity
  8
0
100
AcDbBlockEnd
  0
BLOCK
  5
1C
100
AcDbEntity
  8
0
100
AcDbBlockBegin
  2
*Paper_Space
 70
0
 10
0.0
 20
0.0
 30
0.0
  3
*Paper_Space
  1

  0
ENDBLK
  5
1D
100
AcDbEntity
  8
0
100
AcDbBlockEnd
  0
BLOCK
  5
214
100
AcDbEntity
  8
0
100
AcDbBlockBegin
  2
_FILLED
 70
64
 10
0.0
 20
0.0
  3
_FILLED
  1

  0
SOLID
  5
215
100
AcDbEntity
  8
0
  6
BYBLOCK
 62
0
100
AcDbTrace
 10
0.0
 20
0.0
 11
-1.0
 21
0.25
 12
-1.0
 22
-0.25
 13
-1.0
 23
-0.25
  0
ENDBLK
  5
216
100
AcDbEntity
  8
0
  6
BYBLOCK
 62
0
100
AcDbBlockEnd
  0
ENDSEC
  0
SECTION
  2
ENTITIES
  0
LINE
  5
217
100
AcDbEntity
  8
0
100
AcDbLine
 62
7
  6
CONTINUOUS
 10
829.2814694175
 20
174.6466473713
 11
836.0886819315
 21
175.6298594919
  0
LINE
  5
218
100
AcDbEntity
  8
0
100
AcDbLine
 62
7
  6
CONTINUOUS
 10
502.6929415531
 20
1602.1653012381
 11
500.021125581
 21
1600.6227367753
  0
LINE
  5
219
100
AcDbEntity
  8
0
100
AcDbLine
 62
7
  6
CONTINUOUS
 10
510.2540780395
 20
1594.7148725725
 11
509.2641326147
 21
1594.1433307267
  0
LINE
  5
21A
100
AcDbEntity
  8
0
100
AcDbLine
 62
7
  6
CONTINUOUS
 10
786.730789616
 20
196.9963995615
 11
792.3149387595
 21
196.9545612407
  0
LINE
  5
21B
100
AcDbEntity
  8
0
100
AcDbLine
 62
7
  6
CONTINUOUS
 10
786.5302898584
 20
196.5029995008
 11
792.8126987784
 21
195.6290081891
  0
LINE
  5
21C
100
AcDbEntity
  8
0
100
AcDbLine
 62
7
  6
CONTINUOUS
 10
792.3149387595
 20
196.9545612407
 11
792.9443073923
 21
196.8669218212
  0
LINE
  5
21D
100
AcDbEntity
  8
0
100
AcDbLine
 62
7
  6
CONTINUOUS
 10
502.1123447478
 20
1639.4745759412
 11
506.3714175798
 21
1644.8804485063
  0
LINE
  5
21E
100
AcDbEntity
  8
0
100
AcDbLine
 62
7
  6
CONTINUOUS
 10
503.0625130754
 20
1602.5284766492
 11
502.6929415531
 21
1602.1653012381
  0
LINE
  5
21F
100
AcDbEntity
  8
0
100
AcDbLine
 62
7
  6
CONTINUOUS
 10
502.1123447478
 20
1603.1712130635
 11
499.9012534143
 21
1601.1309021565
  0
LINE
  5
220
100
AcDbEntity
  8
0
100
AcDbLine
 62
7
  6
CONTINUOUS
 10
439.4427726613
 20
327.3809816345
 11
768.0531655035
 21
137.661974886
  0
LINE
  5
221
100
AcDbEntity
  8
0
100
AcDbLine
 62
7
  6
CONTINUOUS
 10
765.9150257482
 20
139.8839259242
 11
440.3214092618
 21
327.8612354341
  0
LINE
  5
222
100
AcDbEntity
  8
0
100
AcDbLine
 62
7
  6
CONTINUOUS
 10
820.9020703325
 20
180.7808769482
 11
821.4505400561
 21
180.4678027752
  0
LINE
  5
223
100
AcDbEntity
  8
0
100
AcDbLine
 62
7
  6
CONTINUOUS
 10
777.4254395611
 20
201.7595683515
 11
786.5302898584
 21
196.5029995008
  0
LINE
  5
224
100
AcDbEntity
  8
0
100
AcDbLine
 62
7
  6
CONTINUOUS
 10
777.4254395611
 20
202.3687243824
 11
786.730789616
 21
196.9963995615
  0
LINE
  5
225
100
AcDbEntity
  8
0
100
AcDbLine
 62
7
  6
CONTINUOUS
 10
792.8126987784
 20
195.6290081891
 11
820.8612934263
 21
179.4355108646
  0
LINE
  5
226
100
AcDbEntity
  8
0
100
AcDbLine
 62
7
  6
CONTINUOUS
 10
820.9428472387
 20
179.460844215
 11
829.2814694175
 21
174.6466473671
  0
LINE
  5
227
100
AcDbEntity
  8
0
100
AcDbLine
 62
7
  6
CONTINUOUS
 10
792.3149387595
 20
196.9545612407
 11
777.4254395611
 21
205.5508231376
  0
LINE
  5
228
100
AcDbEntity
  8
0
100
AcDbLine
 62
7
  6
CONTINUOUS
 10
792.8534756846
 20
196.9743742727
 11
821.4481179085
 21
180.4663976458
  0
LINE
  5
229
100
AcDbEntity
  8
0
100
AcDbLine
 62
7
  6
CONTINUOUS
 10
777.5616332331
 20
207.9598148341
 11
778.9758526833
 21
207.1433333251
  0
LINE
  5
22A
100
AcDbEntity
  8
0
100
AcDbLine
 62
7
  6
CONTINUOUS
 10
778.9758526833
 20
209.5241751514
 11
777.5616332331
 21
210.3406566605
  0
LINE
  5
22B
100
AcDbEntity
  8
0
100
AcDbLine
 62
7
  6
CONTINUOUS
 10
777.4254395611
 20
214.0934531256
 11
828.1104747094
 21
184.8310964418
  0
LINE
  5
22C
100
AcDbEntity
  8
0
100
AcDbLine
 62
7
  6
CONTINUOUS
 10
777.7088145934
 20
205.7650350667
 11
792.8534756846
 21
196.9743742727
  0
LINE
  5
22D
100
AcDbEntity
  8
0
100
AcDbLine
 62
7
  6
CONTINUOUS
 10
813.6444354302
 20
215.0789626968
 11
822.654948573
 21
209.8768582564
  0
LINE
  5
22E
100
AcDbEntity
  8
0
100
AcDbLine
 62
7
  6
CONTINUOUS
 10
825.7475151535
 20
1413.0077311417
 11
829.2814694175
 21
1414.2843040578
  0
LINE
  5
22F
100
AcDbEntity
  8
0
100
AcDbLine
 62
7
  6
CONTINUOUS
 10
827.7967161195
 20
1414.7682040047
 11
828.0942675851
 21
1414.8755509643
  0
LINE
  5
230
100
AcDbEntity
  8
0
100
AcDbLine
 62
7
  6
CONTINUOUS
 10
836.0886819315
 20
1454.5224036509
 11
829.2814694175
 21
1450.5876669355
  0
LINE
  5
231
100
AcDbEntity
  8
0
100
AcDbLine
 62
7
  6
CONTINUOUS
 10
813.6444354302
 20
1418.4132565056
 11
814.634380855
 21
1418.9847983514
  0
LINE
  5
232
100
AcDbEntity
  8
0
100
AcDbLine
 62
7
  6
CONTINUOUS
 10
774.8344739836
 20
1384.1906217742
 11
776.9256931504
 21
1385.3979805162
  0
LINE
  5
233
100
AcDbEntity
  8
0
100
AcDbLine
 62
7
  6
CONTINUOUS
 10
824.8673333135
 20
1413.0769341486
 11
827.7967161195
 21
1414.7682040047
  0
LINE
  5
234
100
AcDbEntity
  8
0
100
AcDbLine
 62
7
  6
CONTINUOUS
 10
774.8344739836
 20
1419.1528671056
 11
770.5754011516
 21
1416.6985191352
  0
LINE
  5
235
100
AcDbEntity
  8
0
100
AcDbLine
 62
7
  6
CONTINUOUS
 10
774.8344739836
 20
1382.8495042279
 11
777.0455653171
 21
1384.8898151349
  0
LINE
  5
236
100
AcDbEntity
  8
0
100
AcDbLine
 62
7
  6
CONTINUOUS
 10
439.44328791
 20
327.3796718399
 11
439.44328791
 21
1604.9048521801
  0
LINE
  5
237
100
AcDbEntity
  8
0
100
AcDbLine
 62
7
  6
CONTINUOUS
 10
440.3214092618
 20
327.8612354341
 11
440.3214092618
 21
1601.9780821713
  0
LINE
  5
238
100
AcDbEntity
  8
0
100
AcDbLine
 62
7
  6
CONTINUOUS
 10
448.8525511463
 20
1546.1054836429
 11
448.8525511463
 21
1538.1279309623
  0
LINE
  5
239
100
AcDbEntity
  8
0
100
AcDbLine
 62
7
  6
CONTINUOUS
 10
448.8525511463
 20
1178.6793959346
 11
448.8525511463
 21
1170.701843254
  0
LINE
  5
23A
100
AcDbEntity
  8
0
100
AcDbLine
 62
7
  6
CONTINUOUS
 10
448.8525511463
 20
750.0156269416
 11
448.8525511463
 21
742.038074261
  0
LINE
  5
23B
100
AcDbEntity
  8
0
100
AcDbLine
 62
7
  6
CONTINUOUS
 10
448.8525511463
 20
382.5895392333
 11
448.8525511463
 21
374.6119865527
  0
LINE
  5
23C
100
AcDbEntity
  8
0
100
AcDbLine
 62
7
  6
CONTINUOUS
 10
449.1501026119
 20
1545.7934332483
 11
449.1501026119
 21
1538.0976746195
  0
LINE
  5
23D
100
AcDbEntity
  8
0
100
AcDbLine
 62
7
  6
CONTINUOUS
 10
449.1501026119
 20
1178.36734554
 11
449.1501026119
 21
1170.6715869112
  0
LINE
  5
23E
100
AcDbEntity
  8
0
100
AcDbLine
 62
7
  6
CONTINUOUS
 10
449.1501026119
 20
749.703576547
 11
449.1501026119
 21
742.0078179182
  0
LINE
  5
23F
100
AcDbEntity
  8
0
100
AcDbLine
 62
7
  6
CONTINUOUS
 10
449.1501026119
 20
382.2774888387
 11
449.1501026119
 21
374.5817302098
  0
LINE
  5
240
100
AcDbEntity
  8
0
100
AcDbLine
 62
7
  6
CONTINUOUS
 10
499.5213791703
 20
1574.7266086485
 11
499.5213791703
 21
1576.9213884159
  0
LINE
  5
241
100
AcDbEntity
  8
0
100
AcDbLine
 62
7
  6
CONTINUOUS
 10
499.5213791703
 20
1580.9268551312
 11
499.5213791703
 21
1600.3660456125
  0
LINE
  5
242
100
AcDbEntity
  8
0
100
AcDbLine
 62
7
  6
CONTINUOUS
 10
500.2536195773
 20
1574.4497152377
 11
500.2536195773
 21
1576.9213884159
  0
LINE
  5
243
100
AcDbEntity
  8
0
100
AcDbLine
 62
7
  6
CONTINUOUS
 10
500.2536195773
 20
1580.504105499
 11
500.2536195773
 21
1599.3454352278
  0
LINE
  5
244
100
AcDbEntity
  8
0
100
AcDbLine
 62
7
  6
CONTINUOUS
 10
502.1123447478
 20
1603.1712130635
 11
502.1123447478
 21
1639.4745759412
  0
LINE
  5
245
100
AcDbEntity
  8
0
100
AcDbLine
 62
7
  6
CONTINUOUS
 10
502.6929415531
 20
1579.0957941598
 11
502.6929415531
 21
1581.3533982977
  0
LINE
  5
246
100
AcDbEntity
  8
0
100
AcDbLine
 62
7
  6
CONTINUOUS
 10
502.6929415531
 20
1599.0801980014
 11
502.6929415531
 21
1602.1653012381
  0
LINE
  5
247
100
AcDbEntity
  8
0
100
AcDbLine
 62
7
  6
CONTINUOUS
 10
503.0625130754
 20
1602.5284766492
 11
503.0625130754
 21
1598.8668306105
  0
LINE
  5
248
100
AcDbEntity
  8
0
100
AcDbLine
 62
7
  6
CONTINUOUS
 10
503.0625130754
 20
1581.3533982977
 11
503.0625130754
 21
1578.882426769
  0
LINE
  5
249
100
AcDbEntity
  8
0
100
AcDbLine
 62
7
  6
CONTINUOUS
 10
503.2330263102
 20
1581.5048413406
 11
503.2330263102
 21
1578.7839831341
  0
LINE
  5
24A
100
AcDbEntity
  8
0
100
AcDbLine
 62
7
  6
CONTINUOUS
 10
503.2330263102
 20
1576.4282015622
 11
503.2330263102
 21
1576.2140728734
  0
LINE
  5
24B
100
AcDbEntity
  8
0
100
AcDbLine
 62
7
  6
CONTINUOUS
 10
503.6277967458
 20
1576.4282015622
 11
503.6277967458
 21
1577.3002918598
  0
LINE
  5
24C
100
AcDbEntity
  8
0
100
AcDbLine
 62
7
  6
CONTINUOUS
 10
505.0420161961
 20
1576.4838103508
 11
505.0420161961
 21
1575.6117200531
  0
LINE
  5
24D
100
AcDbEntity
  8
0
100
AcDbLine
 62
7
  6
CONTINUOUS
 10
509.2641326147
 20
1594.1433307267
 11
509.2641326147
 21
1575.3020010586
  0
LINE
  5
24E
100
AcDbEntity
  8
0
100
AcDbLine
 62
7
  6
CONTINUOUS
 10
510.2540780395
 20
1594.7148725725
 11
510.2540780395
 21
1574.7304687309
  0
LINE
  5
24F
100
AcDbEntity
  8
0
100
AcDbLine
 62
7
  6
CONTINUOUS
 10
510.3448416043
 20
1633.2932615299
 11
510.3448416043
 21
1594.7148725725
  0
LINE
  5
250
100
AcDbEntity
  8
0
100
AcDbLine
 62
7
  6
CONTINUOUS
 10
510.4509669266
 20
1633.3168039471
 11
510.4509669266
 21
1634.6603790975
  0
LINE
  5
251
100
AcDbEntity
  8
0
100
AcDbLine
 62
7
  6
CONTINUOUS
 10
538.4180077622
 20
1618.3980454545
 11
538.4180077622
 21
1617.1418053569
  0
LINE
  5
252
100
AcDbEntity
  8
0
100
AcDbLine
 62
7
  6
CONTINUOUS
 10
503.2738032164
 20
1637.4604476055
 11
503.233833831
 21
1603.169905845
  0
LINE
  5
253
100
AcDbEntity
  8
0
100
AcDbLine
 62
7
  6
CONTINUOUS
 10
503.233833831
 20
1603.169905845
 11
503.2330263102
 21
1598.7683869756
  0
LINE
  5
254
100
AcDbEntity
  8
0
100
AcDbLine
 62
7
  6
CONTINUOUS
 10
538.4969851154
 20
1613.564880474
 11
538.4995887288
 21
1613.9440258246
  0
LINE
  5
255
100
AcDbEntity
  8
0
100
AcDbLine
 62
7
  6
CONTINUOUS
 10
538.4995887288
 20
1613.9440258246
 11
538.4180077622
 21
1618.3980454545
  0
LINE
  5
256
100
AcDbEntity
  8
0
100
AcDbLine
 62
7
  6
CONTINUOUS
 10
560.1961037229
 20
1609.0877338719
 11
560.1961037229
 21
1611.4685756982
  0
LINE
  5
257
100
AcDbEntity
  8
0
100
AcDbLine
 62
7
  6
CONTINUOUS
 10
561.6103231732
 20
1610.6520941892
 11
561.6103231732
 21
1608.2712523629
  0
LINE
  5
258
100
AcDbEntity
  8
0
100
AcDbLine
 62
7
  6
CONTINUOUS
 10
720.9933262559
 20
1450.9349936226
 11
720.9933262559
 21
1451.8070839203
  0
LINE
  5
259
100
AcDbEntity
  8
0
100
AcDbLine
 62
7
  6
CONTINUOUS
 10
722.4075457062
 20
1450.9906024113
 11
722.4075457062
 21
1450.1185121136
  0
LINE
  5
25A
100
AcDbEntity
  8
0
100
AcDbLine
 62
7
  6
CONTINUOUS
 10
738.4472300026
 20
1442.9860714743
 11
738.5288109692
 21
1440.1858946326
  0
LINE
  5
25B
100
AcDbEntity
  8
0
100
AcDbLine
 62
7
  6
CONTINUOUS
 10
765.9150257482
 20
1414.0007726614
 11
765.9150257482
 21
139.8839259242
  0
LINE
  5
25C
100
AcDbEntity
  8
0
100
AcDbLine
 62
7
  6
CONTINUOUS
 10
770.5754011516
 20
137.8059749763
 11
770.5754011516
 21
1416.6985191352
  0
LINE
  5
25D
100
AcDbEntity
  8
0
100
AcDbLine
 62
7
  6
CONTINUOUS
 10
774.8344739836
 20
143.2118475415
 11
774.8344739836
 21
179.5152104192
  0
LINE
  5
25E
100
AcDbEntity
  8
0
100
AcDbLine
 62
7
  6
CONTINUOUS
 10
774.8344739836
 20
1382.8495042279
 11
774.8344739836
 21
1419.1528671056
  0
LINE
  5
25F
100
AcDbEntity
  8
0
100
AcDbLine
 62
7
  6
CONTINUOUS
 10
777.0455653171
 20
1384.8898151349
 11
777.0455653171
 21
181.5555213261
  0
LINE
  5
260
100
AcDbEntity
  8
0
100
AcDbLine
 62
7
  6
CONTINUOUS
 10
777.4254395611
 20
182.3203778701
 11
777.4254395611
 21
1385.6546716789
  0
LINE
  5
261
100
AcDbEntity
  8
0
100
AcDbLine
 62
7
  6
CONTINUOUS
 10
777.5616332331
 20
207.9598148341
 11
777.5616332331
 21
210.3406566605
  0
LINE
  5
262
100
AcDbEntity
  8
0
100
AcDbLine
 62
7
  6
CONTINUOUS
 10
777.5616332331
 20
1483.5945259323
 11
777.5616332331
 21
1485.9753677587
  0
LINE
  5
263
100
AcDbEntity
  8
0
100
AcDbLine
 62
7
  6
CONTINUOUS
 10
778.9758526833
 20
1485.1588862497
 11
778.9758526833
 21
1482.7780444233
  0
LINE
  5
264
100
AcDbEntity
  8
0
100
AcDbLine
 62
7
  6
CONTINUOUS
 10
778.9758526833
 20
209.5241751514
 11
778.9758526833
 21
207.1433333251
  0
LINE
  5
265
100
AcDbEntity
  8
0
100
AcDbLine
 62
7
  6
CONTINUOUS
 10
792.8126987784
 20
1471.5265247936
 11
792.8126987784
 21
1470.2047011273
  0
LINE
  5
266
100
AcDbEntity
  8
0
100
AcDbLine
 62
7
  6
CONTINUOUS
 10
792.8126987784
 20
196.9508318554
 11
792.8126987784
 21
195.6290081891
  0
LINE
  5
267
100
AcDbEntity
  8
0
100
AcDbLine
 62
7
  6
CONTINUOUS
 10
828.1200109489
 20
176.660775707
 11
828.0804955775
 21
210.5161815793
  0
LINE
  5
268
100
AcDbEntity
  8
0
100
AcDbLine
 62
7
  6
CONTINUOUS
 10
813.6444354302
 20
1418.4132565056
 11
813.6444354302
 21
215.0789626968
  0
LINE
  5
269
100
AcDbEntity
  8
0
100
AcDbLine
 62
7
  6
CONTINUOUS
 10
820.9428472387
 20
1455.4018637876
 11
820.9428472387
 21
1454.0582886372
  0
LINE
  5
26A
100
AcDbEntity
  8
0
100
AcDbLine
 62
7
  6
CONTINUOUS
 10
820.9428472387
 20
180.8044193654
 11
820.9428472387
 21
179.460844215
  0
LINE
  5
26B
100
AcDbEntity
  8
0
100
AcDbLine
 62
7
  6
CONTINUOUS
 10
822.654948573
 20
1413.2111520652
 11
822.654948573
 21
209.8768582564
  0
LINE
  5
26C
100
AcDbEntity
  8
0
100
AcDbLine
 62
7
  6
CONTINUOUS
 10
825.7475151535
 20
209.6734373329
 11
825.7475151535
 21
1413.0077311417
  0
LINE
  5
26D
100
AcDbEntity
  8
0
100
AcDbLine
 62
7
  6
CONTINUOUS
 10
829.2814694175
 20
210.950010249
 11
829.2814694175
 21
174.6466473713
  0
LINE
  5
26E
100
AcDbEntity
  8
0
100
AcDbLine
 62
7
  6
CONTINUOUS
 10
829.2814694175
 20
1414.2843040578
 11
829.2814694175
 21
1450.5876669397
  0
LINE
  5
26F
100
AcDbEntity
  8
0
100
AcDbLine
 62
7
  6
CONTINUOUS
 10
836.0886819315
 20
1454.5224036509
 11
836.0886819315
 21
175.6298594919
  0
LINE
  5
270
100
AcDbEntity
  8
0
100
AcDbLine
 62
7
  6
CONTINUOUS
 10
837.5035308214
 20
177.7816163016
 11
837.5035308214
 21
1455.3067966418
  0
LINE
  5
271
100
AcDbEntity
  8
0
100
AcDbLine
 62
7
  6
CONTINUOUS
 10
828.0792340427
 20
1414.9313148301
 11
828.1200109489
 21
1449.9146449789
  0
LINE
  5
272
100
AcDbEntity
  8
0
100
AcDbLine
 62
7
  6
CONTINUOUS
 10
786.5302898584
 20
1470.746673317
 11
786.730789616
 21
1470.2502688334
  0
LINE
  5
273
100
AcDbEntity
  8
0
100
AcDbLine
 62
7
  6
CONTINUOUS
 10
786.730789616
 20
196.9963995615
 11
786.5302898584
 21
196.5029995008
  0
LINE
  5
274
100
AcDbEntity
  8
0
100
AcDbLine
 62
7
  6
CONTINUOUS
 10
776.9256931504
 20
1385.3979805162
 11
774.8344739836
 21
1386.6053191514
  0
LINE
  5
275
100
AcDbEntity
  8
0
100
AcDbLine
 62
7
  6
CONTINUOUS
 10
774.8344739836
 20
1387.7483932767
 11
776.6931991541
 21
1386.6752820636
  0
LINE
  5
276
100
AcDbEntity
  8
0
100
AcDbLine
 62
7
  6
CONTINUOUS
 10
440.3214092618
 20
1601.9780821713
 11
765.9150257482
 21
1414.0007726614
  0
LINE
  5
277
100
AcDbEntity
  8
0
100
AcDbLine
 62
7
  6
CONTINUOUS
 10
770.580365177
 20
1416.7013797216
 11
440.8660707277
 21
1607.057709942
  0
LINE
  5
278
100
AcDbEntity
  8
0
100
AcDbLine
 62
7
  6
CONTINUOUS
 10
497.9709660481
 20
1575.5430901575
 11
499.3851854983
 21
1574.7266086485
  0
LINE
  5
279
100
AcDbEntity
  8
0
100
AcDbLine
 62
7
  6
CONTINUOUS
 10
715.3364955582
 20
1450.049882218
 11
716.7507150085
 21
1449.233400709
  0
LINE
  5
27A
100
AcDbEntity
  8
0
100
AcDbLine
 62
7
  6
CONTINUOUS
 10
447.6653493139
 20
1608.0397761156
 11
456.0039714928
 21
1603.2255792676
  0
LINE
  5
27B
100
AcDbEntity
  8
0
100
AcDbLine
 62
7
  6
CONTINUOUS
 10
766.4958518048
 20
1423.9670639578
 11
774.8344739836
 21
1419.1528671099
  0
LINE
  5
27C
100
AcDbEntity
  8
0
100
AcDbLine
 62
7
  6
CONTINUOUS
 10
456.0855253051
 20
1603.250912618
 11
484.134119953
 21
1587.0574152935
  0
LINE
  5
27D
100
AcDbEntity
  8
0
100
AcDbLine
 62
7
  6
CONTINUOUS
 10
738.5288109692
 20
1440.1858946326
 11
766.5774056171
 21
1423.9923973081
  0
LINE
  5
27E
100
AcDbEntity
  8
0
100
AcDbLine
 62
7
  6
CONTINUOUS
 10
503.6277967458
 20
1576.4282015622
 11
505.0420161961
 21
1575.6117200531
  0
LINE
  5
27F
100
AcDbEntity
  8
0
100
AcDbLine
 62
7
  6
CONTINUOUS
 10
720.9933262559
 20
1450.9349936226
 11
722.4075457062
 21
1450.1185121136
  0
LINE
  5
280
100
AcDbEntity
  8
0
100
AcDbLine
 62
7
  6
CONTINUOUS
 10
722.4075457062
 20
1450.9906024113
 11
720.9933262559
 21
1451.8070839203
  0
LINE
  5
281
100
AcDbEntity
  8
0
100
AcDbLine
 62
7
  6
CONTINUOUS
 10
505.0420161961
 20
1576.4838103508
 11
503.6277967458
 21
1577.3002918598
  0
LINE
  5
282
100
AcDbEntity
  8
0
100
AcDbLine
 62
7
  6
CONTINUOUS
 10
770.5754011516
 20
137.8059749763
 11
774.8344739836
 21
143.2118475415
  0
LINE
  5
283
100
AcDbEntity
  8
0
100
AcDbLine
 62
7
  6
CONTINUOUS
 10
792.9443073923
 20
1470.2866390497
 11
792.3149387595
 21
1470.2084305125
  0
LINE
  5
284
100
AcDbEntity
  8
0
100
AcDbLine
 62
7
  6
CONTINUOUS
 10
792.8126987784
 20
1471.5265247936
 11
786.5302898584
 21
1470.746673317
  0
LINE
  5
285
100
AcDbEntity
  8
0
100
AcDbLine
 62
7
  6
CONTINUOUS
 10
490.416528873
 20
1586.1834239818
 11
738.4472300026
 21
1442.9860714743
  0
LINE
  5
286
100
AcDbEntity
  8
0
100
AcDbLine
 62
7
  6
CONTINUOUS
 10
822.654948573
 20
1413.2111520652
 11
813.6444354302
 21
1418.4132565056
  0
LINE
  5
287
100
AcDbEntity
  8
0
100
AcDbLine
 62
7
  6
CONTINUOUS
 10
509.2641326147
 20
1594.1433307267
 11
500.2536195773
 21
1599.3454352278
  0
LINE
  5
288
100
AcDbEntity
  8
0
100
AcDbLine
 62
7
  6
CONTINUOUS
 10
500.021125581
 20
1600.6227367753
 11
510.2540780395
 21
1594.7148725725
  0
LINE
  5
289
100
AcDbEntity
  8
0
100
AcDbLine
 62
7
  6
CONTINUOUS
 10
814.634380855
 20
1418.9847983514
 11
824.8673333135
 21
1413.0769341486
  0
LINE
  5
28A
100
AcDbEntity
  8
0
100
AcDbLine
 62
7
  6
CONTINUOUS
 10
502.1123447478
 20
1603.1712130635
 11
503.2738032164
 21
1602.500659874
  0
LINE
  5
28B
100
AcDbEntity
  8
0
100
AcDbLine
 62
7
  6
CONTINUOUS
 10
828.1200109489
 20
1414.9548572473
 11
829.2814694175
 21
1414.2843040578
  0
LINE
  5
28C
100
AcDbEntity
  8
0
100
AcDbLine
 62
7
  6
CONTINUOUS
 10
786.730789616
 20
1470.2502688334
 11
538.4969851154
 21
1613.564880474
  0
LINE
  5
28D
100
AcDbEntity
  8
0
100
AcDbLine
 62
7
  6
CONTINUOUS
 10
786.5302898584
 20
1470.746673317
 11
538.4995887288
 21
1613.9440258246
  0
LINE
  5
28E
100
AcDbEntity
  8
0
100
AcDbLine
 62
7
  6
CONTINUOUS
 10
554.5392730252
 20
1606.6938709386
 11
555.9534924755
 21
1605.8773894295
  0
LINE
  5
28F
100
AcDbEntity
  8
0
100
AcDbLine
 62
7
  6
CONTINUOUS
 10
771.9048025353
 20
1481.200662999
 11
773.3190219856
 21
1480.38418149
  0
LINE
  5
290
100
AcDbEntity
  8
0
100
AcDbLine
 62
7
  6
CONTINUOUS
 10
820.9020703325
 20
1454.03474622
 11
792.8534756846
 21
1470.2282435445
  0
LINE
  5
291
100
AcDbEntity
  8
0
100
AcDbLine
 62
7
  6
CONTINUOUS
 10
538.4587846684
 20
1617.0997642054
 11
510.4101900204
 21
1633.2932615299
  0
LINE
  5
292
100
AcDbEntity
  8
0
100
AcDbLine
 62
7
  6
CONTINUOUS
 10
510.4101900204
 20
1633.2932615299
 11
503.2738032164
 21
1637.4604476055
  0
LINE
  5
293
100
AcDbEntity
  8
0
100
AcDbLine
 62
7
  6
CONTINUOUS
 10
777.0455653171
 20
181.5555213261
 11
774.8344739836
 21
179.5152104192
  0
LINE
  5
294
100
AcDbEntity
  8
0
100
AcDbLine
 62
7
  6
CONTINUOUS
 10
792.3149387595
 20
1470.2084305125
 11
786.730789616
 21
1470.2502688334
  0
LINE
  5
295
100
AcDbEntity
  8
0
100
AcDbLine
 62
7
  6
CONTINUOUS
 10
828.1200109489
 20
1449.9146449789
 11
820.9020703325
 21
1454.03474622
  0
LINE
  5
296
100
AcDbEntity
  8
0
100
AcDbLine
 62
7
  6
CONTINUOUS
 10
820.8612934263
 20
1455.3330274691
 11
792.8126987784
 21
1471.5265247936
  0
LINE
  5
297
100
AcDbEntity
  8
0
100
AcDbLine
 62
7
  6
CONTINUOUS
 10
538.4180077622
 20
1618.3980454545
 11
510.3694131143
 21
1634.591542779
  0
LINE
  5
298
100
AcDbEntity
  8
0
100
AcDbLine
 62
7
  6
CONTINUOUS
 10
829.2814694175
 20
1450.5876669397
 11
820.9428472387
 21
1455.4018637876
  0
LINE
  5
299
100
AcDbEntity
  8
0
100
AcDbLine
 62
7
  6
CONTINUOUS
 10
510.4509669266
 20
1634.6603790975
 11
502.1123447478
 21
1639.4745759454
  0
LINE
  5
29A
100
AcDbEntity
  8
0
100
AcDbLine
 62
7
  6
CONTINUOUS
 10
560.1961037229
 20
1609.0877338719
 11
561.6103231732
 21
1608.2712523629
  0
LINE
  5
29B
100
AcDbEntity
  8
0
100
AcDbLine
 62
7
  6
CONTINUOUS
 10
777.5616332331
 20
1483.5945259323
 11
778.9758526833
 21
1482.7780444233
  0
LINE
  5
29C
100
AcDbEntity
  8
0
100
AcDbLine
 62
7
  6
CONTINUOUS
 10
778.9758526833
 20
1485.1588862497
 11
777.5616332331
 21
1485.9753677587
  0
LINE
  5
29D
100
AcDbEntity
  8
0
100
AcDbLine
 62
7
  6
CONTINUOUS
 10
561.6103231732
 20
1610.6520941892
 11
560.1961037229
 21
1611.4685756982
  0
LINE
  5
29E
100
AcDbEntity
  8
0
100
AcDbLine
 62
7
  6
CONTINUOUS
 10
506.3664535544
 20
1644.8741478653
 11
836.0807480037
 21
1454.517817645
  0
LINE
  5
29F
100
AcDbEntity
  8
0
100
AcDbLine
 62
7
  6
CONTINUOUS
 10
837.5040685455
 20
1455.3054288722
 11
508.8936757033
 21
1645.0244356208
  0
LINE
  5
2A0
100
AcDbEntity
  8
0
100
AcDbLine
 62
7
  6
CONTINUOUS
 10
484.134119953
 20
1587.0574152935
 11
490.416528873
 21
1586.1834239818
  0
LINE
  5
2A1
100
AcDbEntity
  8
0
100
AcDbLine
 62
7
  6
CONTINUOUS
 10
829.2814694175
 20
210.950010249
 11
825.7475151535
 21
209.6734373329
  0
LINE
  5
2A2
100
AcDbEntity
  8
0
100
AcDbLine
 62
7
  6
CONTINUOUS
 10
440.8581368
 20
1607.0565639907
 11
447.6653493139
 21
1608.0397761113
  0
ARC
  5
2A3
100
AcDbEntity
  8
0
100
AcDbCircle
 62
7
  6
CONTINUOUS
 10
444.7626681171
 20
382.8697590701
 40
2.4561300705
100
AcDbArc
 50
97.6472831797
 51
103.0546408674
  0
ARC
  5
2A4
100
AcDbEntity
  8
0
100
AcDbCircle
 62
7
  6
CONTINUOUS
 10
444.7626681171
 20
750.2958467786
 40
2.4561300703
100
AcDbArc
 50
97.6472831795
 51
103.0546408676
  0
ARC
  5
2A5
100
AcDbEntity
  8
0
100
AcDbCircle
 62
7
  6
CONTINUOUS
 10
448.8248006311
 20
743.268900014
 40
2.4434046071
100
AcDbArc
 50
316.9342114487
 51
322.2913260039
  0
ARC
  5
2A6
100
AcDbEntity
  8
0
100
AcDbCircle
 62
7
  6
CONTINUOUS
 10
448.8248006311
 20
375.8428123057
 40
2.443404607
100
AcDbArc
 50
316.9342114487
 51
322.291326004
  0
ARC
  5
2A7
100
AcDbEntity
  8
0
100
AcDbCircle
 62
7
  6
CONTINUOUS
 10
511.5819016761
 20
1580.2847472221
 40
9.4211166334
100
AcDbArc
 50
210.0064038734
 51
216.8377762682
  0
ARC
  5
2A8
100
AcDbEntity
  8
0
100
AcDbCircle
 62
7
  6
CONTINUOUS
 10
511.5510714169
 20
1580.2717623764
 40
9.387925817
100
AcDbArc
 50
202.9980875477
 51
210.0318761213
  0
ARC
  5
2A9
100
AcDbEntity
  8
0
100
AcDbCircle
 62
7
  6
CONTINUOUS
 10
510.4861608856
 20
1579.6437489443
 40
9.2947360615
100
AcDbArc
 50
210.1691952677
 51
219.82415652
  0
ARC
  5
2AA
100
AcDbEntity
  8
0
100
AcDbCircle
 62
7
  6
CONTINUOUS
 10
559.8788754969
 20
1605.2664930129
 40
3.4679229816
100
AcDbArc
 50
55.156915227
 51
60.047945842
  0
ARC
  5
2AB
100
AcDbEntity
  8
0
100
AcDbCircle
 62
7
  6
CONTINUOUS
 10
499.7024025189
 20
1573.4234586248
 40
3.4679031441
100
AcDbArc
 50
119.952478447
 51
124.842941567
  0
ARC
  5
2AC
100
AcDbEntity
  8
0
100
AcDbCircle
 62
7
  6
CONTINUOUS
 10
499.5623497869
 20
1574.2654777418
 40
2.7541053475
100
AcDbArc
 50
86.6132219468
 51
89.5064572084
  0
ARC
  5
2AD
100
AcDbEntity
  8
0
100
AcDbCircle
 62
7
  6
CONTINUOUS
 10
514.4123960826
 20
1586.5977526362
 40
2.4561300703
100
AcDbArc
 50
97.6472831797
 51
103.0546408677
  0
ARC
  5
2AE
100
AcDbEntity
  8
0
100
AcDbCircle
 62
7
  6
CONTINUOUS
 10
444.7626681171
 20
1178.9596157716
 40
2.4561300703
100
AcDbArc
 50
97.6472831795
 51
103.0546408676
  0
ARC
  5
2AF
100
AcDbEntity
  8
0
100
AcDbCircle
 62
7
  6
CONTINUOUS
 10
444.7626681171
 20
1546.3857034798
 40
2.4561300704
100
AcDbArc
 50
97.6472831797
 51
103.0546408675
  0
ARC
  5
2B0
100
AcDbEntity
  8
0
100
AcDbCircle
 62
7
  6
CONTINUOUS
 10
555.8194518482
 20
1607.2416132392
 40
2.4489937067
100
AcDbArc
 50
151.0941749395
 51
154.090303693
  0
ARC
  5
2B1
100
AcDbEntity
  8
0
100
AcDbCircle
 62
7
  6
CONTINUOUS
 10
518.4745285967
 20
1579.5708058716
 40
2.4434046069
100
AcDbArc
 50
316.9342114486
 51
322.2913260041
  0
ARC
  5
2B2
100
AcDbEntity
  8
0
100
AcDbCircle
 62
7
  6
CONTINUOUS
 10
448.8248006311
 20
1539.3587567153
 40
2.443404607
100
AcDbArc
 50
316.9342114486
 51
322.291326004
  0
ARC
  5
2B3
100
AcDbEntity
  8
0
100
AcDbCircle
 62
7
  6
CONTINUOUS
 10
448.8248006311
 20
1171.932669007
 40
2.4434046071
100
AcDbArc
 50
316.9342114488
 51
322.291326004
  0
ARC
  5
2B4
100
AcDbEntity
  8
0
100
AcDbCircle
 62
7
  6
CONTINUOUS
 10
503.4279117308
 20
1579.4802565714
 40
2.1298469332
100
AcDbArc
 50
95.3883498645
 51
101.3039068432
  0
ARC
  5
2B5
100
AcDbEntity
  8
0
100
AcDbCircle
 62
7
  6
CONTINUOUS
 10
504.3129431012
 20
1573.7170879115
 40
1.9646541708
100
AcDbArc
 50
33.4566352009
 51
38.7152832598
  0
ARC
  5
2B6
100
AcDbEntity
  8
0
100
AcDbCircle
 62
7
  6
CONTINUOUS
 10
777.3340157992
 20
212.2069783197
 40
6.5397418397
100
AcDbArc
 50
270.8029645357
 51
273.0768701248
  0
ARC
  5
2B7
100
AcDbEntity
  8
0
100
AcDbCircle
 62
7
  6
CONTINUOUS
 10
777.2444164475
 20
209.2629644757
 40
3.4679026956
100
AcDbArc
 50
299.9524782357
 51
304.84295213
  0
ARC
  5
2B8
100
AcDbEntity
  8
0
100
AcDbCircle
 62
7
  6
CONTINUOUS
 10
757.305166632
 20
202.4273455722
 40
2.4561300704
100
AcDbArc
 50
97.6472831796
 51
103.0546408675
  0
ARC
  5
2B9
100
AcDbEntity
  8
0
100
AcDbCircle
 62
7
  6
CONTINUOUS
 10
757.305166632
 20
569.8534332805
 40
2.4561300704
100
AcDbArc
 50
97.6472831796
 51
103.0546408675
  0
ARC
  5
2BA
100
AcDbEntity
  8
0
100
AcDbCircle
 62
7
  6
CONTINUOUS
 10
761.3672991461
 20
562.8264865159
 40
2.4434046069
100
AcDbArc
 50
316.9342114486
 51
322.2913260041
  0
ARC
  5
2BB
100
AcDbEntity
  8
0
100
AcDbCircle
 62
7
  6
CONTINUOUS
 10
761.3672991461
 20
195.4003988076
 40
2.4434046069
100
AcDbArc
 50
316.9342114486
 51
322.2913260041
  0
ARC
  5
2BC
100
AcDbEntity
  8
0
100
AcDbCircle
 62
7
  6
CONTINUOUS
 10
815.9704102422
 20
235.5218985827
 40
2.1298470026
100
AcDbArc
 50
95.3883495335
 51
101.303906633
  0
ARC
  5
2BD
100
AcDbEntity
  8
0
100
AcDbCircle
 62
7
  6
CONTINUOUS
 10
815.9704102422
 20
602.9479862909
 40
2.1298470027
100
AcDbArc
 50
95.3883495336
 51
101.3039066329
  0
ARC
  5
2BE
100
AcDbEntity
  8
0
100
AcDbCircle
 62
7
  6
CONTINUOUS
 10
819.3594008183
 20
597.0857471886
 40
2.1189266523
100
AcDbArc
 50
318.6952515199
 51
324.5564466723
  0
ARC
  5
2BF
100
AcDbEntity
  8
0
100
AcDbCircle
 62
7
  6
CONTINUOUS
 10
819.3594008183
 20
229.6596594803
 40
2.1189266522
100
AcDbArc
 50
318.6952515198
 51
324.5564466723
  0
ARC
  5
2C0
100
AcDbEntity
  8
0
100
AcDbCircle
 62
7
  6
CONTINUOUS
 10
871.8769045262
 20
1391.1841933356
 40
72.7486305427
100
AcDbArc
 50
119.2598916748
 51
119.4544458986
  0
ARC
  5
2C1
100
AcDbEntity
  8
0
100
AcDbCircle
 62
7
  6
CONTINUOUS
 10
777.244405007
 20
1479.7732850732
 40
3.4679229819
100
AcDbArc
 50
55.1569152271
 51
60.0479458419
  0
ARC
  5
2C2
100
AcDbEntity
  8
0
100
AcDbCircle
 62
7
  6
CONTINUOUS
 10
717.0679320291
 20
1447.9302506853
 40
3.467903144
100
AcDbArc
 50
119.9524784469
 51
124.8429415671
  0
ARC
  5
2C3
100
AcDbEntity
  8
0
100
AcDbCircle
 62
7
  6
CONTINUOUS
 10
716.9278792971
 20
1448.7722698019
 40
2.7541053479
100
AcDbArc
 50
86.6132219471
 51
89.5064572083
  0
ARC
  5
2C4
100
AcDbEntity
  8
0
100
AcDbCircle
 62
7
  6
CONTINUOUS
 10
757.305166632
 20
998.5172022736
 40
2.4561300703
100
AcDbArc
 50
97.6472831795
 51
103.0546408676
  0
ARC
  5
2C5
100
AcDbEntity
  8
0
100
AcDbCircle
 62
7
  6
CONTINUOUS
 10
757.305166632
 20
1365.9432899819
 40
2.4561300703
100
AcDbArc
 50
97.6472831796
 51
103.0546408676
  0
ARC
  5
2C6
100
AcDbEntity
  8
0
100
AcDbCircle
 62
7
  6
CONTINUOUS
 10
773.184981358
 20
1481.7484052999
 40
2.4489937062
100
AcDbArc
 50
151.0941749391
 51
154.0903036932
  0
ARC
  5
2C7
100
AcDbEntity
  8
0
100
AcDbCircle
 62
7
  6
CONTINUOUS
 10
761.367299146
 20
1358.9163432174
 40
2.4434046071
100
AcDbArc
 50
316.9342114487
 51
322.2913260039
  0
ARC
  5
2C8
100
AcDbEntity
  8
0
100
AcDbCircle
 62
7
  6
CONTINUOUS
 10
761.3672991462
 20
991.4902555089
 40
2.4434046068
100
AcDbArc
 50
316.9342114485
 51
322.2913260042
  0
ARC
  5
2C9
100
AcDbEntity
  8
0
100
AcDbCircle
 62
7
  6
CONTINUOUS
 10
815.9704102422
 20
1031.6117552839
 40
2.1298470028
100
AcDbArc
 50
95.3883495337
 51
101.3039066329
  0
ARC
  5
2CA
100
AcDbEntity
  8
0
100
AcDbCircle
 62
7
  6
CONTINUOUS
 10
815.9704102422
 20
1399.0378429923
 40
2.1298470027
100
AcDbArc
 50
95.3883495335
 51
101.3039066328
  0
ARC
  5
2CB
100
AcDbEntity
  8
0
100
AcDbCircle
 62
7
  6
CONTINUOUS
 10
819.3594008183
 20
1393.1756038899
 40
2.1189266522
100
AcDbArc
 50
318.6952515197
 51
324.5564466722
  0
ARC
  5
2CC
100
AcDbEntity
  8
0
100
AcDbCircle
 62
7
  6
CONTINUOUS
 10
819.3594008183
 20
1025.7495161816
 40
2.1189266522
100
AcDbArc
 50
318.6952515197
 51
324.5564466723
  0
ARC
  5
2CD
100
AcDbEntity
  8
0
100
AcDbCircle
 62
7
  6
CONTINUOUS
 10
721.6784726114
 20
1448.2238799719
 40
1.9646541708
100
AcDbArc
 50
33.4566352008
 51
38.7152832596
  0
SPLINE
  5
2CE
100
AcDbEntity
  8
0
100
AcDbSpline
 62
7
  6
CONTINUOUS
 70
0
 71
3
 72
8
 73
4
 74
0
 42
0.0000001
 43
0.0000001
 44
0.0000000001
 40
0.0
 40
0.0
 40
0.0
 40
0.0
 40
1.0
 40
1.0
 40
1.0
 40
1.0
 10
836.0886819315
 20
175.6272460711
 30
0.0
 10
836.2726358006
 20
175.6559517507
 30
0.0
 10
836.480278038
 20
175.7066673743
 30
0.0
 10
836.6019068953
 20
175.8476264572
 30
0.0
  0
SPLINE
  5
2CF
100
AcDbEntity
  8
0
100
AcDbSpline
 62
7
  6
CONTINUOUS
 70
0
 71
3
 72
9
 73
5
 74
0
 42
0.0000001
 43
0.0000001
 44
0.0000000001
 40
0.0
 40
0.0
 40
0.0
 40
0.0
 40
0.2407194189
 40
1.0
 40
1.0
 40
1.0
 40
1.0
 10
560.1961037229
 20
1609.0877338719
 30
0.0
 10
559.7945408116
 20
1609.3195710819
 30
0.0
 10
557.9749203263
 20
1609.9756457505
 30
0.0
 10
555.8058595901
 20
1609.8189936012
 30
0.0
 10
554.5392494734
 20
1609.0877202745
 30
0.0
  0
SPLINE
  5
2D0
100
AcDbEntity
  8
0
100
AcDbSpline
 62
7
  6
CONTINUOUS
 70
0
 71
3
 72
8
 73
4
 74
0
 42
0.0000001
 43
0.0000001
 44
0.0000000001
 40
0.0
 40
0.0
 40
0.0
 40
0.0
 40
1.0
 40
1.0
 40
1.0
 40
1.0
 10
771.9047789836
 20
1483.5945123349
 30
0.0
 10
771.5801143132
 20
1483.407068219
 30
0.0
 10
771.2724244229
 20
1483.1651473172
 30
0.0
 10
771.050529082
 20
1482.8629803063
 30
0.0
  0
SPLINE
  5
2D1
100
AcDbEntity
  8
0
100
AcDbSpline
 62
7
  6
CONTINUOUS
 70
0
 71
3
 72
9
 73
5
 74
0
 42
0.0000001
 43
0.0000001
 44
0.0000000001
 40
0.0
 40
0.0
 40
0.0
 40
0.0
 40
0.2407194189
 40
1.0
 40
1.0
 40
1.0
 40
1.0
 10
777.5616332331
 20
1483.5945259323
 30
0.0
 10
777.1600703218
 20
1483.8263631424
 30
0.0
 10
775.3404498365
 20
1484.482437811
 30
0.0
 10
773.1713891003
 20
1484.3257856617
 30
0.0
 10
771.9047789836
 20
1483.5945123349
 30
0.0
  0
SPLINE
  5
2D2
100
AcDbEntity
  8
0
100
AcDbSpline
 62
7
  6
CONTINUOUS
 70
0
 71
3
 72
8
 73
4
 74
0
 42
0.0000001
 43
0.0000001
 44
0.0000000001
 40
0.0
 40
0.0
 40
0.0
 40
0.0
 40
1.0
 40
1.0
 40
1.0
 40
1.0
 10
554.5392494734
 20
1609.0877202745
 30
0.0
 10
554.214584803
 20
1608.9002761585
 30
0.0
 10
553.9068949127
 20
1608.6583552568
 30
0.0
 10
553.6849995719
 20
1608.3561882458
 30
0.0
  0
SPLINE
  5
2D3
100
AcDbEntity
  8
0
100
AcDbSpline
 62
7
  6
CONTINUOUS
 70
0
 71
3
 72
8
 73
4
 74
0
 42
0.0000001
 43
0.0000001
 44
0.0000000001
 40
0.0
 40
0.0
 40
0.0
 40
0.0
 40
1.0
 40
1.0
 40
1.0
 40
1.0
 10
778.9758762351
 20
206.2582355179
 30
0.0
 10
778.5833738565
 20
206.0316255166
 30
0.0
 10
778.1490398377
 20
205.8727937978
 30
0.0
 10
777.7088145934
 20
205.7650350667
 30
0.0
  0
SPLINE
  5
2D4
100
AcDbEntity
  8
0
100
AcDbSpline
 62
7
  6
CONTINUOUS
 70
0
 71
3
 72
9
 73
5
 74
0
 42
0.0000001
 43
0.0000001
 44
0.0000000001
 40
0.0
 40
0.0
 40
0.0
 40
0.0
 40
0.2245236873
 40
1.0
 40
1.0
 40
1.0
 40
1.0
 10
502.8128962168
 20
1581.3629817413
 30
0.0
 10
502.7240372502
 20
1581.2383321755
 30
0.0
 10
502.3868020589
 20
1580.6408401215
 30
0.0
 10
502.2838767015
 20
1579.9359099137
 30
0.0
 10
502.2838767015
 20
1579.4071916612
 30
0.0
  0
SPLINE
  5
2D5
100
AcDbEntity
  8
0
100
AcDbSpline
 62
7
  6
CONTINUOUS
 70
0
 71
3
 72
8
 73
4
 74
0
 42
0.0000001
 43
0.0000001
 44
0.0000000001
 40
0.0
 40
0.0
 40
0.0
 40
0.0
 40
1.0
 40
1.0
 40
1.0
 40
1.0
 10
502.4330894683
 20
1581.3533992457
 30
0.0
 10
502.6110338475
 20
1581.4559992795
 30
0.0
 10
502.8090398109
 20
1581.5283973841
 30
0.0
 10
503.0104340242
 20
1581.5687872328
 30
0.0
  0
SPLINE
  5
2D6
100
AcDbEntity
  8
0
100
AcDbSpline
 62
7
  6
CONTINUOUS
 70
0
 71
3
 72
9
 73
5
 74
0
 42
0.0000001
 43
0.0000001
 44
0.0000000001
 40
0.0
 40
0.0
 40
0.0
 40
0.0
 40
0.2245627704
 40
1.0
 40
1.0
 40
1.0
 40
1.0
 10
503.2279065791
 20
1581.6006918801
 30
0.0
 10
503.3788073057
 20
1581.6150248509
 30
0.0
 10
504.0579487745
 20
1581.6090044064
 30
0.0
 10
504.7136461471
 20
1581.3498755522
 30
0.0
 10
505.1678301061
 20
1581.0897109128
 30
0.0
  0
SPLINE
  5
2D7
100
AcDbEntity
  8
0
100
AcDbSpline
 62
7
  6
CONTINUOUS
 70
0
 71
3
 72
9
 73
5
 74
0
 42
0.0000001
 43
0.0000001
 44
0.0000000001
 40
0.0
 40
0.0
 40
0.0
 40
0.0
 40
0.2330003093
 40
1.0
 40
1.0
 40
1.0
 40
1.0
 10
505.1678301061
 20
1581.0897109128
 30
0.0
 10
505.6256990391
 20
1580.8274354548
 30
0.0
 10
507.4115033188
 20
1579.4119590665
 30
0.0
 10
508.5996539812
 20
1577.2684741821
 30
0.0
 10
508.9428130131
 20
1575.5657136702
 30
0.0
  0
SPLINE
  5
2D8
100
AcDbEntity
  8
0
100
AcDbSpline
 62
7
  6
CONTINUOUS
 70
0
 71
3
 72
9
 73
5
 74
0
 42
0.0000001
 43
0.0000001
 44
0.0000000001
 40
0.0
 40
0.0
 40
0.0
 40
0.0
 40
0.2236097662
 40
1.0
 40
1.0
 40
1.0
 40
1.0
 10
513.6465269861
 20
1588.7805688677
 30
0.0
 10
513.5317556802
 20
1588.6322906548
 30
0.0
 10
513.0930487218
 20
1587.9104381346
 30
0.0
 10
512.9611387555
 20
1587.0392020134
 30
0.0
 10
512.9611387555
 20
1586.3881632931
 30
0.0
  0
SPLINE
  5
2D9
100
AcDbEntity
  8
0
100
AcDbSpline
 62
7
  6
CONTINUOUS
 70
0
 71
3
 72
8
 73
4
 74
0
 42
0.0000001
 43
0.0000001
 44
0.0000000001
 40
0.0
 40
0.0
 40
0.0
 40
0.0
 40
1.0
 40
1.0
 40
1.0
 40
1.0
 10
513.2467608153
 20
1588.751319089
 30
0.0
 10
513.4361848459
 20
1588.860538116
 30
0.0
 10
513.6446248128
 20
1588.9409098142
 30
0.0
 10
513.8576049983
 20
1588.9904042563
 30
0.0
  0
SPLINE
  5
2DA
100
AcDbEntity
  8
0
100
AcDbSpline
 62
7
  6
CONTINUOUS
 70
0
 71
3
 72
9
 73
5
 74
0
 42
0.0000001
 43
0.0000001
 44
0.0000000001
 40
0.0
 40
0.0
 40
0.0
 40
0.0
 40
0.223710445
 40
1.0
 40
1.0
 40
1.0
 40
1.0
 10
514.0855481873
 20
1589.0320380295
 30
0.0
 10
514.2696992036
 20
1589.0568588102
 30
0.0
 10
515.1060643234
 20
1589.0763760563
 30
0.0
 10
515.9192240467
 20
1588.7601806845
 30
0.0
 10
516.4787270425
 20
1588.4396874337
 30
0.0
  0
SPLINE
  5
2DB
100
AcDbEntity
  8
0
100
AcDbSpline
 62
7
  6
CONTINUOUS
 70
0
 71
3
 72
9
 73
5
 74
0
 42
0.0000001
 43
0.0000001
 44
0.0000000001
 40
0.0
 40
0.0
 40
0.0
 40
0.0
 40
0.4997026044
 40
1.0
 40
1.0
 40
1.0
 40
1.0
 10
516.4787270425
 20
1588.4396874337
 30
0.0
 10
517.8476617471
 20
1587.6555373276
 30
0.0
 10
520.0118970533
 20
1585.1647038572
 30
0.0
 10
521.0929094265
 20
1582.0481615099
 30
0.0
 10
521.0929094265
 20
1580.4686672535
 30
0.0
  0
SPLINE
  5
2DC
100
AcDbEntity
  8
0
100
AcDbSpline
 62
7
  6
CONTINUOUS
 70
0
 71
3
 72
9
 73
5
 74
0
 42
0.0000001
 43
0.0000001
 44
0.0000000001
 40
0.0
 40
0.0
 40
0.0
 40
0.0
 40
0.2807306068
 40
1.0
 40
1.0
 40
1.0
 40
1.0
 10
521.0929094265
 20
1580.4686672535
 30
0.0
 10
521.0929094265
 20
1580.2336599483
 30
0.0
 10
521.0455041587
 20
1579.4013047075
 30
0.0
 10
520.7761028687
 20
1578.5524782719
 30
0.0
 10
520.4075815923
 20
1578.0763052227
 30
0.0
  0
SPLINE
  5
2DD
100
AcDbEntity
  8
0
100
AcDbSpline
 62
7
  6
CONTINUOUS
 70
0
 71
3
 72
8
 73
4
 74
0
 42
0.0000001
 43
0.0000001
 44
0.0000000001
 40
0.0
 40
0.0
 40
0.0
 40
0.0
 40
1.0
 40
1.0
 40
1.0
 40
1.0
 10
520.2596070202
 20
1577.9023571623
 30
0.0
 10
520.1101712646
 20
1577.7426286519
 30
0.0
 10
519.9361229495
 20
1577.6024030626
 30
0.0
 10
519.7466316109
 20
1577.4931452268
 30
0.0
  0
SPLINE
  5
2DE
100
AcDbEntity
  8
0
100
AcDbSpline
 62
7
  6
CONTINUOUS
 70
0
 71
3
 72
9
 73
5
 74
0
 42
0.0000001
 43
0.0000001
 44
0.0000000001
 40
0.0
 40
0.0
 40
0.0
 40
0.0
 40
0.7661701884
 40
1.0
 40
1.0
 40
1.0
 40
1.0
 10
825.7475151535
 20
209.6734373329
 30
0.0
 10
824.9910994272
 20
209.4005477477
 30
0.0
 10
823.851824669
 20
209.3719511083
 30
0.0
 10
822.867486681
 20
209.7541520985
 30
0.0
 10
822.654948573
 20
209.8768582564
 30
0.0
  0
SPLINE
  5
2DF
100
AcDbEntity
  8
0
100
AcDbSpline
 62
7
  6
CONTINUOUS
 70
0
 71
3
 72
9
 73
5
 74
0
 42
0.0000001
 43
0.0000001
 44
0.0000000001
 40
0.0
 40
0.0
 40
0.0
 40
0.0
 40
0.4997671378
 40
1.0
 40
1.0
 40
1.0
 40
1.0
 10
814.8263752164
 20
1398.9647781633
 30
0.0
 10
814.8263752164
 20
1397.6353062751
 30
0.0
 10
815.7334317835
 20
1395.0085496691
 30
0.0
 10
817.5500955916
 20
1392.9068642179
 30
0.0
 10
818.7002740219
 20
1392.2376252382
 30
0.0
  0
SPLINE
  5
2E0
100
AcDbEntity
  8
0
100
AcDbSpline
 62
7
  6
CONTINUOUS
 70
0
 71
3
 72
9
 73
5
 74
0
 42
0.0000001
 43
0.0000001
 44
0.0000000001
 40
0.0
 40
0.0
 40
0.0
 40
0.0
 40
0.280349595
 40
1.0
 40
1.0
 40
1.0
 40
1.0
 10
818.7002740219
 20
1392.2376252382
 30
0.0
 10
818.8668694902
 20
1392.1406905555
 30
0.0
 10
819.4768510943
 20
1391.8287841994
 30
0.0
 10
820.1841141947
 20
1391.661610804
 30
0.0
 10
820.6765416336
 20
1391.7096991593
 30
0.0
  0
SPLINE
  5
2E1
100
AcDbEntity
  8
0
100
AcDbSpline
 62
7
  6
CONTINUOUS
 70
0
 71
3
 72
9
 73
5
 74
0
 42
0.0000001
 43
0.0000001
 44
0.0000000001
 40
0.0
 40
0.0
 40
0.0
 40
0.0
 40
0.2245236876
 40
1.0
 40
1.0
 40
1.0
 40
1.0
 10
815.3553947144
 20
237.4046238092
 30
0.0
 10
815.2665357507
 20
237.2799742438
 30
0.0
 10
814.9293005709
 20
236.6824821949
 30
0.0
 10
814.8263752164
 20
235.9775519983
 30
0.0
 10
814.8263752164
 20
235.4488337536
 30
0.0
  0
SPLINE
  5
2E2
100
AcDbEntity
  8
0
100
AcDbSpline
 62
7
  6
CONTINUOUS
 70
0
 71
3
 72
9
 73
5
 74
0
 42
0.0000001
 43
0.0000001
 44
0.0000000001
 40
0.0
 40
0.0
 40
0.0
 40
0.0
 40
0.4997671378
 40
1.0
 40
1.0
 40
1.0
 40
1.0
 10
814.8263752164
 20
602.8749214619
 30
0.0
 10
814.8263752164
 20
601.5454495737
 30
0.0
 10
815.7334317835
 20
598.9186929677
 30
0.0
 10
817.5500955916
 20
596.8170075165
 30
0.0
 10
818.7002740219
 20
596.1477685369
 30
0.0
  0
SPLINE
  5
2E3
100
AcDbEntity
  8
0
100
AcDbSpline
 62
7
  6
CONTINUOUS
 70
0
 71
3
 72
9
 73
5
 74
0
 42
0.0000001
 43
0.0000001
 44
0.0000000001
 40
0.0
 40
0.0
 40
0.0
 40
0.0
 40
0.280349595
 40
1.0
 40
1.0
 40
1.0
 40
1.0
 10
818.7002740219
 20
596.1477685369
 30
0.0
 10
818.8668694902
 20
596.0508338542
 30
0.0
 10
819.4768510943
 20
595.7389274981
 30
0.0
 10
820.1841141947
 20
595.5717541027
 30
0.0
 10
820.6765416336
 20
595.6198424579
 30
0.0
  0
SPLINE
  5
2E4
100
AcDbEntity
  8
0
100
AcDbSpline
 62
7
  6
CONTINUOUS
 70
0
 71
3
 72
8
 73
4
 74
0
 42
0.0000001
 43
0.0000001
 44
0.0000000001
 40
0.0
 40
0.0
 40
0.0
 40
0.0
 40
1.0
 40
1.0
 40
1.0
 40
1.0
 10
814.9755879511
 20
237.3950413195
 30
0.0
 10
815.1535323371
 20
237.4976413573
 30
0.0
 10
815.3515383085
 20
237.5700394642
 30
0.0
 10
815.5529325296
 20
237.6104293137
 30
0.0
  0
SPLINE
  5
2E5
100
AcDbEntity
  8
0
100
AcDbSpline
 62
7
  6
CONTINUOUS
 70
0
 71
3
 72
9
 73
5
 74
0
 42
0.0000001
 43
0.0000001
 44
0.0000000001
 40
0.0
 40
0.0
 40
0.0
 40
0.0
 40
0.2245627712
 40
1.0
 40
1.0
 40
1.0
 40
1.0
 10
815.7704050962
 20
237.6423339616
 30
0.0
 10
815.921305823
 20
237.6566669316
 30
0.0
 10
816.6004472894
 20
237.6506464856
 30
0.0
 10
817.2561446611
 20
237.3915176388
 30
0.0
 10
817.7103286209
 20
237.131353005
 30
0.0
  0
SPLINE
  5
2E6
100
AcDbEntity
  8
0
100
AcDbSpline
 62
7
  6
CONTINUOUS
 70
0
 71
3
 72
9
 73
5
 74
0
 42
0.0000001
 43
0.0000001
 44
0.0000000001
 40
0.0
 40
0.0
 40
0.0
 40
0.0
 40
0.4997026048
 40
1.0
 40
1.0
 40
1.0
 40
1.0
 10
817.7103286209
 20
237.131353005
 30
0.0
 10
818.868657991
 20
236.4678413819
 30
0.0
 10
820.6999340311
 20
234.3602130691
 30
0.0
 10
821.6146368148
 20
231.7231387743
 30
0.0
 10
821.6146368148
 20
230.3866436349
 30
0.0
  0
SPLINE
  5
2E7
100
AcDbEntity
  8
0
100
AcDbSpline
 62
7
  6
CONTINUOUS
 70
0
 71
3
 72
9
 73
5
 74
0
 42
0.0000001
 43
0.0000001
 44
0.0000000001
 40
0.0
 40
0.0
 40
0.0
 40
0.0
 40
0.4997671378
 40
1.0
 40
1.0
 40
1.0
 40
1.0
 10
814.8263752164
 20
1031.538690455
 30
0.0
 10
814.8263752164
 20
1030.2092185667
 30
0.0
 10
815.7334317835
 20
1027.5824619608
 30
0.0
 10
817.5500955916
 20
1025.4807765095
 30
0.0
 10
818.7002740219
 20
1024.8115375299
 30
0.0
  0
SPLINE
  5
2E8
100
AcDbEntity
  8
0
100
AcDbSpline
 62
7
  6
CONTINUOUS
 70
0
 71
3
 72
9
 73
5
 74
0
 42
0.0000001
 43
0.0000001
 44
0.0000000001
 40
0.0
 40
0.0
 40
0.0
 40
0.0
 40
0.280349595
 40
1.0
 40
1.0
 40
1.0
 40
1.0
 10
818.7002740219
 20
1024.8115375299
 30
0.0
 10
818.8668694902
 20
1024.7146028472
 30
0.0
 10
819.4768510943
 20
1024.4026964911
 30
0.0
 10
820.1841141947
 20
1024.2355230957
 30
0.0
 10
820.6765416336
 20
1024.2836114509
 30
0.0
  0
SPLINE
  5
2E9
100
AcDbEntity
  8
0
100
AcDbSpline
 62
7
  6
CONTINUOUS
 70
0
 71
3
 72
9
 73
5
 74
0
 42
0.0000001
 43
0.0000001
 44
0.0000000001
 40
0.0
 40
0.0
 40
0.0
 40
0.0
 40
0.4997671378
 40
1.0
 40
1.0
 40
1.0
 40
1.0
 10
814.8263752164
 20
235.4488337536
 30
0.0
 10
814.8263752164
 20
234.1193618654
 30
0.0
 10
815.7334317835
 20
231.4926052594
 30
0.0
 10
817.5500955916
 20
229.3909198082
 30
0.0
 10
818.7002740219
 20
228.7216808286
 30
0.0
  0
SPLINE
  5
2EA
100
AcDbEntity
  8
0
100
AcDbSpline
 62
7
  6
CONTINUOUS
 70
0
 71
3
 72
9
 73
5
 74
0
 42
0.0000001
 43
0.0000001
 44
0.0000000001
 40
0.0
 40
0.0
 40
0.0
 40
0.0
 40
0.280349595
 40
1.0
 40
1.0
 40
1.0
 40
1.0
 10
818.7002740219
 20
228.7216808286
 30
0.0
 10
818.8668694902
 20
228.6247461459
 30
0.0
 10
819.4768510943
 20
228.3128397898
 30
0.0
 10
820.1841141947
 20
228.1456663944
 30
0.0
 10
820.6765416336
 20
228.1937547496
 30
0.0
  0
SPLINE
  5
2EB
100
AcDbEntity
  8
0
100
AcDbSpline
 62
7
  6
CONTINUOUS
 70
0
 71
3
 72
9
 73
5
 74
0
 42
0.0000001
 43
0.0000001
 44
0.0000000001
 40
0.0
 40
0.0
 40
0.0
 40
0.0
 40
0.2790951709
 40
1.0
 40
1.0
 40
1.0
 40
1.0
 10
821.6146368148
 20
1393.9025880446
 30
0.0
 10
821.6146368148
 20
1393.7125744678
 30
0.0
 10
821.5774342325
 20
1393.0351310635
 30
0.0
 10
821.3705394949
 20
1392.3465074895
 30
0.0
 10
821.0856632826
 20
1391.9468370032
 30
0.0
  0
SPLINE
  5
2EC
100
AcDbEntity
  8
0
100
AcDbSpline
 62
7
  6
CONTINUOUS
 70
0
 71
3
 72
8
 73
4
 74
0
 42
0.0000001
 43
0.0000001
 44
0.0000000001
 40
0.0
 40
0.0
 40
0.0
 40
0.0
 40
1.0
 40
1.0
 40
1.0
 40
1.0
 10
820.9511585056
 20
1391.7769768409
 30
0.0
 10
820.8154243597
 20
1391.6226935995
 30
0.0
 10
820.6534991636
 20
1391.4874825617
 30
0.0
 10
820.4754786565
 20
1391.3848386336
 30
0.0
  0
SPLINE
  5
2ED
100
AcDbEntity
  8
0
100
AcDbSpline
 62
7
  6
CONTINUOUS
 70
0
 71
3
 72
9
 73
5
 74
0
 42
0.0000001
 43
0.0000001
 44
0.0000000001
 40
0.0
 40
0.0
 40
0.0
 40
0.0
 40
0.2790951709
 40
1.0
 40
1.0
 40
1.0
 40
1.0
 10
821.6146368148
 20
597.8127313433
 30
0.0
 10
821.6146368148
 20
597.6227177665
 30
0.0
 10
821.5774342325
 20
596.9452743622
 30
0.0
 10
821.3705394949
 20
596.2566507882
 30
0.0
 10
821.0856632826
 20
595.8569803019
 30
0.0
  0
SPLINE
  5
2EE
100
AcDbEntity
  8
0
100
AcDbSpline
 62
7
  6
CONTINUOUS
 70
0
 71
3
 72
8
 73
4
 74
0
 42
0.0000001
 43
0.0000001
 44
0.0000000001
 40
0.0
 40
0.0
 40
0.0
 40
0.0
 40
1.0
 40
1.0
 40
1.0
 40
1.0
 10
820.9511585056
 20
595.6871201396
 30
0.0
 10
820.8154243597
 20
595.5328368981
 30
0.0
 10
820.6534991636
 20
595.3976258603
 30
0.0
 10
820.4754786565
 20
595.2949819322
 30
0.0
  0
SPLINE
  5
2EF
100
AcDbEntity
  8
0
100
AcDbSpline
 62
7
  6
CONTINUOUS
 70
0
 71
3
 72
9
 73
5
 74
0
 42
0.0000001
 43
0.0000001
 44
0.0000000001
 40
0.0
 40
0.0
 40
0.0
 40
0.0
 40
0.2790951709
 40
1.0
 40
1.0
 40
1.0
 40
1.0
 10
821.6146368148
 20
1026.4765003363
 30
0.0
 10
821.6146368148
 20
1026.2864867595
 30
0.0
 10
821.5774342325
 20
1025.6090433552
 30
0.0
 10
821.3705394949
 20
1024.9204197812
 30
0.0
 10
821.0856632826
 20
1024.5207492949
 30
0.0
  0
SPLINE
  5
2F0
100
AcDbEntity
  8
0
100
AcDbSpline
 62
7
  6
CONTINUOUS
 70
0
 71
3
 72
8
 73
4
 74
0
 42
0.0000001
 43
0.0000001
 44
0.0000000001
 40
0.0
 40
0.0
 40
0.0
 40
0.0
 40
1.0
 40
1.0
 40
1.0
 40
1.0
 10
820.9511585056
 20
1024.3508891326
 30
0.0
 10
820.8154243597
 20
1024.1966058912
 30
0.0
 10
820.6534991636
 20
1024.0613948533
 30
0.0
 10
820.4754786565
 20
1023.9587509252
 30
0.0
  0
SPLINE
  5
2F1
100
AcDbEntity
  8
0
100
AcDbSpline
 62
7
  6
CONTINUOUS
 70
0
 71
3
 72
9
 73
5
 74
0
 42
0.0000001
 43
0.0000001
 44
0.0000000001
 40
0.0
 40
0.0
 40
0.0
 40
0.0
 40
0.2790951709
 40
1.0
 40
1.0
 40
1.0
 40
1.0
 10
821.6146368148
 20
230.3866436349
 30
0.0
 10
821.6146368148
 20
230.1966300582
 30
0.0
 10
821.5774342325
 20
229.5191866539
 30
0.0
 10
821.3705394949
 20
228.8305630799
 30
0.0
 10
821.0856632826
 20
228.4308925936
 30
0.0
  0
SPLINE
  5
2F2
100
AcDbEntity
  8
0
100
AcDbSpline
 62
7
  6
CONTINUOUS
 70
0
 71
3
 72
8
 73
4
 74
0
 42
0.0000001
 43
0.0000001
 44
0.0000000001
 40
0.0
 40
0.0
 40
0.0
 40
0.0
 40
1.0
 40
1.0
 40
1.0
 40
1.0
 10
820.9511585056
 20
228.2610324312
 30
0.0
 10
820.8154243597
 20
228.1067491898
 30
0.0
 10
820.6534991636
 20
227.971538152
 30
0.0
 10
820.4754786565
 20
227.8688942239
 30
0.0
  0
SPLINE
  5
2F3
100
AcDbEntity
  8
0
100
AcDbSpline
 62
7
  6
CONTINUOUS
 70
0
 71
3
 72
9
 73
5
 74
0
 42
0.0000001
 43
0.0000001
 44
0.0000000001
 40
0.0
 40
0.0
 40
0.0
 40
0.0
 40
0.2245236876
 40
1.0
 40
1.0
 40
1.0
 40
1.0
 10
815.3553947144
 20
1033.4944805106
 30
0.0
 10
815.2665357507
 20
1033.3698309452
 30
0.0
 10
814.9293005709
 20
1032.7723388962
 30
0.0
 10
814.8263752164
 20
1032.0674086996
 30
0.0
 10
814.8263752164
 20
1031.538690455
 30
0.0
  0
SPLINE
  5
2F4
100
AcDbEntity
  8
0
100
AcDbSpline
 62
7
  6
CONTINUOUS
 70
0
 71
3
 72
8
 73
4
 74
0
 42
0.0000001
 43
0.0000001
 44
0.0000000001
 40
0.0
 40
0.0
 40
0.0
 40
0.0
 40
1.0
 40
1.0
 40
1.0
 40
1.0
 10
814.9755879511
 20
1033.4848980208
 30
0.0
 10
815.1535323371
 20
1033.5874980586
 30
0.0
 10
815.3515383085
 20
1033.6598961655
 30
0.0
 10
815.5529325296
 20
1033.700286015
 30
0.0
  0
SPLINE
  5
2F5
100
AcDbEntity
  8
0
100
AcDbSpline
 62
7
  6
CONTINUOUS
 70
0
 71
3
 72
9
 73
5
 74
0
 42
0.0000001
 43
0.0000001
 44
0.0000000001
 40
0.0
 40
0.0
 40
0.0
 40
0.0
 40
0.2245627712
 40
1.0
 40
1.0
 40
1.0
 40
1.0
 10
815.7704050962
 20
1033.732190663
 30
0.0
 10
815.921305823
 20
1033.7465236329
 30
0.0
 10
816.6004472894
 20
1033.7405031869
 30
0.0
 10
817.2561446611
 20
1033.4813743402
 30
0.0
 10
817.7103286209
 20
1033.2212097064
 30
0.0
  0
SPLINE
  5
2F6
100
AcDbEntity
  8
0
100
AcDbSpline
 62
7
  6
CONTINUOUS
 70
0
 71
3
 72
9
 73
5
 74
0
 42
0.0000001
 43
0.0000001
 44
0.0000000001
 40
0.0
 40
0.0
 40
0.0
 40
0.0
 40
0.4997026048
 40
1.0
 40
1.0
 40
1.0
 40
1.0
 10
817.7103286209
 20
1033.2212097064
 30
0.0
 10
818.868657991
 20
1032.5576980832
 30
0.0
 10
820.6999340311
 20
1030.4500697704
 30
0.0
 10
821.6146368148
 20
1027.8129954757
 30
0.0
 10
821.6146368148
 20
1026.4765003363
 30
0.0
  0
SPLINE
  5
2F7
100
AcDbEntity
  8
0
100
AcDbSpline
 62
7
  6
CONTINUOUS
 70
0
 71
3
 72
9
 73
5
 74
0
 42
0.0000001
 43
0.0000001
 44
0.0000000001
 40
0.0
 40
0.0
 40
0.0
 40
0.0
 40
0.4997671378
 40
1.0
 40
1.0
 40
1.0
 40
1.0
 10
512.9611387555
 20
1586.3881632931
 30
0.0
 10
512.9611387555
 20
1584.8169692434
 30
0.0
 10
514.0331146983
 20
1581.7126205272
 30
0.0
 10
516.180081017
 20
1579.2288104485
 30
0.0
 10
517.5393827983
 20
1578.4378916544
 30
0.0
  0
SPLINE
  5
2F8
100
AcDbEntity
  8
0
100
AcDbSpline
 62
7
  6
CONTINUOUS
 70
0
 71
3
 72
9
 73
5
 74
0
 42
0.0000001
 43
0.0000001
 44
0.0000000001
 40
0.0
 40
0.0
 40
0.0
 40
0.0
 40
0.2819479132
 40
1.0
 40
1.0
 40
1.0
 40
1.0
 10
517.5393827983
 20
1578.4378916544
 30
0.0
 10
517.7452822625
 20
1578.3180876799
 30
0.0
 10
518.4951857585
 20
1577.9364873806
 30
0.0
 10
519.3737733045
 20
1577.7431854656
 30
0.0
 10
519.974818188
 20
1577.825692895
 30
0.0
  0
SPLINE
  5
2F9
100
AcDbEntity
  8
0
100
AcDbSpline
 62
7
  6
CONTINUOUS
 70
0
 71
3
 72
9
 73
5
 74
0
 42
0.0000001
 43
0.0000001
 44
0.0000000001
 40
0.0
 40
0.0
 40
0.0
 40
0.0
 40
0.2245236876
 40
1.0
 40
1.0
 40
1.0
 40
1.0
 10
815.3553947144
 20
604.8307115175
 30
0.0
 10
815.2665357507
 20
604.7060619521
 30
0.0
 10
814.9293005709
 20
604.1085699032
 30
0.0
 10
814.8263752164
 20
603.4036397066
 30
0.0
 10
814.8263752164
 20
602.8749214619
 30
0.0
  0
SPLINE
  5
2FA
100
AcDbEntity
  8
0
100
AcDbSpline
 62
7
  6
CONTINUOUS
 70
0
 71
3
 72
8
 73
4
 74
0
 42
0.0000001
 43
0.0000001
 44
0.0000000001
 40
0.0
 40
0.0
 40
0.0
 40
0.0
 40
1.0
 40
1.0
 40
1.0
 40
1.0
 10
814.9755879511
 20
604.8211290278
 30
0.0
 10
815.1535323371
 20
604.9237290656
 30
0.0
 10
815.3515383085
 20
604.9961271725
 30
0.0
 10
815.5529325296
 20
605.036517022
 30
0.0
  0
SPLINE
  5
2FB
100
AcDbEntity
  8
0
100
AcDbSpline
 62
7
  6
CONTINUOUS
 70
0
 71
3
 72
9
 73
5
 74
0
 42
0.0000001
 43
0.0000001
 44
0.0000000001
 40
0.0
 40
0.0
 40
0.0
 40
0.0
 40
0.2245627712
 40
1.0
 40
1.0
 40
1.0
 40
1.0
 10
815.7704050962
 20
605.0684216699
 30
0.0
 10
815.921305823
 20
605.0827546399
 30
0.0
 10
816.6004472894
 20
605.0767341939
 30
0.0
 10
817.2561446611
 20
604.8176053471
 30
0.0
 10
817.7103286209
 20
604.5574407133
 30
0.0
  0
SPLINE
  5
2FC
100
AcDbEntity
  8
0
100
AcDbSpline
 62
7
  6
CONTINUOUS
 70
0
 71
3
 72
9
 73
5
 74
0
 42
0.0000001
 43
0.0000001
 44
0.0000000001
 40
0.0
 40
0.0
 40
0.0
 40
0.0
 40
0.4997026048
 40
1.0
 40
1.0
 40
1.0
 40
1.0
 10
817.7103286209
 20
604.5574407133
 30
0.0
 10
818.868657991
 20
603.8939290902
 30
0.0
 10
820.6999340311
 20
601.7863007774
 30
0.0
 10
821.6146368148
 20
599.1492264827
 30
0.0
 10
821.6146368148
 20
597.8127313433
 30
0.0
  0
SPLINE
  5
2FD
100
AcDbEntity
  8
0
100
AcDbSpline
 62
7
  6
CONTINUOUS
 70
0
 71
3
 72
9
 73
5
 74
0
 42
0.0000001
 43
0.0000001
 44
0.0000000001
 40
0.0
 40
0.0
 40
0.0
 40
0.0
 40
0.2245236876
 40
1.0
 40
1.0
 40
1.0
 40
1.0
 10
815.3553947144
 20
1400.9205682189
 30
0.0
 10
815.2665357507
 20
1400.7959186535
 30
0.0
 10
814.9293005709
 20
1400.1984266045
 30
0.0
 10
814.8263752164
 20
1399.4934964079
 30
0.0
 10
814.8263752164
 20
1398.9647781633
 30
0.0
  0
SPLINE
  5
2FE
100
AcDbEntity
  8
0
100
AcDbSpline
 62
7
  6
CONTINUOUS
 70
0
 71
3
 72
8
 73
4
 74
0
 42
0.0000001
 43
0.0000001
 44
0.0000000001
 40
0.0
 40
0.0
 40
0.0
 40
0.0
 40
1.0
 40
1.0
 40
1.0
 40
1.0
 10
814.9755879511
 20
1400.9109857291
 30
0.0
 10
815.1535323371
 20
1401.0135857669
 30
0.0
 10
815.3515383085
 20
1401.0859838738
 30
0.0
 10
815.5529325296
 20
1401.1263737233
 30
0.0
  0
SPLINE
  5
2FF
100
AcDbEntity
  8
0
100
AcDbSpline
 62
7
  6
CONTINUOUS
 70
0
 71
3
 72
9
 73
5
 74
0
 42
0.0000001
 43
0.0000001
 44
0.0000000001
 40
0.0
 40
0.0
 40
0.0
 40
0.0
 40
0.2245627712
 40
1.0
 40
1.0
 40
1.0
 40
1.0
 10
815.7704050962
 20
1401.1582783713
 30
0.0
 10
815.921305823
 20
1401.1726113412
 30
0.0
 10
816.6004472894
 20
1401.1665908952
 30
0.0
 10
817.2561446611
 20
1400.9074620485
 30
0.0
 10
817.7103286209
 20
1400.6472974147
 30
0.0
  0
SPLINE
  5
300
100
AcDbEntity
  8
0
100
AcDbSpline
 62
7
  6
CONTINUOUS
 70
0
 71
3
 72
9
 73
5
 74
0
 42
0.0000001
 43
0.0000001
 44
0.0000000001
 40
0.0
 40
0.0
 40
0.0
 40
0.0
 40
0.4997026048
 40
1.0
 40
1.0
 40
1.0
 40
1.0
 10
817.7103286209
 20
1400.6472974147
 30
0.0
 10
818.868657991
 20
1399.9837857915
 30
0.0
 10
820.6999340311
 20
1397.8761574787
 30
0.0
 10
821.6146368148
 20
1395.239083184
 30
0.0
 10
821.6146368148
 20
1393.9025880446
 30
0.0
  0
SPLINE
  5
301
100
AcDbEntity
  8
0
100
AcDbSpline
 62
7
  6
CONTINUOUS
 70
0
 71
3
 72
8
 73
4
 74
0
 42
0.0000001
 43
0.0000001
 44
0.0000000001
 40
0.0
 40
0.0
 40
0.0
 40
0.0
 40
1.0
 40
1.0
 40
1.0
 40
1.0
 10
506.3714175798
 20
1644.8830619271
 30
0.0
 10
506.4851597274
 20
1645.0259718251
 30
0.0
 10
506.6303800232
 20
1645.1770118723
 30
0.0
 10
506.8096461165
 20
1645.2120001967
 30
0.0
  0
SPLINE
  5
302
100
AcDbEntity
  8
0
100
AcDbSpline
 62
7
  6
CONTINUOUS
 70
0
 71
3
 72
8
 73
4
 74
0
 42
0.0000001
 43
0.0000001
 44
0.0000000001
 40
0.0
 40
0.0
 40
0.0
 40
0.0
 40
1.0
 40
1.0
 40
1.0
 40
1.0
 10
780.1473505628
 20
207.891198536
 30
0.0
 10
780.1473505387
 20
207.4788863251
 30
0.0
 10
779.925175175
 20
207.0598692042
 30
0.0
 10
779.638020211
 20
206.7639918885
 30
0.0
  0
SPLINE
  5
303
100
AcDbEntity
  8
0
100
AcDbSpline
 62
7
  6
CONTINUOUS
 70
0
 71
3
 72
8
 73
4
 74
0
 42
0.0000001
 43
0.0000001
 44
0.0000000001
 40
0.0
 40
0.0
 40
0.0
 40
0.0
 40
1.0
 40
1.0
 40
1.0
 40
1.0
 10
779.638020211
 20
206.7639918885
 30
0.0
 10
779.5128878359
 20
206.635058609
 30
0.0
 10
779.3730993115
 20
206.5195653447
 30
0.0
 10
779.2257297807
 20
206.4167834236
 30
0.0
  0
SPLINE
  5
304
100
AcDbEntity
  8
0
100
AcDbSpline
 62
7
  6
CONTINUOUS
 70
0
 71
3
 72
8
 73
4
 74
0
 42
0.0000001
 43
0.0000001
 44
0.0000000001
 40
0.0
 40
0.0
 40
0.0
 40
0.0
 40
1.0
 40
1.0
 40
1.0
 40
1.0
 10
499.9012534143
 20
1601.1309021565
 30
0.0
 10
499.692158468
 20
1600.9377091062
 30
0.0
 10
499.5213656378
 20
1600.650730651
 30
0.0
 10
499.5212582757
 20
1600.366047951
 30
0.0
  0
SPLINE
  5
305
100
AcDbEntity
  8
0
100
AcDbSpline
 62
7
  6
CONTINUOUS
 70
0
 71
3
 72
8
 73
4
 74
0
 42
0.0000001
 43
0.0000001
 44
0.0000000001
 40
0.0
 40
0.0
 40
0.0
 40
0.0
 40
1.0
 40
1.0
 40
1.0
 40
1.0
 10
779.749940882
 20
1482.1483588024
 30
0.0
 10
779.5990720127
 20
1482.3284485786
 30
0.0
 10
779.4184323436
 20
1482.4850830145
 30
0.0
 10
779.2257365195
 20
1482.6194781878
 30
0.0
  0
SPLINE
  5
306
100
AcDbEntity
  8
0
100
AcDbSpline
 62
7
  6
CONTINUOUS
 70
0
 71
3
 72
8
 73
4
 74
0
 42
0.0000001
 43
0.0000001
 44
0.0000000001
 40
0.0
 40
0.0
 40
0.0
 40
0.0
 40
1.0
 40
1.0
 40
1.0
 40
1.0
 10
562.3844113718
 20
1607.6415667419
 30
0.0
 10
562.2335425025
 20
1607.8216565181
 30
0.0
 10
562.0529028334
 20
1607.9782909541
 30
0.0
 10
561.8602070093
 20
1608.1126861273
 30
0.0
  0
SPLINE
  5
307
100
AcDbEntity
  8
0
100
AcDbSpline
 62
7
  6
CONTINUOUS
 70
0
 71
3
 72
9
 73
5
 74
0
 42
0.0000001
 43
0.0000001
 44
0.0000000001
 40
0.0
 40
0.0
 40
0.0
 40
0.0
 40
0.2713415064
 40
1.0
 40
1.0
 40
1.0
 40
1.0
 10
508.8940984679
 20
1645.0245620067
 30
0.0
 10
508.725371175
 20
1645.1216458727
 30
0.0
 10
508.089207467
 20
1645.440911953
 30
0.0
 10
507.2644501748
 20
1645.4817995049
 30
0.0
 10
506.7982712225
 20
1645.2452730996
 30
0.0
  0
SPLINE
  5
308
100
AcDbEntity
  8
0
100
AcDbSpline
 62
7
  6
CONTINUOUS
 70
0
 71
3
 72
8
 73
4
 74
0
 42
0.0000001
 43
0.0000001
 44
0.0000000001
 40
0.0
 40
0.0
 40
0.0
 40
0.0
 40
1.0
 40
1.0
 40
1.0
 40
1.0
 10
504.0418405326
 20
1574.6363034919
 30
0.0
 10
504.286535858
 20
1574.3098599689
 30
0.0
 10
504.5534950343
 20
1573.998578589
 30
0.0
 10
504.8423664598
 20
1573.7104909713
 30
0.0
  0
SPLINE
  5
309
100
AcDbEntity
  8
0
100
AcDbSpline
 62
7
  6
CONTINUOUS
 70
0
 71
3
 72
9
 73
5
 74
0
 42
0.0000001
 43
0.0000001
 44
0.0000000001
 40
0.0
 40
0.0
 40
0.0
 40
0.0
 40
0.270082311
 40
1.0
 40
1.0
 40
1.0
 40
1.0
 10
837.50354153
 20
177.7818415151
 30
0.0
 10
837.5035162071
 20
177.5844410377
 30
0.0
 10
837.4616558596
 20
176.8603800287
 30
0.0
 10
837.0749417581
 20
176.1122293325
 30
0.0
 10
836.6270933984
 20
175.822327643
 30
0.0
  0
SPLINE
  5
30A
100
AcDbEntity
  8
0
100
AcDbSpline
 62
7
  6
CONTINUOUS
 70
0
 71
3
 72
11
 73
7
 74
0
 42
0.0000001
 43
0.0000001
 44
0.0000000001
 40
0.0
 40
0.0
 40
0.0
 40
0.0
 40
0.1835917426
 40
0.4352068886
 40
0.7283955701
 40
1.0
 40
1.0
 40
1.0
 40
1.0
 10
519.7466316109
 20
1577.4931452268
 30
0.0
 10
519.0665770588
 20
1577.1010360724
 30
0.0
 10
516.9474513659
 20
1577.22555825
 30
0.0
 10
514.4805567351
 20
1579.2546822437
 30
0.0
 10
512.5354880654
 20
1582.1994817482
 30
0.0
 10
511.9004829996
 20
1584.6144743146
 30
0.0
 10
511.9004829996
 20
1585.7757970623
 30
0.0
  0
SPLINE
  5
30B
100
AcDbEntity
  8
0
100
AcDbSpline
 62
7
  6
CONTINUOUS
 70
0
 71
3
 72
8
 73
4
 74
0
 42
0.0000001
 43
0.0000001
 44
0.0000000001
 40
0.0
 40
0.0
 40
0.0
 40
0.0
 40
1.0
 40
1.0
 40
1.0
 40
1.0
 10
511.9004829996
 20
1585.7757970623
 30
0.0
 10
511.9004829996
 20
1586.161325344
 30
0.0
 10
511.9374394739
 20
1586.5501528289
 30
0.0
 10
512.0245702906
 20
1586.9257061231
 30
0.0
  0
SPLINE
  5
30C
100
AcDbEntity
  8
0
100
AcDbSpline
 62
7
  6
CONTINUOUS
 70
0
 71
3
 72
9
 73
5
 74
0
 42
0.0000001
 43
0.0000001
 44
0.0000000001
 40
0.0
 40
0.0
 40
0.0
 40
0.0
 40
0.2787808137
 40
1.0
 40
1.0
 40
1.0
 40
1.0
 10
512.0245702906
 20
1586.9257061231
 30
0.0
 10
512.0714235397
 20
1587.1276540987
 30
0.0
 10
512.2859784361
 20
1587.8374039143
 30
0.0
 10
512.7821352684
 20
1588.4834230359
 30
0.0
 10
513.2467608153
 20
1588.751319089
 30
0.0
  0
SPLINE
  5
30D
100
AcDbEntity
  8
0
100
AcDbSpline
 62
7
  6
CONTINUOUS
 70
0
 71
3
 72
9
 73
5
 74
0
 42
0.0000001
 43
0.0000001
 44
0.0000000001
 40
0.0
 40
0.0
 40
0.0
 40
0.0
 40
0.2211638406
 40
1.0
 40
1.0
 40
1.0
 40
1.0
 10
820.4754786565
 20
227.8688942239
 30
0.0
 10
820.2949421086
 20
227.7647995849
 30
0.0
 10
819.38945621
 20
227.4361821746
 30
0.0
 10
818.3775392351
 20
227.7678114802
 30
0.0
 10
817.7407379867
 20
228.1325825383
 30
0.0
  0
SPLINE
  5
30E
100
AcDbEntity
  8
0
100
AcDbSpline
 62
7
  6
CONTINUOUS
 70
0
 71
3
 72
9
 73
5
 74
0
 42
0.0000001
 43
0.0000001
 44
0.0000000001
 40
0.0
 40
0.0
 40
0.0
 40
0.0
 40
0.4997026048
 40
1.0
 40
1.0
 40
1.0
 40
1.0
 10
817.7407379867
 20
228.1325825383
 30
0.0
 10
816.5824086166
 20
228.7960941615
 30
0.0
 10
814.7511325765
 20
230.9037224743
 30
0.0
 10
813.8364297928
 20
233.540796769
 30
0.0
 10
813.8364297928
 20
234.8772919084
 30
0.0
  0
SPLINE
  5
30F
100
AcDbEntity
  8
0
100
AcDbSpline
 62
7
  6
CONTINUOUS
 70
0
 71
3
 72
9
 73
5
 74
0
 42
0.0000001
 43
0.0000001
 44
0.0000000001
 40
0.0
 40
0.0
 40
0.0
 40
0.0
 40
0.2338288157
 40
1.0
 40
1.0
 40
1.0
 40
1.0
 10
822.654948573
 20
1413.2111520652
 30
0.0
 10
822.8674857853
 20
1413.0884464244
 30
0.0
 10
823.8518228872
 20
1412.7062432189
 30
0.0
 10
824.9910984102
 20
1412.7348411896
 30
0.0
 10
825.7475151535
 20
1413.0077311417
 30
0.0
  0
SPLINE
  5
310
100
AcDbEntity
  8
0
100
AcDbSpline
 62
7
  6
CONTINUOUS
 70
0
 71
3
 72
8
 73
4
 74
0
 42
0.0000001
 43
0.0000001
 44
0.0000000001
 40
0.0
 40
0.0
 40
0.0
 40
0.0
 40
1.0
 40
1.0
 40
1.0
 40
1.0
 10
813.8364297928
 20
1398.3932363181
 30
0.0
 10
813.8364297928
 20
1398.752456759
 30
0.0
 10
813.8742620693
 20
1399.1156797683
 30
0.0
 10
813.9653584809
 20
1399.4631574928
 30
0.0
  0
SPLINE
  5
311
100
AcDbEntity
  8
0
100
AcDbSpline
 62
7
  6
CONTINUOUS
 70
0
 71
3
 72
9
 73
5
 74
0
 42
0.0000001
 43
0.0000001
 44
0.0000000001
 40
0.0
 40
0.0
 40
0.0
 40
0.0
 40
0.2768213698
 40
1.0
 40
1.0
 40
1.0
 40
1.0
 10
813.9653584809
 20
1399.4631574928
 30
0.0
 10
814.0072675256
 20
1399.623015156
 30
0.0
 10
814.1957283061
 20
1400.1880277313
 30
0.0
 10
814.6015738052
 20
1400.6953348375
 30
0.0
 10
814.9755879511
 20
1400.9109857291
 30
0.0
  0
SPLINE
  5
312
100
AcDbEntity
  8
0
100
AcDbSpline
 62
7
  6
CONTINUOUS
 70
0
 71
3
 72
8
 73
4
 74
0
 42
0.0000001
 43
0.0000001
 44
0.0000000001
 40
0.0
 40
0.0
 40
0.0
 40
0.0
 40
1.0
 40
1.0
 40
1.0
 40
1.0
 10
813.8364297928
 20
602.3033796167
 30
0.0
 10
813.8364297928
 20
602.6626000577
 30
0.0
 10
813.8742620693
 20
603.025823067
 30
0.0
 10
813.9653584809
 20
603.3733007914
 30
0.0
  0
SPLINE
  5
313
100
AcDbEntity
  8
0
100
AcDbSpline
 62
7
  6
CONTINUOUS
 70
0
 71
3
 72
9
 73
5
 74
0
 42
0.0000001
 43
0.0000001
 44
0.0000000001
 40
0.0
 40
0.0
 40
0.0
 40
0.0
 40
0.2768213698
 40
1.0
 40
1.0
 40
1.0
 40
1.0
 10
813.9653584809
 20
603.3733007914
 30
0.0
 10
814.0072675256
 20
603.5331584547
 30
0.0
 10
814.1957283061
 20
604.0981710299
 30
0.0
 10
814.6015738052
 20
604.6054781361
 30
0.0
 10
814.9755879511
 20
604.8211290278
 30
0.0
  0
SPLINE
  5
314
100
AcDbEntity
  8
0
100
AcDbSpline
 62
7
  6
CONTINUOUS
 70
0
 71
3
 72
8
 73
4
 74
0
 42
0.0000001
 43
0.0000001
 44
0.0000000001
 40
0.0
 40
0.0
 40
0.0
 40
0.0
 40
1.0
 40
1.0
 40
1.0
 40
1.0
 10
813.8364297928
 20
1030.9671486098
 30
0.0
 10
813.8364297928
 20
1031.3263690507
 30
0.0
 10
813.8742620693
 20
1031.68959206
 30
0.0
 10
813.9653584809
 20
1032.0370697845
 30
0.0
  0
SPLINE
  5
315
100
AcDbEntity
  8
0
100
AcDbSpline
 62
7
  6
CONTINUOUS
 70
0
 71
3
 72
9
 73
5
 74
0
 42
0.0000001
 43
0.0000001
 44
0.0000000001
 40
0.0
 40
0.0
 40
0.0
 40
0.0
 40
0.2768213698
 40
1.0
 40
1.0
 40
1.0
 40
1.0
 10
813.9653584809
 20
1032.0370697845
 30
0.0
 10
814.0072675256
 20
1032.1969274477
 30
0.0
 10
814.1957283061
 20
1032.761940023
 30
0.0
 10
814.6015738052
 20
1033.2692471292
 30
0.0
 10
814.9755879511
 20
1033.4848980208
 30
0.0
  0
SPLINE
  5
316
100
AcDbEntity
  8
0
100
AcDbSpline
 62
7
  6
CONTINUOUS
 70
0
 71
3
 72
8
 73
4
 74
0
 42
0.0000001
 43
0.0000001
 44
0.0000000001
 40
0.0
 40
0.0
 40
0.0
 40
0.0
 40
1.0
 40
1.0
 40
1.0
 40
1.0
 10
821.4481179085
 20
180.4663976458
 30
0.0
 10
823.6680737803
 20
179.1908551282
 30
0.0
 10
825.902700596
 20
177.9409114756
 30
0.0
 10
828.1200109489
 20
176.660775707
 30
0.0
  0
SPLINE
  5
317
100
AcDbEntity
  8
0
100
AcDbSpline
 62
7
  6
CONTINUOUS
 70
0
 71
3
 72
8
 73
4
 74
0
 42
0.0000001
 43
0.0000001
 44
0.0000000001
 40
0.0
 40
0.0
 40
0.0
 40
0.0
 40
1.0
 40
1.0
 40
1.0
 40
1.0
 10
813.8364297928
 20
234.8772919084
 30
0.0
 10
813.8364297928
 20
235.2365123494
 30
0.0
 10
813.8742620693
 20
235.5997353587
 30
0.0
 10
813.9653584809
 20
235.9472130831
 30
0.0
  0
SPLINE
  5
318
100
AcDbEntity
  8
0
100
AcDbSpline
 62
7
  6
CONTINUOUS
 70
0
 71
3
 72
9
 73
5
 74
0
 42
0.0000001
 43
0.0000001
 44
0.0000000001
 40
0.0
 40
0.0
 40
0.0
 40
0.0
 40
0.2768213698
 40
1.0
 40
1.0
 40
1.0
 40
1.0
 10
813.9653584809
 20
235.9472130831
 30
0.0
 10
814.0072675256
 20
236.1070707463
 30
0.0
 10
814.1957283061
 20
236.6720833216
 30
0.0
 10
814.6015738052
 20
237.1793904278
 30
0.0
 10
814.9755879511
 20
237.3950413195
 30
0.0
  0
SPLINE
  5
319
100
AcDbEntity
  8
0
100
AcDbSpline
 62
7
  6
CONTINUOUS
 70
0
 71
3
 72
8
 73
4
 74
0
 42
0.0000001
 43
0.0000001
 44
0.0000000001
 40
0.0
 40
0.0
 40
0.0
 40
0.0
 40
1.0
 40
1.0
 40
1.0
 40
1.0
 10
778.9758526833
 20
209.5241751514
 30
0.0
 10
779.126019082
 20
209.4374785021
 30
0.0
 10
779.2706548654
 20
209.3398776517
 30
0.0
 10
779.4052812626
 20
209.2305982416
 30
0.0
  0
SPLINE
  5
31A
100
AcDbEntity
  8
0
100
AcDbSpline
 62
7
  6
CONTINUOUS
 70
0
 71
3
 72
9
 73
5
 74
0
 42
0.0000001
 43
0.0000001
 44
0.0000000001
 40
0.0
 40
0.0
 40
0.0
 40
0.0
 40
0.2837212947
 40
1.0
 40
1.0
 40
1.0
 40
1.0
 10
779.4052812626
 20
209.2305982416
 30
0.0
 10
779.5197322353
 20
209.1376956975
 30
0.0
 10
779.8989651532
 20
208.7861612838
 30
0.0
 10
780.1473505844
 20
208.2633494151
 30
0.0
 10
780.1473505628
 20
207.891198536
 30
0.0
  0
SPLINE
  5
31B
100
AcDbEntity
  8
0
100
AcDbSpline
 62
7
  6
CONTINUOUS
 70
0
 71
3
 72
9
 73
5
 74
0
 42
0.0000001
 43
0.0000001
 44
0.0000000001
 40
0.0
 40
0.0
 40
0.0
 40
0.0
 40
0.2211638406
 40
1.0
 40
1.0
 40
1.0
 40
1.0
 10
820.4754786565
 20
1023.9587509252
 30
0.0
 10
820.2949421086
 20
1023.8546562862
 30
0.0
 10
819.38945621
 20
1023.526038876
 30
0.0
 10
818.3775392351
 20
1023.8576681816
 30
0.0
 10
817.7407379867
 20
1024.2224392397
 30
0.0
  0
SPLINE
  5
31C
100
AcDbEntity
  8
0
100
AcDbSpline
 62
7
  6
CONTINUOUS
 70
0
 71
3
 72
9
 73
5
 74
0
 42
0.0000001
 43
0.0000001
 44
0.0000000001
 40
0.0
 40
0.0
 40
0.0
 40
0.0
 40
0.4997026048
 40
1.0
 40
1.0
 40
1.0
 40
1.0
 10
817.7407379867
 20
1024.2224392397
 30
0.0
 10
816.5824086166
 20
1024.8859508628
 30
0.0
 10
814.7511325765
 20
1026.9935791756
 30
0.0
 10
813.8364297928
 20
1029.6306534704
 30
0.0
 10
813.8364297928
 20
1030.9671486098
 30
0.0
  0
SPLINE
  5
31D
100
AcDbEntity
  8
0
100
AcDbSpline
 62
7
  6
CONTINUOUS
 70
0
 71
3
 72
9
 73
5
 74
0
 42
0.0000001
 43
0.0000001
 44
0.0000000001
 40
0.0
 40
0.0
 40
0.0
 40
0.0
 40
0.2211638406
 40
1.0
 40
1.0
 40
1.0
 40
1.0
 10
820.4754786565
 20
595.2949819322
 30
0.0
 10
820.2949421086
 20
595.1908872932
 30
0.0
 10
819.38945621
 20
594.8622698829
 30
0.0
 10
818.3775392351
 20
595.1938991885
 30
0.0
 10
817.7407379867
 20
595.5586702467
 30
0.0
  0
SPLINE
  5
31E
100
AcDbEntity
  8
0
100
AcDbSpline
 62
7
  6
CONTINUOUS
 70
0
 71
3
 72
9
 73
5
 74
0
 42
0.0000001
 43
0.0000001
 44
0.0000000001
 40
0.0
 40
0.0
 40
0.0
 40
0.0
 40
0.4997026048
 40
1.0
 40
1.0
 40
1.0
 40
1.0
 10
817.7407379867
 20
595.5586702467
 30
0.0
 10
816.5824086166
 20
596.2221818698
 30
0.0
 10
814.7511325765
 20
598.3298101826
 30
0.0
 10
813.8364297928
 20
600.9668844773
 30
0.0
 10
813.8364297928
 20
602.3033796167
 30
0.0
  0
SPLINE
  5
31F
100
AcDbEntity
  8
0
100
AcDbSpline
 62
7
  6
CONTINUOUS
 70
0
 71
3
 72
9
 73
5
 74
0
 42
0.0000001
 43
0.0000001
 44
0.0000000001
 40
0.0
 40
0.0
 40
0.0
 40
0.0
 40
0.2211638406
 40
1.0
 40
1.0
 40
1.0
 40
1.0
 10
820.4754786565
 20
1391.3848386336
 30
0.0
 10
820.2949421086
 20
1391.2807439945
 30
0.0
 10
819.38945621
 20
1390.9521265843
 30
0.0
 10
818.3775392351
 20
1391.2837558899
 30
0.0
 10
817.7407379867
 20
1391.648526948
 30
0.0
  0
SPLINE
  5
320
100
AcDbEntity
  8
0
100
AcDbSpline
 62
7
  6
CONTINUOUS
 70
0
 71
3
 72
9
 73
5
 74
0
 42
0.0000001
 43
0.0000001
 44
0.0000000001
 40
0.0
 40
0.0
 40
0.0
 40
0.0
 40
0.4997026048
 40
1.0
 40
1.0
 40
1.0
 40
1.0
 10
817.7407379867
 20
1391.648526948
 30
0.0
 10
816.5824086166
 20
1392.3120385711
 30
0.0
 10
814.7511325765
 20
1394.4196668839
 30
0.0
 10
813.8364297928
 20
1397.0567411787
 30
0.0
 10
813.8364297928
 20
1398.3932363181
 30
0.0
  0
SPLINE
  5
321
100
AcDbEntity
  8
0
100
AcDbSpline
 62
7
  6
CONTINUOUS
 70
0
 71
3
 72
8
 73
4
 74
0
 42
0.0000001
 43
0.0000001
 44
0.0000000001
 40
0.0
 40
0.0
 40
0.0
 40
0.0
 40
1.0
 40
1.0
 40
1.0
 40
1.0
 10
502.4504421569
 20
1574.9726309874
 30
0.0
 10
502.0763020358
 20
1575.6149722362
 30
0.0
 10
501.7727739757
 20
1576.3061292862
 30
0.0
 10
501.568263419
 20
1577.0208030176
 30
0.0
  0
SPLINE
  5
322
100
AcDbEntity
  8
0
100
AcDbSpline
 62
7
  6
CONTINUOUS
 70
0
 71
3
 72
9
 73
5
 74
0
 42
0.0000001
 43
0.0000001
 44
0.0000000001
 40
0.0
 40
0.0
 40
0.0
 40
0.0
 40
0.2768097453
 40
1.0
 40
1.0
 40
1.0
 40
1.0
 10
501.4230083205
 20
1579.9061365354
 30
0.0
 10
501.4649295445
 20
1580.0659297432
 30
0.0
 10
501.6534273058
 20
1580.6307333195
 30
0.0
 10
502.059187722
 20
1581.1378131619
 30
0.0
 10
502.4330894683
 20
1581.3533992457
 30
0.0
  0
SPLINE
  5
323
100
AcDbEntity
  8
0
100
AcDbSpline
 62
7
  6
CONTINUOUS
 70
0
 71
3
 72
9
 73
5
 74
0
 42
0.0000001
 43
0.0000001
 44
0.0000000001
 40
0.0
 40
0.0
 40
0.0
 40
0.0
 40
0.7053985205
 40
1.0
 40
1.0
 40
1.0
 40
1.0
 10
499.5212582757
 20
1600.366047951
 30
0.0
 10
499.5211442648
 20
1600.0637351875
 30
0.0
 10
499.7926378137
 20
1599.6449761622
 30
0.0
 10
500.1442768301
 20
1599.4085628642
 30
0.0
 10
500.2536195773
 20
1599.3454352278
 30
0.0
  0
LINE
  5
324
100
AcDbEntity
  8
0
100
AcDbLine
 62
7
  6
CONTINUOUS
 10
836.6270933984
 20
1454.8228217613
 11
836.3194207779
 21
1454.6509452244
  0
SPLINE
  5
325
100
AcDbEntity
  8
0
100
AcDbSpline
 62
7
  6
CONTINUOUS
 70
0
 71
3
 72
9
 73
5
 74
0
 42
0.0000001
 43
0.0000001
 44
0.0000000001
 40
0.0
 40
0.0
 40
0.0
 40
0.0
 40
0.7673077665
 40
1.0
 40
1.0
 40
1.0
 40
1.0
 10
836.6270933984
 20
1454.8228217613
 30
0.0
 10
836.8554100367
 20
1454.9385950698
 30
0.0
 10
837.148404394
 20
1455.0229218902
 30
0.0
 10
837.4286771044
 20
1455.3269378606
 30
0.0
 10
837.5034731575
 20
1455.3061478674
 30
0.0
  0
SPLINE
  5
326
100
AcDbEntity
  8
0
100
AcDbSpline
 62
7
  6
CONTINUOUS
 70
0
 71
3
 72
8
 73
4
 74
0
 42
0.0000001
 43
0.0000001
 44
0.0000000001
 40
0.0
 40
0.0
 40
0.0
 40
0.0
 40
1.0
 40
1.0
 40
1.0
 40
1.0
 10
443.5970328497
 20
385.023325523
 30
0.0
 10
443.7864568804
 20
385.13254455
 30
0.0
 10
443.9948968472
 20
385.2129162482
 30
0.0
 10
444.2078770328
 20
385.2624106903
 30
0.0
  0
SPLINE
  5
327
100
AcDbEntity
  8
0
100
AcDbSpline
 62
7
  6
CONTINUOUS
 70
0
 71
3
 72
9
 73
5
 74
0
 42
0.0000001
 43
0.0000001
 44
0.0000000001
 40
0.0
 40
0.0
 40
0.0
 40
0.0
 40
0.223710445
 40
1.0
 40
1.0
 40
1.0
 40
1.0
 10
444.4358202218
 20
385.3040444635
 30
0.0
 10
444.619971238
 20
385.3288652443
 30
0.0
 10
445.4563363578
 20
385.3483824904
 30
0.0
 10
446.2694960812
 20
385.0321871185
 30
0.0
 10
446.8289990769
 20
384.7116938677
 30
0.0
  0
SPLINE
  5
328
100
AcDbEntity
  8
0
100
AcDbSpline
 62
7
  6
CONTINUOUS
 70
0
 71
3
 72
9
 73
5
 74
0
 42
0.0000001
 43
0.0000001
 44
0.0000000001
 40
0.0
 40
0.0
 40
0.0
 40
0.0
 40
0.4997026044
 40
1.0
 40
1.0
 40
1.0
 40
1.0
 10
446.8289990769
 20
384.7116938677
 30
0.0
 10
448.1979337816
 20
383.9275437616
 30
0.0
 10
450.3621690878
 20
381.4367102912
 30
0.0
 10
451.443181461
 20
378.3201679439
 30
0.0
 10
451.443181461
 20
376.7406736875
 30
0.0
  0
SPLINE
  5
329
100
AcDbEntity
  8
0
100
AcDbSpline
 62
7
  6
CONTINUOUS
 70
0
 71
3
 72
8
 73
4
 74
0
 42
0.0000001
 43
0.0000001
 44
0.0000000001
 40
0.0
 40
0.0
 40
0.0
 40
0.0
 40
1.0
 40
1.0
 40
1.0
 40
1.0
 10
440.319725333
 20
1606.8640958397
 30
0.0
 10
440.4729377834
 20
1606.9554162745
 30
0.0
 10
440.676060299
 20
1607.0409065574
 30
0.0
 10
440.8427009979
 20
1606.9773113198
 30
0.0
  0
SPLINE
  5
32A
100
AcDbEntity
  8
0
100
AcDbSpline
 62
7
  6
CONTINUOUS
 70
0
 71
3
 72
8
 73
4
 74
0
 42
0.0000001
 43
0.0000001
 44
0.0000000001
 40
0.0
 40
0.0
 40
0.0
 40
0.0
 40
1.0
 40
1.0
 40
1.0
 40
1.0
 10
440.319725333
 20
1606.8640958397
 30
0.0
 10
439.934060485
 20
1606.6143315003
 30
0.0
 10
439.6547248644
 20
1606.1721206632
 30
0.0
 10
439.5404477458
 20
1605.7270809566
 30
0.0
  0
SPLINE
  5
32B
100
AcDbEntity
  8
0
100
AcDbSpline
 62
7
  6
CONTINUOUS
 70
0
 71
3
 72
8
 73
4
 74
0
 42
0.0000001
 43
0.0000001
 44
0.0000000001
 40
0.0
 40
0.0
 40
0.0
 40
0.0
 40
1.0
 40
1.0
 40
1.0
 40
1.0
 10
439.5404477458
 20
1605.7270809566
 30
0.0
 10
439.4717880143
 20
1605.4596931615
 30
0.0
 10
439.4433165552
 20
1605.1806765491
 30
0.0
 10
439.4432775326
 20
1604.904614255
 30
0.0
  0
SPLINE
  5
32C
100
AcDbEntity
  8
0
100
AcDbSpline
 62
7
  6
CONTINUOUS
 70
0
 71
3
 72
9
 73
5
 74
0
 42
0.0000001
 43
0.0000001
 44
0.0000000001
 40
0.0
 40
0.0
 40
0.0
 40
0.0
 40
0.2236097662
 40
1.0
 40
1.0
 40
1.0
 40
1.0
 10
443.9967990205
 20
385.0525753017
 30
0.0
 10
443.8820277146
 20
384.9042970888
 30
0.0
 10
443.4433207562
 20
384.1824445686
 30
0.0
 10
443.3114107899
 20
383.3112084474
 30
0.0
 10
443.3114107899
 20
382.6601697271
 30
0.0
  0
SPLINE
  5
32D
100
AcDbEntity
  8
0
100
AcDbSpline
 62
7
  6
CONTINUOUS
 70
0
 71
3
 72
8
 73
4
 74
0
 42
0.0000001
 43
0.0000001
 44
0.0000000001
 40
0.0
 40
0.0
 40
0.0
 40
0.0
 40
1.0
 40
1.0
 40
1.0
 40
1.0
 10
443.5970328497
 20
1181.1131822243
 30
0.0
 10
443.7864568804
 20
1181.2224012513
 30
0.0
 10
443.9948968472
 20
1181.3027729496
 30
0.0
 10
444.2078770328
 20
1181.3522673917
 30
0.0
  0
SPLINE
  5
32E
100
AcDbEntity
  8
0
100
AcDbSpline
 62
7
  6
CONTINUOUS
 70
0
 71
3
 72
9
 73
5
 74
0
 42
0.0000001
 43
0.0000001
 44
0.0000000001
 40
0.0
 40
0.0
 40
0.0
 40
0.0
 40
0.223710445
 40
1.0
 40
1.0
 40
1.0
 40
1.0
 10
444.4358202218
 20
1181.3939011648
 30
0.0
 10
444.619971238
 20
1181.4187219456
 30
0.0
 10
445.4563363578
 20
1181.4382391917
 30
0.0
 10
446.2694960812
 20
1181.1220438198
 30
0.0
 10
446.8289990769
 20
1180.8015505691
 30
0.0
  0
SPLINE
  5
32F
100
AcDbEntity
  8
0
100
AcDbSpline
 62
7
  6
CONTINUOUS
 70
0
 71
3
 72
9
 73
5
 74
0
 42
0.0000001
 43
0.0000001
 44
0.0000000001
 40
0.0
 40
0.0
 40
0.0
 40
0.0
 40
0.4997026044
 40
1.0
 40
1.0
 40
1.0
 40
1.0
 10
446.8289990769
 20
1180.8015505691
 30
0.0
 10
448.1979337816
 20
1180.0174004629
 30
0.0
 10
450.3621690878
 20
1177.5265669926
 30
0.0
 10
451.443181461
 20
1174.4100246452
 30
0.0
 10
451.443181461
 20
1172.8305303889
 30
0.0
  0
SPLINE
  5
330
100
AcDbEntity
  8
0
100
AcDbSpline
 62
7
  6
CONTINUOUS
 70
0
 71
3
 72
9
 73
5
 74
0
 42
0.0000001
 43
0.0000001
 44
0.0000000001
 40
0.0
 40
0.0
 40
0.0
 40
0.0
 40
0.2236097662
 40
1.0
 40
1.0
 40
1.0
 40
1.0
 10
443.9967990205
 20
1181.142432003
 30
0.0
 10
443.8820277146
 20
1180.9941537902
 30
0.0
 10
443.4433207562
 20
1180.27230127
 30
0.0
 10
443.3114107899
 20
1179.4010651488
 30
0.0
 10
443.3114107899
 20
1178.7500264284
 30
0.0
  0
SPLINE
  5
331
100
AcDbEntity
  8
0
100
AcDbSpline
 62
7
  6
CONTINUOUS
 70
0
 71
3
 72
8
 73
4
 74
0
 42
0.0000001
 43
0.0000001
 44
0.0000000001
 40
0.0
 40
0.0
 40
0.0
 40
0.0
 40
1.0
 40
1.0
 40
1.0
 40
1.0
 10
443.5970328497
 20
752.4494132313
 30
0.0
 10
443.7864568804
 20
752.5586322583
 30
0.0
 10
443.9948968472
 20
752.6390039566
 30
0.0
 10
444.2078770328
 20
752.6884983987
 30
0.0
  0
SPLINE
  5
332
100
AcDbEntity
  8
0
100
AcDbSpline
 62
7
  6
CONTINUOUS
 70
0
 71
3
 72
9
 73
5
 74
0
 42
0.0000001
 43
0.0000001
 44
0.0000000001
 40
0.0
 40
0.0
 40
0.0
 40
0.0
 40
0.223710445
 40
1.0
 40
1.0
 40
1.0
 40
1.0
 10
444.4358202218
 20
752.7301321718
 30
0.0
 10
444.619971238
 20
752.7549529526
 30
0.0
 10
445.4563363578
 20
752.7744701987
 30
0.0
 10
446.2694960812
 20
752.4582748268
 30
0.0
 10
446.8289990769
 20
752.137781576
 30
0.0
  0
SPLINE
  5
333
100
AcDbEntity
  8
0
100
AcDbSpline
 62
7
  6
CONTINUOUS
 70
0
 71
3
 72
9
 73
5
 74
0
 42
0.0000001
 43
0.0000001
 44
0.0000000001
 40
0.0
 40
0.0
 40
0.0
 40
0.0
 40
0.4997026044
 40
1.0
 40
1.0
 40
1.0
 40
1.0
 10
446.8289990769
 20
752.137781576
 30
0.0
 10
448.1979337816
 20
751.3536314699
 30
0.0
 10
450.3621690878
 20
748.8627979995
 30
0.0
 10
451.443181461
 20
745.7462556522
 30
0.0
 10
451.443181461
 20
744.1667613958
 30
0.0
  0
SPLINE
  5
334
100
AcDbEntity
  8
0
100
AcDbSpline
 62
7
  6
CONTINUOUS
 70
0
 71
3
 72
9
 73
5
 74
0
 42
0.0000001
 43
0.0000001
 44
0.0000000001
 40
0.0
 40
0.0
 40
0.0
 40
0.0
 40
0.2236097662
 40
1.0
 40
1.0
 40
1.0
 40
1.0
 10
443.9967990205
 20
752.47866301
 30
0.0
 10
443.8820277146
 20
752.3303847971
 30
0.0
 10
443.4433207562
 20
751.608532277
 30
0.0
 10
443.3114107899
 20
750.7372961557
 30
0.0
 10
443.3114107899
 20
750.0862574354
 30
0.0
  0
SPLINE
  5
335
100
AcDbEntity
  8
0
100
AcDbSpline
 62
7
  6
CONTINUOUS
 70
0
 71
3
 72
8
 73
4
 74
0
 42
0.0000001
 43
0.0000001
 44
0.0000000001
 40
0.0
 40
0.0
 40
0.0
 40
0.0
 40
1.0
 40
1.0
 40
1.0
 40
1.0
 10
715.0866189643
 20
1450.7764324707
 30
0.0
 10
714.9897322187
 20
1450.708859467
 30
0.0
 10
714.8963077118
 20
1450.6358918288
 30
0.0
 10
714.8081304366
 20
1450.5572920805
 30
0.0
  0
SPLINE
  5
336
100
AcDbEntity
  8
0
100
AcDbSpline
 62
7
  6
CONTINUOUS
 70
0
 71
3
 72
8
 73
4
 74
0
 42
0.0000001
 43
0.0000001
 44
0.0000000001
 40
0.0
 40
0.0
 40
0.0
 40
0.0
 40
1.0
 40
1.0
 40
1.0
 40
1.0
 10
716.6035336482
 20
1451.4281804764
 30
0.0
 10
716.3019739505
 20
1451.3543644225
 30
0.0
 10
716.0046628071
 20
1451.2566203995
 30
0.0
 10
715.7210791317
 20
1451.1302583795
 30
0.0
  0
SPLINE
  5
337
100
AcDbEntity
  8
0
100
AcDbSpline
 62
7
  6
CONTINUOUS
 70
0
 71
3
 72
8
 73
4
 74
0
 42
0.0000001
 43
0.0000001
 44
0.0000000001
 40
0.0
 40
0.0
 40
0.0
 40
0.0
 40
1.0
 40
1.0
 40
1.0
 40
1.0
 10
715.7210791317
 20
1451.1302583795
 30
0.0
 10
715.5897464641
 20
1451.07173787
 30
0.0
 10
715.4609900212
 20
1451.0068701054
 30
0.0
 10
715.3364720065
 20
1450.9349800252
 30
0.0
  0
SPLINE
  5
338
100
AcDbEntity
  8
0
100
AcDbSpline
 62
7
  6
CONTINUOUS
 70
0
 71
3
 72
8
 73
4
 74
0
 42
0.0000001
 43
0.0000001
 44
0.0000000001
 40
0.0
 40
0.0
 40
0.0
 40
0.0
 40
1.0
 40
1.0
 40
1.0
 40
1.0
 10
443.5970328497
 20
1548.5392699326
 30
0.0
 10
443.7864568804
 20
1548.6484889596
 30
0.0
 10
443.9948968472
 20
1548.7288606579
 30
0.0
 10
444.2078770328
 20
1548.7783551
 30
0.0
  0
SPLINE
  5
339
100
AcDbEntity
  8
0
100
AcDbSpline
 62
7
  6
CONTINUOUS
 70
0
 71
3
 72
9
 73
5
 74
0
 42
0.0000001
 43
0.0000001
 44
0.0000000001
 40
0.0
 40
0.0
 40
0.0
 40
0.0
 40
0.223710445
 40
1.0
 40
1.0
 40
1.0
 40
1.0
 10
444.4358202218
 20
1548.8199888731
 30
0.0
 10
444.619971238
 20
1548.8448096539
 30
0.0
 10
445.4563363578
 20
1548.8643269
 30
0.0
 10
446.2694960812
 20
1548.5481315281
 30
0.0
 10
446.8289990769
 20
1548.2276382774
 30
0.0
  0
SPLINE
  5
33A
100
AcDbEntity
  8
0
100
AcDbSpline
 62
7
  6
CONTINUOUS
 70
0
 71
3
 72
9
 73
5
 74
0
 42
0.0000001
 43
0.0000001
 44
0.0000000001
 40
0.0
 40
0.0
 40
0.0
 40
0.0
 40
0.4997026044
 40
1.0
 40
1.0
 40
1.0
 40
1.0
 10
446.8289990769
 20
1548.2276382774
 30
0.0
 10
448.1979337816
 20
1547.4434881712
 30
0.0
 10
450.3621690878
 20
1544.9526547009
 30
0.0
 10
451.443181461
 20
1541.8361123535
 30
0.0
 10
451.443181461
 20
1540.2566180972
 30
0.0
  0
SPLINE
  5
33B
100
AcDbEntity
  8
0
100
AcDbSpline
 62
7
  6
CONTINUOUS
 70
0
 71
3
 72
9
 73
5
 74
0
 42
0.0000001
 43
0.0000001
 44
0.0000000001
 40
0.0
 40
0.0
 40
0.0
 40
0.0
 40
0.2236097662
 40
1.0
 40
1.0
 40
1.0
 40
1.0
 10
443.9967990205
 20
1548.5685197113
 30
0.0
 10
443.8820277146
 20
1548.4202414985
 30
0.0
 10
443.4433207562
 20
1547.6983889783
 30
0.0
 10
443.3114107899
 20
1546.8271528571
 30
0.0
 10
443.3114107899
 20
1546.1761141367
 30
0.0
  0
SPLINE
  5
33C
100
AcDbEntity
  8
0
100
AcDbSpline
 62
7
  6
CONTINUOUS
 70
0
 71
3
 72
8
 73
4
 74
0
 42
0.0000001
 43
0.0000001
 44
0.0000000001
 40
0.0
 40
0.0
 40
0.0
 40
0.0
 40
1.0
 40
1.0
 40
1.0
 40
1.0
 10
497.7210894542
 20
1576.2696404102
 30
0.0
 10
497.6242027086
 20
1576.2020674065
 30
0.0
 10
497.5307782016
 20
1576.1290997684
 30
0.0
 10
497.4426009264
 20
1576.05050002
 30
0.0
  0
SPLINE
  5
33D
100
AcDbEntity
  8
0
100
AcDbSpline
 62
7
  6
CONTINUOUS
 70
0
 71
3
 72
8
 73
4
 74
0
 42
0.0000001
 43
0.0000001
 44
0.0000000001
 40
0.0
 40
0.0
 40
0.0
 40
0.0
 40
1.0
 40
1.0
 40
1.0
 40
1.0
 10
499.238004138
 20
1576.9213884159
 30
0.0
 10
498.9364444404
 20
1576.847572362
 30
0.0
 10
498.6391332969
 20
1576.749828339
 30
0.0
 10
498.3555496215
 20
1576.623466319
 30
0.0
  0
SPLINE
  5
33E
100
AcDbEntity
  8
0
100
AcDbSpline
 62
7
  6
CONTINUOUS
 70
0
 71
3
 72
8
 73
4
 74
0
 42
0.0000001
 43
0.0000001
 44
0.0000000001
 40
0.0
 40
0.0
 40
0.0
 40
0.0
 40
1.0
 40
1.0
 40
1.0
 40
1.0
 10
498.3555496215
 20
1576.623466319
 30
0.0
 10
498.2242169539
 20
1576.5649458096
 30
0.0
 10
498.095460511
 20
1576.5000780449
 30
0.0
 10
497.9709424963
 20
1576.4281879648
 30
0.0
  0
SPLINE
  5
33F
100
AcDbEntity
  8
0
100
AcDbSpline
 62
7
  6
CONTINUOUS
 70
0
 71
3
 72
8
 73
4
 74
0
 42
0.0000001
 43
0.0000001
 44
0.0000000001
 40
0.0
 40
0.0
 40
0.0
 40
0.0
 40
1.0
 40
1.0
 40
1.0
 40
1.0
 10
756.1395313647
 20
204.580912025
 30
0.0
 10
756.3289553953
 20
204.690131052
 30
0.0
 10
756.5373953622
 20
204.7705027503
 30
0.0
 10
756.7503755477
 20
204.8199971924
 30
0.0
  0
SPLINE
  5
340
100
AcDbEntity
  8
0
100
AcDbSpline
 62
7
  6
CONTINUOUS
 70
0
 71
3
 72
9
 73
5
 74
0
 42
0.0000001
 43
0.0000001
 44
0.0000000001
 40
0.0
 40
0.0
 40
0.0
 40
0.0
 40
0.223710445
 40
1.0
 40
1.0
 40
1.0
 40
1.0
 10
756.9783187367
 20
204.8616309655
 30
0.0
 10
757.162469753
 20
204.8864517463
 30
0.0
 10
757.9988348728
 20
204.9059689924
 30
0.0
 10
758.8119945961
 20
204.5897736205
 30
0.0
 10
759.3714975919
 20
204.2692803698
 30
0.0
  0
SPLINE
  5
341
100
AcDbEntity
  8
0
100
AcDbSpline
 62
7
  6
CONTINUOUS
 70
0
 71
3
 72
9
 73
5
 74
0
 42
0.0000001
 43
0.0000001
 44
0.0000000001
 40
0.0
 40
0.0
 40
0.0
 40
0.0
 40
0.4997026044
 40
1.0
 40
1.0
 40
1.0
 40
1.0
 10
759.3714975919
 20
204.2692803698
 30
0.0
 10
760.7404322965
 20
203.4851302636
 30
0.0
 10
762.9046676027
 20
200.9942967933
 30
0.0
 10
763.9856799759
 20
197.8777544459
 30
0.0
 10
763.9856799759
 20
196.2982601896
 30
0.0
  0
SPLINE
  5
342
100
AcDbEntity
  8
0
100
AcDbSpline
 62
7
  6
CONTINUOUS
 70
0
 71
3
 72
9
 73
5
 74
0
 42
0.0000001
 43
0.0000001
 44
0.0000000001
 40
0.0
 40
0.0
 40
0.0
 40
0.0
 40
0.2236097662
 40
1.0
 40
1.0
 40
1.0
 40
1.0
 10
756.5392975355
 20
204.6101618037
 30
0.0
 10
756.4245262296
 20
204.4618835909
 30
0.0
 10
755.9858192712
 20
203.7400310707
 30
0.0
 10
755.8539093049
 20
202.8687949495
 30
0.0
 10
755.8539093049
 20
202.2177562291
 30
0.0
  0
SPLINE
  5
343
100
AcDbEntity
  8
0
100
AcDbSpline
 62
7
  6
CONTINUOUS
 70
0
 71
3
 72
8
 73
4
 74
0
 42
0.0000001
 43
0.0000001
 44
0.0000000001
 40
0.0
 40
0.0
 40
0.0
 40
0.0
 40
1.0
 40
1.0
 40
1.0
 40
1.0
 10
756.1395313647
 20
1000.6707687263
 30
0.0
 10
756.3289553953
 20
1000.7799877534
 30
0.0
 10
756.5373953622
 20
1000.8603594516
 30
0.0
 10
756.7503755477
 20
1000.9098538937
 30
0.0
  0
SPLINE
  5
344
100
AcDbEntity
  8
0
100
AcDbSpline
 62
7
  6
CONTINUOUS
 70
0
 71
3
 72
9
 73
5
 74
0
 42
0.0000001
 43
0.0000001
 44
0.0000000001
 40
0.0
 40
0.0
 40
0.0
 40
0.0
 40
0.223710445
 40
1.0
 40
1.0
 40
1.0
 40
1.0
 10
756.9783187367
 20
1000.9514876668
 30
0.0
 10
757.162469753
 20
1000.9763084476
 30
0.0
 10
757.9988348728
 20
1000.9958256937
 30
0.0
 10
758.8119945961
 20
1000.6796303218
 30
0.0
 10
759.3714975919
 20
1000.3591370711
 30
0.0
  0
SPLINE
  5
345
100
AcDbEntity
  8
0
100
AcDbSpline
 62
7
  6
CONTINUOUS
 70
0
 71
3
 72
9
 73
5
 74
0
 42
0.0000001
 43
0.0000001
 44
0.0000000001
 40
0.0
 40
0.0
 40
0.0
 40
0.0
 40
0.4997026044
 40
1.0
 40
1.0
 40
1.0
 40
1.0
 10
759.3714975919
 20
1000.3591370711
 30
0.0
 10
760.7404322965
 20
999.574986965
 30
0.0
 10
762.9046676027
 20
997.0841534946
 30
0.0
 10
763.9856799759
 20
993.9676111473
 30
0.0
 10
763.9856799759
 20
992.3881168909
 30
0.0
  0
SPLINE
  5
346
100
AcDbEntity
  8
0
100
AcDbSpline
 62
7
  6
CONTINUOUS
 70
0
 71
3
 72
9
 73
5
 74
0
 42
0.0000001
 43
0.0000001
 44
0.0000000001
 40
0.0
 40
0.0
 40
0.0
 40
0.0
 40
0.2236097662
 40
1.0
 40
1.0
 40
1.0
 40
1.0
 10
756.5392975355
 20
1000.700018505
 30
0.0
 10
756.4245262296
 20
1000.5517402922
 30
0.0
 10
755.9858192712
 20
999.829887772
 30
0.0
 10
755.8539093049
 20
998.9586516508
 30
0.0
 10
755.8539093049
 20
998.3076129305
 30
0.0
  0
SPLINE
  5
347
100
AcDbEntity
  8
0
100
AcDbSpline
 62
7
  6
CONTINUOUS
 70
0
 71
3
 72
8
 73
4
 74
0
 42
0.0000001
 43
0.0000001
 44
0.0000000001
 40
0.0
 40
0.0
 40
0.0
 40
0.0
 40
1.0
 40
1.0
 40
1.0
 40
1.0
 10
756.1395313647
 20
572.0069997333
 30
0.0
 10
756.3289553953
 20
572.1162187603
 30
0.0
 10
756.5373953622
 20
572.1965904586
 30
0.0
 10
756.7503755477
 20
572.2460849007
 30
0.0
  0
SPLINE
  5
348
100
AcDbEntity
  8
0
100
AcDbSpline
 62
7
  6
CONTINUOUS
 70
0
 71
3
 72
9
 73
5
 74
0
 42
0.0000001
 43
0.0000001
 44
0.0000000001
 40
0.0
 40
0.0
 40
0.0
 40
0.0
 40
0.223710445
 40
1.0
 40
1.0
 40
1.0
 40
1.0
 10
756.9783187367
 20
572.2877186738
 30
0.0
 10
757.162469753
 20
572.3125394546
 30
0.0
 10
757.9988348728
 20
572.3320567007
 30
0.0
 10
758.8119945961
 20
572.0158613288
 30
0.0
 10
759.3714975919
 20
571.6953680781
 30
0.0
  0
SPLINE
  5
349
100
AcDbEntity
  8
0
100
AcDbSpline
 62
7
  6
CONTINUOUS
 70
0
 71
3
 72
9
 73
5
 74
0
 42
0.0000001
 43
0.0000001
 44
0.0000000001
 40
0.0
 40
0.0
 40
0.0
 40
0.0
 40
0.4997026044
 40
1.0
 40
1.0
 40
1.0
 40
1.0
 10
759.3714975919
 20
571.6953680781
 30
0.0
 10
760.7404322965
 20
570.9112179719
 30
0.0
 10
762.9046676027
 20
568.4203845016
 30
0.0
 10
763.9856799759
 20
565.3038421542
 30
0.0
 10
763.9856799759
 20
563.7243478979
 30
0.0
  0
SPLINE
  5
34A
100
AcDbEntity
  8
0
100
AcDbSpline
 62
7
  6
CONTINUOUS
 70
0
 71
3
 72
9
 73
5
 74
0
 42
0.0000001
 43
0.0000001
 44
0.0000000001
 40
0.0
 40
0.0
 40
0.0
 40
0.0
 40
0.2236097662
 40
1.0
 40
1.0
 40
1.0
 40
1.0
 10
756.5392975355
 20
572.036249512
 30
0.0
 10
756.4245262296
 20
571.8879712992
 30
0.0
 10
755.9858192712
 20
571.166118779
 30
0.0
 10
755.8539093049
 20
570.2948826578
 30
0.0
 10
755.8539093049
 20
569.6438439374
 30
0.0
  0
SPLINE
  5
34B
100
AcDbEntity
  8
0
100
AcDbSpline
 62
7
  6
CONTINUOUS
 70
0
 71
3
 72
9
 73
5
 74
0
 42
0.0000001
 43
0.0000001
 44
0.0000000001
 40
0.0
 40
0.0
 40
0.0
 40
0.0
 40
0.4942645172
 40
1.0
 40
1.0
 40
1.0
 40
1.0
 10
716.6273071769
 20
1451.516551503
 30
0.0
 10
716.6806876596
 20
1451.5194710854
 30
0.0
 10
716.7887158484
 20
1451.5249148577
 30
0.0
 10
716.896904206
 20
1451.5267921679
 30
0.0
 10
716.9516027204
 20
1451.526272973
 30
0.0
  0
SPLINE
  5
34C
100
AcDbEntity
  8
0
100
AcDbSpline
 62
7
  6
CONTINUOUS
 70
0
 71
3
 72
9
 73
5
 74
0
 42
0.0000001
 43
0.0000001
 44
0.0000000001
 40
0.0
 40
0.0
 40
0.0
 40
0.0
 40
0.2293766236
 40
1.0
 40
1.0
 40
1.0
 40
1.0
 10
503.6277967458
 20
1576.4282015622
 30
0.0
 10
503.3635255672
 20
1576.5807751466
 30
0.0
 10
502.1334123869
 20
1577.1055946496
 30
0.0
 10
500.7348358895
 20
1577.182608504
 30
0.0
 10
499.7227137286
 20
1577.0193624133
 30
0.0
  0
SPLINE
  5
34D
100
AcDbEntity
  8
0
100
AcDbSpline
 62
7
  6
CONTINUOUS
 70
0
 71
3
 72
9
 73
5
 74
0
 42
0.0000001
 43
0.0000001
 44
0.0000000001
 40
0.0
 40
0.0
 40
0.0
 40
0.0
 40
0.2293766236
 40
1.0
 40
1.0
 40
1.0
 40
1.0
 10
720.9933262559
 20
1450.9349936226
 30
0.0
 10
720.7290550774
 20
1451.087567207
 30
0.0
 10
719.4989418971
 20
1451.61238671
 30
0.0
 10
718.1003653997
 20
1451.6894005644
 30
0.0
 10
717.0882432388
 20
1451.5261544738
 30
0.0
  0
SPLINE
  5
34E
100
AcDbEntity
  8
0
100
AcDbSpline
 62
7
  6
CONTINUOUS
 70
0
 71
3
 72
9
 73
5
 74
0
 42
0.0000001
 43
0.0000001
 44
0.0000000001
 40
0.0
 40
0.0
 40
0.0
 40
0.0
 40
0.7053985205
 40
1.0
 40
1.0
 40
1.0
 40
1.0
 10
777.4255604557
 20
1385.6546693405
 30
0.0
 10
777.4256744666
 20
1385.9569821039
 30
0.0
 10
777.1541809177
 20
1386.3757411292
 30
0.0
 10
776.8025419013
 20
1386.6121544272
 30
0.0
 10
776.6931991541
 20
1386.6752820636
 30
0.0
  0
SPLINE
  5
34F
100
AcDbEntity
  8
0
100
AcDbSpline
 62
7
  6
CONTINUOUS
 70
0
 71
3
 72
8
 73
4
 74
0
 42
0.0000001
 43
0.0000001
 44
0.0000000001
 40
0.0
 40
0.0
 40
0.0
 40
0.0
 40
1.0
 40
1.0
 40
1.0
 40
1.0
 10
777.4255604308
 20
182.3203755502
 30
0.0
 10
777.4254527106
 20
182.0356928485
 30
0.0
 10
777.2546602647
 20
181.7487143777
 30
0.0
 10
777.0455653171
 20
181.5555213261
 30
0.0
  0
SPLINE
  5
350
100
AcDbEntity
  8
0
100
AcDbSpline
 62
7
  6
CONTINUOUS
 70
0
 71
3
 72
9
 73
5
 74
0
 42
0.0000001
 43
0.0000001
 44
0.0000000001
 40
0.0
 40
0.0
 40
0.0
 40
0.0
 40
0.4942645172
 40
1.0
 40
1.0
 40
1.0
 40
1.0
 10
499.2617776667
 20
1577.0097594425
 30
0.0
 10
499.3151581494
 20
1577.0126790249
 30
0.0
 10
499.4231863382
 20
1577.0181227973
 30
0.0
 10
499.5313746958
 20
1577.0200001074
 30
0.0
 10
499.5860732102
 20
1577.0194809125
 30
0.0
  0
SPLINE
  5
351
100
AcDbEntity
  8
0
100
AcDbSpline
 62
7
  6
CONTINUOUS
 70
0
 71
3
 72
8
 73
4
 74
0
 42
0.0000001
 43
0.0000001
 44
0.0000000001
 40
0.0
 40
0.0
 40
0.0
 40
0.0
 40
1.0
 40
1.0
 40
1.0
 40
1.0
 10
756.1395313647
 20
1368.0968564347
 30
0.0
 10
756.3289553953
 20
1368.2060754617
 30
0.0
 10
756.5373953622
 20
1368.2864471599
 30
0.0
 10
756.7503755477
 20
1368.335941602
 30
0.0
  0
SPLINE
  5
352
100
AcDbEntity
  8
0
100
AcDbSpline
 62
7
  6
CONTINUOUS
 70
0
 71
3
 72
9
 73
5
 74
0
 42
0.0000001
 43
0.0000001
 44
0.0000000001
 40
0.0
 40
0.0
 40
0.0
 40
0.0
 40
0.223710445
 40
1.0
 40
1.0
 40
1.0
 40
1.0
 10
756.9783187367
 20
1368.3775753752
 30
0.0
 10
757.162469753
 20
1368.4023961559
 30
0.0
 10
757.9988348728
 20
1368.421913402
 30
0.0
 10
758.8119945961
 20
1368.1057180301
 30
0.0
 10
759.3714975919
 20
1367.7852247794
 30
0.0
  0
SPLINE
  5
353
100
AcDbEntity
  8
0
100
AcDbSpline
 62
7
  6
CONTINUOUS
 70
0
 71
3
 72
9
 73
5
 74
0
 42
0.0000001
 43
0.0000001
 44
0.0000000001
 40
0.0
 40
0.0
 40
0.0
 40
0.0
 40
0.4997026044
 40
1.0
 40
1.0
 40
1.0
 40
1.0
 10
759.3714975919
 20
1367.7852247794
 30
0.0
 10
760.7404322965
 20
1367.0010746733
 30
0.0
 10
762.9046676027
 20
1364.5102412029
 30
0.0
 10
763.9856799759
 20
1361.3936988556
 30
0.0
 10
763.9856799759
 20
1359.8142045992
 30
0.0
  0
SPLINE
  5
354
100
AcDbEntity
  8
0
100
AcDbSpline
 62
7
  6
CONTINUOUS
 70
0
 71
3
 72
9
 73
5
 74
0
 42
0.0000001
 43
0.0000001
 44
0.0000000001
 40
0.0
 40
0.0
 40
0.0
 40
0.0
 40
0.2236097662
 40
1.0
 40
1.0
 40
1.0
 40
1.0
 10
756.5392975355
 20
1368.1261062133
 30
0.0
 10
756.4245262296
 20
1367.9778280005
 30
0.0
 10
755.9858192712
 20
1367.2559754803
 30
0.0
 10
755.8539093049
 20
1366.3847393591
 30
0.0
 10
755.8539093049
 20
1365.7337006388
 30
0.0
  0
SPLINE
  5
355
100
AcDbEntity
  8
0
100
AcDbSpline
 62
7
  6
CONTINUOUS
 70
0
 71
3
 72
8
 73
4
 74
0
 42
0.0000001
 43
0.0000001
 44
0.0000000001
 40
0.0
 40
0.0
 40
0.0
 40
0.0
 40
1.0
 40
1.0
 40
1.0
 40
1.0
 10
505.845891238
 20
1574.9458824512
 30
0.0
 10
505.6284949407
 20
1575.2175449143
 30
0.0
 10
505.3433420329
 20
1575.4377534358
 30
0.0
 10
505.0420161961
 20
1575.6117200531
 30
0.0
  0
SPLINE
  5
356
100
AcDbEntity
  8
0
100
AcDbSpline
 62
7
  6
CONTINUOUS
 70
0
 71
3
 72
8
 73
4
 74
0
 42
0.0000001
 43
0.0000001
 44
0.0000000001
 40
0.0
 40
0.0
 40
0.0
 40
0.0
 40
1.0
 40
1.0
 40
1.0
 40
1.0
 10
723.2114207482
 20
1449.4526745117
 30
0.0
 10
722.9940244509
 20
1449.7243369748
 30
0.0
 10
722.7088715431
 20
1449.9445454962
 30
0.0
 10
722.4075457062
 20
1450.1185121136
 30
0.0
  0
SPLINE
  5
357
100
AcDbEntity
  8
0
100
AcDbSpline
 62
7
  6
CONTINUOUS
 70
0
 71
3
 72
9
 73
5
 74
0
 42
0.0000001
 43
0.0000001
 44
0.0000000001
 40
0.0
 40
0.0
 40
0.0
 40
0.0
 40
0.4997671378
 40
1.0
 40
1.0
 40
1.0
 40
1.0
 10
755.8539093049
 20
1365.7337006388
 30
0.0
 10
755.8539093049
 20
1364.1625065891
 30
0.0
 10
756.9258852477
 20
1361.0581578729
 30
0.0
 10
759.0728515664
 20
1358.5743477942
 30
0.0
 10
760.4321533477
 20
1357.7834290001
 30
0.0
  0
SPLINE
  5
358
100
AcDbEntity
  8
0
100
AcDbSpline
 62
7
  6
CONTINUOUS
 70
0
 71
3
 72
9
 73
5
 74
0
 42
0.0000001
 43
0.0000001
 44
0.0000000001
 40
0.0
 40
0.0
 40
0.0
 40
0.0
 40
0.2819479132
 40
1.0
 40
1.0
 40
1.0
 40
1.0
 10
760.4321533477
 20
1357.7834290001
 30
0.0
 10
760.6380528119
 20
1357.6636250256
 30
0.0
 10
761.3879563079
 20
1357.2820247263
 30
0.0
 10
762.2665438539
 20
1357.0887228113
 30
0.0
 10
762.8675887374
 20
1357.1712302407
 30
0.0
  0
SPLINE
  5
359
100
AcDbEntity
  8
0
100
AcDbSpline
 62
7
  6
CONTINUOUS
 70
0
 71
3
 72
9
 73
5
 74
0
 42
0.0000001
 43
0.0000001
 44
0.0000000001
 40
0.0
 40
0.0
 40
0.0
 40
0.0
 40
0.4997671378
 40
1.0
 40
1.0
 40
1.0
 40
1.0
 10
755.8539093049
 20
569.6438439374
 30
0.0
 10
755.8539093049
 20
568.0726498877
 30
0.0
 10
756.9258852477
 20
564.9683011716
 30
0.0
 10
759.0728515664
 20
562.4844910929
 30
0.0
 10
760.4321533477
 20
561.6935722988
 30
0.0
  0
SPLINE
  5
35A
100
AcDbEntity
  8
0
100
AcDbSpline
 62
7
  6
CONTINUOUS
 70
0
 71
3
 72
9
 73
5
 74
0
 42
0.0000001
 43
0.0000001
 44
0.0000000001
 40
0.0
 40
0.0
 40
0.0
 40
0.0
 40
0.2819479132
 40
1.0
 40
1.0
 40
1.0
 40
1.0
 10
760.4321533477
 20
561.6935722988
 30
0.0
 10
760.6380528119
 20
561.5737683243
 30
0.0
 10
761.3879563079
 20
561.1921680249
 30
0.0
 10
762.2665438539
 20
560.9988661099
 30
0.0
 10
762.8675887374
 20
561.0813735394
 30
0.0
  0
SPLINE
  5
35B
100
AcDbEntity
  8
0
100
AcDbSpline
 62
7
  6
CONTINUOUS
 70
0
 71
3
 72
9
 73
5
 74
0
 42
0.0000001
 43
0.0000001
 44
0.0000000001
 40
0.0
 40
0.0
 40
0.0
 40
0.0
 40
0.4997671378
 40
1.0
 40
1.0
 40
1.0
 40
1.0
 10
755.8539093049
 20
998.3076129305
 30
0.0
 10
755.8539093049
 20
996.7364188808
 30
0.0
 10
756.9258852477
 20
993.6320701646
 30
0.0
 10
759.0728515664
 20
991.1482600859
 30
0.0
 10
760.4321533477
 20
990.3573412918
 30
0.0
  0
SPLINE
  5
35C
100
AcDbEntity
  8
0
100
AcDbSpline
 62
7
  6
CONTINUOUS
 70
0
 71
3
 72
9
 73
5
 74
0
 42
0.0000001
 43
0.0000001
 44
0.0000000001
 40
0.0
 40
0.0
 40
0.0
 40
0.0
 40
0.2819479132
 40
1.0
 40
1.0
 40
1.0
 40
1.0
 10
760.4321533477
 20
990.3573412918
 30
0.0
 10
760.6380528119
 20
990.2375373173
 30
0.0
 10
761.3879563079
 20
989.855937018
 30
0.0
 10
762.2665438539
 20
989.662635103
 30
0.0
 10
762.8675887374
 20
989.7451425324
 30
0.0
  0
SPLINE
  5
35D
100
AcDbEntity
  8
0
100
AcDbSpline
 62
7
  6
CONTINUOUS
 70
0
 71
3
 72
9
 73
5
 74
0
 42
0.0000001
 43
0.0000001
 44
0.0000000001
 40
0.0
 40
0.0
 40
0.0
 40
0.0
 40
0.4997671378
 40
1.0
 40
1.0
 40
1.0
 40
1.0
 10
755.8539093049
 20
202.2177562291
 30
0.0
 10
755.8539093049
 20
200.6465621794
 30
0.0
 10
756.9258852477
 20
197.5422134633
 30
0.0
 10
759.0728515664
 20
195.0584033846
 30
0.0
 10
760.4321533477
 20
194.2674845905
 30
0.0
  0
SPLINE
  5
35E
100
AcDbEntity
  8
0
100
AcDbSpline
 62
7
  6
CONTINUOUS
 70
0
 71
3
 72
9
 73
5
 74
0
 42
0.0000001
 43
0.0000001
 44
0.0000000001
 40
0.0
 40
0.0
 40
0.0
 40
0.0
 40
0.2819479132
 40
1.0
 40
1.0
 40
1.0
 40
1.0
 10
760.4321533477
 20
194.2674845905
 30
0.0
 10
760.6380528119
 20
194.147680616
 30
0.0
 10
761.3879563079
 20
193.7660803166
 30
0.0
 10
762.2665438539
 20
193.5727784016
 30
0.0
 10
762.8675887374
 20
193.655285831
 30
0.0
  0
SPLINE
  5
35F
100
AcDbEntity
  8
0
100
AcDbSpline
 62
7
  6
CONTINUOUS
 70
0
 71
3
 72
9
 73
5
 74
0
 42
0.0000001
 43
0.0000001
 44
0.0000000001
 40
0.0
 40
0.0
 40
0.0
 40
0.0
 40
0.4997671378
 40
1.0
 40
1.0
 40
1.0
 40
1.0
 10
443.3114107899
 20
1546.1761141367
 30
0.0
 10
443.3114107899
 20
1544.604920087
 30
0.0
 10
444.3833867328
 20
1541.5005713709
 30
0.0
 10
446.5303530515
 20
1539.0167612922
 30
0.0
 10
447.8896548328
 20
1538.2258424981
 30
0.0
  0
SPLINE
  5
360
100
AcDbEntity
  8
0
100
AcDbSpline
 62
7
  6
CONTINUOUS
 70
0
 71
3
 72
9
 73
5
 74
0
 42
0.0000001
 43
0.0000001
 44
0.0000000001
 40
0.0
 40
0.0
 40
0.0
 40
0.0
 40
0.2819479132
 40
1.0
 40
1.0
 40
1.0
 40
1.0
 10
447.8896548328
 20
1538.2258424981
 30
0.0
 10
448.095554297
 20
1538.1060385236
 30
0.0
 10
448.8454577929
 20
1537.7244382242
 30
0.0
 10
449.7240453389
 20
1537.5311363093
 30
0.0
 10
450.3250902224
 20
1537.6136437387
 30
0.0
  0
SPLINE
  5
361
100
AcDbEntity
  8
0
100
AcDbSpline
 62
7
  6
CONTINUOUS
 70
0
 71
3
 72
9
 73
5
 74
0
 42
0.0000001
 43
0.0000001
 44
0.0000000001
 40
0.0
 40
0.0
 40
0.0
 40
0.0
 40
0.4997671378
 40
1.0
 40
1.0
 40
1.0
 40
1.0
 10
443.3114107899
 20
750.0862574354
 30
0.0
 10
443.3114107899
 20
748.5150633857
 30
0.0
 10
444.3833867328
 20
745.4107146696
 30
0.0
 10
446.5303530515
 20
742.9269045908
 30
0.0
 10
447.8896548328
 20
742.1359857967
 30
0.0
  0
SPLINE
  5
362
100
AcDbEntity
  8
0
100
AcDbSpline
 62
7
  6
CONTINUOUS
 70
0
 71
3
 72
9
 73
5
 74
0
 42
0.0000001
 43
0.0000001
 44
0.0000000001
 40
0.0
 40
0.0
 40
0.0
 40
0.0
 40
0.2819479132
 40
1.0
 40
1.0
 40
1.0
 40
1.0
 10
447.8896548328
 20
742.1359857967
 30
0.0
 10
448.095554297
 20
742.0161818223
 30
0.0
 10
448.8454577929
 20
741.6345815229
 30
0.0
 10
449.7240453389
 20
741.4412796079
 30
0.0
 10
450.3250902224
 20
741.5237870373
 30
0.0
  0
SPLINE
  5
363
100
AcDbEntity
  8
0
100
AcDbSpline
 62
7
  6
CONTINUOUS
 70
0
 71
3
 72
9
 73
5
 74
0
 42
0.0000001
 43
0.0000001
 44
0.0000000001
 40
0.0
 40
0.0
 40
0.0
 40
0.0
 40
0.4997671378
 40
1.0
 40
1.0
 40
1.0
 40
1.0
 10
443.3114107899
 20
1178.7500264284
 30
0.0
 10
443.3114107899
 20
1177.1788323787
 30
0.0
 10
444.3833867328
 20
1174.0744836626
 30
0.0
 10
446.5303530515
 20
1171.5906735839
 30
0.0
 10
447.8896548328
 20
1170.7997547898
 30
0.0
  0
SPLINE
  5
364
100
AcDbEntity
  8
0
100
AcDbSpline
 62
7
  6
CONTINUOUS
 70
0
 71
3
 72
9
 73
5
 74
0
 42
0.0000001
 43
0.0000001
 44
0.0000000001
 40
0.0
 40
0.0
 40
0.0
 40
0.0
 40
0.2819479132
 40
1.0
 40
1.0
 40
1.0
 40
1.0
 10
447.8896548328
 20
1170.7997547898
 30
0.0
 10
448.095554297
 20
1170.6799508153
 30
0.0
 10
448.8454577929
 20
1170.2983505159
 30
0.0
 10
449.7240453389
 20
1170.105048601
 30
0.0
 10
450.3250902224
 20
1170.1875560304
 30
0.0
  0
SPLINE
  5
365
100
AcDbEntity
  8
0
100
AcDbSpline
 62
7
  6
CONTINUOUS
 70
0
 71
3
 72
9
 73
5
 74
0
 42
0.0000001
 43
0.0000001
 44
0.0000000001
 40
0.0
 40
0.0
 40
0.0
 40
0.0
 40
0.4997671378
 40
1.0
 40
1.0
 40
1.0
 40
1.0
 10
443.3114107899
 20
382.6601697271
 30
0.0
 10
443.3114107899
 20
381.0889756774
 30
0.0
 10
444.3833867328
 20
377.9846269613
 30
0.0
 10
446.5303530515
 20
375.5008168825
 30
0.0
 10
447.8896548328
 20
374.7098980884
 30
0.0
  0
SPLINE
  5
366
100
AcDbEntity
  8
0
100
AcDbSpline
 62
7
  6
CONTINUOUS
 70
0
 71
3
 72
9
 73
5
 74
0
 42
0.0000001
 43
0.0000001
 44
0.0000000001
 40
0.0
 40
0.0
 40
0.0
 40
0.0
 40
0.2819479132
 40
1.0
 40
1.0
 40
1.0
 40
1.0
 10
447.8896548328
 20
374.7098980884
 30
0.0
 10
448.095554297
 20
374.5900941139
 30
0.0
 10
448.8454577929
 20
374.2084938146
 30
0.0
 10
449.7240453389
 20
374.0151918996
 30
0.0
 10
450.3250902224
 20
374.097699329
 30
0.0
  0
SPLINE
  5
367
100
AcDbEntity
  8
0
100
AcDbSpline
 62
7
  6
CONTINUOUS
 70
0
 71
3
 72
9
 73
5
 74
0
 42
0.0000001
 43
0.0000001
 44
0.0000000001
 40
0.0
 40
0.0
 40
0.0
 40
0.0
 40
0.2807306068
 40
1.0
 40
1.0
 40
1.0
 40
1.0
 10
763.9856799759
 20
1359.8142045992
 30
0.0
 10
763.9856799759
 20
1359.579197294
 30
0.0
 10
763.9382747081
 20
1358.7468420532
 30
0.0
 10
763.6688734181
 20
1357.8980156175
 30
0.0
 10
763.3003521417
 20
1357.4218425684
 30
0.0
  0
SPLINE
  5
368
100
AcDbEntity
  8
0
100
AcDbSpline
 62
7
  6
CONTINUOUS
 70
0
 71
3
 72
8
 73
4
 74
0
 42
0.0000001
 43
0.0000001
 44
0.0000000001
 40
0.0
 40
0.0
 40
0.0
 40
0.0
 40
1.0
 40
1.0
 40
1.0
 40
1.0
 10
763.1523775696
 20
1357.247894508
 30
0.0
 10
763.002941814
 20
1357.0881659976
 30
0.0
 10
762.8288934989
 20
1356.9479404083
 30
0.0
 10
762.6394021603
 20
1356.8386825725
 30
0.0
  0
SPLINE
  5
369
100
AcDbEntity
  8
0
100
AcDbSpline
 62
7
  6
CONTINUOUS
 70
0
 71
3
 72
9
 73
5
 74
0
 42
0.0000001
 43
0.0000001
 44
0.0000000001
 40
0.0
 40
0.0
 40
0.0
 40
0.0
 40
0.2807306068
 40
1.0
 40
1.0
 40
1.0
 40
1.0
 10
763.9856799759
 20
563.7243478979
 30
0.0
 10
763.9856799759
 20
563.4893405927
 30
0.0
 10
763.9382747081
 20
562.6569853519
 30
0.0
 10
763.6688734181
 20
561.8081589162
 30
0.0
 10
763.3003521417
 20
561.3319858671
 30
0.0
  0
SPLINE
  5
36A
100
AcDbEntity
  8
0
100
AcDbSpline
 62
7
  6
CONTINUOUS
 70
0
 71
3
 72
8
 73
4
 74
0
 42
0.0000001
 43
0.0000001
 44
0.0000000001
 40
0.0
 40
0.0
 40
0.0
 40
0.0
 40
1.0
 40
1.0
 40
1.0
 40
1.0
 10
763.1523775696
 20
561.1580378067
 30
0.0
 10
763.002941814
 20
560.9983092962
 30
0.0
 10
762.8288934989
 20
560.8580837069
 30
0.0
 10
762.6394021603
 20
560.7488258712
 30
0.0
  0
SPLINE
  5
36B
100
AcDbEntity
  8
0
100
AcDbSpline
 62
7
  6
CONTINUOUS
 70
0
 71
3
 72
9
 73
5
 74
0
 42
0.0000001
 43
0.0000001
 44
0.0000000001
 40
0.0
 40
0.0
 40
0.0
 40
0.0
 40
0.2807306068
 40
1.0
 40
1.0
 40
1.0
 40
1.0
 10
763.9856799759
 20
992.3881168909
 30
0.0
 10
763.9856799759
 20
992.1531095857
 30
0.0
 10
763.9382747081
 20
991.3207543449
 30
0.0
 10
763.6688734181
 20
990.4719279092
 30
0.0
 10
763.3003521417
 20
989.9957548601
 30
0.0
  0
SPLINE
  5
36C
100
AcDbEntity
  8
0
100
AcDbSpline
 62
7
  6
CONTINUOUS
 70
0
 71
3
 72
8
 73
4
 74
0
 42
0.0000001
 43
0.0000001
 44
0.0000000001
 40
0.0
 40
0.0
 40
0.0
 40
0.0
 40
1.0
 40
1.0
 40
1.0
 40
1.0
 10
763.1523775696
 20
989.8218067997
 30
0.0
 10
763.002941814
 20
989.6620782893
 30
0.0
 10
762.8288934989
 20
989.5218527
 30
0.0
 10
762.6394021603
 20
989.4125948642
 30
0.0
  0
SPLINE
  5
36D
100
AcDbEntity
  8
0
100
AcDbSpline
 62
7
  6
CONTINUOUS
 70
0
 71
3
 72
9
 73
5
 74
0
 42
0.0000001
 43
0.0000001
 44
0.0000000001
 40
0.0
 40
0.0
 40
0.0
 40
0.0
 40
0.2807306068
 40
1.0
 40
1.0
 40
1.0
 40
1.0
 10
763.9856799759
 20
196.2982601896
 30
0.0
 10
763.9856799759
 20
196.0632528843
 30
0.0
 10
763.9382747081
 20
195.2308976436
 30
0.0
 10
763.6688734181
 20
194.3820712079
 30
0.0
 10
763.3003521417
 20
193.9058981588
 30
0.0
  0
SPLINE
  5
36E
100
AcDbEntity
  8
0
100
AcDbSpline
 62
7
  6
CONTINUOUS
 70
0
 71
3
 72
8
 73
4
 74
0
 42
0.0000001
 43
0.0000001
 44
0.0000000001
 40
0.0
 40
0.0
 40
0.0
 40
0.0
 40
1.0
 40
1.0
 40
1.0
 40
1.0
 10
763.1523775696
 20
193.7319500984
 30
0.0
 10
763.002941814
 20
193.5722215879
 30
0.0
 10
762.8288934989
 20
193.4319959986
 30
0.0
 10
762.6394021603
 20
193.3227381629
 30
0.0
  0
SPLINE
  5
36F
100
AcDbEntity
  8
0
100
AcDbSpline
 62
7
  6
CONTINUOUS
 70
0
 71
3
 72
9
 73
5
 74
0
 42
0.0000001
 43
0.0000001
 44
0.0000000001
 40
0.0
 40
0.0
 40
0.0
 40
0.0
 40
0.2807306068
 40
1.0
 40
1.0
 40
1.0
 40
1.0
 10
451.443181461
 20
1540.2566180972
 30
0.0
 10
451.443181461
 20
1540.021610792
 30
0.0
 10
451.3957761932
 20
1539.1892555512
 30
0.0
 10
451.1263749031
 20
1538.3404291155
 30
0.0
 10
450.7578536267
 20
1537.8642560664
 30
0.0
  0
SPLINE
  5
370
100
AcDbEntity
  8
0
100
AcDbSpline
 62
7
  6
CONTINUOUS
 70
0
 71
3
 72
8
 73
4
 74
0
 42
0.0000001
 43
0.0000001
 44
0.0000000001
 40
0.0
 40
0.0
 40
0.0
 40
0.0
 40
1.0
 40
1.0
 40
1.0
 40
1.0
 10
450.6098790546
 20
1537.690308006
 30
0.0
 10
450.4604432991
 20
1537.5305794956
 30
0.0
 10
450.2863949839
 20
1537.3903539062
 30
0.0
 10
450.0969036453
 20
1537.2810960705
 30
0.0
  0
SPLINE
  5
371
100
AcDbEntity
  8
0
100
AcDbSpline
 62
7
  6
CONTINUOUS
 70
0
 71
3
 72
9
 73
5
 74
0
 42
0.0000001
 43
0.0000001
 44
0.0000000001
 40
0.0
 40
0.0
 40
0.0
 40
0.0
 40
0.2807306068
 40
1.0
 40
1.0
 40
1.0
 40
1.0
 10
451.443181461
 20
744.1667613958
 30
0.0
 10
451.443181461
 20
743.9317540906
 30
0.0
 10
451.3957761932
 20
743.0993988498
 30
0.0
 10
451.1263749031
 20
742.2505724142
 30
0.0
 10
450.7578536267
 20
741.7743993651
 30
0.0
  0
SPLINE
  5
372
100
AcDbEntity
  8
0
100
AcDbSpline
 62
7
  6
CONTINUOUS
 70
0
 71
3
 72
8
 73
4
 74
0
 42
0.0000001
 43
0.0000001
 44
0.0000000001
 40
0.0
 40
0.0
 40
0.0
 40
0.0
 40
1.0
 40
1.0
 40
1.0
 40
1.0
 10
450.6098790546
 20
741.6004513047
 30
0.0
 10
450.4604432991
 20
741.4407227942
 30
0.0
 10
450.2863949839
 20
741.3004972049
 30
0.0
 10
450.0969036453
 20
741.1912393692
 30
0.0
  0
SPLINE
  5
373
100
AcDbEntity
  8
0
100
AcDbSpline
 62
7
  6
CONTINUOUS
 70
0
 71
3
 72
9
 73
5
 74
0
 42
0.0000001
 43
0.0000001
 44
0.0000000001
 40
0.0
 40
0.0
 40
0.0
 40
0.0
 40
0.2807306068
 40
1.0
 40
1.0
 40
1.0
 40
1.0
 10
451.443181461
 20
1172.8305303889
 30
0.0
 10
451.443181461
 20
1172.5955230837
 30
0.0
 10
451.3957761932
 20
1171.7631678429
 30
0.0
 10
451.1263749031
 20
1170.9143414072
 30
0.0
 10
450.7578536267
 20
1170.4381683581
 30
0.0
  0
SPLINE
  5
374
100
AcDbEntity
  8
0
100
AcDbSpline
 62
7
  6
CONTINUOUS
 70
0
 71
3
 72
8
 73
4
 74
0
 42
0.0000001
 43
0.0000001
 44
0.0000000001
 40
0.0
 40
0.0
 40
0.0
 40
0.0
 40
1.0
 40
1.0
 40
1.0
 40
1.0
 10
450.6098790546
 20
1170.2642202977
 30
0.0
 10
450.4604432991
 20
1170.1044917873
 30
0.0
 10
450.2863949839
 20
1169.9642661979
 30
0.0
 10
450.0969036453
 20
1169.8550083622
 30
0.0
  0
SPLINE
  5
375
100
AcDbEntity
  8
0
100
AcDbSpline
 62
7
  6
CONTINUOUS
 70
0
 71
3
 72
9
 73
5
 74
0
 42
0.0000001
 43
0.0000001
 44
0.0000000001
 40
0.0
 40
0.0
 40
0.0
 40
0.0
 40
0.2807306068
 40
1.0
 40
1.0
 40
1.0
 40
1.0
 10
451.443181461
 20
376.7406736875
 30
0.0
 10
451.443181461
 20
376.5056663823
 30
0.0
 10
451.3957761932
 20
375.6733111415
 30
0.0
 10
451.1263749031
 20
374.8244847059
 30
0.0
 10
450.7578536267
 20
374.3483116567
 30
0.0
  0
SPLINE
  5
376
100
AcDbEntity
  8
0
100
AcDbSpline
 62
7
  6
CONTINUOUS
 70
0
 71
3
 72
8
 73
4
 74
0
 42
0.0000001
 43
0.0000001
 44
0.0000000001
 40
0.0
 40
0.0
 40
0.0
 40
0.0
 40
1.0
 40
1.0
 40
1.0
 40
1.0
 10
450.6098790546
 20
374.1743635964
 30
0.0
 10
450.4604432991
 20
374.0146350859
 30
0.0
 10
450.2863949839
 20
373.8744094966
 30
0.0
 10
450.0969036453
 20
373.7651516608
 30
0.0
  0
SPLINE
  5
377
100
AcDbEntity
  8
0
100
AcDbSpline
 62
7
  6
CONTINUOUS
 70
0
 71
3
 72
9
 73
5
 74
0
 42
0.0000001
 43
0.0000001
 44
0.0000000001
 40
0.0
 40
0.0
 40
0.0
 40
0.0
 40
0.7286685009
 40
1.0
 40
1.0
 40
1.0
 40
1.0
 10
770.1485475089
 20
137.441150383
 30
0.0
 10
769.6823100832
 20
137.204733757
 30
0.0
 10
768.8576237564
 20
137.2454952349
 30
0.0
 10
768.2214579475
 20
137.5647791861
 30
0.0
 10
768.0527330435
 20
137.6618493057
 30
0.0
  0
SPLINE
  5
378
100
AcDbEntity
  8
0
100
AcDbSpline
 62
7
  6
CONTINUOUS
 70
0
 71
3
 72
8
 73
4
 74
0
 42
0.0000001
 43
0.0000001
 44
0.0000000001
 40
0.0
 40
0.0
 40
0.0
 40
0.0
 40
1.0
 40
1.0
 40
1.0
 40
1.0
 10
770.1485475089
 20
137.441150383
 30
0.0
 10
770.3017790082
 20
137.526754033
 30
0.0
 10
770.4741281963
 20
137.6594152206
 30
0.0
 10
770.5003251793
 20
137.8329709619
 30
0.0
  0
SPLINE
  5
379
100
AcDbEntity
  8
0
100
AcDbSpline
 62
7
  6
CONTINUOUS
 70
0
 71
3
 72
10
 73
6
 74
0
 42
0.0000001
 43
0.0000001
 44
0.0000000001
 40
0.0
 40
0.0
 40
0.0
 40
0.0
 40
0.718956066
 40
0.9242282687
 40
1.0
 40
1.0
 40
1.0
 40
1.0
 10
440.3214092618
 20
327.8628996651
 30
0.0
 10
440.0920718637
 20
327.7912882599
 30
0.0
 10
439.7902792387
 20
327.6361728464
 30
0.0
 10
439.5714388254
 20
327.4304055977
 30
0.0
 10
439.4426226041
 20
327.4056691471
 30
0.0
 10
439.4432772014
 20
327.3803565168
 30
0.0
  0
SPLINE
  5
37A
100
AcDbEntity
  8
0
100
AcDbSpline
 62
7
  6
CONTINUOUS
 70
0
 71
3
 72
8
 73
4
 74
0
 42
0.0000001
 43
0.0000001
 44
0.0000000001
 40
0.0
 40
0.0
 40
0.0
 40
0.0
 40
1.0
 40
1.0
 40
1.0
 40
1.0
 10
768.0527330435
 20
137.6618493057
 30
0.0
 10
767.161499767
 20
138.1745899783
 30
0.0
 10
766.4948768138
 20
139.0364850966
 30
0.0
 10
765.9150257482
 20
139.8855860871
 30
0.0
  0
SPLINE
  5
37B
100
AcDbEntity
  8
0
100
AcDbSpline
 62
7
  6
CONTINUOUS
 70
0
 71
3
 72
8
 73
4
 74
0
 42
0.0000001
 43
0.0000001
 44
0.0000000001
 40
0.0
 40
0.0
 40
0.0
 40
0.0
 40
1.0
 40
1.0
 40
1.0
 40
1.0
 10
439.4432775326
 20
1604.904614255
 30
0.0
 10
439.4431334909
 20
1603.8856046607
 30
0.0
 10
439.7458817476
 20
1602.8173433213
 30
0.0
 10
440.3214092618
 20
1601.9764220084
 30
0.0
  0
SPLINE
  5
37C
100
AcDbEntity
  8
0
100
AcDbSpline
 62
7
  6
CONTINUOUS
 70
0
 71
3
 72
11
 73
7
 74
0
 42
0.0000001
 43
0.0000001
 44
0.0000000001
 40
0.0
 40
0.0
 40
0.0
 40
0.0
 40
0.1835917426
 40
0.4352068886
 40
0.7283955701
 40
1.0
 40
1.0
 40
1.0
 40
1.0
 10
450.0969036453
 20
741.1912393692
 30
0.0
 10
449.4168490933
 20
740.7991302147
 30
0.0
 10
447.2977234004
 20
740.9236523923
 30
0.0
 10
444.8308287695
 20
742.952776386
 30
0.0
 10
442.8857600999
 20
745.8975758905
 30
0.0
 10
442.2507550341
 20
748.3125684569
 30
0.0
 10
442.2507550341
 20
749.4738912046
 30
0.0
  0
SPLINE
  5
37D
100
AcDbEntity
  8
0
100
AcDbSpline
 62
7
  6
CONTINUOUS
 70
0
 71
3
 72
11
 73
7
 74
0
 42
0.0000001
 43
0.0000001
 44
0.0000000001
 40
0.0
 40
0.0
 40
0.0
 40
0.0
 40
0.1835917426
 40
0.4352068886
 40
0.7283955701
 40
1.0
 40
1.0
 40
1.0
 40
1.0
 10
762.6394021603
 20
193.3227381629
 30
0.0
 10
761.9593476082
 20
192.9306290084
 30
0.0
 10
759.8402219153
 20
193.055151186
 30
0.0
 10
757.3733272845
 20
195.0842751797
 30
0.0
 10
755.4282586148
 20
198.0290746842
 30
0.0
 10
754.793253549
 20
200.4440672507
 30
0.0
 10
754.793253549
 20
201.6053899983
 30
0.0
  0
SPLINE
  5
37E
100
AcDbEntity
  8
0
100
AcDbSpline
 62
7
  6
CONTINUOUS
 70
0
 71
3
 72
11
 73
7
 74
0
 42
0.0000001
 43
0.0000001
 44
0.0000000001
 40
0.0
 40
0.0
 40
0.0
 40
0.0
 40
0.1835917426
 40
0.4352068886
 40
0.7283955701
 40
1.0
 40
1.0
 40
1.0
 40
1.0
 10
762.6394021603
 20
1356.8386825725
 30
0.0
 10
761.9593476082
 20
1356.446573418
 30
0.0
 10
759.8402219153
 20
1356.5710955957
 30
0.0
 10
757.3733272845
 20
1358.6002195894
 30
0.0
 10
755.4282586148
 20
1361.5450190938
 30
0.0
 10
754.793253549
 20
1363.9600116603
 30
0.0
 10
754.793253549
 20
1365.121334408
 30
0.0
  0
SPLINE
  5
37F
100
AcDbEntity
  8
0
100
AcDbSpline
 62
7
  6
CONTINUOUS
 70
0
 71
3
 72
8
 73
4
 74
0
 42
0.0000001
 43
0.0000001
 44
0.0000000001
 40
0.0
 40
0.0
 40
0.0
 40
0.0
 40
1.0
 40
1.0
 40
1.0
 40
1.0
 10
754.793253549
 20
1365.121334408
 30
0.0
 10
754.793253549
 20
1365.5068626897
 30
0.0
 10
754.8302100233
 20
1365.8956901746
 30
0.0
 10
754.91734084
 20
1366.2712434688
 30
0.0
  0
SPLINE
  5
380
100
AcDbEntity
  8
0
100
AcDbSpline
 62
7
  6
CONTINUOUS
 70
0
 71
3
 72
9
 73
5
 74
0
 42
0.0000001
 43
0.0000001
 44
0.0000000001
 40
0.0
 40
0.0
 40
0.0
 40
0.0
 40
0.2787808137
 40
1.0
 40
1.0
 40
1.0
 40
1.0
 10
754.91734084
 20
1366.2712434688
 30
0.0
 10
754.9641940891
 20
1366.4731914444
 30
0.0
 10
755.1787489855
 20
1367.1829412599
 30
0.0
 10
755.6749058178
 20
1367.8289603816
 30
0.0
 10
756.1395313647
 20
1368.0968564347
 30
0.0
  0
SPLINE
  5
381
100
AcDbEntity
  8
0
100
AcDbSpline
 62
7
  6
CONTINUOUS
 70
0
 71
3
 72
8
 73
4
 74
0
 42
0.0000001
 43
0.0000001
 44
0.0000000001
 40
0.0
 40
0.0
 40
0.0
 40
0.0
 40
1.0
 40
1.0
 40
1.0
 40
1.0
 10
754.793253549
 20
569.0314777066
 30
0.0
 10
754.793253549
 20
569.4170059883
 30
0.0
 10
754.8302100233
 20
569.8058334732
 30
0.0
 10
754.91734084
 20
570.1813867674
 30
0.0
  0
SPLINE
  5
382
100
AcDbEntity
  8
0
100
AcDbSpline
 62
7
  6
CONTINUOUS
 70
0
 71
3
 72
9
 73
5
 74
0
 42
0.0000001
 43
0.0000001
 44
0.0000000001
 40
0.0
 40
0.0
 40
0.0
 40
0.0
 40
0.2787808137
 40
1.0
 40
1.0
 40
1.0
 40
1.0
 10
754.91734084
 20
570.1813867674
 30
0.0
 10
754.9641940891
 20
570.383334743
 30
0.0
 10
755.1787489855
 20
571.0930845586
 30
0.0
 10
755.6749058178
 20
571.7391036803
 30
0.0
 10
756.1395313647
 20
572.0069997333
 30
0.0
  0
SPLINE
  5
383
100
AcDbEntity
  8
0
100
AcDbSpline
 62
7
  6
CONTINUOUS
 70
0
 71
3
 72
8
 73
4
 74
0
 42
0.0000001
 43
0.0000001
 44
0.0000000001
 40
0.0
 40
0.0
 40
0.0
 40
0.0
 40
1.0
 40
1.0
 40
1.0
 40
1.0
 10
754.793253549
 20
997.6952466997
 30
0.0
 10
754.793253549
 20
998.0807749813
 30
0.0
 10
754.8302100233
 20
998.4696024663
 30
0.0
 10
754.91734084
 20
998.8451557604
 30
0.0
  0
SPLINE
  5
384
100
AcDbEntity
  8
0
100
AcDbSpline
 62
7
  6
CONTINUOUS
 70
0
 71
3
 72
9
 73
5
 74
0
 42
0.0000001
 43
0.0000001
 44
0.0000000001
 40
0.0
 40
0.0
 40
0.0
 40
0.0
 40
0.2787808137
 40
1.0
 40
1.0
 40
1.0
 40
1.0
 10
754.91734084
 20
998.8451557604
 30
0.0
 10
754.9641940891
 20
999.047103736
 30
0.0
 10
755.1787489855
 20
999.7568535516
 30
0.0
 10
755.6749058178
 20
1000.4028726733
 30
0.0
 10
756.1395313647
 20
1000.6707687263
 30
0.0
  0
SPLINE
  5
385
100
AcDbEntity
  8
0
100
AcDbSpline
 62
7
  6
CONTINUOUS
 70
0
 71
3
 72
8
 73
4
 74
0
 42
0.0000001
 43
0.0000001
 44
0.0000000001
 40
0.0
 40
0.0
 40
0.0
 40
0.0
 40
1.0
 40
1.0
 40
1.0
 40
1.0
 10
754.793253549
 20
201.6053899983
 30
0.0
 10
754.793253549
 20
201.99091828
 30
0.0
 10
754.8302100233
 20
202.3797457649
 30
0.0
 10
754.91734084
 20
202.7552990591
 30
0.0
  0
SPLINE
  5
386
100
AcDbEntity
  8
0
100
AcDbSpline
 62
7
  6
CONTINUOUS
 70
0
 71
3
 72
9
 73
5
 74
0
 42
0.0000001
 43
0.0000001
 44
0.0000000001
 40
0.0
 40
0.0
 40
0.0
 40
0.0
 40
0.2787808137
 40
1.0
 40
1.0
 40
1.0
 40
1.0
 10
754.91734084
 20
202.7552990591
 30
0.0
 10
754.9641940891
 20
202.9572470347
 30
0.0
 10
755.1787489855
 20
203.6669968503
 30
0.0
 10
755.6749058178
 20
204.313015972
 30
0.0
 10
756.1395313647
 20
204.580912025
 30
0.0
  0
SPLINE
  5
387
100
AcDbEntity
  8
0
100
AcDbSpline
 62
7
  6
CONTINUOUS
 70
0
 71
3
 72
8
 73
4
 74
0
 42
0.0000001
 43
0.0000001
 44
0.0000000001
 40
0.0
 40
0.0
 40
0.0
 40
0.0
 40
1.0
 40
1.0
 40
1.0
 40
1.0
 10
442.2507550341
 20
1545.5637479059
 30
0.0
 10
442.2507550341
 20
1545.9492761876
 30
0.0
 10
442.2877115083
 20
1546.3381036726
 30
0.0
 10
442.374842325
 20
1546.7136569667
 30
0.0
  0
SPLINE
  5
388
100
AcDbEntity
  8
0
100
AcDbSpline
 62
7
  6
CONTINUOUS
 70
0
 71
3
 72
9
 73
5
 74
0
 42
0.0000001
 43
0.0000001
 44
0.0000000001
 40
0.0
 40
0.0
 40
0.0
 40
0.0
 40
0.2787808137
 40
1.0
 40
1.0
 40
1.0
 40
1.0
 10
442.374842325
 20
1546.7136569667
 30
0.0
 10
442.4216955742
 20
1546.9156049423
 30
0.0
 10
442.6362504705
 20
1547.6253547579
 30
0.0
 10
443.1324073028
 20
1548.2713738796
 30
0.0
 10
443.5970328497
 20
1548.5392699326
 30
0.0
  0
SPLINE
  5
389
100
AcDbEntity
  8
0
100
AcDbSpline
 62
7
  6
CONTINUOUS
 70
0
 71
3
 72
8
 73
4
 74
0
 42
0.0000001
 43
0.0000001
 44
0.0000000001
 40
0.0
 40
0.0
 40
0.0
 40
0.0
 40
1.0
 40
1.0
 40
1.0
 40
1.0
 10
442.2507550341
 20
749.4738912046
 30
0.0
 10
442.2507550341
 20
749.8594194863
 30
0.0
 10
442.2877115083
 20
750.2482469712
 30
0.0
 10
442.374842325
 20
750.6238002654
 30
0.0
  0
SPLINE
  5
38A
100
AcDbEntity
  8
0
100
AcDbSpline
 62
7
  6
CONTINUOUS
 70
0
 71
3
 72
9
 73
5
 74
0
 42
0.0000001
 43
0.0000001
 44
0.0000000001
 40
0.0
 40
0.0
 40
0.0
 40
0.0
 40
0.2787808137
 40
1.0
 40
1.0
 40
1.0
 40
1.0
 10
442.374842325
 20
750.6238002654
 30
0.0
 10
442.4216955742
 20
750.825748241
 30
0.0
 10
442.6362504705
 20
751.5354980566
 30
0.0
 10
443.1324073028
 20
752.1815171782
 30
0.0
 10
443.5970328497
 20
752.4494132313
 30
0.0
  0
SPLINE
  5
38B
100
AcDbEntity
  8
0
100
AcDbSpline
 62
7
  6
CONTINUOUS
 70
0
 71
3
 72
8
 73
4
 74
0
 42
0.0000001
 43
0.0000001
 44
0.0000000001
 40
0.0
 40
0.0
 40
0.0
 40
0.0
 40
1.0
 40
1.0
 40
1.0
 40
1.0
 10
442.2507550341
 20
1178.1376601976
 30
0.0
 10
442.2507550341
 20
1178.5231884793
 30
0.0
 10
442.2877115083
 20
1178.9120159643
 30
0.0
 10
442.374842325
 20
1179.2875692584
 30
0.0
  0
SPLINE
  5
38C
100
AcDbEntity
  8
0
100
AcDbSpline
 62
7
  6
CONTINUOUS
 70
0
 71
3
 72
9
 73
5
 74
0
 42
0.0000001
 43
0.0000001
 44
0.0000000001
 40
0.0
 40
0.0
 40
0.0
 40
0.0
 40
0.2787808137
 40
1.0
 40
1.0
 40
1.0
 40
1.0
 10
442.374842325
 20
1179.2875692584
 30
0.0
 10
442.4216955742
 20
1179.489517234
 30
0.0
 10
442.6362504705
 20
1180.1992670496
 30
0.0
 10
443.1324073028
 20
1180.8452861713
 30
0.0
 10
443.5970328497
 20
1181.1131822243
 30
0.0
  0
SPLINE
  5
38D
100
AcDbEntity
  8
0
100
AcDbSpline
 62
7
  6
CONTINUOUS
 70
0
 71
3
 72
11
 73
7
 74
0
 42
0.0000001
 43
0.0000001
 44
0.0000000001
 40
0.0
 40
0.0
 40
0.0
 40
0.0
 40
0.1835917426
 40
0.4352068886
 40
0.7283955701
 40
1.0
 40
1.0
 40
1.0
 40
1.0
 10
450.0969036453
 20
373.7651516608
 30
0.0
 10
449.4168490933
 20
373.3730425064
 30
0.0
 10
447.2977234004
 20
373.497564684
 30
0.0
 10
444.8308287695
 20
375.5266886777
 30
0.0
 10
442.8857600999
 20
378.4714881822
 30
0.0
 10
442.2507550341
 20
380.8864807486
 30
0.0
 10
442.2507550341
 20
382.0478034963
 30
0.0
  0
SPLINE
  5
38E
100
AcDbEntity
  8
0
100
AcDbSpline
 62
7
  6
CONTINUOUS
 70
0
 71
3
 72
8
 73
4
 74
0
 42
0.0000001
 43
0.0000001
 44
0.0000000001
 40
0.0
 40
0.0
 40
0.0
 40
0.0
 40
1.0
 40
1.0
 40
1.0
 40
1.0
 10
442.2507550341
 20
382.0478034963
 30
0.0
 10
442.2507550341
 20
382.433331778
 30
0.0
 10
442.2877115083
 20
382.8221592629
 30
0.0
 10
442.374842325
 20
383.1977125571
 30
0.0
  0
SPLINE
  5
38F
100
AcDbEntity
  8
0
100
AcDbSpline
 62
7
  6
CONTINUOUS
 70
0
 71
3
 72
9
 73
5
 74
0
 42
0.0000001
 43
0.0000001
 44
0.0000000001
 40
0.0
 40
0.0
 40
0.0
 40
0.0
 40
0.2787808137
 40
1.0
 40
1.0
 40
1.0
 40
1.0
 10
442.374842325
 20
383.1977125571
 30
0.0
 10
442.4216955742
 20
383.3996605327
 30
0.0
 10
442.6362504705
 20
384.1094103483
 30
0.0
 10
443.1324073028
 20
384.7554294699
 30
0.0
 10
443.5970328497
 20
385.023325523
 30
0.0
  0
SPLINE
  5
390
100
AcDbEntity
  8
0
100
AcDbSpline
 62
7
  6
CONTINUOUS
 70
0
 71
3
 72
10
 73
6
 74
0
 42
0.0000001
 43
0.0000001
 44
0.0000000001
 40
0.0
 40
0.0
 40
0.0
 40
0.0
 40
0.1960870397
 40
0.4408556986
 40
1.0
 40
1.0
 40
1.0
 40
1.0
 10
765.9150257482
 20
1413.9991084304
 30
0.0
 10
766.2200449847
 20
1414.0942243524
 30
0.0
 10
766.8229627702
 20
1414.5096055238
 30
0.0
 10
768.2344500047
 20
1415.3084153354
 30
0.0
 10
769.3837289669
 20
1415.9465613273
 30
0.0
 10
770.1485475089
 20
1416.4416445014
 30
0.0
  0
SPLINE
  5
391
100
AcDbEntity
  8
0
100
AcDbSpline
 62
7
  6
CONTINUOUS
 70
0
 71
3
 72
8
 73
4
 74
0
 42
0.0000001
 43
0.0000001
 44
0.0000000001
 40
0.0
 40
0.0
 40
0.0
 40
0.0
 40
1.0
 40
1.0
 40
1.0
 40
1.0
 10
770.5754011516
 20
1416.701132556
 30
0.0
 10
770.4295260197
 20
1416.6129064104
 30
0.0
 10
770.2856885174
 20
1416.5211583839
 30
0.0
 10
770.1371726149
 20
1416.437453942
 30
0.0
  0
SPLINE
  5
392
100
AcDbEntity
  8
0
100
AcDbSpline
 62
7
  6
CONTINUOUS
 70
0
 71
3
 72
8
 73
4
 74
0
 42
0.0000001
 43
0.0000001
 44
0.0000000001
 40
0.0
 40
0.0
 40
0.0
 40
0.0
 40
1.0
 40
1.0
 40
1.0
 40
1.0
 10
777.0455653171
 20
1384.8898151349
 30
0.0
 10
777.2546602634
 20
1385.0830081852
 30
0.0
 10
777.4254530936
 20
1385.3699866404
 30
0.0
 10
777.4255604557
 20
1385.6546693405
 30
0.0
  0
SPLINE
  5
393
100
AcDbEntity
  8
0
100
AcDbSpline
 62
7
  6
CONTINUOUS
 70
0
 71
3
 72
11
 73
7
 74
0
 42
0.0000001
 43
0.0000001
 44
0.0000000001
 40
0.0
 40
0.0
 40
0.0
 40
0.0
 40
0.1835917426
 40
0.4352068886
 40
0.7283955701
 40
1.0
 40
1.0
 40
1.0
 40
1.0
 10
762.6394021603
 20
989.4125948642
 30
0.0
 10
761.9593476082
 20
989.0204857097
 30
0.0
 10
759.8402219153
 20
989.1450078873
 30
0.0
 10
757.3733272845
 20
991.1741318811
 30
0.0
 10
755.4282586148
 20
994.1189313855
 30
0.0
 10
754.793253549
 20
996.533923952
 30
0.0
 10
754.793253549
 20
997.6952466997
 30
0.0
  0
SPLINE
  5
394
100
AcDbEntity
  8
0
100
AcDbSpline
 62
7
  6
CONTINUOUS
 70
0
 71
3
 72
11
 73
7
 74
0
 42
0.0000001
 43
0.0000001
 44
0.0000000001
 40
0.0
 40
0.0
 40
0.0
 40
0.0
 40
0.1835917426
 40
0.4352068886
 40
0.7283955701
 40
1.0
 40
1.0
 40
1.0
 40
1.0
 10
450.0969036453
 20
1169.8550083622
 30
0.0
 10
449.4168490933
 20
1169.4628992077
 30
0.0
 10
447.2977234004
 20
1169.5874213853
 30
0.0
 10
444.8308287695
 20
1171.616545379
 30
0.0
 10
442.8857600999
 20
1174.5613448835
 30
0.0
 10
442.2507550341
 20
1176.97633745
 30
0.0
 10
442.2507550341
 20
1178.1376601976
 30
0.0
  0
SPLINE
  5
395
100
AcDbEntity
  8
0
100
AcDbSpline
 62
7
  6
CONTINUOUS
 70
0
 71
3
 72
11
 73
7
 74
0
 42
0.0000001
 43
0.0000001
 44
0.0000000001
 40
0.0
 40
0.0
 40
0.0
 40
0.0
 40
0.1835917426
 40
0.4352068886
 40
0.7283955701
 40
1.0
 40
1.0
 40
1.0
 40
1.0
 10
762.6394021603
 20
560.7488258712
 30
0.0
 10
761.9593476082
 20
560.3567167167
 30
0.0
 10
759.8402219153
 20
560.4812388943
 30
0.0
 10
757.3733272845
 20
562.510362888
 30
0.0
 10
755.4282586148
 20
565.4551623925
 30
0.0
 10
754.793253549
 20
567.870154959
 30
0.0
 10
754.793253549
 20
569.0314777066
 30
0.0
  0
SPLINE
  5
396
100
AcDbEntity
  8
0
100
AcDbSpline
 62
7
  6
CONTINUOUS
 70
0
 71
3
 72
11
 73
7
 74
0
 42
0.0000001
 43
0.0000001
 44
0.0000000001
 40
0.0
 40
0.0
 40
0.0
 40
0.0
 40
0.1835917426
 40
0.4352068886
 40
0.7283955701
 40
1.0
 40
1.0
 40
1.0
 40
1.0
 10
450.0969036453
 20
1537.2810960705
 30
0.0
 10
449.4168490933
 20
1536.888986916
 30
0.0
 10
447.2977234004
 20
1537.0135090936
 30
0.0
 10
444.8308287695
 20
1539.0426330874
 30
0.0
 10
442.8857600999
 20
1541.9874325918
 30
0.0
 10
442.2507550341
 20
1544.4024251583
 30
0.0
 10
442.2507550341
 20
1545.5637479059
 30
0.0
  0
ELLIPSE
  5
397
100
AcDbEntity
  8
0
100
AcDbEllipse
 62
7
  6
CONTINUOUS
 10
776.1474373345
 20
206.264732474
 30
0.0
 11
3.9897363519
 21
-0.659194334
 31
0.0
 40
0.4344138212
 41
0.6352989396
 42
0.857054404
  0
ELLIPSE
  5
398
100
AcDbEntity
  8
0
100
AcDbEllipse
 62
7
  6
CONTINUOUS
 10
557.367688374
 20
1609.0812233184
 30
0.0
 11
3.9374589769
 21
1.02581769
 31
0.0
 40
0.6868360053
 41
6.8915217137
 42
10.0331143673
  0
ELLIPSE
  5
399
100
AcDbEntity
  8
0
100
AcDbEllipse
 62
7
  6
CONTINUOUS
 10
774.7332178842
 20
1483.5880153789
 30
0.0
 11
3.9374589769
 21
1.02581769
 31
0.0
 40
0.6868360053
 41
6.8915217137
 42
10.0331143673
  0
ELLIPSE
  5
39A
100
AcDbEntity
  8
0
100
AcDbEllipse
 62
7
  6
CONTINUOUS
 10
776.1474373345
 20
1482.7715338698
 30
0.0
 11
3.9374589769
 21
1.02581769
 31
0.0
 40
0.6868360053
 41
3.7499290601
 42
6.8915217137
  0
ELLIPSE
  5
39B
100
AcDbEntity
  8
0
100
AcDbEllipse
 62
7
  6
CONTINUOUS
 10
558.7819078243
 20
1608.2647418094
 30
0.0
 11
3.9374589769
 21
1.02581769
 31
0.0
 40
0.6868360053
 41
3.7499290601
 42
6.8915217137
  0
ELLIPSE
  5
39C
100
AcDbEntity
  8
0
100
AcDbEllipse
 62
7
  6
CONTINUOUS
 10
719.5791303574
 20
1450.1120015601
 30
0.0
 11
3.9897363519
 21
-0.659194334
 31
0.0
 40
0.4344138212
 41
3.9986470576
 42
7.1402397112
  0
ELLIPSE
  5
39D
100
AcDbEntity
  8
0
100
AcDbEllipse
 62
7
  6
CONTINUOUS
 10
718.1649109071
 20
1450.9284830691
 30
0.0
 11
3.9897363519
 21
-0.659194334
 31
0.0
 40
0.4344138212
 41
7.1402397112
 42
10.2818323648
  0
ELLIPSE
  5
39E
100
AcDbEntity
  8
0
100
AcDbEllipse
 62
7
  6
CONTINUOUS
 10
500.7993813969
 20
1576.4216910087
 30
0.0
 11
3.9897363519
 21
-0.659194334
 31
0.0
 40
0.4344138212
 41
7.1402397112
 42
10.2818323648
  0
ELLIPSE
  5
39F
100
AcDbEntity
  8
0
100
AcDbEllipse
 62
7
  6
CONTINUOUS
 10
502.2136008472
 20
1575.6052094997
 30
0.0
 11
3.9897363519
 21
-0.659194334
 31
0.0
 40
0.4344138212
 41
3.9986470576
 42
7.1402397112
  0
ENDSEC
  0
SECTION
  2
OBJECTS
  0
DICTIONARY
  5
C
100
AcDbDictionary
280
0
281
1
  3
ACAD_GROUP
350
D
  3
ACAD_MLINESTYLE
350
17
  3
ACAD_LAYOUT
350
1A
  3
ACAD_PLOTSETTINGS
350
19
  3
ACAD_PLOTSTYLENAME
350
E
  0
DICTIONARY
  5
D
102
{ACAD_REACTORS
330
C
102
}
100
AcDbDictionary
280
0
281
1
  0
ACDBDICTIONARYWDFLT
  5
E
102
{ACAD_REACTORS
330
C
102
}
100
AcDbDictionary
281
1
  3
Normal
350
F
100
AcDbDictionaryWithDefault
340
F
  0
DICTIONARY
  5
17
102
{ACAD_REACTORS
330
C
102
}
100
AcDbDictionary
280
0
281
1
  3
Standard
350
18
  0
DICTIONARY
  5
19
102
{ACAD_REACTORS
330
C
102
}
100
AcDbDictionary
281
1
  0
DICTIONARY
  5
1A
102
{ACAD_REACTORS
330
C
102
}
100
AcDbDictionary
281
1
  3
Model
350
3A0
  3
Layout1
350
3A1
  0
ACDBPLACEHOLDER
  5
F
102
{ACAD_REACTORS
330
E
102
}
  0
MLINESTYLE
  5
18
102
{ACAD_REACTORS
330
17
102
}
100
AcDbMlineStyle
  2
STANDARD
 70
0
  3

 62
256
 51
90.0
 52
90.0
 71
2
 49
0.5
 62
256
  6
BYLAYER
 49
-0.5
 62
256
  6
BYLAYER
  0
LAYOUT
  5
3A0
102
{ACAD_REACTORS
330
1A
102
}
100
AcDbPlotSettings
  1

  2
none_device
  4

  6

 40
0.0
 41
0.0
 42
0.0
 43
0.0
 44
210.0
 45
297.0
 46
0.0
 47
0.0
 48
0.0
 49
0.0
140
0.0
141
0.0
142
1.0
143
1.0
 70
1024
 72
1
 73
0
 74
0
  7

 75
0
147
1.0
148
0.0
149
0.0
100
AcDbLayout
  1
Model
 70
0
 71
0
 10
0.0
 20
0.0
 11
210.0
 21
297.0
 12
0.0
 22
0.0
 32
0.0
 14
0.0
 24
0.0
 34
0.0
 15
0.0
 25
0.0
 35
0.0
146
0.0
 13
0.0
 23
0.0
 33
0.0
 16
1.0
 26
0.0
 36
0.0
 17
0.0
 27
1.0
 37
0.0
 76
0
330
210
345
0
346
0
  0
LAYOUT
  5
3A1
102
{ACAD_REACTORS
330
1A
102
}
100
AcDbPlotSettings
  1

  2
none_device
  4

  6

 40
0.0
 41
0.0
 42
0.0
 43
0.0
 44
210.0
 45
297.0
 46
0.0
 47
0.0
 48
0.0
 49
0.0
140
0.0
141
0.0
142
1.0
143
1.0
 70
0
 72
1
 73
0
 74
0
  7

 75
0
147
1.0
148
0.0
149
0.0
100
AcDbLayout
  1
Layout1
 70
0
 71
1
 10
0.0
 20
0.0
 11
210.0
 21
297.0
 12
0.0
 22
0.0
 32
0.0
 14
0.0
 24
0.0
 34
0.0
 15
0.0
 25
0.0
 35
0.0
146
0.0
 13
0.0
 23
0.0
 33
0.0
 16
1.0
 26
0.0
 36
0.0
 17
0.0
 27
1.0
 37
0.0
 76
0
330
211
345
0
346
0
  0
ENDSEC
  0
EOF
