  0
SECTION
  2
HEADER
  9
$ACADVER
  1
AC1006
  9
$EXTMIN
 10
-2.210780
 20
-3.498445
  9
$EXTMAX
 10
2.204000
 20
3.497000
  9
$LTSCALE
 40
0.000394
  9
$PDMODE
 70
    35
  9
$PDSIZE
 40
0.000315
  0
ENDSEC
  0
SECTION
  2
TABLES
  0
TABLE
  2
LTYPE
 70
     9
  0
LTYPE
  2
CONTINUOUS
 70
    64
  3
Solid line
 72
    65
 73
     0
 40
0.000000
  0
LTYPE
  2
DASHED
 70
    64
  3
__ __ __ __ __ __ __ __ __ __ __ __ __ __ __
 72
    65
 73
     2
 40
0.000003
 49
0.000002
 49
-0.000001
  0
LTYPE
  2
HIDDEN
 70
    64
  3
 _ _ _ _ _ _ _ _ _ _ _ _ _ _ _ _ _ _ _ _ _ _
 72
    65
 73
     2
 40
0.000001
 49
0.000001
 49
-0.000000
  0
LTYPE
  2
CENTER
 70
    64
  3
____ _ ____ _ ____ _ ____ _ ____ _ ____ _ ____
 72
    65
 73
     4
 40
0.000008
 49
0.000005
 49
-0.000001
 49
0.000001
 49
-0.000001
  0
LTYPE
  2
PHANTOM
 70
    64
  3
_____ _ _ _____ _ _ _____ _ _ _____ _ _ ____
 72
    65
 73
     6
 40
0.000010
 49
0.000005
 49
-0.000001
 49
0.000001
 49
-0.000001
 49
0.000001
 49
-0.000001
  0
LTYPE
  2
DOT
 70
    64
  3
...............................................
 72
    65
 73
     2
 40
0.000001
 49
0.000000
 49
-0.000001
  0
LTYPE
  2
DASHDOT
 70
    64
  3
__ . __ . __ . __ . __ . __ . __ . __ . __ . __
 72
    65
 73
     4
 40
0.000004
 49
0.000002
 49
-0.000001
 49
0.000000
 49
-0.000001
  0
LTYPE
  2
BORDER
 70
    64
  3
__ __ . __ __ . __ __ . __ __ . __ __ . __ __
 72
    65
 73
     6
 40
0.000007
 49
0.000002
 49
-0.000001
 49
0.000002
 49
-0.000001
 49
0.000000
 49
-0.000001
  0
LTYPE
  2
DIVIDE
 70
    64
  3
__ . . __ . . __ . . __ . . __ . . __ . . __
 72
    65
 73
     6
 40
0.000005
 49
0.000002
 49
-0.000001
 49
0.000000
 49
-0.000001
 49
0.000000
 49
-0.000001
  0
LTYPE
  2
DOTDOT
 70
    64
  3
 . .  . .  . .  . .  . .  . . 
 72
    65
 73
     5
 40
0.000002
 49
-0.000001
 49
0.000000
 49
-0.000001
 49
0.000000
 49
-0.000001
  0
ENDTAB
  0
TABLE
  2
STYLE
 70
     0
  0
ENDTAB
  0
TABLE
  2
LAYER
 70
     3
  0
LAYER
  2
FOREGROUND
 70
    64
 62
     7
  6
CONTINUOUS
  0
LAYER
  2
BACKGROUND
 70
    65
 62
    -7
  6
CONTINUOUS
  0
LAYER
  2
PLAN_1
 70
    64
 62
     7
  6
CONTINUOUS
  0
ENDTAB
  0
ENDSEC
  0
SECTION
  2
ENTITIES
  0
POLYLINE
  8
PLAN_1
  6
CONTINUOUS
 66
     1
 40
0.003000
 41
0.003000
  0
VERTEX
  8
PLAN_1
  6
CONTINUOUS
 10
0.400488
 20
-3.463906
  0
VERTEX
  8
PLAN_1
  6
CONTINUOUS
 10
0.243528
 20
-3.463906
  0
VERTEX
  8
PLAN_1
  6
CONTINUOUS
 10
0.243528
 20
-3.441169
  0
VERTEX
  8
PLAN_1
  6
CONTINUOUS
 10
0.365949
 20
-3.288146
  0
VERTEX
  8
PLAN_1
  6
CONTINUOUS
 10
0.252709
 20
-3.288146
  0
VERTEX
  8
PLAN_1
  6
CONTINUOUS
 10
0.252709
 20
-3.264535
  0
VERTEX
  8
PLAN_1
  6
CONTINUOUS
 10
0.400488
 20
-3.264535
  0
VERTEX
  8
PLAN_1
  6
CONTINUOUS
 10
0.400488
 20
-3.287709
  0
VERTEX
  8
PLAN_1
  6
CONTINUOUS
 10
0.277630
 20
-3.439858
  0
VERTEX
  8
PLAN_1
  6
CONTINUOUS
 10
0.400488
 20
-3.439858
  0
VERTEX
  8
PLAN_1
  6
CONTINUOUS
 10
0.400488
 20
-3.463906
  0
SEQEND
  8
0
  0
POLYLINE
  8
PLAN_1
  6
CONTINUOUS
 66
     1
 40
0.003000
 41
0.003000
  0
VERTEX
  8
PLAN_1
  6
CONTINUOUS
 10
0.567941
 20
-3.324433
  0
VERTEX
  8
PLAN_1
  6
CONTINUOUS
 10
0.566193
 20
-3.318311
  0
VERTEX
  8
PLAN_1
  6
CONTINUOUS
 10
0.564004
 20
-3.312630
  0
VERTEX
  8
PLAN_1
  6
CONTINUOUS
 10
0.561382
 20
-3.307819
  0
VERTEX
  8
PLAN_1
  6
CONTINUOUS
 10
0.558760
 20
-3.303008
  0
VERTEX
  8
PLAN_1
  6
CONTINUOUS
 10
0.555697
 20
-3.299512
  0
VERTEX
  8
PLAN_1
  6
CONTINUOUS
 10
0.552201
 20
-3.296016
  0
VERTEX
  8
PLAN_1
  6
CONTINUOUS
 10
0.548264
 20
-3.292953
  0
VERTEX
  8
PLAN_1
  6
CONTINUOUS
 10
0.544331
 20
-3.290768
  0
VERTEX
  8
PLAN_1
  6
CONTINUOUS
 10
0.540398
 20
-3.288583
  0
VERTEX
  8
PLAN_1
  6
CONTINUOUS
 10
0.536024
 20
-3.286831
  0
VERTEX
  8
PLAN_1
  6
CONTINUOUS
 10
0.532091
 20
-3.285520
  0
VERTEX
  8
PLAN_1
  6
CONTINUOUS
 10
0.527717
 20
-3.284646
  0
VERTEX
  8
PLAN_1
  6
CONTINUOUS
 10
0.519846
 20
-3.283335
  0
VERTEX
  8
PLAN_1
  6
CONTINUOUS
 10
0.511976
 20
-3.282898
  0
VERTEX
  8
PLAN_1
  6
CONTINUOUS
 10
0.505417
 20
-3.283335
  0
VERTEX
  8
PLAN_1
  6
CONTINUOUS
 10
0.498862
 20
-3.284209
  0
VERTEX
  8
PLAN_1
  6
CONTINUOUS
 10
0.492740
 20
-3.285957
  0
VERTEX
  8
PLAN_1
  6
CONTINUOUS
 10
0.486618
 20
-3.288146
  0
VERTEX
  8
PLAN_1
  6
CONTINUOUS
 10
0.480933
 20
-3.290768
  0
VERTEX
  8
PLAN_1
  6
CONTINUOUS
 10
0.475689
 20
-3.294264
  0
VERTEX
  8
PLAN_1
  6
CONTINUOUS
 10
0.470441
 20
-3.298201
  0
VERTEX
  8
PLAN_1
  6
CONTINUOUS
 10
0.466071
 20
-3.303008
  0
VERTEX
  8
PLAN_1
  6
CONTINUOUS
 10
0.461697
 20
-3.308256
  0
VERTEX
  8
PLAN_1
  6
CONTINUOUS
 10
0.458201
 20
-3.313941
  0
VERTEX
  8
PLAN_1
  6
CONTINUOUS
 10
0.454701
 20
-3.320496
  0
VERTEX
  8
PLAN_1
  6
CONTINUOUS
 10
0.452079
 20
-3.327492
  0
VERTEX
  8
PLAN_1
  6
CONTINUOUS
 10
0.449894
 20
-3.335362
  0
VERTEX
  8
PLAN_1
  6
CONTINUOUS
 10
0.448142
 20
-3.343669
  0
VERTEX
  8
PLAN_1
  6
CONTINUOUS
 10
0.447268
 20
-3.352850
  0
VERTEX
  8
PLAN_1
  6
CONTINUOUS
 10
0.446831
 20
-3.362035
  0
VERTEX
  8
PLAN_1
  6
CONTINUOUS
 10
0.447268
 20
-3.370780
  0
VERTEX
  8
PLAN_1
  6
CONTINUOUS
 10
0.447705
 20
-3.379087
  0
VERTEX
  8
PLAN_1
  6
CONTINUOUS
 10
0.448579
 20
-3.387394
  0
VERTEX
  8
PLAN_1
  6
CONTINUOUS
 10
0.450331
 20
-3.394823
  0
VERTEX
  8
PLAN_1
  6
CONTINUOUS
 10
0.452079
 20
-3.402256
  0
VERTEX
  8
PLAN_1
  6
CONTINUOUS
 10
0.454701
 20
-3.409252
  0
VERTEX
  8
PLAN_1
  6
CONTINUOUS
 10
0.457764
 20
-3.415374
  0
VERTEX
  8
PLAN_1
  6
CONTINUOUS
 10
0.461260
 20
-3.421059
  0
VERTEX
  8
PLAN_1
  6
CONTINUOUS
 10
0.465634
 20
-3.426740
  0
VERTEX
  8
PLAN_1
  6
CONTINUOUS
 10
0.470441
 20
-3.431114
  0
VERTEX
  8
PLAN_1
  6
CONTINUOUS
 10
0.473063
 20
-3.433299
  0
VERTEX
  8
PLAN_1
  6
CONTINUOUS
 10
0.475689
 20
-3.435484
  0
VERTEX
  8
PLAN_1
  6
CONTINUOUS
 10
0.478748
 20
-3.437236
  0
VERTEX
  8
PLAN_1
  6
CONTINUOUS
 10
0.481807
 20
-3.438984
  0
VERTEX
  8
PLAN_1
  6
CONTINUOUS
 10
0.484870
 20
-3.440295
  0
VERTEX
  8
PLAN_1
  6
CONTINUOUS
 10
0.488366
 20
-3.441606
  0
VERTEX
  8
PLAN_1
  6
CONTINUOUS
 10
0.492303
 20
-3.442480
  0
VERTEX
  8
PLAN_1
  6
CONTINUOUS
 10
0.495799
 20
-3.443354
  0
VERTEX
  8
PLAN_1
  6
CONTINUOUS
 10
0.499736
 20
-3.444228
  0
VERTEX
  8
PLAN_1
  6
CONTINUOUS
 10
0.504106
 20
-3.444665
  0
VERTEX
  8
PLAN_1
  6
CONTINUOUS
 10
0.508480
 20
-3.445106
  0
VERTEX
  8
PLAN_1
  6
CONTINUOUS
 10
0.512850
 20
-3.445106
  0
VERTEX
  8
PLAN_1
  6
CONTINUOUS
 10
0.516350
 20
-3.445106
  0
VERTEX
  8
PLAN_1
  6
CONTINUOUS
 10
0.519846
 20
-3.444665
  0
VERTEX
  8
PLAN_1
  6
CONTINUOUS
 10
0.523783
 20
-3.444228
  0
VERTEX
  8
PLAN_1
  6
CONTINUOUS
 10
0.527717
 20
-3.442917
  0
VERTEX
  8
PLAN_1
  6
CONTINUOUS
 10
0.532091
 20
-3.441606
  0
VERTEX
  8
PLAN_1
  6
CONTINUOUS
 10
0.536024
 20
-3.440295
  0
VERTEX
  8
PLAN_1
  6
CONTINUOUS
 10
0.540398
 20
-3.438110
  0
VERTEX
  8
PLAN_1
  6
CONTINUOUS
 10
0.544331
 20
-3.435047
  0
VERTEX
  8
PLAN_1
  6
CONTINUOUS
 10
0.548705
 20
-3.431988
  0
VERTEX
  8
PLAN_1
  6
CONTINUOUS
 10
0.552201
 20
-3.428051
  0
VERTEX
  8
PLAN_1
  6
CONTINUOUS
 10
0.556134
 20
-3.423681
  0
VERTEX
  8
PLAN_1
  6
CONTINUOUS
 10
0.559634
 20
-3.418433
  0
VERTEX
  8
PLAN_1
  6
CONTINUOUS
 10
0.562693
 20
-3.412752
  0
VERTEX
  8
PLAN_1
  6
CONTINUOUS
 10
0.565319
 20
-3.406193
  0
VERTEX
  8
PLAN_1
  6
CONTINUOUS
 10
0.567941
 20
-3.398760
  0
VERTEX
  8
PLAN_1
  6
CONTINUOUS
 10
0.569689
 20
-3.390453
  0
VERTEX
  8
PLAN_1
  6
CONTINUOUS
 10
0.595921
 20
-3.390453
  0
VERTEX
  8
PLAN_1
  6
CONTINUOUS
 10
0.594610
 20
-3.397449
  0
VERTEX
  8
PLAN_1
  6
CONTINUOUS
 10
0.593299
 20
-3.403571
  0
VERTEX
  8
PLAN_1
  6
CONTINUOUS
 10
0.591551
 20
-3.409689
  0
VERTEX
  8
PLAN_1
  6
CONTINUOUS
 10
0.589799
 20
-3.415374
  0
VERTEX
  8
PLAN_1
  6
CONTINUOUS
 10
0.587614
 20
-3.420622
  0
VERTEX
  8
PLAN_1
  6
CONTINUOUS
 10
0.584992
 20
-3.425866
  0
VERTEX
  8
PLAN_1
  6
CONTINUOUS
 10
0.582370
 20
-3.430240
  0
VERTEX
  8
PLAN_1
  6
CONTINUOUS
 10
0.579744
 20
-3.434610
  0
VERTEX
  8
PLAN_1
  6
CONTINUOUS
 10
0.576685
 20
-3.438547
  0
VERTEX
  8
PLAN_1
  6
CONTINUOUS
 10
0.573626
 20
-3.442043
  0
VERTEX
  8
PLAN_1
  6
CONTINUOUS
 10
0.570563
 20
-3.445543
  0
VERTEX
  8
PLAN_1
  6
CONTINUOUS
 10
0.567504
 20
-3.448602
  0
VERTEX
  8
PLAN_1
  6
CONTINUOUS
 10
0.564004
 20
-3.451224
  0
VERTEX
  8
PLAN_1
  6
CONTINUOUS
 10
0.560508
 20
-3.453850
  0
VERTEX
  8
PLAN_1
  6
CONTINUOUS
 10
0.557449
 20
-3.456035
  0
VERTEX
  8
PLAN_1
  6
CONTINUOUS
 10
0.553949
 20
-3.457783
  0
VERTEX
  8
PLAN_1
  6
CONTINUOUS
 10
0.546953
 20
-3.461280
  0
VERTEX
  8
PLAN_1
  6
CONTINUOUS
 10
0.539957
 20
-3.463906
  0
VERTEX
  8
PLAN_1
  6
CONTINUOUS
 10
0.533402
 20
-3.466091
  0
VERTEX
  8
PLAN_1
  6
CONTINUOUS
 10
0.527280
 20
-3.467402
  0
VERTEX
  8
PLAN_1
  6
CONTINUOUS
 10
0.516350
 20
-3.468713
  0
VERTEX
  8
PLAN_1
  6
CONTINUOUS
 10
0.508917
 20
-3.469150
  0
VERTEX
  8
PLAN_1
  6
CONTINUOUS
 10
0.500173
 20
-3.468713
  0
VERTEX
  8
PLAN_1
  6
CONTINUOUS
 10
0.491866
 20
-3.467402
  0
VERTEX
  8
PLAN_1
  6
CONTINUOUS
 10
0.483559
 20
-3.465654
  0
VERTEX
  8
PLAN_1
  6
CONTINUOUS
 10
0.475689
 20
-3.463031
  0
VERTEX
  8
PLAN_1
  6
CONTINUOUS
 10
0.471752
 20
-3.461720
  0
VERTEX
  8
PLAN_1
  6
CONTINUOUS
 10
0.467819
 20
-3.459969
  0
VERTEX
  8
PLAN_1
  6
CONTINUOUS
 10
0.464319
 20
-3.457783
  0
VERTEX
  8
PLAN_1
  6
CONTINUOUS
 10
0.460386
 20
-3.455598
  0
VERTEX
  8
PLAN_1
  6
CONTINUOUS
 10
0.456886
 20
-3.453413
  0
VERTEX
  8
PLAN_1
  6
CONTINUOUS
 10
0.453390
 20
-3.450787
  0
VERTEX
  8
PLAN_1
  6
CONTINUOUS
 10
0.450331
 20
-3.447728
  0
VERTEX
  8
PLAN_1
  6
CONTINUOUS
 10
0.446831
 20
-3.444665
  0
VERTEX
  8
PLAN_1
  6
CONTINUOUS
 10
0.443772
 20
-3.441606
  0
VERTEX
  8
PLAN_1
  6
CONTINUOUS
 10
0.441150
 20
-3.438110
  0
VERTEX
  8
PLAN_1
  6
CONTINUOUS
 10
0.438087
 20
-3.434173
  0
VERTEX
  8
PLAN_1
  6
CONTINUOUS
 10
0.435465
 20
-3.430240
  0
VERTEX
  8
PLAN_1
  6
CONTINUOUS
 10
0.433280
 20
-3.425866
  0
VERTEX
  8
PLAN_1
  6
CONTINUOUS
 10
0.430654
 20
-3.421496
  0
VERTEX
  8
PLAN_1
  6
CONTINUOUS
 10
0.428469
 20
-3.416685
  0
VERTEX
  8
PLAN_1
  6
CONTINUOUS
 10
0.426720
 20
-3.411878
  0
VERTEX
  8
PLAN_1
  6
CONTINUOUS
 10
0.424972
 20
-3.406630
  0
VERTEX
  8
PLAN_1
  6
CONTINUOUS
 10
0.423657
 20
-3.401382
  0
VERTEX
  8
PLAN_1
  6
CONTINUOUS
 10
0.422346
 20
-3.395701
  0
VERTEX
  8
PLAN_1
  6
CONTINUOUS
 10
0.421035
 20
-3.389579
  0
VERTEX
  8
PLAN_1
  6
CONTINUOUS
 10
0.420161
 20
-3.383457
  0
VERTEX
  8
PLAN_1
  6
CONTINUOUS
 10
0.419724
 20
-3.376898
  0
VERTEX
  8
PLAN_1
  6
CONTINUOUS
 10
0.419287
 20
-3.369902
  0
VERTEX
  8
PLAN_1
  6
CONTINUOUS
 10
0.419287
 20
-3.362909
  0
VERTEX
  8
PLAN_1
  6
CONTINUOUS
 10
0.419724
 20
-3.351539
  0
VERTEX
  8
PLAN_1
  6
CONTINUOUS
 10
0.420598
 20
-3.341047
  0
VERTEX
  8
PLAN_1
  6
CONTINUOUS
 10
0.421472
 20
-3.335799
  0
VERTEX
  8
PLAN_1
  6
CONTINUOUS
 10
0.422783
 20
-3.330555
  0
VERTEX
  8
PLAN_1
  6
CONTINUOUS
 10
0.424098
 20
-3.325744
  0
VERTEX
  8
PLAN_1
  6
CONTINUOUS
 10
0.425409
 20
-3.320937
  0
VERTEX
  8
PLAN_1
  6
CONTINUOUS
 10
0.427157
 20
-3.316126
  0
VERTEX
  8
PLAN_1
  6
CONTINUOUS
 10
0.428906
 20
-3.311752
  0
VERTEX
  8
PLAN_1
  6
CONTINUOUS
 10
0.431091
 20
-3.307382
  0
VERTEX
  8
PLAN_1
  6
CONTINUOUS
 10
0.433280
 20
-3.303008
  0
VERTEX
  8
PLAN_1
  6
CONTINUOUS
 10
0.435465
 20
-3.299075
  0
VERTEX
  8
PLAN_1
  6
CONTINUOUS
 10
0.438087
 20
-3.295138
  0
VERTEX
  8
PLAN_1
  6
CONTINUOUS
 10
0.441150
 20
-3.291642
  0
VERTEX
  8
PLAN_1
  6
CONTINUOUS
 10
0.443772
 20
-3.288146
  0
VERTEX
  8
PLAN_1
  6
CONTINUOUS
 10
0.446831
 20
-3.284646
  0
VERTEX
  8
PLAN_1
  6
CONTINUOUS
 10
0.450331
 20
-3.281587
  0
VERTEX
  8
PLAN_1
  6
CONTINUOUS
 10
0.453390
 20
-3.278524
  0
VERTEX
  8
PLAN_1
  6
CONTINUOUS
 10
0.457327
 20
-3.275902
  0
VERTEX
  8
PLAN_1
  6
CONTINUOUS
 10
0.460823
 20
-3.273280
  0
VERTEX
  8
PLAN_1
  6
CONTINUOUS
 10
0.464756
 20
-3.271094
  0
VERTEX
  8
PLAN_1
  6
CONTINUOUS
 10
0.468693
 20
-3.268906
  0
VERTEX
  8
PLAN_1
  6
CONTINUOUS
 10
0.473063
 20
-3.266720
  0
VERTEX
  8
PLAN_1
  6
CONTINUOUS
 10
0.477437
 20
-3.264972
  0
VERTEX
  8
PLAN_1
  6
CONTINUOUS
 10
0.481807
 20
-3.263661
  0
VERTEX
  8
PLAN_1
  6
CONTINUOUS
 10
0.486618
 20
-3.262346
  0
VERTEX
  8
PLAN_1
  6
CONTINUOUS
 10
0.491429
 20
-3.261035
  0
VERTEX
  8
PLAN_1
  6
CONTINUOUS
 10
0.496236
 20
-3.260161
  0
VERTEX
  8
PLAN_1
  6
CONTINUOUS
 10
0.501484
 20
-3.259724
  0
VERTEX
  8
PLAN_1
  6
CONTINUOUS
 10
0.506728
 20
-3.259287
  0
VERTEX
  8
PLAN_1
  6
CONTINUOUS
 10
0.511976
 20
-3.259287
  0
VERTEX
  8
PLAN_1
  6
CONTINUOUS
 10
0.521594
 20
-3.259724
  0
VERTEX
  8
PLAN_1
  6
CONTINUOUS
 10
0.530339
 20
-3.260598
  0
VERTEX
  8
PLAN_1
  6
CONTINUOUS
 10
0.538209
 20
-3.262346
  0
VERTEX
  8
PLAN_1
  6
CONTINUOUS
 10
0.546079
 20
-3.264535
  0
VERTEX
  8
PLAN_1
  6
CONTINUOUS
 10
0.553075
 20
-3.267594
  0
VERTEX
  8
PLAN_1
  6
CONTINUOUS
 10
0.559634
 20
-3.271094
  0
VERTEX
  8
PLAN_1
  6
CONTINUOUS
 10
0.565319
 20
-3.275028
  0
VERTEX
  8
PLAN_1
  6
CONTINUOUS
 10
0.571000
 20
-3.279402
  0
VERTEX
  8
PLAN_1
  6
CONTINUOUS
 10
0.575811
 20
-3.284209
  0
VERTEX
  8
PLAN_1
  6
CONTINUOUS
 10
0.579744
 20
-3.289020
  0
VERTEX
  8
PLAN_1
  6
CONTINUOUS
 10
0.583681
 20
-3.294701
  0
VERTEX
  8
PLAN_1
  6
CONTINUOUS
 10
0.586740
 20
-3.300386
  0
VERTEX
  8
PLAN_1
  6
CONTINUOUS
 10
0.589362
 20
-3.306071
  0
VERTEX
  8
PLAN_1
  6
CONTINUOUS
 10
0.591551
 20
-3.312189
  0
VERTEX
  8
PLAN_1
  6
CONTINUOUS
 10
0.592862
 20
-3.318311
  0
VERTEX
  8
PLAN_1
  6
CONTINUOUS
 10
0.594173
 20
-3.324433
  0
VERTEX
  8
PLAN_1
  6
CONTINUOUS
 10
0.567941
 20
-3.324433
  0
SEQEND
  8
0
  0
POLYLINE
  8
PLAN_1
  6
CONTINUOUS
 66
     1
 40
0.003000
 41
0.003000
  0
VERTEX
  8
PLAN_1
  6
CONTINUOUS
 10
0.655382
 20
-3.463906
  0
VERTEX
  8
PLAN_1
  6
CONTINUOUS
 10
0.628276
 20
-3.463906
  0
VERTEX
  8
PLAN_1
  6
CONTINUOUS
 10
0.628276
 20
-3.264535
  0
VERTEX
  8
PLAN_1
  6
CONTINUOUS
 10
0.655382
 20
-3.264535
  0
VERTEX
  8
PLAN_1
  6
CONTINUOUS
 10
0.655382
 20
-3.361157
  0
VERTEX
  8
PLAN_1
  6
CONTINUOUS
 10
0.752008
 20
-3.264535
  0
VERTEX
  8
PLAN_1
  6
CONTINUOUS
 10
0.789173
 20
-3.264535
  0
VERTEX
  8
PLAN_1
  6
CONTINUOUS
 10
0.706102
 20
-3.344980
  0
VERTEX
  8
PLAN_1
  6
CONTINUOUS
 10
0.791358
 20
-3.463906
  0
VERTEX
  8
PLAN_1
  6
CONTINUOUS
 10
0.756382
 20
-3.463906
  0
VERTEX
  8
PLAN_1
  6
CONTINUOUS
 10
0.686862
 20
-3.363783
  0
VERTEX
  8
PLAN_1
  6
CONTINUOUS
 10
0.655382
 20
-3.393949
  0
VERTEX
  8
PLAN_1
  6
CONTINUOUS
 10
0.655382
 20
-3.463906
  0
SEQEND
  8
0
  0
POLYLINE
  8
PLAN_1
  6
CONTINUOUS
 66
     1
 40
0.003000
 41
0.003000
  0
VERTEX
  8
PLAN_1
  6
CONTINUOUS
 10
0.814969
 20
-3.264535
  0
VERTEX
  8
PLAN_1
  6
CONTINUOUS
 10
0.895850
 20
-3.264535
  0
VERTEX
  8
PLAN_1
  6
CONTINUOUS
 10
0.900661
 20
-3.264535
  0
VERTEX
  8
PLAN_1
  6
CONTINUOUS
 10
0.905472
 20
-3.264972
  0
VERTEX
  8
PLAN_1
  6
CONTINUOUS
 10
0.909843
 20
-3.265409
  0
VERTEX
  8
PLAN_1
  6
CONTINUOUS
 10
0.914217
 20
-3.266283
  0
VERTEX
  8
PLAN_1
  6
CONTINUOUS
 10
0.918587
 20
-3.267157
  0
VERTEX
  8
PLAN_1
  6
CONTINUOUS
 10
0.922961
 20
-3.268469
  0
VERTEX
  8
PLAN_1
  6
CONTINUOUS
 10
0.926894
 20
-3.269780
  0
VERTEX
  8
PLAN_1
  6
CONTINUOUS
 10
0.930831
 20
-3.271531
  0
VERTEX
  8
PLAN_1
  6
CONTINUOUS
 10
0.934764
 20
-3.273280
  0
VERTEX
  8
PLAN_1
  6
CONTINUOUS
 10
0.938260
 20
-3.275465
  0
VERTEX
  8
PLAN_1
  6
CONTINUOUS
 10
0.941760
 20
-3.277650
  0
VERTEX
  8
PLAN_1
  6
CONTINUOUS
 10
0.945256
 20
-3.279839
  0
VERTEX
  8
PLAN_1
  6
CONTINUOUS
 10
0.948319
 20
-3.282461
  0
VERTEX
  8
PLAN_1
  6
CONTINUOUS
 10
0.951378
 20
-3.285520
  0
VERTEX
  8
PLAN_1
  6
CONTINUOUS
 10
0.954437
 20
-3.288146
  0
VERTEX
  8
PLAN_1
  6
CONTINUOUS
 10
0.957063
 20
-3.291205
  0
VERTEX
  8
PLAN_1
  6
CONTINUOUS
 10
0.962307
 20
-3.298201
  0
VERTEX
  8
PLAN_1
  6
CONTINUOUS
 10
0.966681
 20
-3.305634
  0
VERTEX
  8
PLAN_1
  6
CONTINUOUS
 10
0.970614
 20
-3.313504
  0
VERTEX
  8
PLAN_1
  6
CONTINUOUS
 10
0.974114
 20
-3.321811
  0
VERTEX
  8
PLAN_1
  6
CONTINUOUS
 10
0.976299
 20
-3.330992
  0
VERTEX
  8
PLAN_1
  6
CONTINUOUS
 10
0.978047
 20
-3.340610
  0
VERTEX
  8
PLAN_1
  6
CONTINUOUS
 10
0.979358
 20
-3.350665
  0
VERTEX
  8
PLAN_1
  6
CONTINUOUS
 10
0.979795
 20
-3.361157
  0
VERTEX
  8
PLAN_1
  6
CONTINUOUS
 10
0.979358
 20
-3.369902
  0
VERTEX
  8
PLAN_1
  6
CONTINUOUS
 10
0.978921
 20
-3.378650
  0
VERTEX
  8
PLAN_1
  6
CONTINUOUS
 10
0.977610
 20
-3.387394
  0
VERTEX
  8
PLAN_1
  6
CONTINUOUS
 10
0.975862
 20
-3.396138
  0
VERTEX
  8
PLAN_1
  6
CONTINUOUS
 10
0.973240
 20
-3.404882
  0
VERTEX
  8
PLAN_1
  6
CONTINUOUS
 10
0.970177
 20
-3.413189
  0
VERTEX
  8
PLAN_1
  6
CONTINUOUS
 10
0.966244
 20
-3.421496
  0
VERTEX
  8
PLAN_1
  6
CONTINUOUS
 10
0.961870
 20
-3.429366
  0
VERTEX
  8
PLAN_1
  6
CONTINUOUS
 10
0.959248
 20
-3.432862
  0
VERTEX
  8
PLAN_1
  6
CONTINUOUS
 10
0.956626
 20
-3.436358
  0
VERTEX
  8
PLAN_1
  6
CONTINUOUS
 10
0.953563
 20
-3.439858
  0
VERTEX
  8
PLAN_1
  6
CONTINUOUS
 10
0.950504
 20
-3.442917
  0
VERTEX
  8
PLAN_1
  6
CONTINUOUS
 10
0.947008
 20
-3.445980
  0
VERTEX
  8
PLAN_1
  6
CONTINUOUS
 10
0.943508
 20
-3.449039
  0
VERTEX
  8
PLAN_1
  6
CONTINUOUS
 10
0.939575
 20
-3.451661
  0
VERTEX
  8
PLAN_1
  6
CONTINUOUS
 10
0.935638
 20
-3.453850
  0
VERTEX
  8
PLAN_1
  6
CONTINUOUS
 10
0.931268
 20
-3.456035
  0
VERTEX
  8
PLAN_1
  6
CONTINUOUS
 10
0.926894
 20
-3.458220
  0
VERTEX
  8
PLAN_1
  6
CONTINUOUS
 10
0.922087
 20
-3.459969
  0
VERTEX
  8
PLAN_1
  6
CONTINUOUS
 10
0.917276
 20
-3.461280
  0
VERTEX
  8
PLAN_1
  6
CONTINUOUS
 10
0.912028
 20
-3.462157
  0
VERTEX
  8
PLAN_1
  6
CONTINUOUS
 10
0.906346
 20
-3.463031
  0
VERTEX
  8
PLAN_1
  6
CONTINUOUS
 10
0.900661
 20
-3.463469
  0
VERTEX
  8
PLAN_1
  6
CONTINUOUS
 10
0.894976
 20
-3.463906
  0
VERTEX
  8
PLAN_1
  6
CONTINUOUS
 10
0.814969
 20
-3.463906
  0
VERTEX
  8
PLAN_1
  6
CONTINUOUS
 10
0.814969
 20
-3.264535
  0
SEQEND
  8
0
  0
POLYLINE
  8
PLAN_1
  6
CONTINUOUS
 66
     1
 40
0.003000
 41
0.003000
  0
VERTEX
  8
PLAN_1
  6
CONTINUOUS
 10
0.842075
 20
-3.440732
  0
VERTEX
  8
PLAN_1
  6
CONTINUOUS
 10
0.894102
 20
-3.440732
  0
VERTEX
  8
PLAN_1
  6
CONTINUOUS
 10
0.900661
 20
-3.440295
  0
VERTEX
  8
PLAN_1
  6
CONTINUOUS
 10
0.906783
 20
-3.439421
  0
VERTEX
  8
PLAN_1
  6
CONTINUOUS
 10
0.912465
 20
-3.437673
  0
VERTEX
  8
PLAN_1
  6
CONTINUOUS
 10
0.918150
 20
-3.435484
  0
VERTEX
  8
PLAN_1
  6
CONTINUOUS
 10
0.922961
 20
-3.432862
  0
VERTEX
  8
PLAN_1
  6
CONTINUOUS
 10
0.927768
 20
-3.429366
  0
VERTEX
  8
PLAN_1
  6
CONTINUOUS
 10
0.932142
 20
-3.425429
  0
VERTEX
  8
PLAN_1
  6
CONTINUOUS
 10
0.936075
 20
-3.420622
  0
VERTEX
  8
PLAN_1
  6
CONTINUOUS
 10
0.939575
 20
-3.415374
  0
VERTEX
  8
PLAN_1
  6
CONTINUOUS
 10
0.943071
 20
-3.409689
  0
VERTEX
  8
PLAN_1
  6
CONTINUOUS
 10
0.945693
 20
-3.403130
  0
VERTEX
  8
PLAN_1
  6
CONTINUOUS
 10
0.947882
 20
-3.396138
  0
VERTEX
  8
PLAN_1
  6
CONTINUOUS
 10
0.949630
 20
-3.388705
  0
VERTEX
  8
PLAN_1
  6
CONTINUOUS
 10
0.950941
 20
-3.380835
  0
VERTEX
  8
PLAN_1
  6
CONTINUOUS
 10
0.951815
 20
-3.372091
  0
VERTEX
  8
PLAN_1
  6
CONTINUOUS
 10
0.951815
 20
-3.362909
  0
VERTEX
  8
PLAN_1
  6
CONTINUOUS
 10
0.951815
 20
-3.353728
  0
VERTEX
  8
PLAN_1
  6
CONTINUOUS
 10
0.950941
 20
-3.345417
  0
VERTEX
  8
PLAN_1
  6
CONTINUOUS
 10
0.949630
 20
-3.337551
  0
VERTEX
  8
PLAN_1
  6
CONTINUOUS
 10
0.947882
 20
-3.330118
  0
VERTEX
  8
PLAN_1
  6
CONTINUOUS
 10
0.945693
 20
-3.323122
  0
VERTEX
  8
PLAN_1
  6
CONTINUOUS
 10
0.942634
 20
-3.317000
  0
VERTEX
  8
PLAN_1
  6
CONTINUOUS
 10
0.939575
 20
-3.311315
  0
VERTEX
  8
PLAN_1
  6
CONTINUOUS
 10
0.935638
 20
-3.306508
  0
VERTEX
  8
PLAN_1
  6
CONTINUOUS
 10
0.931705
 20
-3.302134
  0
VERTEX
  8
PLAN_1
  6
CONTINUOUS
 10
0.927331
 20
-3.298201
  0
VERTEX
  8
PLAN_1
  6
CONTINUOUS
 10
0.922524
 20
-3.294701
  0
VERTEX
  8
PLAN_1
  6
CONTINUOUS
 10
0.916839
 20
-3.292079
  0
VERTEX
  8
PLAN_1
  6
CONTINUOUS
 10
0.911591
 20
-3.290331
  0
VERTEX
  8
PLAN_1
  6
CONTINUOUS
 10
0.905472
 20
-3.288583
  0
VERTEX
  8
PLAN_1
  6
CONTINUOUS
 10
0.898913
 20
-3.287709
  0
VERTEX
  8
PLAN_1
  6
CONTINUOUS
 10
0.892354
 20
-3.287709
  0
VERTEX
  8
PLAN_1
  6
CONTINUOUS
 10
0.842075
 20
-3.287709
  0
VERTEX
  8
PLAN_1
  6
CONTINUOUS
 10
0.842075
 20
-3.440732
  0
SEQEND
  8
0
  0
POLYLINE
  8
PLAN_1
  6
CONTINUOUS
 66
     1
 40
0.003000
 41
0.003000
  0
VERTEX
  8
PLAN_1
  6
CONTINUOUS
 10
1.005157
 20
-3.338425
  0
VERTEX
  8
PLAN_1
  6
CONTINUOUS
 10
1.005594
 20
-3.332740
  0
VERTEX
  8
PLAN_1
  6
CONTINUOUS
 10
1.006031
 20
-3.327492
  0
VERTEX
  8
PLAN_1
  6
CONTINUOUS
 10
1.006469
 20
-3.322248
  0
VERTEX
  8
PLAN_1
  6
CONTINUOUS
 10
1.007343
 20
-3.317437
  0
VERTEX
  8
PLAN_1
  6
CONTINUOUS
 10
1.008654
 20
-3.312630
  0
VERTEX
  8
PLAN_1
  6
CONTINUOUS
 10
1.009528
 20
-3.308693
  0
VERTEX
  8
PLAN_1
  6
CONTINUOUS
 10
1.011276
 20
-3.304760
  0
VERTEX
  8
PLAN_1
  6
CONTINUOUS
 10
1.013024
 20
-3.300823
  0
VERTEX
  8
PLAN_1
  6
CONTINUOUS
 10
1.014776
 20
-3.297327
  0
VERTEX
  8
PLAN_1
  6
CONTINUOUS
 10
1.016524
 20
-3.294264
  0
VERTEX
  8
PLAN_1
  6
CONTINUOUS
 10
1.018709
 20
-3.291205
  0
VERTEX
  8
PLAN_1
  6
CONTINUOUS
 10
1.020894
 20
-3.288583
  0
VERTEX
  8
PLAN_1
  6
CONTINUOUS
 10
1.026142
 20
-3.283772
  0
VERTEX
  8
PLAN_1
  6
CONTINUOUS
 10
1.030953
 20
-3.279839
  0
VERTEX
  8
PLAN_1
  6
CONTINUOUS
 10
1.036634
 20
-3.276776
  0
VERTEX
  8
PLAN_1
  6
CONTINUOUS
 10
1.042319
 20
-3.274154
  0
VERTEX
  8
PLAN_1
  6
CONTINUOUS
 10
1.047567
 20
-3.271969
  0
VERTEX
  8
PLAN_1
  6
CONTINUOUS
 10
1.053248
 20
-3.270654
  0
VERTEX
  8
PLAN_1
  6
CONTINUOUS
 10
1.058933
 20
-3.269780
  0
VERTEX
  8
PLAN_1
  6
CONTINUOUS
 10
1.063744
 20
-3.268906
  0
VERTEX
  8
PLAN_1
  6
CONTINUOUS
 10
1.068551
 20
-3.268906
  0
VERTEX
  8
PLAN_1
  6
CONTINUOUS
 10
1.072925
 20
-3.268469
  0
VERTEX
  8
PLAN_1
  6
CONTINUOUS
 10
1.079043
 20
-3.268906
  0
VERTEX
  8
PLAN_1
  6
CONTINUOUS
 10
1.085165
 20
-3.269780
  0
VERTEX
  8
PLAN_1
  6
CONTINUOUS
 10
1.090850
 20
-3.271094
  0
VERTEX
  8
PLAN_1
  6
CONTINUOUS
 10
1.096535
 20
-3.272843
  0
VERTEX
  8
PLAN_1
  6
CONTINUOUS
 10
1.101780
 20
-3.275028
  0
VERTEX
  8
PLAN_1
  6
CONTINUOUS
 10
1.107028
 20
-3.277650
  0
VERTEX
  8
PLAN_1
  6
CONTINUOUS
 10
1.111835
 20
-3.280713
  0
VERTEX
  8
PLAN_1
  6
CONTINUOUS
 10
1.116209
 20
-3.284209
  0
VERTEX
  8
PLAN_1
  6
CONTINUOUS
 10
1.120142
 20
-3.288146
  0
VERTEX
  8
PLAN_1
  6
CONTINUOUS
 10
1.123642
 20
-3.292516
  0
VERTEX
  8
PLAN_1
  6
CONTINUOUS
 10
1.126701
 20
-3.297327
  0
VERTEX
  8
PLAN_1
  6
CONTINUOUS
 10
1.128886
 20
-3.302571
  0
VERTEX
  8
PLAN_1
  6
CONTINUOUS
 10
1.131075
 20
-3.308256
  0
VERTEX
  8
PLAN_1
  6
CONTINUOUS
 10
1.132823
 20
-3.313941
  0
VERTEX
  8
PLAN_1
  6
CONTINUOUS
 10
1.133697
 20
-3.320496
  0
VERTEX
  8
PLAN_1
  6
CONTINUOUS
 10
1.133697
 20
-3.327055
  0
VERTEX
  8
PLAN_1
  6
CONTINUOUS
 10
1.133697
 20
-3.333177
  0
VERTEX
  8
PLAN_1
  6
CONTINUOUS
 10
1.132823
 20
-3.339299
  0
VERTEX
  8
PLAN_1
  6
CONTINUOUS
 10
1.131512
 20
-3.344543
  0
VERTEX
  8
PLAN_1
  6
CONTINUOUS
 10
1.129764
 20
-3.349791
  0
VERTEX
  8
PLAN_1
  6
CONTINUOUS
 10
1.127575
 20
-3.354602
  0
VERTEX
  8
PLAN_1
  6
CONTINUOUS
 10
1.124953
 20
-3.358972
  0
VERTEX
  8
PLAN_1
  6
CONTINUOUS
 10
1.121894
 20
-3.362909
  0
VERTEX
  8
PLAN_1
  6
CONTINUOUS
 10
1.118831
 20
-3.366843
  0
VERTEX
  8
PLAN_1
  6
CONTINUOUS
 10
1.114898
 20
-3.370343
  0
VERTEX
  8
PLAN_1
  6
CONTINUOUS
 10
1.110961
 20
-3.373839
  0
VERTEX
  8
PLAN_1
  6
CONTINUOUS
 10
1.106591
 20
-3.377335
  0
VERTEX
  8
PLAN_1
  6
CONTINUOUS
 10
1.102217
 20
-3.380398
  0
VERTEX
  8
PLAN_1
  6
CONTINUOUS
 10
1.092161
 20
-3.386516
  0
VERTEX
  8
PLAN_1
  6
CONTINUOUS
 10
1.081669
 20
-3.392201
  0
VERTEX
  8
PLAN_1
  6
CONTINUOUS
 10
1.061555
 20
-3.403130
  0
VERTEX
  8
PLAN_1
  6
CONTINUOUS
 10
1.056748
 20
-3.406193
  0
VERTEX
  8
PLAN_1
  6
CONTINUOUS
 10
1.052374
 20
-3.408815
  0
VERTEX
  8
PLAN_1
  6
CONTINUOUS
 10
1.048441
 20
-3.411437
  0
VERTEX
  8
PLAN_1
  6
CONTINUOUS
 10
1.044941
 20
-3.414063
  0
VERTEX
  8
PLAN_1
  6
CONTINUOUS
 10
1.039260
 20
-3.419744
  0
VERTEX
  8
PLAN_1
  6
CONTINUOUS
 10
1.034886
 20
-3.424555
  0
VERTEX
  8
PLAN_1
  6
CONTINUOUS
 10
1.031827
 20
-3.429366
  0
VERTEX
  8
PLAN_1
  6
CONTINUOUS
 10
1.029638
 20
-3.433736
  0
VERTEX
  8
PLAN_1
  6
CONTINUOUS
 10
1.028327
 20
-3.437673
  0
VERTEX
  8
PLAN_1
  6
CONTINUOUS
 10
1.027890
 20
-3.440732
  0
VERTEX
  8
PLAN_1
  6
CONTINUOUS
 10
1.133697
 20
-3.440732
  0
VERTEX
  8
PLAN_1
  6
CONTINUOUS
 10
1.133697
 20
-3.463906
  0
VERTEX
  8
PLAN_1
  6
CONTINUOUS
 10
1.000346
 20
-3.463906
  0
VERTEX
  8
PLAN_1
  6
CONTINUOUS
 10
1.000783
 20
-3.456472
  0
VERTEX
  8
PLAN_1
  6
CONTINUOUS
 10
1.001657
 20
-3.449476
  0
VERTEX
  8
PLAN_1
  6
CONTINUOUS
 10
1.002969
 20
-3.442917
  0
VERTEX
  8
PLAN_1
  6
CONTINUOUS
 10
1.004280
 20
-3.436799
  0
VERTEX
  8
PLAN_1
  6
CONTINUOUS
 10
1.006469
 20
-3.431114
  0
VERTEX
  8
PLAN_1
  6
CONTINUOUS
 10
1.008654
 20
-3.425429
  0
VERTEX
  8
PLAN_1
  6
CONTINUOUS
 10
1.011276
 20
-3.420185
  0
VERTEX
  8
PLAN_1
  6
CONTINUOUS
 10
1.013902
 20
-3.415374
  0
VERTEX
  8
PLAN_1
  6
CONTINUOUS
 10
1.016961
 20
-3.411000
  0
VERTEX
  8
PLAN_1
  6
CONTINUOUS
 10
1.020457
 20
-3.407067
  0
VERTEX
  8
PLAN_1
  6
CONTINUOUS
 10
1.024394
 20
-3.402693
  0
VERTEX
  8
PLAN_1
  6
CONTINUOUS
 10
1.028327
 20
-3.399197
  0
VERTEX
  8
PLAN_1
  6
CONTINUOUS
 10
1.032264
 20
-3.395701
  0
VERTEX
  8
PLAN_1
  6
CONTINUOUS
 10
1.036634
 20
-3.392201
  0
VERTEX
  8
PLAN_1
  6
CONTINUOUS
 10
1.041445
 20
-3.389142
  0
VERTEX
  8
PLAN_1
  6
CONTINUOUS
 10
1.046252
 20
-3.386516
  0
VERTEX
  8
PLAN_1
  6
CONTINUOUS
 10
1.072051
 20
-3.371217
  0
VERTEX
  8
PLAN_1
  6
CONTINUOUS
 10
1.079480
 20
-3.366843
  0
VERTEX
  8
PLAN_1
  6
CONTINUOUS
 10
1.086476
 20
-3.362909
  0
VERTEX
  8
PLAN_1
  6
CONTINUOUS
 10
1.092598
 20
-3.358535
  0
VERTEX
  8
PLAN_1
  6
CONTINUOUS
 10
1.097846
 20
-3.353728
  0
VERTEX
  8
PLAN_1
  6
CONTINUOUS
 10
1.100031
 20
-3.351102
  0
VERTEX
  8
PLAN_1
  6
CONTINUOUS
 10
1.101780
 20
-3.348480
  0
VERTEX
  8
PLAN_1
  6
CONTINUOUS
 10
1.103528
 20
-3.345417
  0
VERTEX
  8
PLAN_1
  6
CONTINUOUS
 10
1.105280
 20
-3.341921
  0
VERTEX
  8
PLAN_1
  6
CONTINUOUS
 10
1.106154
 20
-3.338425
  0
VERTEX
  8
PLAN_1
  6
CONTINUOUS
 10
1.107028
 20
-3.334488
  0
VERTEX
  8
PLAN_1
  6
CONTINUOUS
 10
1.107465
 20
-3.330555
  0
VERTEX
  8
PLAN_1
  6
CONTINUOUS
 10
1.107902
 20
-3.325744
  0
VERTEX
  8
PLAN_1
  6
CONTINUOUS
 10
1.107465
 20
-3.322685
  0
VERTEX
  8
PLAN_1
  6
CONTINUOUS
 10
1.107465
 20
-3.319622
  0
VERTEX
  8
PLAN_1
  6
CONTINUOUS
 10
1.106591
 20
-3.317000
  0
VERTEX
  8
PLAN_1
  6
CONTINUOUS
 10
1.105717
 20
-3.313941
  0
VERTEX
  8
PLAN_1
  6
CONTINUOUS
 10
1.104406
 20
-3.310878
  0
VERTEX
  8
PLAN_1
  6
CONTINUOUS
 10
1.103091
 20
-3.307819
  0
VERTEX
  8
PLAN_1
  6
CONTINUOUS
 10
1.101343
 20
-3.305197
  0
VERTEX
  8
PLAN_1
  6
CONTINUOUS
 10
1.099157
 20
-3.302571
  0
VERTEX
  8
PLAN_1
  6
CONTINUOUS
 10
1.096535
 20
-3.299949
  0
VERTEX
  8
PLAN_1
  6
CONTINUOUS
 10
1.093909
 20
-3.297764
  0
VERTEX
  8
PLAN_1
  6
CONTINUOUS
 10
1.090850
 20
-3.295575
  0
VERTEX
  8
PLAN_1
  6
CONTINUOUS
 10
1.087350
 20
-3.293827
  0
VERTEX
  8
PLAN_1
  6
CONTINUOUS
 10
1.083417
 20
-3.292516
  0
VERTEX
  8
PLAN_1
  6
CONTINUOUS
 10
1.079043
 20
-3.291642
  0
VERTEX
  8
PLAN_1
  6
CONTINUOUS
 10
1.074236
 20
-3.290768
  0
VERTEX
  8
PLAN_1
  6
CONTINUOUS
 10
1.068988
 20
-3.290768
  0
VERTEX
  8
PLAN_1
  6
CONTINUOUS
 10
1.062429
 20
-3.290768
  0
VERTEX
  8
PLAN_1
  6
CONTINUOUS
 10
1.056748
 20
-3.292079
  0
VERTEX
  8
PLAN_1
  6
CONTINUOUS
 10
1.051937
 20
-3.293827
  0
VERTEX
  8
PLAN_1
  6
CONTINUOUS
 10
1.047567
 20
-3.296016
  0
VERTEX
  8
PLAN_1
  6
CONTINUOUS
 10
1.043630
 20
-3.299075
  0
VERTEX
  8
PLAN_1
  6
CONTINUOUS
 10
1.040571
 20
-3.302134
  0
VERTEX
  8
PLAN_1
  6
CONTINUOUS
 10
1.037945
 20
-3.305634
  0
VERTEX
  8
PLAN_1
  6
CONTINUOUS
 10
1.035760
 20
-3.309567
  0
VERTEX
  8
PLAN_1
  6
CONTINUOUS
 10
1.034012
 20
-3.313504
  0
VERTEX
  8
PLAN_1
  6
CONTINUOUS
 10
1.032701
 20
-3.317437
  0
VERTEX
  8
PLAN_1
  6
CONTINUOUS
 10
1.031827
 20
-3.321374
  0
VERTEX
  8
PLAN_1
  6
CONTINUOUS
 10
1.030953
 20
-3.325307
  0
VERTEX
  8
PLAN_1
  6
CONTINUOUS
 10
1.030079
 20
-3.332740
  0
VERTEX
  8
PLAN_1
  6
CONTINUOUS
 10
1.029638
 20
-3.338425
  0
VERTEX
  8
PLAN_1
  6
CONTINUOUS
 10
1.005157
 20
-3.338425
  0
SEQEND
  8
0
  0
SOLID
  8
PLAN_1
 10
1.147689
 20
-3.498445
 11
1.147689
 21
-3.484453
 12
1.302024
 22
-3.498445
 13
1.302024
 23
-3.484453
  0
POLYLINE
  8
PLAN_1
  6
CONTINUOUS
 66
     1
 40
0.003000
 41
0.003000
  0
VERTEX
  8
PLAN_1
  6
CONTINUOUS
 10
1.147689
 20
-3.498445
  0
VERTEX
  8
PLAN_1
  6
CONTINUOUS
 10
1.147689
 20
-3.484453
  0
VERTEX
  8
PLAN_1
  6
CONTINUOUS
 10
1.302024
 20
-3.484453
  0
VERTEX
  8
PLAN_1
  6
CONTINUOUS
 10
1.302024
 20
-3.498445
  0
VERTEX
  8
PLAN_1
  6
CONTINUOUS
 10
1.147689
 20
-3.498445
  0
SEQEND
  8
0
  0
SOLID
  8
PLAN_1
 10
1.302024
 20
-3.498445
 11
1.302024
 21
-3.484453
 12
1.456362
 22
-3.498445
 13
1.456362
 23
-3.484453
  0
POLYLINE
  8
PLAN_1
  6
CONTINUOUS
 66
     1
 40
0.003000
 41
0.003000
  0
VERTEX
  8
PLAN_1
  6
CONTINUOUS
 10
1.302024
 20
-3.498445
  0
VERTEX
  8
PLAN_1
  6
CONTINUOUS
 10
1.302024
 20
-3.484453
  0
VERTEX
  8
PLAN_1
  6
CONTINUOUS
 10
1.456362
 20
-3.484453
  0
VERTEX
  8
PLAN_1
  6
CONTINUOUS
 10
1.456362
 20
-3.498445
  0
VERTEX
  8
PLAN_1
  6
CONTINUOUS
 10
1.302024
 20
-3.498445
  0
SEQEND
  8
0
  0
POLYLINE
  8
PLAN_1
  6
CONTINUOUS
 66
     1
 40
0.003000
 41
0.003000
  0
VERTEX
  8
PLAN_1
  6
CONTINUOUS
 10
1.507079
 20
-3.463906
  0
VERTEX
  8
PLAN_1
  6
CONTINUOUS
 10
1.479972
 20
-3.463906
  0
VERTEX
  8
PLAN_1
  6
CONTINUOUS
 10
1.479972
 20
-3.264535
  0
VERTEX
  8
PLAN_1
  6
CONTINUOUS
 10
1.618130
 20
-3.264535
  0
VERTEX
  8
PLAN_1
  6
CONTINUOUS
 10
1.618130
 20
-3.288146
  0
VERTEX
  8
PLAN_1
  6
CONTINUOUS
 10
1.507079
 20
-3.288146
  0
VERTEX
  8
PLAN_1
  6
CONTINUOUS
 10
1.507079
 20
-3.349354
  0
VERTEX
  8
PLAN_1
  6
CONTINUOUS
 10
1.604579
 20
-3.349354
  0
VERTEX
  8
PLAN_1
  6
CONTINUOUS
 10
1.604579
 20
-3.373402
  0
VERTEX
  8
PLAN_1
  6
CONTINUOUS
 10
1.507079
 20
-3.373402
  0
VERTEX
  8
PLAN_1
  6
CONTINUOUS
 10
1.507079
 20
-3.463906
  0
SEQEND
  8
0
  0
SOLID
  8
PLAN_1
 10
1.637370
 20
-3.463906
 11
1.608512
 21
-3.463906
 12
1.637370
 22
-3.434173
 13
1.608512
 23
-3.434173
  0
POLYLINE
  8
PLAN_1
  6
CONTINUOUS
 66
     1
 40
0.003000
 41
0.003000
  0
VERTEX
  8
PLAN_1
  6
CONTINUOUS
 10
1.637370
 20
-3.463906
  0
VERTEX
  8
PLAN_1
  6
CONTINUOUS
 10
1.608512
 20
-3.463906
  0
VERTEX
  8
PLAN_1
  6
CONTINUOUS
 10
1.608512
 20
-3.434173
  0
VERTEX
  8
PLAN_1
  6
CONTINUOUS
 10
1.637370
 20
-3.434173
  0
VERTEX
  8
PLAN_1
  6
CONTINUOUS
 10
1.637370
 20
-3.463906
  0
SEQEND
  8
0
  0
POLYLINE
  8
PLAN_1
  6
CONTINUOUS
 66
     1
 40
0.003000
 41
0.003000
  0
VERTEX
  8
PLAN_1
  6
CONTINUOUS
 10
1.832366
 20
-3.463906
  0
VERTEX
  8
PLAN_1
  6
CONTINUOUS
 10
1.685465
 20
-3.463906
  0
VERTEX
  8
PLAN_1
  6
CONTINUOUS
 10
1.685465
 20
-3.264535
  0
VERTEX
  8
PLAN_1
  6
CONTINUOUS
 10
1.830618
 20
-3.264535
  0
VERTEX
  8
PLAN_1
  6
CONTINUOUS
 10
1.830618
 20
-3.288146
  0
VERTEX
  8
PLAN_1
  6
CONTINUOUS
 10
1.712134
 20
-3.288146
  0
VERTEX
  8
PLAN_1
  6
CONTINUOUS
 10
1.712134
 20
-3.349354
  0
VERTEX
  8
PLAN_1
  6
CONTINUOUS
 10
1.821437
 20
-3.349354
  0
VERTEX
  8
PLAN_1
  6
CONTINUOUS
 10
1.821437
 20
-3.373402
  0
VERTEX
  8
PLAN_1
  6
CONTINUOUS
 10
1.712134
 20
-3.373402
  0
VERTEX
  8
PLAN_1
  6
CONTINUOUS
 10
1.712134
 20
-3.439858
  0
VERTEX
  8
PLAN_1
  6
CONTINUOUS
 10
1.832366
 20
-3.439858
  0
VERTEX
  8
PLAN_1
  6
CONTINUOUS
 10
1.832366
 20
-3.463906
  0
SEQEND
  8
0
  0
POLYLINE
  8
PLAN_1
  6
CONTINUOUS
 66
     1
 40
0.003000
 41
0.003000
  0
VERTEX
  8
PLAN_1
  6
CONTINUOUS
 10
1.897512
 20
-3.463906
  0
VERTEX
  8
PLAN_1
  6
CONTINUOUS
 10
1.870406
 20
-3.463906
  0
VERTEX
  8
PLAN_1
  6
CONTINUOUS
 10
1.870406
 20
-3.264535
  0
VERTEX
  8
PLAN_1
  6
CONTINUOUS
 10
1.960035
 20
-3.264535
  0
VERTEX
  8
PLAN_1
  6
CONTINUOUS
 10
1.967028
 20
-3.264535
  0
VERTEX
  8
PLAN_1
  6
CONTINUOUS
 10
1.973150
 20
-3.265409
  0
VERTEX
  8
PLAN_1
  6
CONTINUOUS
 10
1.979272
 20
-3.266720
  0
VERTEX
  8
PLAN_1
  6
CONTINUOUS
 10
1.984957
 20
-3.268906
  0
VERTEX
  8
PLAN_1
  6
CONTINUOUS
 10
1.990201
 20
-3.271094
  0
VERTEX
  8
PLAN_1
  6
CONTINUOUS
 10
1.995012
 20
-3.273717
  0
VERTEX
  8
PLAN_1
  6
CONTINUOUS
 10
1.999382
 20
-3.276776
  0
VERTEX
  8
PLAN_1
  6
CONTINUOUS
 10
2.003756
 20
-3.280276
  0
VERTEX
  8
PLAN_1
  6
CONTINUOUS
 10
2.007252
 20
-3.284209
  0
VERTEX
  8
PLAN_1
  6
CONTINUOUS
 10
2.010315
 20
-3.288583
  0
VERTEX
  8
PLAN_1
  6
CONTINUOUS
 10
2.012937
 20
-3.293390
  0
VERTEX
  8
PLAN_1
  6
CONTINUOUS
 10
2.015122
 20
-3.298201
  0
VERTEX
  8
PLAN_1
  6
CONTINUOUS
 10
2.016870
 20
-3.303445
  0
VERTEX
  8
PLAN_1
  6
CONTINUOUS
 10
2.018185
 20
-3.308693
  0
VERTEX
  8
PLAN_1
  6
CONTINUOUS
 10
2.019059
 20
-3.314815
  0
VERTEX
  8
PLAN_1
  6
CONTINUOUS
 10
2.019496
 20
-3.320496
  0
VERTEX
  8
PLAN_1
  6
CONTINUOUS
 10
2.019059
 20
-3.325744
  0
VERTEX
  8
PLAN_1
  6
CONTINUOUS
 10
2.018622
 20
-3.330992
  0
VERTEX
  8
PLAN_1
  6
CONTINUOUS
 10
2.017748
 20
-3.336236
  0
VERTEX
  8
PLAN_1
  6
CONTINUOUS
 10
2.015996
 20
-3.341484
  0
VERTEX
  8
PLAN_1
  6
CONTINUOUS
 10
2.014248
 20
-3.346732
  0
VERTEX
  8
PLAN_1
  6
CONTINUOUS
 10
2.012063
 20
-3.351539
  0
VERTEX
  8
PLAN_1
  6
CONTINUOUS
 10
2.009441
 20
-3.355913
  0
VERTEX
  8
PLAN_1
  6
CONTINUOUS
 10
2.005941
 20
-3.360720
  0
VERTEX
  8
PLAN_1
  6
CONTINUOUS
 10
2.002445
 20
-3.364657
  0
VERTEX
  8
PLAN_1
  6
CONTINUOUS
 10
1.998071
 20
-3.368154
  0
VERTEX
  8
PLAN_1
  6
CONTINUOUS
 10
1.993264
 20
-3.371654
  0
VERTEX
  8
PLAN_1
  6
CONTINUOUS
 10
1.987579
 20
-3.374276
  0
VERTEX
  8
PLAN_1
  6
CONTINUOUS
 10
1.981894
 20
-3.376461
  0
VERTEX
  8
PLAN_1
  6
CONTINUOUS
 10
1.975335
 20
-3.378209
  0
VERTEX
  8
PLAN_1
  6
CONTINUOUS
 10
1.967906
 20
-3.379087
  0
VERTEX
  8
PLAN_1
  6
CONTINUOUS
 10
1.960035
 20
-3.379524
  0
VERTEX
  8
PLAN_1
  6
CONTINUOUS
 10
1.897512
 20
-3.379524
  0
VERTEX
  8
PLAN_1
  6
CONTINUOUS
 10
1.897512
 20
-3.463906
  0
SEQEND
  8
0
  0
POLYLINE
  8
PLAN_1
  6
CONTINUOUS
 66
     1
 40
0.003000
 41
0.003000
  0
VERTEX
  8
PLAN_1
  6
CONTINUOUS
 10
1.897512
 20
-3.356787
  0
VERTEX
  8
PLAN_1
  6
CONTINUOUS
 10
1.950850
 20
-3.356787
  0
VERTEX
  8
PLAN_1
  6
CONTINUOUS
 10
1.955661
 20
-3.356350
  0
VERTEX
  8
PLAN_1
  6
CONTINUOUS
 10
1.959598
 20
-3.356350
  0
VERTEX
  8
PLAN_1
  6
CONTINUOUS
 10
1.963531
 20
-3.355476
  0
VERTEX
  8
PLAN_1
  6
CONTINUOUS
 10
1.967465
 20
-3.354602
  0
VERTEX
  8
PLAN_1
  6
CONTINUOUS
 10
1.970965
 20
-3.353728
  0
VERTEX
  8
PLAN_1
  6
CONTINUOUS
 10
1.974461
 20
-3.352413
  0
VERTEX
  8
PLAN_1
  6
CONTINUOUS
 10
1.977524
 20
-3.350665
  0
VERTEX
  8
PLAN_1
  6
CONTINUOUS
 10
1.980146
 20
-3.348917
  0
VERTEX
  8
PLAN_1
  6
CONTINUOUS
 10
1.982768
 20
-3.346732
  0
VERTEX
  8
PLAN_1
  6
CONTINUOUS
 10
1.984957
 20
-3.344106
  0
VERTEX
  8
PLAN_1
  6
CONTINUOUS
 10
1.987142
 20
-3.341047
  0
VERTEX
  8
PLAN_1
  6
CONTINUOUS
 10
1.988453
 20
-3.337988
  0
VERTEX
  8
PLAN_1
  6
CONTINUOUS
 10
1.989764
 20
-3.334051
  0
VERTEX
  8
PLAN_1
  6
CONTINUOUS
 10
1.990638
 20
-3.330118
  0
VERTEX
  8
PLAN_1
  6
CONTINUOUS
 10
1.991512
 20
-3.325744
  0
VERTEX
  8
PLAN_1
  6
CONTINUOUS
 10
1.991512
 20
-3.320937
  0
VERTEX
  8
PLAN_1
  6
CONTINUOUS
 10
1.991512
 20
-3.316126
  0
VERTEX
  8
PLAN_1
  6
CONTINUOUS
 10
1.990638
 20
-3.312189
  0
VERTEX
  8
PLAN_1
  6
CONTINUOUS
 10
1.989764
 20
-3.308256
  0
VERTEX
  8
PLAN_1
  6
CONTINUOUS
 10
1.988453
 20
-3.304760
  0
VERTEX
  8
PLAN_1
  6
CONTINUOUS
 10
1.986705
 20
-3.301697
  0
VERTEX
  8
PLAN_1
  6
CONTINUOUS
 10
1.984957
 20
-3.299075
  0
VERTEX
  8
PLAN_1
  6
CONTINUOUS
 10
1.982768
 20
-3.296890
  0
VERTEX
  8
PLAN_1
  6
CONTINUOUS
 10
1.980146
 20
-3.294701
  0
VERTEX
  8
PLAN_1
  6
CONTINUOUS
 10
1.977524
 20
-3.292953
  0
VERTEX
  8
PLAN_1
  6
CONTINUOUS
 10
1.974461
 20
-3.291205
  0
VERTEX
  8
PLAN_1
  6
CONTINUOUS
 10
1.970965
 20
-3.290331
  0
VERTEX
  8
PLAN_1
  6
CONTINUOUS
 10
1.967465
 20
-3.289020
  0
VERTEX
  8
PLAN_1
  6
CONTINUOUS
 10
1.963969
 20
-3.288583
  0
VERTEX
  8
PLAN_1
  6
CONTINUOUS
 10
1.960035
 20
-3.287709
  0
VERTEX
  8
PLAN_1
  6
CONTINUOUS
 10
1.956098
 20
-3.287709
  0
VERTEX
  8
PLAN_1
  6
CONTINUOUS
 10
1.952165
 20
-3.287709
  0
VERTEX
  8
PLAN_1
  6
CONTINUOUS
 10
1.897512
 20
-3.287709
  0
VERTEX
  8
PLAN_1
  6
CONTINUOUS
 10
1.897512
 20
-3.356787
  0
SEQEND
  8
0
  0
POLYLINE
  8
PLAN_1
  6
CONTINUOUS
 66
     1
 40
0.003000
 41
0.003000
  0
VERTEX
  8
PLAN_1
  6
CONTINUOUS
 10
2.173394
 20
-3.322685
  0
VERTEX
  8
PLAN_1
  6
CONTINUOUS
 10
2.172520
 20
-3.317437
  0
VERTEX
  8
PLAN_1
  6
CONTINUOUS
 10
2.171646
 20
-3.312189
  0
VERTEX
  8
PLAN_1
  6
CONTINUOUS
 10
2.169898
 20
-3.307382
  0
VERTEX
  8
PLAN_1
  6
CONTINUOUS
 10
2.168150
 20
-3.303445
  0
VERTEX
  8
PLAN_1
  6
CONTINUOUS
 10
2.165524
 20
-3.299512
  0
VERTEX
  8
PLAN_1
  6
CONTINUOUS
 10
2.162902
 20
-3.296453
  0
VERTEX
  8
PLAN_1
  6
CONTINUOUS
 10
2.159843
 20
-3.293390
  0
VERTEX
  8
PLAN_1
  6
CONTINUOUS
 10
2.156343
 20
-3.290768
  0
VERTEX
  8
PLAN_1
  6
CONTINUOUS
 10
2.152846
 20
-3.288583
  0
VERTEX
  8
PLAN_1
  6
CONTINUOUS
 10
2.148909
 20
-3.286831
  0
VERTEX
  8
PLAN_1
  6
CONTINUOUS
 10
2.144976
 20
-3.285520
  0
VERTEX
  8
PLAN_1
  6
CONTINUOUS
 10
2.140602
 20
-3.284209
  0
VERTEX
  8
PLAN_1
  6
CONTINUOUS
 10
2.136669
 20
-3.283335
  0
VERTEX
  8
PLAN_1
  6
CONTINUOUS
 10
2.132295
 20
-3.282898
  0
VERTEX
  8
PLAN_1
  6
CONTINUOUS
 10
2.127925
 20
-3.282461
  0
VERTEX
  8
PLAN_1
  6
CONTINUOUS
 10
2.123988
 20
-3.282024
  0
VERTEX
  8
PLAN_1
  6
CONTINUOUS
 10
2.116996
 20
-3.282461
  0
VERTEX
  8
PLAN_1
  6
CONTINUOUS
 10
2.109563
 20
-3.283335
  0
VERTEX
  8
PLAN_1
  6
CONTINUOUS
 10
2.105626
 20
-3.284209
  0
VERTEX
  8
PLAN_1
  6
CONTINUOUS
 10
2.102130
 20
-3.285520
  0
VERTEX
  8
PLAN_1
  6
CONTINUOUS
 10
2.098193
 20
-3.286831
  0
VERTEX
  8
PLAN_1
  6
CONTINUOUS
 10
2.094697
 20
-3.288583
  0
VERTEX
  8
PLAN_1
  6
CONTINUOUS
 10
2.091197
 20
-3.290331
  0
VERTEX
  8
PLAN_1
  6
CONTINUOUS
 10
2.088138
 20
-3.292953
  0
VERTEX
  8
PLAN_1
  6
CONTINUOUS
 10
2.085516
 20
-3.295575
  0
VERTEX
  8
PLAN_1
  6
CONTINUOUS
 10
2.082890
 20
-3.299075
  0
VERTEX
  8
PLAN_1
  6
CONTINUOUS
 10
2.081142
 20
-3.302571
  0
VERTEX
  8
PLAN_1
  6
CONTINUOUS
 10
2.079394
 20
-3.306945
  0
VERTEX
  8
PLAN_1
  6
CONTINUOUS
 10
2.078520
 20
-3.311752
  0
VERTEX
  8
PLAN_1
  6
CONTINUOUS
 10
2.078083
 20
-3.317000
  0
VERTEX
  8
PLAN_1
  6
CONTINUOUS
 10
2.078520
 20
-3.320059
  0
VERTEX
  8
PLAN_1
  6
CONTINUOUS
 10
2.078957
 20
-3.323122
  0
VERTEX
  8
PLAN_1
  6
CONTINUOUS
 10
2.079394
 20
-3.325744
  0
VERTEX
  8
PLAN_1
  6
CONTINUOUS
 10
2.080268
 20
-3.327929
  0
VERTEX
  8
PLAN_1
  6
CONTINUOUS
 10
2.081579
 20
-3.330118
  0
VERTEX
  8
PLAN_1
  6
CONTINUOUS
 10
2.082453
 20
-3.331866
  0
VERTEX
  8
PLAN_1
  6
CONTINUOUS
 10
2.084205
 20
-3.333614
  0
VERTEX
  8
PLAN_1
  6
CONTINUOUS
 10
2.085516
 20
-3.334925
  0
VERTEX
  8
PLAN_1
  6
CONTINUOUS
 10
2.089449
 20
-3.337551
  0
VERTEX
  8
PLAN_1
  6
CONTINUOUS
 10
2.093386
 20
-3.339736
  0
VERTEX
  8
PLAN_1
  6
CONTINUOUS
 10
2.097319
 20
-3.341484
  0
VERTEX
  8
PLAN_1
  6
CONTINUOUS
 10
2.101693
 20
-3.342358
  0
VERTEX
  8
PLAN_1
  6
CONTINUOUS
 10
2.158969
 20
-3.355476
  0
VERTEX
  8
PLAN_1
  6
CONTINUOUS
 10
2.163339
 20
-3.356787
  0
VERTEX
  8
PLAN_1
  6
CONTINUOUS
 10
2.168150
 20
-3.358098
  0
VERTEX
  8
PLAN_1
  6
CONTINUOUS
 10
2.172520
 20
-3.359846
  0
VERTEX
  8
PLAN_1
  6
CONTINUOUS
 10
2.176894
 20
-3.362035
  0
VERTEX
  8
PLAN_1
  6
CONTINUOUS
 10
2.180827
 20
-3.364220
  0
VERTEX
  8
PLAN_1
  6
CONTINUOUS
 10
2.184327
 20
-3.366843
  0
VERTEX
  8
PLAN_1
  6
CONTINUOUS
 10
2.187823
 20
-3.369465
  0
VERTEX
  8
PLAN_1
  6
CONTINUOUS
 10
2.190882
 20
-3.372528
  0
VERTEX
  8
PLAN_1
  6
CONTINUOUS
 10
2.193945
 20
-3.376024
  0
VERTEX
  8
PLAN_1
  6
CONTINUOUS
 10
2.196567
 20
-3.379524
  0
VERTEX
  8
PLAN_1
  6
CONTINUOUS
 10
2.198752
 20
-3.383457
  0
VERTEX
  8
PLAN_1
  6
CONTINUOUS
 10
2.200504
 20
-3.387831
  0
VERTEX
  8
PLAN_1
  6
CONTINUOUS
 10
2.201815
 20
-3.392638
  0
VERTEX
  8
PLAN_1
  6
CONTINUOUS
 10
2.203126
 20
-3.397886
  0
VERTEX
  8
PLAN_1
  6
CONTINUOUS
 10
2.203563
 20
-3.403130
  0
VERTEX
  8
PLAN_1
  6
CONTINUOUS
 10
2.204000
 20
-3.408815
  0
VERTEX
  8
PLAN_1
  6
CONTINUOUS
 10
2.204000
 20
-3.413189
  0
VERTEX
  8
PLAN_1
  6
CONTINUOUS
 10
2.203563
 20
-3.417122
  0
VERTEX
  8
PLAN_1
  6
CONTINUOUS
 10
2.202689
 20
-3.421059
  0
VERTEX
  8
PLAN_1
  6
CONTINUOUS
 10
2.202252
 20
-3.424992
  0
VERTEX
  8
PLAN_1
  6
CONTINUOUS
 10
2.200941
 20
-3.428492
  0
VERTEX
  8
PLAN_1
  6
CONTINUOUS
 10
2.199626
 20
-3.431988
  0
VERTEX
  8
PLAN_1
  6
CONTINUOUS
 10
2.198315
 20
-3.435047
  0
VERTEX
  8
PLAN_1
  6
CONTINUOUS
 10
2.196567
 20
-3.438110
  0
VERTEX
  8
PLAN_1
  6
CONTINUOUS
 10
2.194819
 20
-3.441169
  0
VERTEX
  8
PLAN_1
  6
CONTINUOUS
 10
2.192634
 20
-3.443791
  0
VERTEX
  8
PLAN_1
  6
CONTINUOUS
 10
2.190445
 20
-3.446417
  0
VERTEX
  8
PLAN_1
  6
CONTINUOUS
 10
2.188260
 20
-3.448602
  0
VERTEX
  8
PLAN_1
  6
CONTINUOUS
 10
2.183453
 20
-3.452972
  0
VERTEX
  8
PLAN_1
  6
CONTINUOUS
 10
2.177768
 20
-3.456472
  0
VERTEX
  8
PLAN_1
  6
CONTINUOUS
 10
2.172083
 20
-3.459969
  0
VERTEX
  8
PLAN_1
  6
CONTINUOUS
 10
2.165524
 20
-3.462594
  0
VERTEX
  8
PLAN_1
  6
CONTINUOUS
 10
2.159406
 20
-3.464780
  0
VERTEX
  8
PLAN_1
  6
CONTINUOUS
 10
2.152409
 20
-3.466091
  0
VERTEX
  8
PLAN_1
  6
CONTINUOUS
 10
2.145850
 20
-3.467402
  0
VERTEX
  8
PLAN_1
  6
CONTINUOUS
 10
2.139291
 20
-3.468276
  0
VERTEX
  8
PLAN_1
  6
CONTINUOUS
 10
2.132295
 20
-3.468713
  0
VERTEX
  8
PLAN_1
  6
CONTINUOUS
 10
2.126177
 20
-3.469150
  0
VERTEX
  8
PLAN_1
  6
CONTINUOUS
 10
2.119181
 20
-3.468713
  0
VERTEX
  8
PLAN_1
  6
CONTINUOUS
 10
2.113059
 20
-3.468713
  0
VERTEX
  8
PLAN_1
  6
CONTINUOUS
 10
2.107374
 20
-3.467839
  0
VERTEX
  8
PLAN_1
  6
CONTINUOUS
 10
2.102130
 20
-3.466965
  0
VERTEX
  8
PLAN_1
  6
CONTINUOUS
 10
2.097319
 20
-3.466091
  0
VERTEX
  8
PLAN_1
  6
CONTINUOUS
 10
2.092949
 20
-3.465217
  0
VERTEX
  8
PLAN_1
  6
CONTINUOUS
 10
2.089012
 20
-3.463906
  0
VERTEX
  8
PLAN_1
  6
CONTINUOUS
 10
2.085516
 20
-3.462594
  0
VERTEX
  8
PLAN_1
  6
CONTINUOUS
 10
2.078957
 20
-3.459531
  0
VERTEX
  8
PLAN_1
  6
CONTINUOUS
 10
2.073709
 20
-3.456472
  0
VERTEX
  8
PLAN_1
  6
CONTINUOUS
 10
2.069339
 20
-3.452972
  0
VERTEX
  8
PLAN_1
  6
CONTINUOUS
 10
2.065839
 20
-3.449913
  0
VERTEX
  8
PLAN_1
  6
CONTINUOUS
 10
2.062780
 20
-3.446854
  0
VERTEX
  8
PLAN_1
  6
CONTINUOUS
 10
2.060157
 20
-3.444228
  0
VERTEX
  8
PLAN_1
  6
CONTINUOUS
 10
2.057531
 20
-3.441169
  0
VERTEX
  8
PLAN_1
  6
CONTINUOUS
 10
2.055346
 20
-3.438110
  0
VERTEX
  8
PLAN_1
  6
CONTINUOUS
 10
2.053598
 20
-3.435047
  0
VERTEX
  8
PLAN_1
  6
CONTINUOUS
 10
2.051850
 20
-3.431988
  0
VERTEX
  8
PLAN_1
  6
CONTINUOUS
 10
2.050539
 20
-3.428929
  0
VERTEX
  8
PLAN_1
  6
CONTINUOUS
 10
2.049224
 20
-3.425866
  0
VERTEX
  8
PLAN_1
  6
CONTINUOUS
 10
2.047476
 20
-3.419307
  0
VERTEX
  8
PLAN_1
  6
CONTINUOUS
 10
2.046165
 20
-3.412752
  0
VERTEX
  8
PLAN_1
  6
CONTINUOUS
 10
2.045728
 20
-3.406193
  0
VERTEX
  8
PLAN_1
  6
CONTINUOUS
 10
2.045728
 20
-3.399197
  0
VERTEX
  8
PLAN_1
  6
CONTINUOUS
 10
2.070650
 20
-3.399197
  0
VERTEX
  8
PLAN_1
  6
CONTINUOUS
 10
2.071087
 20
-3.405756
  0
VERTEX
  8
PLAN_1
  6
CONTINUOUS
 10
2.071961
 20
-3.411878
  0
VERTEX
  8
PLAN_1
  6
CONTINUOUS
 10
2.073709
 20
-3.417122
  0
VERTEX
  8
PLAN_1
  6
CONTINUOUS
 10
2.075898
 20
-3.421933
  0
VERTEX
  8
PLAN_1
  6
CONTINUOUS
 10
2.078520
 20
-3.426303
  0
VERTEX
  8
PLAN_1
  6
CONTINUOUS
 10
2.081579
 20
-3.429803
  0
VERTEX
  8
PLAN_1
  6
CONTINUOUS
 10
2.085079
 20
-3.433299
  0
VERTEX
  8
PLAN_1
  6
CONTINUOUS
 10
2.088575
 20
-3.436358
  0
VERTEX
  8
PLAN_1
  6
CONTINUOUS
 10
2.092949
 20
-3.438547
  0
VERTEX
  8
PLAN_1
  6
CONTINUOUS
 10
2.097319
 20
-3.440732
  0
VERTEX
  8
PLAN_1
  6
CONTINUOUS
 10
2.101693
 20
-3.442480
  0
VERTEX
  8
PLAN_1
  6
CONTINUOUS
 10
2.106500
 20
-3.443791
  0
VERTEX
  8
PLAN_1
  6
CONTINUOUS
 10
2.111311
 20
-3.444665
  0
VERTEX
  8
PLAN_1
  6
CONTINUOUS
 10
2.116118
 20
-3.445543
  0
VERTEX
  8
PLAN_1
  6
CONTINUOUS
 10
2.120929
 20
-3.445980
  0
VERTEX
  8
PLAN_1
  6
CONTINUOUS
 10
2.125740
 20
-3.445980
  0
VERTEX
  8
PLAN_1
  6
CONTINUOUS
 10
2.133610
 20
-3.445543
  0
VERTEX
  8
PLAN_1
  6
CONTINUOUS
 10
2.141917
 20
-3.444665
  0
VERTEX
  8
PLAN_1
  6
CONTINUOUS
 10
2.146287
 20
-3.443791
  0
VERTEX
  8
PLAN_1
  6
CONTINUOUS
 10
2.150661
 20
-3.442917
  0
VERTEX
  8
PLAN_1
  6
CONTINUOUS
 10
2.155031
 20
-3.441606
  0
VERTEX
  8
PLAN_1
  6
CONTINUOUS
 10
2.158969
 20
-3.439858
  0
VERTEX
  8
PLAN_1
  6
CONTINUOUS
 10
2.162902
 20
-3.438110
  0
VERTEX
  8
PLAN_1
  6
CONTINUOUS
 10
2.166398
 20
-3.435484
  0
VERTEX
  8
PLAN_1
  6
CONTINUOUS
 10
2.169898
 20
-3.432862
  0
VERTEX
  8
PLAN_1
  6
CONTINUOUS
 10
2.172520
 20
-3.429803
  0
VERTEX
  8
PLAN_1
  6
CONTINUOUS
 10
2.174705
 20
-3.426303
  0
VERTEX
  8
PLAN_1
  6
CONTINUOUS
 10
2.176457
 20
-3.421933
  0
VERTEX
  8
PLAN_1
  6
CONTINUOUS
 10
2.177331
 20
-3.417559
  0
VERTEX
  8
PLAN_1
  6
CONTINUOUS
 10
2.177768
 20
-3.412315
  0
VERTEX
  8
PLAN_1
  6
CONTINUOUS
 10
2.177768
 20
-3.408815
  0
VERTEX
  8
PLAN_1
  6
CONTINUOUS
 10
2.177331
 20
-3.405319
  0
VERTEX
  8
PLAN_1
  6
CONTINUOUS
 10
2.176894
 20
-3.402256
  0
VERTEX
  8
PLAN_1
  6
CONTINUOUS
 10
2.176020
 20
-3.399197
  0
VERTEX
  8
PLAN_1
  6
CONTINUOUS
 10
2.174705
 20
-3.396575
  0
VERTEX
  8
PLAN_1
  6
CONTINUOUS
 10
2.172957
 20
-3.393949
  0
VERTEX
  8
PLAN_1
  6
CONTINUOUS
 10
2.171209
 20
-3.391764
  0
VERTEX
  8
PLAN_1
  6
CONTINUOUS
 10
2.169024
 20
-3.390016
  0
VERTEX
  8
PLAN_1
  6
CONTINUOUS
 10
2.166398
 20
-3.387831
  0
VERTEX
  8
PLAN_1
  6
CONTINUOUS
 10
2.163339
 20
-3.386079
  0
VERTEX
  8
PLAN_1
  6
CONTINUOUS
 10
2.159843
 20
-3.384768
  0
VERTEX
  8
PLAN_1
  6
CONTINUOUS
 10
2.155906
 20
-3.383020
  0
VERTEX
  8
PLAN_1
  6
CONTINUOUS
 10
2.146724
 20
-3.379961
  0
VERTEX
  8
PLAN_1
  6
CONTINUOUS
 10
2.135358
 20
-3.377335
  0
VERTEX
  8
PLAN_1
  6
CONTINUOUS
 10
2.094697
 20
-3.367717
  0
VERTEX
  8
PLAN_1
  6
CONTINUOUS
 10
2.089012
 20
-3.366406
  0
VERTEX
  8
PLAN_1
  6
CONTINUOUS
 10
2.082453
 20
-3.363783
  0
VERTEX
  8
PLAN_1
  6
CONTINUOUS
 10
2.078957
 20
-3.362472
  0
VERTEX
  8
PLAN_1
  6
CONTINUOUS
 10
2.075461
 20
-3.360720
  0
VERTEX
  8
PLAN_1
  6
CONTINUOUS
 10
2.071961
 20
-3.358535
  0
VERTEX
  8
PLAN_1
  6
CONTINUOUS
 10
2.068465
 20
-3.356350
  0
VERTEX
  8
PLAN_1
  6
CONTINUOUS
 10
2.065402
 20
-3.353287
  0
VERTEX
  8
PLAN_1
  6
CONTINUOUS
 10
2.062343
 20
-3.350228
  0
VERTEX
  8
PLAN_1
  6
CONTINUOUS
 10
2.059283
 20
-3.346295
  0
VERTEX
  8
PLAN_1
  6
CONTINUOUS
 10
2.057094
 20
-3.342358
  0
VERTEX
  8
PLAN_1
  6
CONTINUOUS
 10
2.054909
 20
-3.337988
  0
VERTEX
  8
PLAN_1
  6
CONTINUOUS
 10
2.053598
 20
-3.332740
  0
VERTEX
  8
PLAN_1
  6
CONTINUOUS
 10
2.052287
 20
-3.327055
  0
VERTEX
  8
PLAN_1
  6
CONTINUOUS
 10
2.052287
 20
-3.320937
  0
VERTEX
  8
PLAN_1
  6
CONTINUOUS
 10
2.052287
 20
-3.314815
  0
VERTEX
  8
PLAN_1
  6
CONTINUOUS
 10
2.053161
 20
-3.309130
  0
VERTEX
  8
PLAN_1
  6
CONTINUOUS
 10
2.054472
 20
-3.303445
  0
VERTEX
  8
PLAN_1
  6
CONTINUOUS
 10
2.056220
 20
-3.298201
  0
VERTEX
  8
PLAN_1
  6
CONTINUOUS
 10
2.058406
 20
-3.292953
  0
VERTEX
  8
PLAN_1
  6
CONTINUOUS
 10
2.061031
 20
-3.287709
  0
VERTEX
  8
PLAN_1
  6
CONTINUOUS
 10
2.064528
 20
-3.282898
  0
VERTEX
  8
PLAN_1
  6
CONTINUOUS
 10
2.068465
 20
-3.278524
  0
VERTEX
  8
PLAN_1
  6
CONTINUOUS
 10
2.072835
 20
-3.274154
  0
VERTEX
  8
PLAN_1
  6
CONTINUOUS
 10
2.077646
 20
-3.270654
  0
VERTEX
  8
PLAN_1
  6
CONTINUOUS
 10
2.083327
 20
-3.267157
  0
VERTEX
  8
PLAN_1
  6
CONTINUOUS
 10
2.089449
 20
-3.264535
  0
VERTEX
  8
PLAN_1
  6
CONTINUOUS
 10
2.096445
 20
-3.262346
  0
VERTEX
  8
PLAN_1
  6
CONTINUOUS
 10
2.103878
 20
-3.260598
  0
VERTEX
  8
PLAN_1
  6
CONTINUOUS
 10
2.112185
 20
-3.259724
  0
VERTEX
  8
PLAN_1
  6
CONTINUOUS
 10
2.120929
 20
-3.259287
  0
VERTEX
  8
PLAN_1
  6
CONTINUOUS
 10
2.127051
 20
-3.259287
  0
VERTEX
  8
PLAN_1
  6
CONTINUOUS
 10
2.133169
 20
-3.259724
  0
VERTEX
  8
PLAN_1
  6
CONTINUOUS
 10
2.138854
 20
-3.260161
  0
VERTEX
  8
PLAN_1
  6
CONTINUOUS
 10
2.144102
 20
-3.261035
  0
VERTEX
  8
PLAN_1
  6
CONTINUOUS
 10
2.148909
 20
-3.261909
  0
VERTEX
  8
PLAN_1
  6
CONTINUOUS
 10
2.153720
 20
-3.263224
  0
VERTEX
  8
PLAN_1
  6
CONTINUOUS
 10
2.158091
 20
-3.264535
  0
VERTEX
  8
PLAN_1
  6
CONTINUOUS
 10
2.162028
 20
-3.265846
  0
VERTEX
  8
PLAN_1
  6
CONTINUOUS
 10
2.165961
 20
-3.267594
  0
VERTEX
  8
PLAN_1
  6
CONTINUOUS
 10
2.169461
 20
-3.269343
  0
VERTEX
  8
PLAN_1
  6
CONTINUOUS
 10
2.172520
 20
-3.271531
  0
VERTEX
  8
PLAN_1
  6
CONTINUOUS
 10
2.175583
 20
-3.273717
  0
VERTEX
  8
PLAN_1
  6
CONTINUOUS
 10
2.180827
 20
-3.278087
  0
VERTEX
  8
PLAN_1
  6
CONTINUOUS
 10
2.185201
 20
-3.282898
  0
VERTEX
  8
PLAN_1
  6
CONTINUOUS
 10
2.188697
 20
-3.287709
  0
VERTEX
  8
PLAN_1
  6
CONTINUOUS
 10
2.191760
 20
-3.292953
  0
VERTEX
  8
PLAN_1
  6
CONTINUOUS
 10
2.193945
 20
-3.298201
  0
VERTEX
  8
PLAN_1
  6
CONTINUOUS
 10
2.195693
 20
-3.303445
  0
VERTEX
  8
PLAN_1
  6
CONTINUOUS
 10
2.197004
 20
-3.308693
  0
VERTEX
  8
PLAN_1
  6
CONTINUOUS
 10
2.197441
 20
-3.313941
  0
VERTEX
  8
PLAN_1
  6
CONTINUOUS
 10
2.198315
 20
-3.318311
  0
VERTEX
  8
PLAN_1
  6
CONTINUOUS
 10
2.198315
 20
-3.322685
  0
VERTEX
  8
PLAN_1
  6
CONTINUOUS
 10
2.173394
 20
-3.322685
  0
SEQEND
  8
0
  0
POLYLINE
  8
PLAN_1
  6
CONTINUOUS
 66
     1
 40
0.008307
 41
0.008307
  0
VERTEX
  8
PLAN_1
  6
CONTINUOUS
 10
-0.447713
 20
1.310488
  0
VERTEX
  8
PLAN_1
  6
CONTINUOUS
 10
-0.447713
 20
1.355520
  0
VERTEX
  8
PLAN_1
  6
CONTINUOUS
 10
-1.373295
 20
1.355520
  0
VERTEX
  8
PLAN_1
  6
CONTINUOUS
 10
-1.373295
 20
1.310488
  0
VERTEX
  8
PLAN_1
  6
CONTINUOUS
 10
-0.447713
 20
1.310488
  0
SEQEND
  8
0
  0
POLYLINE
  8
PLAN_1
  6
CONTINUOUS
 66
     1
 40
0.008307
 41
0.008307
  0
VERTEX
  8
PLAN_1
  6
CONTINUOUS
 10
-0.499740
 20
1.053843
  0
VERTEX
  8
PLAN_1
  6
CONTINUOUS
 10
-0.537339
 20
1.016677
  0
VERTEX
  8
PLAN_1
  6
CONTINUOUS
 10
-1.280606
 20
1.016677
  0
VERTEX
  8
PLAN_1
  6
CONTINUOUS
 10
-1.318205
 20
1.053843
  0
VERTEX
  8
PLAN_1
  6
CONTINUOUS
 10
-1.318205
 20
1.310488
  0
VERTEX
  8
PLAN_1
  6
CONTINUOUS
 10
-0.499740
 20
1.310488
  0
VERTEX
  8
PLAN_1
  6
CONTINUOUS
 10
-0.499740
 20
1.053843
  0
SEQEND
  8
0
  0
POLYLINE
  8
PLAN_1
  6
CONTINUOUS
 66
     1
 40
0.008307
 41
0.008307
  0
VERTEX
  8
PLAN_1
  6
CONTINUOUS
 10
-1.231201
 20
1.016677
  0
VERTEX
  8
PLAN_1
  6
CONTINUOUS
 10
-1.182669
 20
0.831736
  0
VERTEX
  8
PLAN_1
  6
CONTINUOUS
 10
-0.641835
 20
0.831736
  0
VERTEX
  8
PLAN_1
  6
CONTINUOUS
 10
-0.581500
 20
1.016677
  0
VERTEX
  8
PLAN_1
  6
CONTINUOUS
 10
-1.231201
 20
1.016677
  0
SEQEND
  8
0
  0
POLYLINE
  8
PLAN_1
  6
CONTINUOUS
 66
     1
 40
0.006992
 41
0.006992
  0
VERTEX
  8
PLAN_1
  6
CONTINUOUS
 10
-1.187917
 20
1.014055
  0
VERTEX
  8
PLAN_1
  6
CONTINUOUS
 10
-1.141134
 20
0.831736
  0
SEQEND
  8
0
  0
POLYLINE
  8
PLAN_1
  6
CONTINUOUS
 66
     1
 40
0.006992
 41
0.006992
  0
VERTEX
  8
PLAN_1
  6
CONTINUOUS
 10
-1.156874
 20
1.014055
  0
VERTEX
  8
PLAN_1
  6
CONTINUOUS
 10
-1.110091
 20
0.831736
  0
SEQEND
  8
0
  0
POLYLINE
  8
PLAN_1
  6
CONTINUOUS
 66
     1
 40
0.006992
 41
0.006992
  0
VERTEX
  8
PLAN_1
  6
CONTINUOUS
 10
-0.641835
 20
1.015803
  0
VERTEX
  8
PLAN_1
  6
CONTINUOUS
 10
-0.688618
 20
0.833484
  0
SEQEND
  8
0
  0
POLYLINE
  8
PLAN_1
  6
CONTINUOUS
 66
     1
 40
0.006992
 41
0.006992
  0
VERTEX
  8
PLAN_1
  6
CONTINUOUS
 10
-0.673315
 20
1.015803
  0
VERTEX
  8
PLAN_1
  6
CONTINUOUS
 10
-0.720094
 20
0.833484
  0
SEQEND
  8
0
  0
POLYLINE
  8
PLAN_1
  6
CONTINUOUS
 66
     1
 40
0.004370
 41
0.004370
  0
VERTEX
  8
PLAN_1
  6
CONTINUOUS
 10
-2.099949
 20
0.705819
  0
VERTEX
  8
PLAN_1
  6
CONTINUOUS
 10
-2.099949
 20
1.212114
  0
SEQEND
  8
0
  0
POLYLINE
  8
PLAN_1
  6
CONTINUOUS
 66
     1
 40
0.004370
 41
0.004370
  0
VERTEX
  8
PLAN_1
  6
CONTINUOUS
 10
-2.099949
 20
1.212114
  0
VERTEX
  8
PLAN_1
  6
CONTINUOUS
 10
-2.099512
 20
1.218232
  0
VERTEX
  8
PLAN_1
  6
CONTINUOUS
 10
-2.096886
 20
1.234846
  0
VERTEX
  8
PLAN_1
  6
CONTINUOUS
 10
-2.094264
 20
1.245780
  0
VERTEX
  8
PLAN_1
  6
CONTINUOUS
 10
-2.089890
 20
1.258020
  0
VERTEX
  8
PLAN_1
  6
CONTINUOUS
 10
-2.087268
 20
1.264579
  0
VERTEX
  8
PLAN_1
  6
CONTINUOUS
 10
-2.084209
 20
1.271138
  0
VERTEX
  8
PLAN_1
  6
CONTINUOUS
 10
-2.081146
 20
1.278134
  0
VERTEX
  8
PLAN_1
  6
CONTINUOUS
 10
-2.077213
 20
1.284689
  0
VERTEX
  8
PLAN_1
  6
CONTINUOUS
 10
-2.072839
 20
1.291685
  0
VERTEX
  8
PLAN_1
  6
CONTINUOUS
 10
-2.067594
 20
1.298244
  0
VERTEX
  8
PLAN_1
  6
CONTINUOUS
 10
-2.062346
 20
1.305240
  0
VERTEX
  8
PLAN_1
  6
CONTINUOUS
 10
-2.056224
 20
1.311799
  0
VERTEX
  8
PLAN_1
  6
CONTINUOUS
 10
-2.049669
 20
1.317917
  0
VERTEX
  8
PLAN_1
  6
CONTINUOUS
 10
-2.042236
 20
1.324039
  0
VERTEX
  8
PLAN_1
  6
CONTINUOUS
 10
-2.034366
 20
1.329724
  0
VERTEX
  8
PLAN_1
  6
CONTINUOUS
 10
-2.025622
 20
1.334969
  0
VERTEX
  8
PLAN_1
  6
CONTINUOUS
 10
-2.016004
 20
1.339780
  0
VERTEX
  8
PLAN_1
  6
CONTINUOUS
 10
-2.005945
 20
1.344154
  0
VERTEX
  8
PLAN_1
  6
CONTINUOUS
 10
-1.994579
 20
1.348087
  0
VERTEX
  8
PLAN_1
  6
CONTINUOUS
 10
-1.982772
 20
1.351583
  0
VERTEX
  8
PLAN_1
  6
CONTINUOUS
 10
-1.970094
 20
1.354209
  0
VERTEX
  8
PLAN_1
  6
CONTINUOUS
 10
-1.956539
 20
1.355957
  0
VERTEX
  8
PLAN_1
  6
CONTINUOUS
 10
-1.942114
 20
1.357268
  0
VERTEX
  8
PLAN_1
  6
CONTINUOUS
 10
-1.926811
 20
1.357705
  0
VERTEX
  8
PLAN_1
  6
CONTINUOUS
 10
-1.789524
 20
1.357705
  0
VERTEX
  8
PLAN_1
  6
CONTINUOUS
 10
-1.534189
 20
1.357705
  0
VERTEX
  8
PLAN_1
  6
CONTINUOUS
 10
-1.202343
 20
1.357705
  0
VERTEX
  8
PLAN_1
  6
CONTINUOUS
 10
-0.836394
 20
1.357705
  0
VERTEX
  8
PLAN_1
  6
CONTINUOUS
 10
-0.478315
 20
1.357705
  0
VERTEX
  8
PLAN_1
  6
CONTINUOUS
 10
-0.170079
 20
1.357705
  0
VERTEX
  8
PLAN_1
  6
CONTINUOUS
 10
0.045469
 20
1.357705
  0
VERTEX
  8
PLAN_1
  6
CONTINUOUS
 10
0.126791
 20
1.357705
  0
VERTEX
  8
PLAN_1
  6
CONTINUOUS
 10
0.128539
 20
1.357705
  0
VERTEX
  8
PLAN_1
  6
CONTINUOUS
 10
0.133346
 20
1.357705
  0
VERTEX
  8
PLAN_1
  6
CONTINUOUS
 10
0.140780
 20
1.357268
  0
VERTEX
  8
PLAN_1
  6
CONTINUOUS
 10
0.150402
 20
1.355957
  0
VERTEX
  8
PLAN_1
  6
CONTINUOUS
 10
0.156083
 20
1.355083
  0
VERTEX
  8
PLAN_1
  6
CONTINUOUS
 10
0.162205
 20
1.353772
  0
VERTEX
  8
PLAN_1
  6
CONTINUOUS
 10
0.168327
 20
1.352461
  0
VERTEX
  8
PLAN_1
  6
CONTINUOUS
 10
0.174882
 20
1.350272
  0
VERTEX
  8
PLAN_1
  6
CONTINUOUS
 10
0.181878
 20
1.348087
  0
VERTEX
  8
PLAN_1
  6
CONTINUOUS
 10
0.188874
 20
1.345028
  0
VERTEX
  8
PLAN_1
  6
CONTINUOUS
 10
0.195870
 20
1.341528
  0
VERTEX
  8
PLAN_1
  6
CONTINUOUS
 10
0.202866
 20
1.337594
  0
VERTEX
  8
PLAN_1
  6
CONTINUOUS
 10
0.210299
 20
1.333220
  0
VERTEX
  8
PLAN_1
  6
CONTINUOUS
 10
0.217295
 20
1.327976
  0
VERTEX
  8
PLAN_1
  6
CONTINUOUS
 10
0.224287
 20
1.322291
  0
VERTEX
  8
PLAN_1
  6
CONTINUOUS
 10
0.230846
 20
1.315732
  0
VERTEX
  8
PLAN_1
  6
CONTINUOUS
 10
0.237406
 20
1.308299
  0
VERTEX
  8
PLAN_1
  6
CONTINUOUS
 10
0.243965
 20
1.300429
  0
VERTEX
  8
PLAN_1
  6
CONTINUOUS
 10
0.249650
 20
1.291248
  0
VERTEX
  8
PLAN_1
  6
CONTINUOUS
 10
0.255331
 20
1.281630
  0
VERTEX
  8
PLAN_1
  6
CONTINUOUS
 10
0.260579
 20
1.270701
  0
VERTEX
  8
PLAN_1
  6
CONTINUOUS
 10
0.265386
 20
1.259331
  0
VERTEX
  8
PLAN_1
  6
CONTINUOUS
 10
0.269323
 20
1.246654
  0
VERTEX
  8
PLAN_1
  6
CONTINUOUS
 10
0.272819
 20
1.233098
  0
VERTEX
  8
PLAN_1
  6
CONTINUOUS
 10
0.275445
 20
1.218232
  0
VERTEX
  8
PLAN_1
  6
CONTINUOUS
 10
0.277630
 20
1.202496
  0
VERTEX
  8
PLAN_1
  6
CONTINUOUS
 10
0.278941
 20
1.185441
  0
VERTEX
  8
PLAN_1
  6
CONTINUOUS
 10
0.279378
 20
1.167079
  0
SEQEND
  8
0
  0
POLYLINE
  8
PLAN_1
  6
CONTINUOUS
 66
     1
 40
0.004370
 41
0.004370
  0
VERTEX
  8
PLAN_1
  6
CONTINUOUS
 10
0.279378
 20
1.167079
  0
VERTEX
  8
PLAN_1
  6
CONTINUOUS
 10
0.279378
 20
0.713689
  0
SEQEND
  8
0
  0
POLYLINE
  8
PLAN_1
  6
CONTINUOUS
 66
     1
 40
0.004370
 41
0.004370
  0
VERTEX
  8
PLAN_1
  6
CONTINUOUS
 10
-1.913693
 20
1.166642
  0
VERTEX
  8
PLAN_1
  6
CONTINUOUS
 10
-1.642622
 20
1.166642
  0
SEQEND
  8
0
  0
POLYLINE
  8
PLAN_1
  6
CONTINUOUS
 66
     1
 40
0.004370
 41
0.004370
  0
VERTEX
  8
PLAN_1
  6
CONTINUOUS
 10
-1.777283
 20
1.042035
  0
VERTEX
  8
PLAN_1
  6
CONTINUOUS
 10
-1.777283
 20
1.291248
  0
SEQEND
  8
0
  0
POLYLINE
  8
PLAN_1
  6
CONTINUOUS
 66
     1
 40
0.003000
 41
0.003000
  0
VERTEX
  8
PLAN_1
  6
CONTINUOUS
 10
-1.776409
 20
1.198122
  0
VERTEX
  8
PLAN_1
  6
CONTINUOUS
 10
-1.779469
 20
1.198122
  0
VERTEX
  8
PLAN_1
  6
CONTINUOUS
 10
-1.782965
 20
1.197685
  0
VERTEX
  8
PLAN_1
  6
CONTINUOUS
 10
-1.786028
 20
1.196811
  0
VERTEX
  8
PLAN_1
  6
CONTINUOUS
 10
-1.788650
 20
1.195500
  0
VERTEX
  8
PLAN_1
  6
CONTINUOUS
 10
-1.791709
 20
1.194189
  0
VERTEX
  8
PLAN_1
  6
CONTINUOUS
 10
-1.794335
 20
1.192874
  0
VERTEX
  8
PLAN_1
  6
CONTINUOUS
 10
-1.796520
 20
1.190689
  0
VERTEX
  8
PLAN_1
  6
CONTINUOUS
 10
-1.799142
 20
1.188941
  0
VERTEX
  8
PLAN_1
  6
CONTINUOUS
 10
-1.800894
 20
1.186756
  0
VERTEX
  8
PLAN_1
  6
CONTINUOUS
 10
-1.802642
 20
1.184130
  0
VERTEX
  8
PLAN_1
  6
CONTINUOUS
 10
-1.804390
 20
1.181508
  0
VERTEX
  8
PLAN_1
  6
CONTINUOUS
 10
-1.805701
 20
1.178886
  0
VERTEX
  8
PLAN_1
  6
CONTINUOUS
 10
-1.807012
 20
1.175823
  0
VERTEX
  8
PLAN_1
  6
CONTINUOUS
 10
-1.807449
 20
1.172764
  0
VERTEX
  8
PLAN_1
  6
CONTINUOUS
 10
-1.808323
 20
1.169705
  0
VERTEX
  8
PLAN_1
  6
CONTINUOUS
 10
-1.808323
 20
1.166205
  0
VERTEX
  8
PLAN_1
  6
CONTINUOUS
 10
-1.808323
 20
1.163146
  0
VERTEX
  8
PLAN_1
  6
CONTINUOUS
 10
-1.807449
 20
1.160083
  0
VERTEX
  8
PLAN_1
  6
CONTINUOUS
 10
-1.807012
 20
1.157024
  0
VERTEX
  8
PLAN_1
  6
CONTINUOUS
 10
-1.805701
 20
1.153965
  0
VERTEX
  8
PLAN_1
  6
CONTINUOUS
 10
-1.804390
 20
1.150902
  0
VERTEX
  8
PLAN_1
  6
CONTINUOUS
 10
-1.802642
 20
1.148280
  0
VERTEX
  8
PLAN_1
  6
CONTINUOUS
 10
-1.800894
 20
1.146094
  0
VERTEX
  8
PLAN_1
  6
CONTINUOUS
 10
-1.799142
 20
1.143906
  0
VERTEX
  8
PLAN_1
  6
CONTINUOUS
 10
-1.796520
 20
1.141720
  0
VERTEX
  8
PLAN_1
  6
CONTINUOUS
 10
-1.794335
 20
1.139972
  0
VERTEX
  8
PLAN_1
  6
CONTINUOUS
 10
-1.791709
 20
1.138224
  0
VERTEX
  8
PLAN_1
  6
CONTINUOUS
 10
-1.788650
 20
1.136913
  0
VERTEX
  8
PLAN_1
  6
CONTINUOUS
 10
-1.786028
 20
1.136039
  0
VERTEX
  8
PLAN_1
  6
CONTINUOUS
 10
-1.782965
 20
1.135161
  0
VERTEX
  8
PLAN_1
  6
CONTINUOUS
 10
-1.779469
 20
1.134724
  0
VERTEX
  8
PLAN_1
  6
CONTINUOUS
 10
-1.776409
 20
1.134287
  0
VERTEX
  8
PLAN_1
  6
CONTINUOUS
 10
-1.773346
 20
1.134724
  0
VERTEX
  8
PLAN_1
  6
CONTINUOUS
 10
-1.769850
 20
1.135161
  0
VERTEX
  8
PLAN_1
  6
CONTINUOUS
 10
-1.766787
 20
1.136039
  0
VERTEX
  8
PLAN_1
  6
CONTINUOUS
 10
-1.764165
 20
1.136913
  0
VERTEX
  8
PLAN_1
  6
CONTINUOUS
 10
-1.761106
 20
1.138224
  0
VERTEX
  8
PLAN_1
  6
CONTINUOUS
 10
-1.758480
 20
1.139972
  0
VERTEX
  8
PLAN_1
  6
CONTINUOUS
 10
-1.756295
 20
1.141720
  0
VERTEX
  8
PLAN_1
  6
CONTINUOUS
 10
-1.753673
 20
1.143906
  0
VERTEX
  8
PLAN_1
  6
CONTINUOUS
 10
-1.751925
 20
1.146094
  0
VERTEX
  8
PLAN_1
  6
CONTINUOUS
 10
-1.750173
 20
1.148280
  0
VERTEX
  8
PLAN_1
  6
CONTINUOUS
 10
-1.748425
 20
1.150902
  0
VERTEX
  8
PLAN_1
  6
CONTINUOUS
 10
-1.747114
 20
1.153965
  0
VERTEX
  8
PLAN_1
  6
CONTINUOUS
 10
-1.745803
 20
1.157024
  0
VERTEX
  8
PLAN_1
  6
CONTINUOUS
 10
-1.745366
 20
1.160083
  0
VERTEX
  8
PLAN_1
  6
CONTINUOUS
 10
-1.744492
 20
1.163146
  0
VERTEX
  8
PLAN_1
  6
CONTINUOUS
 10
-1.744492
 20
1.166205
  0
VERTEX
  8
PLAN_1
  6
CONTINUOUS
 10
-1.744492
 20
1.169705
  0
VERTEX
  8
PLAN_1
  6
CONTINUOUS
 10
-1.745366
 20
1.172764
  0
VERTEX
  8
PLAN_1
  6
CONTINUOUS
 10
-1.745803
 20
1.175823
  0
VERTEX
  8
PLAN_1
  6
CONTINUOUS
 10
-1.747114
 20
1.178886
  0
VERTEX
  8
PLAN_1
  6
CONTINUOUS
 10
-1.748425
 20
1.181508
  0
VERTEX
  8
PLAN_1
  6
CONTINUOUS
 10
-1.750173
 20
1.184130
  0
VERTEX
  8
PLAN_1
  6
CONTINUOUS
 10
-1.751925
 20
1.186756
  0
VERTEX
  8
PLAN_1
  6
CONTINUOUS
 10
-1.753673
 20
1.188941
  0
VERTEX
  8
PLAN_1
  6
CONTINUOUS
 10
-1.756295
 20
1.190689
  0
VERTEX
  8
PLAN_1
  6
CONTINUOUS
 10
-1.758480
 20
1.192874
  0
VERTEX
  8
PLAN_1
  6
CONTINUOUS
 10
-1.761106
 20
1.194189
  0
VERTEX
  8
PLAN_1
  6
CONTINUOUS
 10
-1.764165
 20
1.195500
  0
VERTEX
  8
PLAN_1
  6
CONTINUOUS
 10
-1.766787
 20
1.196811
  0
VERTEX
  8
PLAN_1
  6
CONTINUOUS
 10
-1.769850
 20
1.197685
  0
VERTEX
  8
PLAN_1
  6
CONTINUOUS
 10
-1.773346
 20
1.198122
  0
VERTEX
  8
PLAN_1
  6
CONTINUOUS
 10
-1.776409
 20
1.198122
  0
SEQEND
  8
0
  0
POLYLINE
  8
PLAN_1
  6
CONTINUOUS
 66
     1
 40
0.004370
 41
0.004370
  0
VERTEX
  8
PLAN_1
  6
CONTINUOUS
 10
-0.166583
 20
1.166642
  0
VERTEX
  8
PLAN_1
  6
CONTINUOUS
 10
0.104492
 20
1.166642
  0
SEQEND
  8
0
  0
POLYLINE
  8
PLAN_1
  6
CONTINUOUS
 66
     1
 40
0.004370
 41
0.004370
  0
VERTEX
  8
PLAN_1
  6
CONTINUOUS
 10
-0.030169
 20
1.042035
  0
VERTEX
  8
PLAN_1
  6
CONTINUOUS
 10
-0.030606
 20
1.291248
  0
SEQEND
  8
0
  0
POLYLINE
  8
PLAN_1
  6
CONTINUOUS
 66
     1
 40
0.003000
 41
0.003000
  0
VERTEX
  8
PLAN_1
  6
CONTINUOUS
 10
-0.029295
 20
1.198122
  0
VERTEX
  8
PLAN_1
  6
CONTINUOUS
 10
-0.032354
 20
1.198122
  0
VERTEX
  8
PLAN_1
  6
CONTINUOUS
 10
-0.035854
 20
1.197685
  0
VERTEX
  8
PLAN_1
  6
CONTINUOUS
 10
-0.038913
 20
1.196811
  0
VERTEX
  8
PLAN_1
  6
CONTINUOUS
 10
-0.041539
 20
1.195500
  0
VERTEX
  8
PLAN_1
  6
CONTINUOUS
 10
-0.044598
 20
1.194189
  0
VERTEX
  8
PLAN_1
  6
CONTINUOUS
 10
-0.047220
 20
1.192874
  0
VERTEX
  8
PLAN_1
  6
CONTINUOUS
 10
-0.049409
 20
1.190689
  0
VERTEX
  8
PLAN_1
  6
CONTINUOUS
 10
-0.052031
 20
1.188941
  0
VERTEX
  8
PLAN_1
  6
CONTINUOUS
 10
-0.053780
 20
1.186756
  0
VERTEX
  8
PLAN_1
  6
CONTINUOUS
 10
-0.055528
 20
1.184130
  0
VERTEX
  8
PLAN_1
  6
CONTINUOUS
 10
-0.057276
 20
1.181508
  0
VERTEX
  8
PLAN_1
  6
CONTINUOUS
 10
-0.058591
 20
1.178886
  0
VERTEX
  8
PLAN_1
  6
CONTINUOUS
 10
-0.059902
 20
1.175823
  0
VERTEX
  8
PLAN_1
  6
CONTINUOUS
 10
-0.060339
 20
1.172764
  0
VERTEX
  8
PLAN_1
  6
CONTINUOUS
 10
-0.061213
 20
1.169705
  0
VERTEX
  8
PLAN_1
  6
CONTINUOUS
 10
-0.061213
 20
1.166205
  0
VERTEX
  8
PLAN_1
  6
CONTINUOUS
 10
-0.061213
 20
1.163146
  0
VERTEX
  8
PLAN_1
  6
CONTINUOUS
 10
-0.060339
 20
1.160083
  0
VERTEX
  8
PLAN_1
  6
CONTINUOUS
 10
-0.059902
 20
1.157024
  0
VERTEX
  8
PLAN_1
  6
CONTINUOUS
 10
-0.058591
 20
1.153965
  0
VERTEX
  8
PLAN_1
  6
CONTINUOUS
 10
-0.057276
 20
1.150902
  0
VERTEX
  8
PLAN_1
  6
CONTINUOUS
 10
-0.055528
 20
1.148280
  0
VERTEX
  8
PLAN_1
  6
CONTINUOUS
 10
-0.053780
 20
1.146094
  0
VERTEX
  8
PLAN_1
  6
CONTINUOUS
 10
-0.052031
 20
1.143906
  0
VERTEX
  8
PLAN_1
  6
CONTINUOUS
 10
-0.049409
 20
1.141720
  0
VERTEX
  8
PLAN_1
  6
CONTINUOUS
 10
-0.047220
 20
1.139972
  0
VERTEX
  8
PLAN_1
  6
CONTINUOUS
 10
-0.044598
 20
1.138224
  0
VERTEX
  8
PLAN_1
  6
CONTINUOUS
 10
-0.041539
 20
1.136913
  0
VERTEX
  8
PLAN_1
  6
CONTINUOUS
 10
-0.038913
 20
1.136039
  0
VERTEX
  8
PLAN_1
  6
CONTINUOUS
 10
-0.035854
 20
1.135161
  0
VERTEX
  8
PLAN_1
  6
CONTINUOUS
 10
-0.032354
 20
1.134724
  0
VERTEX
  8
PLAN_1
  6
CONTINUOUS
 10
-0.029295
 20
1.134287
  0
VERTEX
  8
PLAN_1
  6
CONTINUOUS
 10
-0.026236
 20
1.134724
  0
VERTEX
  8
PLAN_1
  6
CONTINUOUS
 10
-0.022736
 20
1.135161
  0
VERTEX
  8
PLAN_1
  6
CONTINUOUS
 10
-0.019677
 20
1.136039
  0
VERTEX
  8
PLAN_1
  6
CONTINUOUS
 10
-0.017055
 20
1.136913
  0
VERTEX
  8
PLAN_1
  6
CONTINUOUS
 10
-0.013992
 20
1.138224
  0
VERTEX
  8
PLAN_1
  6
CONTINUOUS
 10
-0.011370
 20
1.139972
  0
VERTEX
  8
PLAN_1
  6
CONTINUOUS
 10
-0.009185
 20
1.141720
  0
VERTEX
  8
PLAN_1
  6
CONTINUOUS
 10
-0.006559
 20
1.143906
  0
VERTEX
  8
PLAN_1
  6
CONTINUOUS
 10
-0.004811
 20
1.146094
  0
VERTEX
  8
PLAN_1
  6
CONTINUOUS
 10
-0.003063
 20
1.148280
  0
VERTEX
  8
PLAN_1
  6
CONTINUOUS
 10
-0.001315
 20
1.150902
  0
VERTEX
  8
PLAN_1
  6
CONTINUOUS
 10
-0.000004
 20
1.153965
  0
VERTEX
  8
PLAN_1
  6
CONTINUOUS
 10
0.001311
 20
1.157024
  0
VERTEX
  8
PLAN_1
  6
CONTINUOUS
 10
0.001748
 20
1.160083
  0
VERTEX
  8
PLAN_1
  6
CONTINUOUS
 10
0.002185
 20
1.163146
  0
VERTEX
  8
PLAN_1
  6
CONTINUOUS
 10
0.002622
 20
1.166205
  0
VERTEX
  8
PLAN_1
  6
CONTINUOUS
 10
0.002185
 20
1.169705
  0
VERTEX
  8
PLAN_1
  6
CONTINUOUS
 10
0.001748
 20
1.172764
  0
VERTEX
  8
PLAN_1
  6
CONTINUOUS
 10
0.001311
 20
1.175823
  0
VERTEX
  8
PLAN_1
  6
CONTINUOUS
 10
-0.000004
 20
1.178886
  0
VERTEX
  8
PLAN_1
  6
CONTINUOUS
 10
-0.001315
 20
1.181508
  0
VERTEX
  8
PLAN_1
  6
CONTINUOUS
 10
-0.003063
 20
1.184130
  0
VERTEX
  8
PLAN_1
  6
CONTINUOUS
 10
-0.004811
 20
1.186756
  0
VERTEX
  8
PLAN_1
  6
CONTINUOUS
 10
-0.006559
 20
1.188941
  0
VERTEX
  8
PLAN_1
  6
CONTINUOUS
 10
-0.009185
 20
1.190689
  0
VERTEX
  8
PLAN_1
  6
CONTINUOUS
 10
-0.011370
 20
1.192874
  0
VERTEX
  8
PLAN_1
  6
CONTINUOUS
 10
-0.013992
 20
1.194189
  0
VERTEX
  8
PLAN_1
  6
CONTINUOUS
 10
-0.017055
 20
1.195500
  0
VERTEX
  8
PLAN_1
  6
CONTINUOUS
 10
-0.019677
 20
1.196811
  0
VERTEX
  8
PLAN_1
  6
CONTINUOUS
 10
-0.022736
 20
1.197685
  0
VERTEX
  8
PLAN_1
  6
CONTINUOUS
 10
-0.026236
 20
1.198122
  0
VERTEX
  8
PLAN_1
  6
CONTINUOUS
 10
-0.029295
 20
1.198122
  0
SEQEND
  8
0
  0
POLYLINE
  8
PLAN_1
  6
CONTINUOUS
 66
     1
 40
0.008307
 41
0.008307
  0
VERTEX
  8
PLAN_1
  6
CONTINUOUS
 10
-1.675850
 20
2.278043
  0
VERTEX
  8
PLAN_1
  6
CONTINUOUS
 10
-1.675409
 20
2.278043
  0
VERTEX
  8
PLAN_1
  6
CONTINUOUS
 10
-1.675409
 20
1.807161
  0
VERTEX
  8
PLAN_1
  6
CONTINUOUS
 10
-0.376882
 20
1.807161
  0
VERTEX
  8
PLAN_1
  6
CONTINUOUS
 10
-0.376882
 20
1.670752
  0
VERTEX
  8
PLAN_1
  6
CONTINUOUS
 10
-2.206626
 20
1.670752
  0
VERTEX
  8
PLAN_1
  6
CONTINUOUS
 10
-2.206626
 20
2.300780
  0
VERTEX
  8
PLAN_1
  6
CONTINUOUS
 10
-1.674535
 20
2.536874
  0
SEQEND
  8
0
  0
POLYLINE
  8
PLAN_1
  6
CONTINUOUS
 66
     1
 40
0.008307
 41
0.008307
  0
VERTEX
  8
PLAN_1
  6
CONTINUOUS
 10
-1.675409
 20
1.824650
  0
VERTEX
  8
PLAN_1
  6
CONTINUOUS
 10
-1.488283
 20
1.863563
  0
VERTEX
  8
PLAN_1
  6
CONTINUOUS
 10
-1.612016
 20
2.134201
  0
VERTEX
  8
PLAN_1
  6
CONTINUOUS
 10
-1.486098
 20
2.188850
  0
VERTEX
  8
PLAN_1
  6
CONTINUOUS
 10
-1.486535
 20
2.188850
  0
VERTEX
  8
PLAN_1
  6
CONTINUOUS
 10
-1.126705
 20
2.348874
  0
VERTEX
  8
PLAN_1
  6
CONTINUOUS
 10
-0.906350
 20
2.310398
  0
VERTEX
  8
PLAN_1
  6
CONTINUOUS
 10
-0.729717
 20
2.352370
  0
VERTEX
  8
PLAN_1
  6
CONTINUOUS
 10
-0.597677
 20
2.786087
  0
VERTEX
  8
PLAN_1
  6
CONTINUOUS
 10
-0.598114
 20
2.788713
  0
SEQEND
  8
0
  0
POLYLINE
  8
PLAN_1
  6
CONTINUOUS
 66
     1
 40
0.008307
 41
0.008307
  0
VERTEX
  8
PLAN_1
  6
CONTINUOUS
 10
-0.598114
 20
2.788713
  0
VERTEX
  8
PLAN_1
  6
CONTINUOUS
 10
-0.596799
 20
2.796146
  0
VERTEX
  8
PLAN_1
  6
CONTINUOUS
 10
-0.595488
 20
2.804012
  0
VERTEX
  8
PLAN_1
  6
CONTINUOUS
 10
-0.594177
 20
2.811882
  0
VERTEX
  8
PLAN_1
  6
CONTINUOUS
 10
-0.593303
 20
2.819752
  0
VERTEX
  8
PLAN_1
  6
CONTINUOUS
 10
-0.592429
 20
2.827622
  0
VERTEX
  8
PLAN_1
  6
CONTINUOUS
 10
-0.591992
 20
2.835929
  0
VERTEX
  8
PLAN_1
  6
CONTINUOUS
 10
-0.591555
 20
2.843799
  0
VERTEX
  8
PLAN_1
  6
CONTINUOUS
 10
-0.591555
 20
2.852106
  0
VERTEX
  8
PLAN_1
  6
CONTINUOUS
 10
-0.591992
 20
2.868283
  0
VERTEX
  8
PLAN_1
  6
CONTINUOUS
 10
-0.593303
 20
2.884461
  0
VERTEX
  8
PLAN_1
  6
CONTINUOUS
 10
-0.595488
 20
2.900201
  0
VERTEX
  8
PLAN_1
  6
CONTINUOUS
 10
-0.598114
 20
2.915504
  0
VERTEX
  8
PLAN_1
  6
CONTINUOUS
 10
-0.601610
 20
2.930807
  0
VERTEX
  8
PLAN_1
  6
CONTINUOUS
 10
-0.605984
 20
2.945673
  0
VERTEX
  8
PLAN_1
  6
CONTINUOUS
 10
-0.610791
 20
2.960098
  0
VERTEX
  8
PLAN_1
  6
CONTINUOUS
 10
-0.616476
 20
2.974528
  0
VERTEX
  8
PLAN_1
  6
CONTINUOUS
 10
-0.622598
 20
2.988520
  0
VERTEX
  8
PLAN_1
  6
CONTINUOUS
 10
-0.629591
 20
3.002071
  0
VERTEX
  8
PLAN_1
  6
CONTINUOUS
 10
-0.637461
 20
3.015189
  0
VERTEX
  8
PLAN_1
  6
CONTINUOUS
 10
-0.645331
 20
3.028307
  0
VERTEX
  8
PLAN_1
  6
CONTINUOUS
 10
-0.654075
 20
3.040547
  0
VERTEX
  8
PLAN_1
  6
CONTINUOUS
 10
-0.663697
 20
3.052350
  0
VERTEX
  8
PLAN_1
  6
CONTINUOUS
 10
-0.673315
 20
3.063720
  0
VERTEX
  8
PLAN_1
  6
CONTINUOUS
 10
-0.683807
 20
3.074650
  0
VERTEX
  8
PLAN_1
  6
CONTINUOUS
 10
-0.694736
 20
3.085142
  0
VERTEX
  8
PLAN_1
  6
CONTINUOUS
 10
-0.706106
 20
3.095201
  0
VERTEX
  8
PLAN_1
  6
CONTINUOUS
 10
-0.718346
 20
3.104382
  0
VERTEX
  8
PLAN_1
  6
CONTINUOUS
 10
-0.730591
 20
3.113126
  0
VERTEX
  8
PLAN_1
  6
CONTINUOUS
 10
-0.743268
 20
3.121433
  0
VERTEX
  8
PLAN_1
  6
CONTINUOUS
 10
-0.756386
 20
3.128866
  0
VERTEX
  8
PLAN_1
  6
CONTINUOUS
 10
-0.769937
 20
3.135858
  0
VERTEX
  8
PLAN_1
  6
CONTINUOUS
 10
-0.783929
 20
3.142417
  0
VERTEX
  8
PLAN_1
  6
CONTINUOUS
 10
-0.798358
 20
3.147665
  0
VERTEX
  8
PLAN_1
  6
CONTINUOUS
 10
-0.812787
 20
3.152913
  0
VERTEX
  8
PLAN_1
  6
CONTINUOUS
 10
-0.827650
 20
3.156846
  0
VERTEX
  8
PLAN_1
  6
CONTINUOUS
 10
-0.842953
 20
3.160343
  0
VERTEX
  8
PLAN_1
  6
CONTINUOUS
 10
-0.858693
 20
3.163406
  0
VERTEX
  8
PLAN_1
  6
CONTINUOUS
 10
-0.874433
 20
3.165154
  0
VERTEX
  8
PLAN_1
  6
CONTINUOUS
 10
-0.890173
 20
3.166465
  0
VERTEX
  8
PLAN_1
  6
CONTINUOUS
 10
-0.906350
 20
3.166902
  0
VERTEX
  8
PLAN_1
  6
CONTINUOUS
 10
-0.917717
 20
3.166902
  0
VERTEX
  8
PLAN_1
  6
CONTINUOUS
 10
-0.928646
 20
3.166028
  0
VERTEX
  8
PLAN_1
  6
CONTINUOUS
 10
-0.939142
 20
3.165154
  0
VERTEX
  8
PLAN_1
  6
CONTINUOUS
 10
-0.950071
 20
3.163843
  0
VERTEX
  8
PLAN_1
  6
CONTINUOUS
 10
-0.960563
 20
3.162531
  0
VERTEX
  8
PLAN_1
  6
CONTINUOUS
 10
-0.971059
 20
3.160343
  0
VERTEX
  8
PLAN_1
  6
CONTINUOUS
 10
-0.981114
 20
3.158157
  0
VERTEX
  8
PLAN_1
  6
CONTINUOUS
 10
-0.991606
 20
3.155535
  0
VERTEX
  8
PLAN_1
  6
CONTINUOUS
 10
-1.001661
 20
3.152472
  0
VERTEX
  8
PLAN_1
  6
CONTINUOUS
 10
-1.011280
 20
3.148976
  0
VERTEX
  8
PLAN_1
  6
CONTINUOUS
 10
-1.021339
 20
3.145480
  0
VERTEX
  8
PLAN_1
  6
CONTINUOUS
 10
-1.030957
 20
3.141543
  0
VERTEX
  8
PLAN_1
  6
CONTINUOUS
 10
-1.040138
 20
3.137173
  0
VERTEX
  8
PLAN_1
  6
CONTINUOUS
 10
-1.049756
 20
3.132799
  0
VERTEX
  8
PLAN_1
  6
CONTINUOUS
 10
-1.058500
 20
3.127992
  0
VERTEX
  8
PLAN_1
  6
CONTINUOUS
 10
-1.067681
 20
3.122744
  0
VERTEX
  8
PLAN_1
  6
CONTINUOUS
 10
-1.076425
 20
3.117059
  0
VERTEX
  8
PLAN_1
  6
CONTINUOUS
 10
-1.084732
 20
3.111378
  0
VERTEX
  8
PLAN_1
  6
CONTINUOUS
 10
-1.093476
 20
3.105693
  0
VERTEX
  8
PLAN_1
  6
CONTINUOUS
 10
-1.101346
 20
3.099571
  0
VERTEX
  8
PLAN_1
  6
CONTINUOUS
 10
-1.109217
 20
3.093012
  0
VERTEX
  8
PLAN_1
  6
CONTINUOUS
 10
-1.117087
 20
3.086016
  0
VERTEX
  8
PLAN_1
  6
CONTINUOUS
 10
-1.124520
 20
3.079461
  0
VERTEX
  8
PLAN_1
  6
CONTINUOUS
 10
-1.131953
 20
3.072028
  0
VERTEX
  8
PLAN_1
  6
CONTINUOUS
 10
-1.138949
 20
3.064594
  0
VERTEX
  8
PLAN_1
  6
CONTINUOUS
 10
-1.145508
 20
3.057161
  0
VERTEX
  8
PLAN_1
  6
CONTINUOUS
 10
-1.152063
 20
3.049291
  0
VERTEX
  8
PLAN_1
  6
CONTINUOUS
 10
-1.158622
 20
3.040984
  0
VERTEX
  8
PLAN_1
  6
CONTINUOUS
 10
-1.164307
 20
3.032677
  0
VERTEX
  8
PLAN_1
  6
CONTINUOUS
 10
-1.170429
 20
3.024370
  0
VERTEX
  8
PLAN_1
  6
CONTINUOUS
 10
-1.175673
 20
3.015626
  0
VERTEX
  8
PLAN_1
  6
CONTINUOUS
 10
-1.180921
 20
3.006445
  0
SEQEND
  8
0
  0
POLYLINE
  8
PLAN_1
  6
CONTINUOUS
 66
     1
 40
0.008307
 41
0.008307
  0
VERTEX
  8
PLAN_1
  6
CONTINUOUS
 10
-1.180921
 20
3.006445
  0
VERTEX
  8
PLAN_1
  6
CONTINUOUS
 10
-1.181795
 20
3.005571
  0
VERTEX
  8
PLAN_1
  6
CONTINUOUS
 10
-1.343126
 20
2.684654
  0
VERTEX
  8
PLAN_1
  6
CONTINUOUS
 10
-1.675409
 20
2.536437
  0
VERTEX
  8
PLAN_1
  6
CONTINUOUS
 10
-1.675409
 20
1.824650
  0
SEQEND
  8
0
  0
POLYLINE
  8
PLAN_1
  6
CONTINUOUS
 66
     1
 40
0.008307
 41
0.008307
  0
VERTEX
  8
PLAN_1
  6
CONTINUOUS
 10
-1.941236
 20
1.982925
  0
VERTEX
  8
PLAN_1
  6
CONTINUOUS
 10
-1.935555
 20
1.983362
  0
VERTEX
  8
PLAN_1
  6
CONTINUOUS
 10
-1.929870
 20
1.983362
  0
VERTEX
  8
PLAN_1
  6
CONTINUOUS
 10
-1.924622
 20
1.984236
  0
VERTEX
  8
PLAN_1
  6
CONTINUOUS
 10
-1.919378
 20
1.985110
  0
VERTEX
  8
PLAN_1
  6
CONTINUOUS
 10
-1.914130
 20
1.986421
  0
VERTEX
  8
PLAN_1
  6
CONTINUOUS
 10
-1.908886
 20
1.987732
  0
VERTEX
  8
PLAN_1
  6
CONTINUOUS
 10
-1.903638
 20
1.989480
  0
VERTEX
  8
PLAN_1
  6
CONTINUOUS
 10
-1.898827
 20
1.991669
  0
VERTEX
  8
PLAN_1
  6
CONTINUOUS
 10
-1.894020
 20
1.993854
  0
VERTEX
  8
PLAN_1
  6
CONTINUOUS
 10
-1.889646
 20
1.996039
  0
VERTEX
  8
PLAN_1
  6
CONTINUOUS
 10
-1.884839
 20
1.998661
  0
VERTEX
  8
PLAN_1
  6
CONTINUOUS
 10
-1.880465
 20
2.001287
  0
VERTEX
  8
PLAN_1
  6
CONTINUOUS
 10
-1.876094
 20
2.004346
  0
VERTEX
  8
PLAN_1
  6
CONTINUOUS
 10
-1.872157
 20
2.007846
  0
VERTEX
  8
PLAN_1
  6
CONTINUOUS
 10
-1.868224
 20
2.010906
  0
VERTEX
  8
PLAN_1
  6
CONTINUOUS
 10
-1.864287
 20
2.014839
  0
VERTEX
  8
PLAN_1
  6
CONTINUOUS
 10
-1.860791
 20
2.018339
  0
VERTEX
  8
PLAN_1
  6
CONTINUOUS
 10
-1.857291
 20
2.022272
  0
VERTEX
  8
PLAN_1
  6
CONTINUOUS
 10
-1.854232
 20
2.026646
  0
VERTEX
  8
PLAN_1
  6
CONTINUOUS
 10
-1.851173
 20
2.030579
  0
VERTEX
  8
PLAN_1
  6
CONTINUOUS
 10
-1.848547
 20
2.034953
  0
VERTEX
  8
PLAN_1
  6
CONTINUOUS
 10
-1.845925
 20
2.039760
  0
VERTEX
  8
PLAN_1
  6
CONTINUOUS
 10
-1.843303
 20
2.044134
  0
VERTEX
  8
PLAN_1
  6
CONTINUOUS
 10
-1.841114
 20
2.048945
  0
VERTEX
  8
PLAN_1
  6
CONTINUOUS
 10
-1.839366
 20
2.054189
  0
VERTEX
  8
PLAN_1
  6
CONTINUOUS
 10
-1.837618
 20
2.059000
  0
VERTEX
  8
PLAN_1
  6
CONTINUOUS
 10
-1.836307
 20
2.064244
  0
VERTEX
  8
PLAN_1
  6
CONTINUOUS
 10
-1.834996
 20
2.069492
  0
VERTEX
  8
PLAN_1
  6
CONTINUOUS
 10
-1.834122
 20
2.074740
  0
VERTEX
  8
PLAN_1
  6
CONTINUOUS
 10
-1.833244
 20
2.079984
  0
VERTEX
  8
PLAN_1
  6
CONTINUOUS
 10
-1.832807
 20
2.085669
  0
VERTEX
  8
PLAN_1
  6
CONTINUOUS
 10
-1.832807
 20
2.091354
  0
VERTEX
  8
PLAN_1
  6
CONTINUOUS
 10
-1.832807
 20
2.096598
  0
VERTEX
  8
PLAN_1
  6
CONTINUOUS
 10
-1.833244
 20
2.102283
  0
VERTEX
  8
PLAN_1
  6
CONTINUOUS
 10
-1.834122
 20
2.107531
  0
VERTEX
  8
PLAN_1
  6
CONTINUOUS
 10
-1.834996
 20
2.113213
  0
VERTEX
  8
PLAN_1
  6
CONTINUOUS
 10
-1.836307
 20
2.118461
  0
VERTEX
  8
PLAN_1
  6
CONTINUOUS
 10
-1.837618
 20
2.123268
  0
VERTEX
  8
PLAN_1
  6
CONTINUOUS
 10
-1.839366
 20
2.128516
  0
VERTEX
  8
PLAN_1
  6
CONTINUOUS
 10
-1.841114
 20
2.133327
  0
VERTEX
  8
PLAN_1
  6
CONTINUOUS
 10
-1.843303
 20
2.138134
  0
VERTEX
  8
PLAN_1
  6
CONTINUOUS
 10
-1.845925
 20
2.142945
  0
VERTEX
  8
PLAN_1
  6
CONTINUOUS
 10
-1.848547
 20
2.147315
  0
VERTEX
  8
PLAN_1
  6
CONTINUOUS
 10
-1.851173
 20
2.151689
  0
VERTEX
  8
PLAN_1
  6
CONTINUOUS
 10
-1.854232
 20
2.156059
  0
VERTEX
  8
PLAN_1
  6
CONTINUOUS
 10
-1.857291
 20
2.159996
  0
VERTEX
  8
PLAN_1
  6
CONTINUOUS
 10
-1.860791
 20
2.163929
  0
VERTEX
  8
PLAN_1
  6
CONTINUOUS
 10
-1.864287
 20
2.167866
  0
VERTEX
  8
PLAN_1
  6
CONTINUOUS
 10
-1.868224
 20
2.171362
  0
VERTEX
  8
PLAN_1
  6
CONTINUOUS
 10
-1.872157
 20
2.174862
  0
VERTEX
  8
PLAN_1
  6
CONTINUOUS
 10
-1.876094
 20
2.177921
  0
VERTEX
  8
PLAN_1
  6
CONTINUOUS
 10
-1.880465
 20
2.180980
  0
VERTEX
  8
PLAN_1
  6
CONTINUOUS
 10
-1.884839
 20
2.183606
  0
VERTEX
  8
PLAN_1
  6
CONTINUOUS
 10
-1.889646
 20
2.186228
  0
VERTEX
  8
PLAN_1
  6
CONTINUOUS
 10
-1.894020
 20
2.188850
  0
VERTEX
  8
PLAN_1
  6
CONTINUOUS
 10
-1.898827
 20
2.191039
  0
VERTEX
  8
PLAN_1
  6
CONTINUOUS
 10
-1.903638
 20
2.192787
  0
VERTEX
  8
PLAN_1
  6
CONTINUOUS
 10
-1.908886
 20
2.194535
  0
VERTEX
  8
PLAN_1
  6
CONTINUOUS
 10
-1.914130
 20
2.196283
  0
VERTEX
  8
PLAN_1
  6
CONTINUOUS
 10
-1.919378
 20
2.197157
  0
VERTEX
  8
PLAN_1
  6
CONTINUOUS
 10
-1.924622
 20
2.198031
  0
VERTEX
  8
PLAN_1
  6
CONTINUOUS
 10
-1.929870
 20
2.198909
  0
VERTEX
  8
PLAN_1
  6
CONTINUOUS
 10
-1.935555
 20
2.199346
  0
VERTEX
  8
PLAN_1
  6
CONTINUOUS
 10
-1.941236
 20
2.199346
  0
VERTEX
  8
PLAN_1
  6
CONTINUOUS
 10
-1.946484
 20
2.199346
  0
VERTEX
  8
PLAN_1
  6
CONTINUOUS
 10
-1.952169
 20
2.198909
  0
VERTEX
  8
PLAN_1
  6
CONTINUOUS
 10
-1.957413
 20
2.198031
  0
VERTEX
  8
PLAN_1
  6
CONTINUOUS
 10
-1.962661
 20
2.197157
  0
VERTEX
  8
PLAN_1
  6
CONTINUOUS
 10
-1.967909
 20
2.196283
  0
VERTEX
  8
PLAN_1
  6
CONTINUOUS
 10
-1.973154
 20
2.194535
  0
VERTEX
  8
PLAN_1
  6
CONTINUOUS
 10
-1.978402
 20
2.192787
  0
VERTEX
  8
PLAN_1
  6
CONTINUOUS
 10
-1.983213
 20
2.191039
  0
VERTEX
  8
PLAN_1
  6
CONTINUOUS
 10
-1.988020
 20
2.188850
  0
VERTEX
  8
PLAN_1
  6
CONTINUOUS
 10
-1.992831
 20
2.186228
  0
VERTEX
  8
PLAN_1
  6
CONTINUOUS
 10
-1.997201
 20
2.183606
  0
VERTEX
  8
PLAN_1
  6
CONTINUOUS
 10
-2.001575
 20
2.180980
  0
VERTEX
  8
PLAN_1
  6
CONTINUOUS
 10
-2.005945
 20
2.177921
  0
VERTEX
  8
PLAN_1
  6
CONTINUOUS
 10
-2.009882
 20
2.174862
  0
VERTEX
  8
PLAN_1
  6
CONTINUOUS
 10
-2.013815
 20
2.171362
  0
VERTEX
  8
PLAN_1
  6
CONTINUOUS
 10
-2.017752
 20
2.167866
  0
VERTEX
  8
PLAN_1
  6
CONTINUOUS
 10
-2.021248
 20
2.163929
  0
VERTEX
  8
PLAN_1
  6
CONTINUOUS
 10
-2.024748
 20
2.159996
  0
VERTEX
  8
PLAN_1
  6
CONTINUOUS
 10
-2.027807
 20
2.156059
  0
VERTEX
  8
PLAN_1
  6
CONTINUOUS
 10
-2.030866
 20
2.151689
  0
VERTEX
  8
PLAN_1
  6
CONTINUOUS
 10
-2.033492
 20
2.147315
  0
VERTEX
  8
PLAN_1
  6
CONTINUOUS
 10
-2.036114
 20
2.142945
  0
VERTEX
  8
PLAN_1
  6
CONTINUOUS
 10
-2.038736
 20
2.138134
  0
VERTEX
  8
PLAN_1
  6
CONTINUOUS
 10
-2.040925
 20
2.133327
  0
VERTEX
  8
PLAN_1
  6
CONTINUOUS
 10
-2.042673
 20
2.128516
  0
VERTEX
  8
PLAN_1
  6
CONTINUOUS
 10
-2.044421
 20
2.123268
  0
VERTEX
  8
PLAN_1
  6
CONTINUOUS
 10
-2.045732
 20
2.118461
  0
VERTEX
  8
PLAN_1
  6
CONTINUOUS
 10
-2.047043
 20
2.113213
  0
VERTEX
  8
PLAN_1
  6
CONTINUOUS
 10
-2.047917
 20
2.107531
  0
VERTEX
  8
PLAN_1
  6
CONTINUOUS
 10
-2.048791
 20
2.102283
  0
VERTEX
  8
PLAN_1
  6
CONTINUOUS
 10
-2.049232
 20
2.096598
  0
VERTEX
  8
PLAN_1
  6
CONTINUOUS
 10
-2.049232
 20
2.091354
  0
VERTEX
  8
PLAN_1
  6
CONTINUOUS
 10
-2.049232
 20
2.085669
  0
VERTEX
  8
PLAN_1
  6
CONTINUOUS
 10
-2.048791
 20
2.079984
  0
VERTEX
  8
PLAN_1
  6
CONTINUOUS
 10
-2.047917
 20
2.074740
  0
VERTEX
  8
PLAN_1
  6
CONTINUOUS
 10
-2.047043
 20
2.069492
  0
VERTEX
  8
PLAN_1
  6
CONTINUOUS
 10
-2.045732
 20
2.064244
  0
VERTEX
  8
PLAN_1
  6
CONTINUOUS
 10
-2.044421
 20
2.059000
  0
VERTEX
  8
PLAN_1
  6
CONTINUOUS
 10
-2.042673
 20
2.054189
  0
VERTEX
  8
PLAN_1
  6
CONTINUOUS
 10
-2.040925
 20
2.048945
  0
VERTEX
  8
PLAN_1
  6
CONTINUOUS
 10
-2.038736
 20
2.044134
  0
VERTEX
  8
PLAN_1
  6
CONTINUOUS
 10
-2.036114
 20
2.039760
  0
VERTEX
  8
PLAN_1
  6
CONTINUOUS
 10
-2.033492
 20
2.034953
  0
VERTEX
  8
PLAN_1
  6
CONTINUOUS
 10
-2.030866
 20
2.030579
  0
VERTEX
  8
PLAN_1
  6
CONTINUOUS
 10
-2.027807
 20
2.026646
  0
VERTEX
  8
PLAN_1
  6
CONTINUOUS
 10
-2.024748
 20
2.022272
  0
VERTEX
  8
PLAN_1
  6
CONTINUOUS
 10
-2.021248
 20
2.018339
  0
VERTEX
  8
PLAN_1
  6
CONTINUOUS
 10
-2.017752
 20
2.014839
  0
VERTEX
  8
PLAN_1
  6
CONTINUOUS
 10
-2.013815
 20
2.010906
  0
VERTEX
  8
PLAN_1
  6
CONTINUOUS
 10
-2.009882
 20
2.007846
  0
VERTEX
  8
PLAN_1
  6
CONTINUOUS
 10
-2.005945
 20
2.004346
  0
VERTEX
  8
PLAN_1
  6
CONTINUOUS
 10
-2.001575
 20
2.001287
  0
VERTEX
  8
PLAN_1
  6
CONTINUOUS
 10
-1.997201
 20
1.998661
  0
VERTEX
  8
PLAN_1
  6
CONTINUOUS
 10
-1.992831
 20
1.996039
  0
VERTEX
  8
PLAN_1
  6
CONTINUOUS
 10
-1.988020
 20
1.993854
  0
VERTEX
  8
PLAN_1
  6
CONTINUOUS
 10
-1.983213
 20
1.991669
  0
VERTEX
  8
PLAN_1
  6
CONTINUOUS
 10
-1.978402
 20
1.989480
  0
VERTEX
  8
PLAN_1
  6
CONTINUOUS
 10
-1.973154
 20
1.987732
  0
VERTEX
  8
PLAN_1
  6
CONTINUOUS
 10
-1.967909
 20
1.986421
  0
VERTEX
  8
PLAN_1
  6
CONTINUOUS
 10
-1.962661
 20
1.985110
  0
VERTEX
  8
PLAN_1
  6
CONTINUOUS
 10
-1.957413
 20
1.984236
  0
VERTEX
  8
PLAN_1
  6
CONTINUOUS
 10
-1.952169
 20
1.983362
  0
VERTEX
  8
PLAN_1
  6
CONTINUOUS
 10
-1.946484
 20
1.983362
  0
VERTEX
  8
PLAN_1
  6
CONTINUOUS
 10
-1.941236
 20
1.982925
  0
SEQEND
  8
0
  0
POLYLINE
  8
PLAN_1
  6
CONTINUOUS
 66
     1
 40
0.006992
 41
0.006992
  0
VERTEX
  8
PLAN_1
  6
CONTINUOUS
 10
-1.941236
 20
2.052004
  0
VERTEX
  8
PLAN_1
  6
CONTINUOUS
 10
-1.936866
 20
2.052004
  0
VERTEX
  8
PLAN_1
  6
CONTINUOUS
 10
-1.932929
 20
2.052878
  0
VERTEX
  8
PLAN_1
  6
CONTINUOUS
 10
-1.929433
 20
2.053752
  0
VERTEX
  8
PLAN_1
  6
CONTINUOUS
 10
-1.925500
 20
2.055063
  0
VERTEX
  8
PLAN_1
  6
CONTINUOUS
 10
-1.922437
 20
2.056811
  0
VERTEX
  8
PLAN_1
  6
CONTINUOUS
 10
-1.918941
 20
2.058563
  0
VERTEX
  8
PLAN_1
  6
CONTINUOUS
 10
-1.915878
 20
2.060748
  0
VERTEX
  8
PLAN_1
  6
CONTINUOUS
 10
-1.913256
 20
2.063370
  0
VERTEX
  8
PLAN_1
  6
CONTINUOUS
 10
-1.910634
 20
2.065996
  0
VERTEX
  8
PLAN_1
  6
CONTINUOUS
 10
-1.908449
 20
2.069055
  0
VERTEX
  8
PLAN_1
  6
CONTINUOUS
 10
-1.906260
 20
2.072551
  0
VERTEX
  8
PLAN_1
  6
CONTINUOUS
 10
-1.904949
 20
2.076051
  0
VERTEX
  8
PLAN_1
  6
CONTINUOUS
 10
-1.903638
 20
2.079547
  0
VERTEX
  8
PLAN_1
  6
CONTINUOUS
 10
-1.902327
 20
2.083484
  0
VERTEX
  8
PLAN_1
  6
CONTINUOUS
 10
-1.901890
 20
2.087417
  0
VERTEX
  8
PLAN_1
  6
CONTINUOUS
 10
-1.901453
 20
2.091354
  0
VERTEX
  8
PLAN_1
  6
CONTINUOUS
 10
-1.901890
 20
2.095287
  0
VERTEX
  8
PLAN_1
  6
CONTINUOUS
 10
-1.902327
 20
2.099224
  0
VERTEX
  8
PLAN_1
  6
CONTINUOUS
 10
-1.903638
 20
2.103157
  0
VERTEX
  8
PLAN_1
  6
CONTINUOUS
 10
-1.904949
 20
2.106654
  0
VERTEX
  8
PLAN_1
  6
CONTINUOUS
 10
-1.906260
 20
2.110154
  0
VERTEX
  8
PLAN_1
  6
CONTINUOUS
 10
-1.908449
 20
2.113213
  0
VERTEX
  8
PLAN_1
  6
CONTINUOUS
 10
-1.910634
 20
2.116276
  0
VERTEX
  8
PLAN_1
  6
CONTINUOUS
 10
-1.913256
 20
2.118898
  0
VERTEX
  8
PLAN_1
  6
CONTINUOUS
 10
-1.915878
 20
2.121520
  0
VERTEX
  8
PLAN_1
  6
CONTINUOUS
 10
-1.918941
 20
2.123709
  0
VERTEX
  8
PLAN_1
  6
CONTINUOUS
 10
-1.922437
 20
2.125894
  0
VERTEX
  8
PLAN_1
  6
CONTINUOUS
 10
-1.925500
 20
2.127642
  0
VERTEX
  8
PLAN_1
  6
CONTINUOUS
 10
-1.929433
 20
2.128953
  0
VERTEX
  8
PLAN_1
  6
CONTINUOUS
 10
-1.932929
 20
2.129827
  0
VERTEX
  8
PLAN_1
  6
CONTINUOUS
 10
-1.936866
 20
2.130264
  0
VERTEX
  8
PLAN_1
  6
CONTINUOUS
 10
-1.941236
 20
2.130701
  0
VERTEX
  8
PLAN_1
  6
CONTINUOUS
 10
-1.945173
 20
2.130264
  0
VERTEX
  8
PLAN_1
  6
CONTINUOUS
 10
-1.949106
 20
2.129827
  0
VERTEX
  8
PLAN_1
  6
CONTINUOUS
 10
-1.952606
 20
2.128953
  0
VERTEX
  8
PLAN_1
  6
CONTINUOUS
 10
-1.956539
 20
2.127642
  0
VERTEX
  8
PLAN_1
  6
CONTINUOUS
 10
-1.959602
 20
2.125894
  0
VERTEX
  8
PLAN_1
  6
CONTINUOUS
 10
-1.963098
 20
2.123709
  0
VERTEX
  8
PLAN_1
  6
CONTINUOUS
 10
-1.966157
 20
2.121520
  0
VERTEX
  8
PLAN_1
  6
CONTINUOUS
 10
-1.968783
 20
2.118898
  0
VERTEX
  8
PLAN_1
  6
CONTINUOUS
 10
-1.971406
 20
2.116276
  0
VERTEX
  8
PLAN_1
  6
CONTINUOUS
 10
-1.973591
 20
2.113213
  0
VERTEX
  8
PLAN_1
  6
CONTINUOUS
 10
-1.975780
 20
2.110154
  0
VERTEX
  8
PLAN_1
  6
CONTINUOUS
 10
-1.977091
 20
2.106654
  0
VERTEX
  8
PLAN_1
  6
CONTINUOUS
 10
-1.978839
 20
2.103157
  0
VERTEX
  8
PLAN_1
  6
CONTINUOUS
 10
-1.979713
 20
2.099224
  0
VERTEX
  8
PLAN_1
  6
CONTINUOUS
 10
-1.980150
 20
2.095287
  0
VERTEX
  8
PLAN_1
  6
CONTINUOUS
 10
-1.980587
 20
2.091354
  0
VERTEX
  8
PLAN_1
  6
CONTINUOUS
 10
-1.980150
 20
2.087417
  0
VERTEX
  8
PLAN_1
  6
CONTINUOUS
 10
-1.979713
 20
2.083484
  0
VERTEX
  8
PLAN_1
  6
CONTINUOUS
 10
-1.978839
 20
2.079547
  0
VERTEX
  8
PLAN_1
  6
CONTINUOUS
 10
-1.977091
 20
2.076051
  0
VERTEX
  8
PLAN_1
  6
CONTINUOUS
 10
-1.975780
 20
2.072551
  0
VERTEX
  8
PLAN_1
  6
CONTINUOUS
 10
-1.973591
 20
2.069055
  0
VERTEX
  8
PLAN_1
  6
CONTINUOUS
 10
-1.971406
 20
2.065996
  0
VERTEX
  8
PLAN_1
  6
CONTINUOUS
 10
-1.968783
 20
2.063370
  0
VERTEX
  8
PLAN_1
  6
CONTINUOUS
 10
-1.966157
 20
2.060748
  0
VERTEX
  8
PLAN_1
  6
CONTINUOUS
 10
-1.963098
 20
2.058563
  0
VERTEX
  8
PLAN_1
  6
CONTINUOUS
 10
-1.959602
 20
2.056811
  0
VERTEX
  8
PLAN_1
  6
CONTINUOUS
 10
-1.956539
 20
2.055063
  0
VERTEX
  8
PLAN_1
  6
CONTINUOUS
 10
-1.952606
 20
2.053752
  0
VERTEX
  8
PLAN_1
  6
CONTINUOUS
 10
-1.949106
 20
2.052878
  0
VERTEX
  8
PLAN_1
  6
CONTINUOUS
 10
-1.945173
 20
2.052004
  0
VERTEX
  8
PLAN_1
  6
CONTINUOUS
 10
-1.941236
 20
2.052004
  0
SEQEND
  8
0
  0
POLYLINE
  8
PLAN_1
  6
CONTINUOUS
 66
     1
 40
0.008307
 41
0.008307
  0
VERTEX
  8
PLAN_1
  6
CONTINUOUS
 10
-1.180921
 20
3.006445
  0
VERTEX
  8
PLAN_1
  6
CONTINUOUS
 10
-1.185728
 20
2.998138
  0
VERTEX
  8
PLAN_1
  6
CONTINUOUS
 10
-1.190102
 20
2.989394
  0
VERTEX
  8
PLAN_1
  6
CONTINUOUS
 10
-1.194476
 20
2.980213
  0
VERTEX
  8
PLAN_1
  6
CONTINUOUS
 10
-1.197972
 20
2.971031
  0
VERTEX
  8
PLAN_1
  6
CONTINUOUS
 10
-1.201906
 20
2.961850
  0
VERTEX
  8
PLAN_1
  6
CONTINUOUS
 10
-1.204969
 20
2.952665
  0
VERTEX
  8
PLAN_1
  6
CONTINUOUS
 10
-1.208028
 20
2.943047
  0
VERTEX
  8
PLAN_1
  6
CONTINUOUS
 10
-1.210650
 20
2.933429
  0
VERTEX
  8
PLAN_1
  6
CONTINUOUS
 10
-1.213276
 20
2.923374
  0
VERTEX
  8
PLAN_1
  6
CONTINUOUS
 10
-1.215461
 20
2.913756
  0
VERTEX
  8
PLAN_1
  6
CONTINUOUS
 10
-1.217209
 20
2.903701
  0
VERTEX
  8
PLAN_1
  6
CONTINUOUS
 10
-1.218520
 20
2.893642
  0
VERTEX
  8
PLAN_1
  6
CONTINUOUS
 10
-1.219835
 20
2.883150
  0
VERTEX
  8
PLAN_1
  6
CONTINUOUS
 10
-1.220709
 20
2.873094
  0
VERTEX
  8
PLAN_1
  6
CONTINUOUS
 10
-1.221146
 20
2.862602
  0
VERTEX
  8
PLAN_1
  6
CONTINUOUS
 10
-1.221583
 20
2.852106
  0
VERTEX
  8
PLAN_1
  6
CONTINUOUS
 10
-1.221146
 20
2.835929
  0
VERTEX
  8
PLAN_1
  6
CONTINUOUS
 10
-1.219835
 20
2.819752
  0
VERTEX
  8
PLAN_1
  6
CONTINUOUS
 10
-1.217646
 20
2.804012
  0
VERTEX
  8
PLAN_1
  6
CONTINUOUS
 10
-1.215024
 20
2.788713
  0
VERTEX
  8
PLAN_1
  6
CONTINUOUS
 10
-1.211528
 20
2.773409
  0
VERTEX
  8
PLAN_1
  6
CONTINUOUS
 10
-1.207154
 20
2.758543
  0
VERTEX
  8
PLAN_1
  6
CONTINUOUS
 10
-1.202343
 20
2.743677
  0
VERTEX
  8
PLAN_1
  6
CONTINUOUS
 10
-1.196661
 20
2.729689
  0
VERTEX
  8
PLAN_1
  6
CONTINUOUS
 10
-1.190539
 20
2.715697
  0
VERTEX
  8
PLAN_1
  6
CONTINUOUS
 10
-1.183543
 20
2.702142
  0
VERTEX
  8
PLAN_1
  6
CONTINUOUS
 10
-1.175673
 20
2.688591
  0
VERTEX
  8
PLAN_1
  6
CONTINUOUS
 10
-1.167803
 20
2.675909
  0
VERTEX
  8
PLAN_1
  6
CONTINUOUS
 10
-1.159059
 20
2.663669
  0
VERTEX
  8
PLAN_1
  6
CONTINUOUS
 10
-1.149441
 20
2.651862
  0
VERTEX
  8
PLAN_1
  6
CONTINUOUS
 10
-1.139823
 20
2.640496
  0
VERTEX
  8
PLAN_1
  6
CONTINUOUS
 10
-1.129331
 20
2.629563
  0
VERTEX
  8
PLAN_1
  6
CONTINUOUS
 10
-1.118398
 20
2.619071
  0
VERTEX
  8
PLAN_1
  6
CONTINUOUS
 10
-1.107031
 20
2.609016
  0
VERTEX
  8
PLAN_1
  6
CONTINUOUS
 10
-1.094787
 20
2.599835
  0
VERTEX
  8
PLAN_1
  6
CONTINUOUS
 10
-1.082547
 20
2.591091
  0
VERTEX
  8
PLAN_1
  6
CONTINUOUS
 10
-1.069866
 20
2.582783
  0
VERTEX
  8
PLAN_1
  6
CONTINUOUS
 10
-1.056752
 20
2.575350
  0
VERTEX
  8
PLAN_1
  6
CONTINUOUS
 10
-1.043197
 20
2.568354
  0
VERTEX
  8
PLAN_1
  6
CONTINUOUS
 10
-1.029209
 20
2.561795
  0
VERTEX
  8
PLAN_1
  6
CONTINUOUS
 10
-1.014780
 20
2.556114
  0
VERTEX
  8
PLAN_1
  6
CONTINUOUS
 10
-1.000350
 20
2.551303
  0
VERTEX
  8
PLAN_1
  6
CONTINUOUS
 10
-0.985047
 20
2.546933
  0
VERTEX
  8
PLAN_1
  6
CONTINUOUS
 10
-0.970181
 20
2.543433
  0
VERTEX
  8
PLAN_1
  6
CONTINUOUS
 10
-0.954445
 20
2.540811
  0
VERTEX
  8
PLAN_1
  6
CONTINUOUS
 10
-0.938705
 20
2.538626
  0
VERTEX
  8
PLAN_1
  6
CONTINUOUS
 10
-0.922965
 20
2.537748
  0
VERTEX
  8
PLAN_1
  6
CONTINUOUS
 10
-0.906350
 20
2.537311
  0
VERTEX
  8
PLAN_1
  6
CONTINUOUS
 10
-0.892358
 20
2.537311
  0
VERTEX
  8
PLAN_1
  6
CONTINUOUS
 10
-0.878366
 20
2.538626
  0
VERTEX
  8
PLAN_1
  6
CONTINUOUS
 10
-0.864378
 20
2.539937
  0
VERTEX
  8
PLAN_1
  6
CONTINUOUS
 10
-0.850823
 20
2.542122
  0
VERTEX
  8
PLAN_1
  6
CONTINUOUS
 10
-0.837268
 20
2.544744
  0
VERTEX
  8
PLAN_1
  6
CONTINUOUS
 10
-0.824154
 20
2.548244
  0
VERTEX
  8
PLAN_1
  6
CONTINUOUS
 10
-0.811035
 20
2.551740
  0
VERTEX
  8
PLAN_1
  6
CONTINUOUS
 10
-0.798358
 20
2.556114
  0
VERTEX
  8
PLAN_1
  6
CONTINUOUS
 10
-0.785677
 20
2.561358
  0
VERTEX
  8
PLAN_1
  6
CONTINUOUS
 10
-0.773437
 20
2.566606
  0
VERTEX
  8
PLAN_1
  6
CONTINUOUS
 10
-0.761630
 20
2.572728
  0
VERTEX
  8
PLAN_1
  6
CONTINUOUS
 10
-0.749827
 20
2.578846
  0
VERTEX
  8
PLAN_1
  6
CONTINUOUS
 10
-0.738461
 20
2.585843
  0
VERTEX
  8
PLAN_1
  6
CONTINUOUS
 10
-0.727528
 20
2.593276
  0
VERTEX
  8
PLAN_1
  6
CONTINUOUS
 10
-0.716598
 20
2.600709
  0
VERTEX
  8
PLAN_1
  6
CONTINUOUS
 10
-0.706106
 20
2.609016
  0
VERTEX
  8
PLAN_1
  6
CONTINUOUS
 10
-0.696047
 20
2.617760
  0
VERTEX
  8
PLAN_1
  6
CONTINUOUS
 10
-0.686429
 20
2.626941
  0
VERTEX
  8
PLAN_1
  6
CONTINUOUS
 10
-0.677248
 20
2.636122
  0
VERTEX
  8
PLAN_1
  6
CONTINUOUS
 10
-0.668504
 20
2.646177
  0
VERTEX
  8
PLAN_1
  6
CONTINUOUS
 10
-0.660197
 20
2.656236
  0
VERTEX
  8
PLAN_1
  6
CONTINUOUS
 10
-0.651890
 20
2.666728
  0
VERTEX
  8
PLAN_1
  6
CONTINUOUS
 10
-0.644457
 20
2.677657
  0
VERTEX
  8
PLAN_1
  6
CONTINUOUS
 10
-0.637461
 20
2.688591
  0
VERTEX
  8
PLAN_1
  6
CONTINUOUS
 10
-0.630469
 20
2.700394
  0
VERTEX
  8
PLAN_1
  6
CONTINUOUS
 10
-0.624346
 20
2.712197
  0
VERTEX
  8
PLAN_1
  6
CONTINUOUS
 10
-0.618661
 20
2.724441
  0
VERTEX
  8
PLAN_1
  6
CONTINUOUS
 10
-0.613413
 20
2.736681
  0
VERTEX
  8
PLAN_1
  6
CONTINUOUS
 10
-0.609043
 20
2.749362
  0
VERTEX
  8
PLAN_1
  6
CONTINUOUS
 10
-0.604669
 20
2.762039
  0
VERTEX
  8
PLAN_1
  6
CONTINUOUS
 10
-0.601173
 20
2.775157
  0
VERTEX
  8
PLAN_1
  6
CONTINUOUS
 10
-0.598114
 20
2.788713
  0
SEQEND
  8
0
  0
POLYLINE
  8
PLAN_1
  6
CONTINUOUS
 66
     1
 40
0.008307
 41
0.008307
  0
VERTEX
  8
PLAN_1
  6
CONTINUOUS
 10
-0.906350
 20
2.734059
  0
VERTEX
  8
PLAN_1
  6
CONTINUOUS
 10
-0.900665
 20
2.734059
  0
VERTEX
  8
PLAN_1
  6
CONTINUOUS
 10
-0.894543
 20
2.734496
  0
VERTEX
  8
PLAN_1
  6
CONTINUOUS
 10
-0.888425
 20
2.735370
  0
VERTEX
  8
PLAN_1
  6
CONTINUOUS
 10
-0.882740
 20
2.736244
  0
VERTEX
  8
PLAN_1
  6
CONTINUOUS
 10
-0.877055
 20
2.737555
  0
VERTEX
  8
PLAN_1
  6
CONTINUOUS
 10
-0.871374
 20
2.739307
  0
VERTEX
  8
PLAN_1
  6
CONTINUOUS
 10
-0.866126
 20
2.741055
  0
VERTEX
  8
PLAN_1
  6
CONTINUOUS
 10
-0.860441
 20
2.743240
  0
VERTEX
  8
PLAN_1
  6
CONTINUOUS
 10
-0.855197
 20
2.745425
  0
VERTEX
  8
PLAN_1
  6
CONTINUOUS
 10
-0.850386
 20
2.748051
  0
VERTEX
  8
PLAN_1
  6
CONTINUOUS
 10
-0.845138
 20
2.751110
  0
VERTEX
  8
PLAN_1
  6
CONTINUOUS
 10
-0.840331
 20
2.754169
  0
VERTEX
  8
PLAN_1
  6
CONTINUOUS
 10
-0.835957
 20
2.757232
  0
VERTEX
  8
PLAN_1
  6
CONTINUOUS
 10
-0.831587
 20
2.761165
  0
VERTEX
  8
PLAN_1
  6
CONTINUOUS
 10
-0.827213
 20
2.764665
  0
VERTEX
  8
PLAN_1
  6
CONTINUOUS
 10
-0.822843
 20
2.768598
  0
VERTEX
  8
PLAN_1
  6
CONTINUOUS
 10
-0.819343
 20
2.772535
  0
VERTEX
  8
PLAN_1
  6
CONTINUOUS
 10
-0.815409
 20
2.776906
  0
VERTEX
  8
PLAN_1
  6
CONTINUOUS
 10
-0.811909
 20
2.781280
  0
VERTEX
  8
PLAN_1
  6
CONTINUOUS
 10
-0.808850
 20
2.786087
  0
VERTEX
  8
PLAN_1
  6
CONTINUOUS
 10
-0.805354
 20
2.790898
  0
VERTEX
  8
PLAN_1
  6
CONTINUOUS
 10
-0.802728
 20
2.795705
  0
VERTEX
  8
PLAN_1
  6
CONTINUOUS
 10
-0.800106
 20
2.800953
  0
VERTEX
  8
PLAN_1
  6
CONTINUOUS
 10
-0.797921
 20
2.806201
  0
VERTEX
  8
PLAN_1
  6
CONTINUOUS
 10
-0.795732
 20
2.811445
  0
VERTEX
  8
PLAN_1
  6
CONTINUOUS
 10
-0.793984
 20
2.817130
  0
VERTEX
  8
PLAN_1
  6
CONTINUOUS
 10
-0.792236
 20
2.822378
  0
VERTEX
  8
PLAN_1
  6
CONTINUOUS
 10
-0.790925
 20
2.828059
  0
VERTEX
  8
PLAN_1
  6
CONTINUOUS
 10
-0.790051
 20
2.834181
  0
VERTEX
  8
PLAN_1
  6
CONTINUOUS
 10
-0.789177
 20
2.839866
  0
VERTEX
  8
PLAN_1
  6
CONTINUOUS
 10
-0.788740
 20
2.845988
  0
VERTEX
  8
PLAN_1
  6
CONTINUOUS
 10
-0.788303
 20
2.852106
  0
VERTEX
  8
PLAN_1
  6
CONTINUOUS
 10
-0.788740
 20
2.858228
  0
VERTEX
  8
PLAN_1
  6
CONTINUOUS
 10
-0.789177
 20
2.863913
  0
VERTEX
  8
PLAN_1
  6
CONTINUOUS
 10
-0.790051
 20
2.870031
  0
VERTEX
  8
PLAN_1
  6
CONTINUOUS
 10
-0.790925
 20
2.875717
  0
VERTEX
  8
PLAN_1
  6
CONTINUOUS
 10
-0.792236
 20
2.881402
  0
VERTEX
  8
PLAN_1
  6
CONTINUOUS
 10
-0.793984
 20
2.887087
  0
VERTEX
  8
PLAN_1
  6
CONTINUOUS
 10
-0.795732
 20
2.892768
  0
VERTEX
  8
PLAN_1
  6
CONTINUOUS
 10
-0.797921
 20
2.898016
  0
VERTEX
  8
PLAN_1
  6
CONTINUOUS
 10
-0.800106
 20
2.903260
  0
VERTEX
  8
PLAN_1
  6
CONTINUOUS
 10
-0.802728
 20
2.908508
  0
VERTEX
  8
PLAN_1
  6
CONTINUOUS
 10
-0.805354
 20
2.913319
  0
VERTEX
  8
PLAN_1
  6
CONTINUOUS
 10
-0.808850
 20
2.918126
  0
VERTEX
  8
PLAN_1
  6
CONTINUOUS
 10
-0.811909
 20
2.922500
  0
VERTEX
  8
PLAN_1
  6
CONTINUOUS
 10
-0.815409
 20
2.927307
  0
VERTEX
  8
PLAN_1
  6
CONTINUOUS
 10
-0.819343
 20
2.931244
  0
VERTEX
  8
PLAN_1
  6
CONTINUOUS
 10
-0.822843
 20
2.935614
  0
VERTEX
  8
PLAN_1
  6
CONTINUOUS
 10
-0.827213
 20
2.939551
  0
VERTEX
  8
PLAN_1
  6
CONTINUOUS
 10
-0.831587
 20
2.943047
  0
VERTEX
  8
PLAN_1
  6
CONTINUOUS
 10
-0.835957
 20
2.946547
  0
VERTEX
  8
PLAN_1
  6
CONTINUOUS
 10
-0.840331
 20
2.950043
  0
VERTEX
  8
PLAN_1
  6
CONTINUOUS
 10
-0.845138
 20
2.953102
  0
VERTEX
  8
PLAN_1
  6
CONTINUOUS
 10
-0.850386
 20
2.955728
  0
VERTEX
  8
PLAN_1
  6
CONTINUOUS
 10
-0.855197
 20
2.958350
  0
VERTEX
  8
PLAN_1
  6
CONTINUOUS
 10
-0.860441
 20
2.960972
  0
VERTEX
  8
PLAN_1
  6
CONTINUOUS
 10
-0.866126
 20
2.963161
  0
VERTEX
  8
PLAN_1
  6
CONTINUOUS
 10
-0.871374
 20
2.964909
  0
VERTEX
  8
PLAN_1
  6
CONTINUOUS
 10
-0.877055
 20
2.966220
  0
VERTEX
  8
PLAN_1
  6
CONTINUOUS
 10
-0.882740
 20
2.967531
  0
VERTEX
  8
PLAN_1
  6
CONTINUOUS
 10
-0.888425
 20
2.968843
  0
VERTEX
  8
PLAN_1
  6
CONTINUOUS
 10
-0.894543
 20
2.969717
  0
VERTEX
  8
PLAN_1
  6
CONTINUOUS
 10
-0.900665
 20
2.970157
  0
VERTEX
  8
PLAN_1
  6
CONTINUOUS
 10
-0.906350
 20
2.970157
  0
VERTEX
  8
PLAN_1
  6
CONTINUOUS
 10
-0.912472
 20
2.970157
  0
VERTEX
  8
PLAN_1
  6
CONTINUOUS
 10
-0.918591
 20
2.969717
  0
VERTEX
  8
PLAN_1
  6
CONTINUOUS
 10
-0.924713
 20
2.968843
  0
VERTEX
  8
PLAN_1
  6
CONTINUOUS
 10
-0.930398
 20
2.967531
  0
VERTEX
  8
PLAN_1
  6
CONTINUOUS
 10
-0.936079
 20
2.966220
  0
VERTEX
  8
PLAN_1
  6
CONTINUOUS
 10
-0.941764
 20
2.964909
  0
VERTEX
  8
PLAN_1
  6
CONTINUOUS
 10
-0.947012
 20
2.963161
  0
VERTEX
  8
PLAN_1
  6
CONTINUOUS
 10
-0.952693
 20
2.960972
  0
VERTEX
  8
PLAN_1
  6
CONTINUOUS
 10
-0.957941
 20
2.958350
  0
VERTEX
  8
PLAN_1
  6
CONTINUOUS
 10
-0.962752
 20
2.955728
  0
VERTEX
  8
PLAN_1
  6
CONTINUOUS
 10
-0.967996
 20
2.953102
  0
VERTEX
  8
PLAN_1
  6
CONTINUOUS
 10
-0.972370
 20
2.950043
  0
VERTEX
  8
PLAN_1
  6
CONTINUOUS
 10
-0.977177
 20
2.946547
  0
VERTEX
  8
PLAN_1
  6
CONTINUOUS
 10
-0.981551
 20
2.943047
  0
VERTEX
  8
PLAN_1
  6
CONTINUOUS
 10
-0.985921
 20
2.939551
  0
VERTEX
  8
PLAN_1
  6
CONTINUOUS
 10
-0.989858
 20
2.935614
  0
VERTEX
  8
PLAN_1
  6
CONTINUOUS
 10
-0.993791
 20
2.931244
  0
VERTEX
  8
PLAN_1
  6
CONTINUOUS
 10
-0.997728
 20
2.927307
  0
VERTEX
  8
PLAN_1
  6
CONTINUOUS
 10
-1.001224
 20
2.922500
  0
VERTEX
  8
PLAN_1
  6
CONTINUOUS
 10
-1.004287
 20
2.918126
  0
VERTEX
  8
PLAN_1
  6
CONTINUOUS
 10
-1.007346
 20
2.913319
  0
VERTEX
  8
PLAN_1
  6
CONTINUOUS
 10
-1.010406
 20
2.908508
  0
VERTEX
  8
PLAN_1
  6
CONTINUOUS
 10
-1.013031
 20
2.903260
  0
VERTEX
  8
PLAN_1
  6
CONTINUOUS
 10
-1.015217
 20
2.898016
  0
VERTEX
  8
PLAN_1
  6
CONTINUOUS
 10
-1.017402
 20
2.892768
  0
VERTEX
  8
PLAN_1
  6
CONTINUOUS
 10
-1.019150
 20
2.887087
  0
VERTEX
  8
PLAN_1
  6
CONTINUOUS
 10
-1.020902
 20
2.881402
  0
VERTEX
  8
PLAN_1
  6
CONTINUOUS
 10
-1.022213
 20
2.875717
  0
VERTEX
  8
PLAN_1
  6
CONTINUOUS
 10
-1.023087
 20
2.870031
  0
VERTEX
  8
PLAN_1
  6
CONTINUOUS
 10
-1.023961
 20
2.863913
  0
VERTEX
  8
PLAN_1
  6
CONTINUOUS
 10
-1.024398
 20
2.858228
  0
VERTEX
  8
PLAN_1
  6
CONTINUOUS
 10
-1.024835
 20
2.852106
  0
VERTEX
  8
PLAN_1
  6
CONTINUOUS
 10
-1.024398
 20
2.845988
  0
VERTEX
  8
PLAN_1
  6
CONTINUOUS
 10
-1.023961
 20
2.839866
  0
VERTEX
  8
PLAN_1
  6
CONTINUOUS
 10
-1.023087
 20
2.834181
  0
VERTEX
  8
PLAN_1
  6
CONTINUOUS
 10
-1.022213
 20
2.828059
  0
VERTEX
  8
PLAN_1
  6
CONTINUOUS
 10
-1.020902
 20
2.822378
  0
VERTEX
  8
PLAN_1
  6
CONTINUOUS
 10
-1.019150
 20
2.817130
  0
VERTEX
  8
PLAN_1
  6
CONTINUOUS
 10
-1.017402
 20
2.811445
  0
VERTEX
  8
PLAN_1
  6
CONTINUOUS
 10
-1.015217
 20
2.806201
  0
VERTEX
  8
PLAN_1
  6
CONTINUOUS
 10
-1.013031
 20
2.800953
  0
VERTEX
  8
PLAN_1
  6
CONTINUOUS
 10
-1.010406
 20
2.795705
  0
VERTEX
  8
PLAN_1
  6
CONTINUOUS
 10
-1.007346
 20
2.790898
  0
VERTEX
  8
PLAN_1
  6
CONTINUOUS
 10
-1.004287
 20
2.786087
  0
VERTEX
  8
PLAN_1
  6
CONTINUOUS
 10
-1.001224
 20
2.781280
  0
VERTEX
  8
PLAN_1
  6
CONTINUOUS
 10
-0.997728
 20
2.776906
  0
VERTEX
  8
PLAN_1
  6
CONTINUOUS
 10
-0.993791
 20
2.772535
  0
VERTEX
  8
PLAN_1
  6
CONTINUOUS
 10
-0.989858
 20
2.768598
  0
VERTEX
  8
PLAN_1
  6
CONTINUOUS
 10
-0.985921
 20
2.764665
  0
VERTEX
  8
PLAN_1
  6
CONTINUOUS
 10
-0.981551
 20
2.761165
  0
VERTEX
  8
PLAN_1
  6
CONTINUOUS
 10
-0.977177
 20
2.757232
  0
VERTEX
  8
PLAN_1
  6
CONTINUOUS
 10
-0.972370
 20
2.754169
  0
VERTEX
  8
PLAN_1
  6
CONTINUOUS
 10
-0.967996
 20
2.751110
  0
VERTEX
  8
PLAN_1
  6
CONTINUOUS
 10
-0.962752
 20
2.748051
  0
VERTEX
  8
PLAN_1
  6
CONTINUOUS
 10
-0.957941
 20
2.745425
  0
VERTEX
  8
PLAN_1
  6
CONTINUOUS
 10
-0.952693
 20
2.743240
  0
VERTEX
  8
PLAN_1
  6
CONTINUOUS
 10
-0.947012
 20
2.741055
  0
VERTEX
  8
PLAN_1
  6
CONTINUOUS
 10
-0.941764
 20
2.739307
  0
VERTEX
  8
PLAN_1
  6
CONTINUOUS
 10
-0.936079
 20
2.737555
  0
VERTEX
  8
PLAN_1
  6
CONTINUOUS
 10
-0.930398
 20
2.736244
  0
VERTEX
  8
PLAN_1
  6
CONTINUOUS
 10
-0.924713
 20
2.735370
  0
VERTEX
  8
PLAN_1
  6
CONTINUOUS
 10
-0.918591
 20
2.734496
  0
VERTEX
  8
PLAN_1
  6
CONTINUOUS
 10
-0.912472
 20
2.734059
  0
VERTEX
  8
PLAN_1
  6
CONTINUOUS
 10
-0.906350
 20
2.734059
  0
SEQEND
  8
0
  0
POLYLINE
  8
PLAN_1
  6
CONTINUOUS
 66
     1
 40
0.008307
 41
0.008307
  0
VERTEX
  8
PLAN_1
  6
CONTINUOUS
 10
-1.674535
 20
2.536874
  0
VERTEX
  8
PLAN_1
  6
CONTINUOUS
 10
-1.663606
 20
2.540811
  0
VERTEX
  8
PLAN_1
  6
CONTINUOUS
 10
-1.653551
 20
2.543433
  0
VERTEX
  8
PLAN_1
  6
CONTINUOUS
 10
-1.643496
 20
2.545618
  0
VERTEX
  8
PLAN_1
  6
CONTINUOUS
 10
-1.634315
 20
2.547370
  0
VERTEX
  8
PLAN_1
  6
CONTINUOUS
 10
-1.625130
 20
2.548681
  0
VERTEX
  8
PLAN_1
  6
CONTINUOUS
 10
-1.616386
 20
2.549118
  0
VERTEX
  8
PLAN_1
  6
CONTINUOUS
 10
-1.608516
 20
2.549555
  0
VERTEX
  8
PLAN_1
  6
CONTINUOUS
 10
-1.600646
 20
2.549118
  0
VERTEX
  8
PLAN_1
  6
CONTINUOUS
 10
-1.593654
 20
2.548244
  0
VERTEX
  8
PLAN_1
  6
CONTINUOUS
 10
-1.586657
 20
2.547370
  0
VERTEX
  8
PLAN_1
  6
CONTINUOUS
 10
-1.580098
 20
2.545618
  0
VERTEX
  8
PLAN_1
  6
CONTINUOUS
 10
-1.573976
 20
2.544307
  0
VERTEX
  8
PLAN_1
  6
CONTINUOUS
 10
-1.568295
 20
2.542122
  0
VERTEX
  8
PLAN_1
  6
CONTINUOUS
 10
-1.563047
 20
2.539937
  0
VERTEX
  8
PLAN_1
  6
CONTINUOUS
 10
-1.558236
 20
2.537311
  0
VERTEX
  8
PLAN_1
  6
CONTINUOUS
 10
-1.553429
 20
2.534689
  0
VERTEX
  8
PLAN_1
  6
CONTINUOUS
 10
-1.549055
 20
2.532067
  0
VERTEX
  8
PLAN_1
  6
CONTINUOUS
 10
-1.545559
 20
2.529441
  0
VERTEX
  8
PLAN_1
  6
CONTINUOUS
 10
-1.541622
 20
2.526382
  0
VERTEX
  8
PLAN_1
  6
CONTINUOUS
 10
-1.538563
 20
2.523760
  0
VERTEX
  8
PLAN_1
  6
CONTINUOUS
 10
-1.532878
 20
2.518075
  0
VERTEX
  8
PLAN_1
  6
CONTINUOUS
 10
-1.528508
 20
2.512827
  0
VERTEX
  8
PLAN_1
  6
CONTINUOUS
 10
-1.522823
 20
2.504520
  0
VERTEX
  8
PLAN_1
  6
CONTINUOUS
 10
-1.521075
 20
2.501461
  0
SEQEND
  8
0
  0
POLYLINE
  8
PLAN_1
  6
CONTINUOUS
 66
     1
 40
0.008307
 41
0.008307
  0
VERTEX
  8
PLAN_1
  6
CONTINUOUS
 10
-1.521075
 20
2.501461
  0
VERTEX
  8
PLAN_1
  6
CONTINUOUS
 10
-1.447185
 20
2.336630
  0
VERTEX
  8
PLAN_1
  6
CONTINUOUS
 10
-1.486098
 20
2.188850
  0
SEQEND
  8
0
  0
POLYLINE
  8
PLAN_1
  6
CONTINUOUS
 66
     1
 40
0.008307
 41
0.008307
  0
VERTEX
  8
PLAN_1
  6
CONTINUOUS
 10
-1.463362
 20
2.372480
  0
VERTEX
  8
PLAN_1
  6
CONTINUOUS
 10
-1.674972
 20
2.278480
  0
VERTEX
  8
PLAN_1
  6
CONTINUOUS
 10
-1.610268
 20
2.134201
  0
SEQEND
  8
0
  0
POLYLINE
  8
PLAN_1
  6
CONTINUOUS
 66
     1
 40
0.006992
 41
0.006992
  0
VERTEX
  8
PLAN_1
  6
CONTINUOUS
 10
-1.400839
 20
1.361642
  0
VERTEX
  8
PLAN_1
  6
CONTINUOUS
 10
-1.400402
 20
1.440776
  0
VERTEX
  8
PLAN_1
  6
CONTINUOUS
 10
-1.439752
 20
1.440776
  0
SEQEND
  8
0
  0
POLYLINE
  8
PLAN_1
  6
CONTINUOUS
 66
     1
 40
0.006992
 41
0.006992
  0
VERTEX
  8
PLAN_1
  6
CONTINUOUS
 10
-0.418417
 20
1.361642
  0
VERTEX
  8
PLAN_1
  6
CONTINUOUS
 10
-0.417980
 20
1.440776
  0
VERTEX
  8
PLAN_1
  6
CONTINUOUS
 10
-0.378630
 20
1.440776
  0
SEQEND
  8
0
  0
POLYLINE
  8
PLAN_1
  6
CONTINUOUS
 66
     1
 40
0.008307
 41
0.008307
  0
VERTEX
  8
PLAN_1
  6
CONTINUOUS
 10
-0.377319
 20
1.356394
  0
VERTEX
  8
PLAN_1
  6
CONTINUOUS
 10
-0.377319
 20
1.671189
  0
VERTEX
  8
PLAN_1
  6
CONTINUOUS
 10
-1.439752
 20
1.671189
  0
VERTEX
  8
PLAN_1
  6
CONTINUOUS
 10
-1.439752
 20
1.356394
  0
VERTEX
  8
PLAN_1
  6
CONTINUOUS
 10
-0.377319
 20
1.356394
  0
SEQEND
  8
0
  0
POLYLINE
  8
PLAN_1
  6
CONTINUOUS
 66
     1
 40
0.008307
 41
0.008307
  0
VERTEX
  8
PLAN_1
  6
CONTINUOUS
 10
-1.302028
 20
1.911657
  0
VERTEX
  8
PLAN_1
  6
CONTINUOUS
 10
-1.302028
 20
1.862689
  0
SEQEND
  8
0
  0
POLYLINE
  8
PLAN_1
  6
CONTINUOUS
 66
     1
 40
0.008307
 41
0.008307
  0
VERTEX
  8
PLAN_1
  6
CONTINUOUS
 10
-0.515043
 20
1.864437
  0
VERTEX
  8
PLAN_1
  6
CONTINUOUS
 10
-0.515043
 20
1.911657
  0
SEQEND
  8
0
  0
POLYLINE
  8
PLAN_1
  6
CONTINUOUS
 66
     1
 40
0.008307
 41
0.008307
  0
VERTEX
  8
PLAN_1
  6
CONTINUOUS
 10
-1.302028
 20
1.912094
  0
VERTEX
  8
PLAN_1
  6
CONTINUOUS
 10
-1.249563
 20
2.124583
  0
SEQEND
  8
0
  0
POLYLINE
  8
PLAN_1
  6
CONTINUOUS
 66
     1
 40
0.008307
 41
0.008307
  0
VERTEX
  8
PLAN_1
  6
CONTINUOUS
 10
-1.249563
 20
2.124583
  0
VERTEX
  8
PLAN_1
  6
CONTINUOUS
 10
-1.247815
 20
2.129390
  0
VERTEX
  8
PLAN_1
  6
CONTINUOUS
 10
-1.244756
 20
2.134201
  0
VERTEX
  8
PLAN_1
  6
CONTINUOUS
 10
-1.241693
 20
2.138134
  0
VERTEX
  8
PLAN_1
  6
CONTINUOUS
 10
-1.237760
 20
2.141197
  0
VERTEX
  8
PLAN_1
  6
CONTINUOUS
 10
-1.232949
 20
2.144256
  0
VERTEX
  8
PLAN_1
  6
CONTINUOUS
 10
-1.228142
 20
2.146441
  0
VERTEX
  8
PLAN_1
  6
CONTINUOUS
 10
-1.225516
 20
2.146878
  0
VERTEX
  8
PLAN_1
  6
CONTINUOUS
 10
-1.222894
 20
2.147752
  0
VERTEX
  8
PLAN_1
  6
CONTINUOUS
 10
-1.220272
 20
2.147752
  0
VERTEX
  8
PLAN_1
  6
CONTINUOUS
 10
-1.217646
 20
2.148189
  0
SEQEND
  8
0
  0
POLYLINE
  8
PLAN_1
  6
CONTINUOUS
 66
     1
 40
0.008307
 41
0.008307
  0
VERTEX
  8
PLAN_1
  6
CONTINUOUS
 10
-1.217646
 20
2.148189
  0
VERTEX
  8
PLAN_1
  6
CONTINUOUS
 10
-0.598551
 20
2.148189
  0
SEQEND
  8
0
  0
POLYLINE
  8
PLAN_1
  6
CONTINUOUS
 66
     1
 40
0.008307
 41
0.008307
  0
VERTEX
  8
PLAN_1
  6
CONTINUOUS
 10
-0.598551
 20
2.148189
  0
VERTEX
  8
PLAN_1
  6
CONTINUOUS
 10
-0.595488
 20
2.147752
  0
VERTEX
  8
PLAN_1
  6
CONTINUOUS
 10
-0.591992
 20
2.147315
  0
VERTEX
  8
PLAN_1
  6
CONTINUOUS
 10
-0.588933
 20
2.146441
  0
VERTEX
  8
PLAN_1
  6
CONTINUOUS
 10
-0.585433
 20
2.145130
  0
VERTEX
  8
PLAN_1
  6
CONTINUOUS
 10
-0.582811
 20
2.143819
  0
VERTEX
  8
PLAN_1
  6
CONTINUOUS
 10
-0.579748
 20
2.142071
  0
VERTEX
  8
PLAN_1
  6
CONTINUOUS
 10
-0.577126
 20
2.140323
  0
VERTEX
  8
PLAN_1
  6
CONTINUOUS
 10
-0.574941
 20
2.138134
  0
VERTEX
  8
PLAN_1
  6
CONTINUOUS
 10
-0.572756
 20
2.135512
  0
VERTEX
  8
PLAN_1
  6
CONTINUOUS
 10
-0.570567
 20
2.132890
  0
VERTEX
  8
PLAN_1
  6
CONTINUOUS
 10
-0.569256
 20
2.130264
  0
VERTEX
  8
PLAN_1
  6
CONTINUOUS
 10
-0.567508
 20
2.127205
  0
VERTEX
  8
PLAN_1
  6
CONTINUOUS
 10
-0.566634
 20
2.124146
  0
VERTEX
  8
PLAN_1
  6
CONTINUOUS
 10
-0.565760
 20
2.121083
  0
VERTEX
  8
PLAN_1
  6
CONTINUOUS
 10
-0.565323
 20
2.117587
  0
VERTEX
  8
PLAN_1
  6
CONTINUOUS
 10
-0.564886
 20
2.114087
  0
SEQEND
  8
0
  0
POLYLINE
  8
PLAN_1
  6
CONTINUOUS
 66
     1
 40
0.008307
 41
0.008307
  0
VERTEX
  8
PLAN_1
  6
CONTINUOUS
 10
-0.564886
 20
2.114087
  0
VERTEX
  8
PLAN_1
  6
CONTINUOUS
 10
-0.515043
 20
1.912094
  0
SEQEND
  8
0
  0
POLYLINE
  8
PLAN_1
  6
CONTINUOUS
 66
     1
 40
0.008307
 41
0.008307
  0
VERTEX
  8
PLAN_1
  6
CONTINUOUS
 10
-0.711787
 20
2.247874
  0
VERTEX
  8
PLAN_1
  6
CONTINUOUS
 10
-0.720969
 20
2.255307
  0
VERTEX
  8
PLAN_1
  6
CONTINUOUS
 10
-0.730154
 20
2.262740
  0
VERTEX
  8
PLAN_1
  6
CONTINUOUS
 10
-0.740646
 20
2.269299
  0
VERTEX
  8
PLAN_1
  6
CONTINUOUS
 10
-0.751138
 20
2.275858
  0
VERTEX
  8
PLAN_1
  6
CONTINUOUS
 10
-0.762067
 20
2.281980
  0
VERTEX
  8
PLAN_1
  6
CONTINUOUS
 10
-0.773874
 20
2.287661
  0
VERTEX
  8
PLAN_1
  6
CONTINUOUS
 10
-0.785677
 20
2.292472
  0
VERTEX
  8
PLAN_1
  6
CONTINUOUS
 10
-0.797921
 20
2.297280
  0
VERTEX
  8
PLAN_1
  6
CONTINUOUS
 10
-0.810598
 20
2.301654
  0
VERTEX
  8
PLAN_1
  6
CONTINUOUS
 10
-0.823717
 20
2.305150
  0
VERTEX
  8
PLAN_1
  6
CONTINUOUS
 10
-0.837268
 20
2.308213
  0
VERTEX
  8
PLAN_1
  6
CONTINUOUS
 10
-0.850823
 20
2.310835
  0
VERTEX
  8
PLAN_1
  6
CONTINUOUS
 10
-0.864815
 20
2.313020
  0
VERTEX
  8
PLAN_1
  6
CONTINUOUS
 10
-0.879244
 20
2.314331
  0
VERTEX
  8
PLAN_1
  6
CONTINUOUS
 10
-0.893669
 20
2.315209
  0
VERTEX
  8
PLAN_1
  6
CONTINUOUS
 10
-0.908535
 20
2.315646
  0
VERTEX
  8
PLAN_1
  6
CONTINUOUS
 10
-0.923402
 20
2.315209
  0
VERTEX
  8
PLAN_1
  6
CONTINUOUS
 10
-0.937831
 20
2.314331
  0
VERTEX
  8
PLAN_1
  6
CONTINUOUS
 10
-0.952256
 20
2.313020
  0
VERTEX
  8
PLAN_1
  6
CONTINUOUS
 10
-0.966248
 20
2.310835
  0
VERTEX
  8
PLAN_1
  6
CONTINUOUS
 10
-0.979803
 20
2.308213
  0
VERTEX
  8
PLAN_1
  6
CONTINUOUS
 10
-0.993354
 20
2.305150
  0
VERTEX
  8
PLAN_1
  6
CONTINUOUS
 10
-1.006472
 20
2.301217
  0
VERTEX
  8
PLAN_1
  6
CONTINUOUS
 10
-1.019150
 20
2.297280
  0
VERTEX
  8
PLAN_1
  6
CONTINUOUS
 10
-1.031831
 20
2.292472
  0
VERTEX
  8
PLAN_1
  6
CONTINUOUS
 10
-1.043634
 20
2.287661
  0
VERTEX
  8
PLAN_1
  6
CONTINUOUS
 10
-1.055004
 20
2.281980
  0
VERTEX
  8
PLAN_1
  6
CONTINUOUS
 10
-1.066370
 20
2.275858
  0
VERTEX
  8
PLAN_1
  6
CONTINUOUS
 10
-1.076862
 20
2.269299
  0
VERTEX
  8
PLAN_1
  6
CONTINUOUS
 10
-1.086921
 20
2.262740
  0
VERTEX
  8
PLAN_1
  6
CONTINUOUS
 10
-1.096539
 20
2.255307
  0
VERTEX
  8
PLAN_1
  6
CONTINUOUS
 10
-1.105720
 20
2.247874
  0
SEQEND
  8
0
  0
POLYLINE
  8
PLAN_1
  6
CONTINUOUS
 66
     1
 40
0.008307
 41
0.008307
  0
VERTEX
  8
PLAN_1
  6
CONTINUOUS
 10
-1.105720
 20
2.247874
  0
VERTEX
  8
PLAN_1
  6
CONTINUOUS
 10
-1.105283
 20
2.148189
  0
VERTEX
  8
PLAN_1
  6
CONTINUOUS
 10
-0.711787
 20
2.148189
  0
VERTEX
  8
PLAN_1
  6
CONTINUOUS
 10
-0.711787
 20
2.247874
  0
SEQEND
  8
0
  0
POLYLINE
  8
PLAN_1
  6
CONTINUOUS
 66
     1
 40
0.006992
 41
0.006992
  0
VERTEX
  8
PLAN_1
  6
CONTINUOUS
 10
-1.310335
 20
1.863126
  0
VERTEX
  8
PLAN_1
  6
CONTINUOUS
 10
-1.222894
 20
1.863126
  0
VERTEX
  8
PLAN_1
  6
CONTINUOUS
 10
-1.222894
 20
1.807161
  0
VERTEX
  8
PLAN_1
  6
CONTINUOUS
 10
-1.439315
 20
1.807161
  0
VERTEX
  8
PLAN_1
  6
CONTINUOUS
 10
-1.439315
 20
1.863126
  0
VERTEX
  8
PLAN_1
  6
CONTINUOUS
 10
-1.351870
 20
1.863126
  0
VERTEX
  8
PLAN_1
  6
CONTINUOUS
 10
-1.351870
 20
1.832957
  0
VERTEX
  8
PLAN_1
  6
CONTINUOUS
 10
-1.310776
 20
1.832957
  0
VERTEX
  8
PLAN_1
  6
CONTINUOUS
 10
-1.310776
 20
1.863126
  0
VERTEX
  8
PLAN_1
  6
CONTINUOUS
 10
-1.310335
 20
1.863126
  0
SEQEND
  8
0
  0
POLYLINE
  8
PLAN_1
  6
CONTINUOUS
 66
     1
 40
0.006992
 41
0.006992
  0
VERTEX
  8
PLAN_1
  6
CONTINUOUS
 10
-0.465201
 20
1.863126
  0
VERTEX
  8
PLAN_1
  6
CONTINUOUS
 10
-0.377756
 20
1.863126
  0
VERTEX
  8
PLAN_1
  6
CONTINUOUS
 10
-0.377756
 20
1.807161
  0
VERTEX
  8
PLAN_1
  6
CONTINUOUS
 10
-0.594177
 20
1.807161
  0
VERTEX
  8
PLAN_1
  6
CONTINUOUS
 10
-0.594177
 20
1.863126
  0
VERTEX
  8
PLAN_1
  6
CONTINUOUS
 10
-0.506736
 20
1.863126
  0
VERTEX
  8
PLAN_1
  6
CONTINUOUS
 10
-0.506736
 20
1.832957
  0
VERTEX
  8
PLAN_1
  6
CONTINUOUS
 10
-0.465201
 20
1.832957
  0
VERTEX
  8
PLAN_1
  6
CONTINUOUS
 10
-0.465201
 20
1.863126
  0
SEQEND
  8
0
  0
POLYLINE
  8
PLAN_1
  6
CONTINUOUS
 66
     1
 40
0.006992
 41
0.006992
  0
VERTEX
  8
PLAN_1
  6
CONTINUOUS
 10
-1.442374
 20
1.807161
  0
VERTEX
  8
PLAN_1
  6
CONTINUOUS
 10
-1.442374
 20
1.674685
  0
SEQEND
  8
0
  0
POLYLINE
  8
PLAN_1
  6
CONTINUOUS
 66
     1
 40
0.006992
 41
0.006992
  0
VERTEX
  8
PLAN_1
  6
CONTINUOUS
 10
-0.378630
 20
1.807161
  0
VERTEX
  8
PLAN_1
  6
CONTINUOUS
 10
-0.378630
 20
1.674685
  0
SEQEND
  8
0
  0
POLYLINE
  8
PLAN_1
  6
CONTINUOUS
 66
     1
 40
0.006992
 41
0.006992
  0
VERTEX
  8
PLAN_1
  6
CONTINUOUS
 10
-1.675409
 20
1.807161
  0
VERTEX
  8
PLAN_1
  6
CONTINUOUS
 10
-1.675409
 20
1.732835
  0
VERTEX
  8
PLAN_1
  6
CONTINUOUS
 10
-1.675409
 20
1.734587
  0
SEQEND
  8
0
  0
POLYLINE
  8
PLAN_1
  6
CONTINUOUS
 66
     1
 40
0.006992
 41
0.006992
  0
VERTEX
  8
PLAN_1
  6
CONTINUOUS
 10
-1.675409
 20
1.734587
  0
VERTEX
  8
PLAN_1
  6
CONTINUOUS
 10
-1.675409
 20
1.728465
  0
VERTEX
  8
PLAN_1
  6
CONTINUOUS
 10
-1.674972
 20
1.722780
  0
VERTEX
  8
PLAN_1
  6
CONTINUOUS
 10
-1.674535
 20
1.717098
  0
VERTEX
  8
PLAN_1
  6
CONTINUOUS
 10
-1.673661
 20
1.712287
  0
VERTEX
  8
PLAN_1
  6
CONTINUOUS
 10
-1.672350
 20
1.707476
  0
VERTEX
  8
PLAN_1
  6
CONTINUOUS
 10
-1.670602
 20
1.703543
  0
VERTEX
  8
PLAN_1
  6
CONTINUOUS
 10
-1.668854
 20
1.699606
  0
VERTEX
  8
PLAN_1
  6
CONTINUOUS
 10
-1.667102
 20
1.695673
  0
VERTEX
  8
PLAN_1
  6
CONTINUOUS
 10
-1.664917
 20
1.692614
  0
VERTEX
  8
PLAN_1
  6
CONTINUOUS
 10
-1.662295
 20
1.689551
  0
VERTEX
  8
PLAN_1
  6
CONTINUOUS
 10
-1.660110
 20
1.686929
  0
VERTEX
  8
PLAN_1
  6
CONTINUOUS
 10
-1.657484
 20
1.684307
  0
VERTEX
  8
PLAN_1
  6
CONTINUOUS
 10
-1.654862
 20
1.682118
  0
VERTEX
  8
PLAN_1
  6
CONTINUOUS
 10
-1.651803
 20
1.680370
  0
VERTEX
  8
PLAN_1
  6
CONTINUOUS
 10
-1.649177
 20
1.678622
  0
VERTEX
  8
PLAN_1
  6
CONTINUOUS
 10
-1.646118
 20
1.677311
  0
VERTEX
  8
PLAN_1
  6
CONTINUOUS
 10
-1.640433
 20
1.675122
  0
VERTEX
  8
PLAN_1
  6
CONTINUOUS
 10
-1.635189
 20
1.673374
  0
VERTEX
  8
PLAN_1
  6
CONTINUOUS
 10
-1.629941
 20
1.672063
  0
VERTEX
  8
PLAN_1
  6
CONTINUOUS
 10
-1.625130
 20
1.671626
  0
VERTEX
  8
PLAN_1
  6
CONTINUOUS
 10
-1.618138
 20
1.671189
  0
VERTEX
  8
PLAN_1
  6
CONTINUOUS
 10
-1.615512
 20
1.671189
  0
SEQEND
  8
0
  0
POLYLINE
  8
PLAN_1
  6
CONTINUOUS
 66
     1
 40
0.008307
 41
0.008307
  0
VERTEX
  8
PLAN_1
  6
CONTINUOUS
 10
-0.515043
 20
1.911657
  0
VERTEX
  8
PLAN_1
  6
CONTINUOUS
 10
-1.302028
 20
1.911657
  0
SEQEND
  8
0
  0
POLYLINE
  8
PLAN_1
  6
CONTINUOUS
 66
     1
 40
0.008307
 41
0.008307
  0
VERTEX
  8
PLAN_1
  6
CONTINUOUS
 10
-0.714413
 20
2.236508
  0
VERTEX
  8
PLAN_1
  6
CONTINUOUS
 10
-1.107906
 20
2.236508
  0
SEQEND
  8
0
  0
POLYLINE
  8
PLAN_1
  6
CONTINUOUS
 66
     1
 40
0.006992
 41
0.006992
  0
VERTEX
  8
PLAN_1
  6
CONTINUOUS
 10
-0.906787
 20
2.793520
  0
VERTEX
  8
PLAN_1
  6
CONTINUOUS
 10
-0.900665
 20
2.793520
  0
VERTEX
  8
PLAN_1
  6
CONTINUOUS
 10
-0.894543
 20
2.794394
  0
VERTEX
  8
PLAN_1
  6
CONTINUOUS
 10
-0.889299
 20
2.796146
  0
VERTEX
  8
PLAN_1
  6
CONTINUOUS
 10
-0.883614
 20
2.797894
  0
VERTEX
  8
PLAN_1
  6
CONTINUOUS
 10
-0.878366
 20
2.800516
  0
VERTEX
  8
PLAN_1
  6
CONTINUOUS
 10
-0.873559
 20
2.803575
  0
VERTEX
  8
PLAN_1
  6
CONTINUOUS
 10
-0.869185
 20
2.807075
  0
VERTEX
  8
PLAN_1
  6
CONTINUOUS
 10
-0.864815
 20
2.810571
  0
VERTEX
  8
PLAN_1
  6
CONTINUOUS
 10
-0.860878
 20
2.814945
  0
VERTEX
  8
PLAN_1
  6
CONTINUOUS
 10
-0.857819
 20
2.819315
  0
VERTEX
  8
PLAN_1
  6
CONTINUOUS
 10
-0.854760
 20
2.824126
  0
VERTEX
  8
PLAN_1
  6
CONTINUOUS
 10
-0.852134
 20
2.829374
  0
VERTEX
  8
PLAN_1
  6
CONTINUOUS
 10
-0.850386
 20
2.835055
  0
VERTEX
  8
PLAN_1
  6
CONTINUOUS
 10
-0.848638
 20
2.840303
  0
VERTEX
  8
PLAN_1
  6
CONTINUOUS
 10
-0.847764
 20
2.846425
  0
VERTEX
  8
PLAN_1
  6
CONTINUOUS
 10
-0.847764
 20
2.852543
  0
VERTEX
  8
PLAN_1
  6
CONTINUOUS
 10
-0.847764
 20
2.858228
  0
VERTEX
  8
PLAN_1
  6
CONTINUOUS
 10
-0.848638
 20
2.864350
  0
VERTEX
  8
PLAN_1
  6
CONTINUOUS
 10
-0.850386
 20
2.870031
  0
VERTEX
  8
PLAN_1
  6
CONTINUOUS
 10
-0.852134
 20
2.875280
  0
VERTEX
  8
PLAN_1
  6
CONTINUOUS
 10
-0.854760
 20
2.880528
  0
VERTEX
  8
PLAN_1
  6
CONTINUOUS
 10
-0.857819
 20
2.885335
  0
VERTEX
  8
PLAN_1
  6
CONTINUOUS
 10
-0.860878
 20
2.890146
  0
VERTEX
  8
PLAN_1
  6
CONTINUOUS
 10
-0.864815
 20
2.894079
  0
VERTEX
  8
PLAN_1
  6
CONTINUOUS
 10
-0.869185
 20
2.898016
  0
VERTEX
  8
PLAN_1
  6
CONTINUOUS
 10
-0.873559
 20
2.901512
  0
VERTEX
  8
PLAN_1
  6
CONTINUOUS
 10
-0.878366
 20
2.904138
  0
VERTEX
  8
PLAN_1
  6
CONTINUOUS
 10
-0.883614
 20
2.906760
  0
VERTEX
  8
PLAN_1
  6
CONTINUOUS
 10
-0.889299
 20
2.908945
  0
VERTEX
  8
PLAN_1
  6
CONTINUOUS
 10
-0.894543
 20
2.910256
  0
VERTEX
  8
PLAN_1
  6
CONTINUOUS
 10
-0.900665
 20
2.911130
  0
VERTEX
  8
PLAN_1
  6
CONTINUOUS
 10
-0.906787
 20
2.911567
  0
VERTEX
  8
PLAN_1
  6
CONTINUOUS
 10
-0.912472
 20
2.911130
  0
VERTEX
  8
PLAN_1
  6
CONTINUOUS
 10
-0.918591
 20
2.910256
  0
VERTEX
  8
PLAN_1
  6
CONTINUOUS
 10
-0.924276
 20
2.908945
  0
VERTEX
  8
PLAN_1
  6
CONTINUOUS
 10
-0.929524
 20
2.906760
  0
VERTEX
  8
PLAN_1
  6
CONTINUOUS
 10
-0.934768
 20
2.904138
  0
VERTEX
  8
PLAN_1
  6
CONTINUOUS
 10
-0.939579
 20
2.901512
  0
VERTEX
  8
PLAN_1
  6
CONTINUOUS
 10
-0.944386
 20
2.898016
  0
VERTEX
  8
PLAN_1
  6
CONTINUOUS
 10
-0.948323
 20
2.894079
  0
VERTEX
  8
PLAN_1
  6
CONTINUOUS
 10
-0.952256
 20
2.890146
  0
VERTEX
  8
PLAN_1
  6
CONTINUOUS
 10
-0.955756
 20
2.885335
  0
VERTEX
  8
PLAN_1
  6
CONTINUOUS
 10
-0.958378
 20
2.880528
  0
VERTEX
  8
PLAN_1
  6
CONTINUOUS
 10
-0.961000
 20
2.875280
  0
VERTEX
  8
PLAN_1
  6
CONTINUOUS
 10
-0.963189
 20
2.870031
  0
VERTEX
  8
PLAN_1
  6
CONTINUOUS
 10
-0.964500
 20
2.864350
  0
VERTEX
  8
PLAN_1
  6
CONTINUOUS
 10
-0.965374
 20
2.858228
  0
VERTEX
  8
PLAN_1
  6
CONTINUOUS
 10
-0.965811
 20
2.852543
  0
VERTEX
  8
PLAN_1
  6
CONTINUOUS
 10
-0.965374
 20
2.846425
  0
VERTEX
  8
PLAN_1
  6
CONTINUOUS
 10
-0.964500
 20
2.840303
  0
VERTEX
  8
PLAN_1
  6
CONTINUOUS
 10
-0.963189
 20
2.835055
  0
VERTEX
  8
PLAN_1
  6
CONTINUOUS
 10
-0.961000
 20
2.829374
  0
VERTEX
  8
PLAN_1
  6
CONTINUOUS
 10
-0.958378
 20
2.824126
  0
VERTEX
  8
PLAN_1
  6
CONTINUOUS
 10
-0.955756
 20
2.819315
  0
VERTEX
  8
PLAN_1
  6
CONTINUOUS
 10
-0.952256
 20
2.814945
  0
VERTEX
  8
PLAN_1
  6
CONTINUOUS
 10
-0.948323
 20
2.810571
  0
VERTEX
  8
PLAN_1
  6
CONTINUOUS
 10
-0.944386
 20
2.807075
  0
VERTEX
  8
PLAN_1
  6
CONTINUOUS
 10
-0.939579
 20
2.803575
  0
VERTEX
  8
PLAN_1
  6
CONTINUOUS
 10
-0.934768
 20
2.800516
  0
VERTEX
  8
PLAN_1
  6
CONTINUOUS
 10
-0.929524
 20
2.797894
  0
VERTEX
  8
PLAN_1
  6
CONTINUOUS
 10
-0.924276
 20
2.796146
  0
VERTEX
  8
PLAN_1
  6
CONTINUOUS
 10
-0.918591
 20
2.794394
  0
VERTEX
  8
PLAN_1
  6
CONTINUOUS
 10
-0.912472
 20
2.793520
  0
VERTEX
  8
PLAN_1
  6
CONTINUOUS
 10
-0.906787
 20
2.793520
  0
SEQEND
  8
0
  0
POLYLINE
  8
PLAN_1
  6
CONTINUOUS
 66
     1
 40
0.008307
 41
0.008307
  0
VERTEX
  8
PLAN_1
  6
CONTINUOUS
 10
-1.318205
 20
1.053843
  0
VERTEX
  8
PLAN_1
  6
CONTINUOUS
 10
-0.499740
 20
1.053843
  0
SEQEND
  8
0
  0
POLYLINE
  8
PLAN_1
  6
CONTINUOUS
 66
     1
 40
0.008307
 41
0.008307
  0
VERTEX
  8
PLAN_1
  6
CONTINUOUS
 10
-0.674626
 20
2.534252
  0
VERTEX
  8
PLAN_1
  6
CONTINUOUS
 10
-0.665445
 20
2.540811
  0
VERTEX
  8
PLAN_1
  6
CONTINUOUS
 10
-0.656701
 20
2.548244
  0
VERTEX
  8
PLAN_1
  6
CONTINUOUS
 10
-0.647957
 20
2.555240
  0
VERTEX
  8
PLAN_1
  6
CONTINUOUS
 10
-0.639650
 20
2.563106
  0
VERTEX
  8
PLAN_1
  6
CONTINUOUS
 10
-0.631343
 20
2.570976
  0
VERTEX
  8
PLAN_1
  6
CONTINUOUS
 10
-0.623035
 20
2.578846
  0
VERTEX
  8
PLAN_1
  6
CONTINUOUS
 10
-0.615602
 20
2.587154
  0
VERTEX
  8
PLAN_1
  6
CONTINUOUS
 10
-0.607732
 20
2.595461
  0
VERTEX
  8
PLAN_1
  6
CONTINUOUS
 10
-0.600736
 20
2.604205
  0
VERTEX
  8
PLAN_1
  6
CONTINUOUS
 10
-0.593740
 20
2.613390
  0
VERTEX
  8
PLAN_1
  6
CONTINUOUS
 10
-0.586744
 20
2.622571
  0
VERTEX
  8
PLAN_1
  6
CONTINUOUS
 10
-0.580185
 20
2.631752
  0
VERTEX
  8
PLAN_1
  6
CONTINUOUS
 10
-0.574067
 20
2.641370
  0
VERTEX
  8
PLAN_1
  6
CONTINUOUS
 10
-0.567945
 20
2.650988
  0
VERTEX
  8
PLAN_1
  6
CONTINUOUS
 10
-0.562260
 20
2.661043
  0
VERTEX
  8
PLAN_1
  6
CONTINUOUS
 10
-0.557016
 20
2.671098
  0
VERTEX
  8
PLAN_1
  6
CONTINUOUS
 10
-0.551768
 20
2.681157
  0
VERTEX
  8
PLAN_1
  6
CONTINUOUS
 10
-0.546957
 20
2.691650
  0
VERTEX
  8
PLAN_1
  6
CONTINUOUS
 10
-0.542587
 20
2.702142
  0
VERTEX
  8
PLAN_1
  6
CONTINUOUS
 10
-0.538213
 20
2.713075
  0
VERTEX
  8
PLAN_1
  6
CONTINUOUS
 10
-0.534280
 20
2.724004
  0
VERTEX
  8
PLAN_1
  6
CONTINUOUS
 10
-0.530783
 20
2.734933
  0
VERTEX
  8
PLAN_1
  6
CONTINUOUS
 10
-0.527283
 20
2.745862
  0
VERTEX
  8
PLAN_1
  6
CONTINUOUS
 10
-0.524224
 20
2.757232
  0
VERTEX
  8
PLAN_1
  6
CONTINUOUS
 10
-0.521598
 20
2.768598
  0
VERTEX
  8
PLAN_1
  6
CONTINUOUS
 10
-0.519413
 20
2.780406
  0
VERTEX
  8
PLAN_1
  6
CONTINUOUS
 10
-0.517665
 20
2.792209
  0
VERTEX
  8
PLAN_1
  6
CONTINUOUS
 10
-0.515917
 20
2.804012
  0
VERTEX
  8
PLAN_1
  6
CONTINUOUS
 10
-0.514606
 20
2.815819
  0
VERTEX
  8
PLAN_1
  6
CONTINUOUS
 10
-0.513728
 20
2.827622
  0
VERTEX
  8
PLAN_1
  6
CONTINUOUS
 10
-0.513291
 20
2.839866
  0
VERTEX
  8
PLAN_1
  6
CONTINUOUS
 10
-0.512854
 20
2.852106
  0
VERTEX
  8
PLAN_1
  6
CONTINUOUS
 10
-0.513291
 20
2.872220
  0
VERTEX
  8
PLAN_1
  6
CONTINUOUS
 10
-0.515043
 20
2.892331
  0
VERTEX
  8
PLAN_1
  6
CONTINUOUS
 10
-0.517665
 20
2.912008
  0
VERTEX
  8
PLAN_1
  6
CONTINUOUS
 10
-0.520724
 20
2.931244
  0
VERTEX
  8
PLAN_1
  6
CONTINUOUS
 10
-0.525535
 20
2.950480
  0
VERTEX
  8
PLAN_1
  6
CONTINUOUS
 10
-0.530783
 20
2.969280
  0
VERTEX
  8
PLAN_1
  6
CONTINUOUS
 10
-0.536902
 20
2.987209
  0
VERTEX
  8
PLAN_1
  6
CONTINUOUS
 10
-0.543898
 20
3.005134
  0
VERTEX
  8
PLAN_1
  6
CONTINUOUS
 10
-0.551768
 20
3.022622
  0
VERTEX
  8
PLAN_1
  6
CONTINUOUS
 10
-0.560512
 20
3.039673
  0
VERTEX
  8
PLAN_1
  6
CONTINUOUS
 10
-0.570130
 20
3.056287
  0
VERTEX
  8
PLAN_1
  6
CONTINUOUS
 10
-0.580185
 20
3.072028
  0
VERTEX
  8
PLAN_1
  6
CONTINUOUS
 10
-0.591118
 20
3.087768
  0
VERTEX
  8
PLAN_1
  6
CONTINUOUS
 10
-0.602921
 20
3.102630
  0
VERTEX
  8
PLAN_1
  6
CONTINUOUS
 10
-0.615165
 20
3.116622
  0
VERTEX
  8
PLAN_1
  6
CONTINUOUS
 10
-0.628280
 20
3.130177
  0
VERTEX
  8
PLAN_1
  6
CONTINUOUS
 10
-0.641835
 20
3.143291
  0
VERTEX
  8
PLAN_1
  6
CONTINUOUS
 10
-0.656264
 20
3.155972
  0
VERTEX
  8
PLAN_1
  6
CONTINUOUS
 10
-0.671126
 20
3.167339
  0
VERTEX
  8
PLAN_1
  6
CONTINUOUS
 10
-0.686429
 20
3.178272
  0
VERTEX
  8
PLAN_1
  6
CONTINUOUS
 10
-0.702606
 20
3.188764
  0
VERTEX
  8
PLAN_1
  6
CONTINUOUS
 10
-0.718783
 20
3.197945
  0
VERTEX
  8
PLAN_1
  6
CONTINUOUS
 10
-0.735835
 20
3.206689
  0
VERTEX
  8
PLAN_1
  6
CONTINUOUS
 10
-0.753323
 20
3.214559
  0
VERTEX
  8
PLAN_1
  6
CONTINUOUS
 10
-0.771252
 20
3.221992
  0
VERTEX
  8
PLAN_1
  6
CONTINUOUS
 10
-0.789614
 20
3.228114
  0
VERTEX
  8
PLAN_1
  6
CONTINUOUS
 10
-0.807976
 20
3.233358
  0
VERTEX
  8
PLAN_1
  6
CONTINUOUS
 10
-0.827213
 20
3.237732
  0
VERTEX
  8
PLAN_1
  6
CONTINUOUS
 10
-0.846453
 20
3.241228
  0
VERTEX
  8
PLAN_1
  6
CONTINUOUS
 10
-0.866126
 20
3.243850
  0
VERTEX
  8
PLAN_1
  6
CONTINUOUS
 10
-0.886236
 20
3.245165
  0
VERTEX
  8
PLAN_1
  6
CONTINUOUS
 10
-0.906350
 20
3.245602
  0
VERTEX
  8
PLAN_1
  6
CONTINUOUS
 10
-0.926898
 20
3.245165
  0
VERTEX
  8
PLAN_1
  6
CONTINUOUS
 10
-0.946575
 20
3.243850
  0
VERTEX
  8
PLAN_1
  6
CONTINUOUS
 10
-0.966685
 20
3.241228
  0
VERTEX
  8
PLAN_1
  6
CONTINUOUS
 10
-0.985921
 20
3.237732
  0
VERTEX
  8
PLAN_1
  6
CONTINUOUS
 10
-1.004724
 20
3.233358
  0
VERTEX
  8
PLAN_1
  6
CONTINUOUS
 10
-1.023524
 20
3.228114
  0
VERTEX
  8
PLAN_1
  6
CONTINUOUS
 10
-1.041886
 20
3.221992
  0
VERTEX
  8
PLAN_1
  6
CONTINUOUS
 10
-1.059811
 20
3.214559
  0
VERTEX
  8
PLAN_1
  6
CONTINUOUS
 10
-1.077299
 20
3.206689
  0
VERTEX
  8
PLAN_1
  6
CONTINUOUS
 10
-1.094350
 20
3.197945
  0
VERTEX
  8
PLAN_1
  6
CONTINUOUS
 10
-1.110528
 20
3.188764
  0
VERTEX
  8
PLAN_1
  6
CONTINUOUS
 10
-1.126705
 20
3.178272
  0
VERTEX
  8
PLAN_1
  6
CONTINUOUS
 10
-1.142008
 20
3.167339
  0
VERTEX
  8
PLAN_1
  6
CONTINUOUS
 10
-1.156874
 20
3.155972
  0
VERTEX
  8
PLAN_1
  6
CONTINUOUS
 10
-1.171303
 20
3.143291
  0
VERTEX
  8
PLAN_1
  6
CONTINUOUS
 10
-1.184854
 20
3.130177
  0
VERTEX
  8
PLAN_1
  6
CONTINUOUS
 10
-1.197972
 20
3.116622
  0
VERTEX
  8
PLAN_1
  6
CONTINUOUS
 10
-1.210213
 20
3.102630
  0
VERTEX
  8
PLAN_1
  6
CONTINUOUS
 10
-1.222020
 20
3.087768
  0
VERTEX
  8
PLAN_1
  6
CONTINUOUS
 10
-1.232949
 20
3.072028
  0
VERTEX
  8
PLAN_1
  6
CONTINUOUS
 10
-1.243004
 20
3.056287
  0
VERTEX
  8
PLAN_1
  6
CONTINUOUS
 10
-1.252626
 20
3.039673
  0
VERTEX
  8
PLAN_1
  6
CONTINUOUS
 10
-1.261370
 20
3.022622
  0
VERTEX
  8
PLAN_1
  6
CONTINUOUS
 10
-1.269240
 20
3.005134
  0
VERTEX
  8
PLAN_1
  6
CONTINUOUS
 10
-1.276232
 20
2.987209
  0
VERTEX
  8
PLAN_1
  6
CONTINUOUS
 10
-1.282354
 20
2.969280
  0
VERTEX
  8
PLAN_1
  6
CONTINUOUS
 10
-1.287602
 20
2.950480
  0
VERTEX
  8
PLAN_1
  6
CONTINUOUS
 10
-1.291972
 20
2.931244
  0
VERTEX
  8
PLAN_1
  6
CONTINUOUS
 10
-1.295472
 20
2.912008
  0
VERTEX
  8
PLAN_1
  6
CONTINUOUS
 10
-1.298094
 20
2.892331
  0
VERTEX
  8
PLAN_1
  6
CONTINUOUS
 10
-1.299843
 20
2.872220
  0
VERTEX
  8
PLAN_1
  6
CONTINUOUS
 10
-1.300280
 20
2.852106
  0
VERTEX
  8
PLAN_1
  6
CONTINUOUS
 10
-1.300280
 20
2.843362
  0
VERTEX
  8
PLAN_1
  6
CONTINUOUS
 10
-1.299843
 20
2.834618
  0
VERTEX
  8
PLAN_1
  6
CONTINUOUS
 10
-1.299406
 20
2.825874
  0
VERTEX
  8
PLAN_1
  6
CONTINUOUS
 10
-1.298531
 20
2.817130
  0
VERTEX
  8
PLAN_1
  6
CONTINUOUS
 10
-1.297657
 20
2.808386
  0
VERTEX
  8
PLAN_1
  6
CONTINUOUS
 10
-1.296783
 20
2.799642
  0
VERTEX
  8
PLAN_1
  6
CONTINUOUS
 10
-1.295472
 20
2.791335
  0
VERTEX
  8
PLAN_1
  6
CONTINUOUS
 10
-1.294161
 20
2.783028
  0
SEQEND
  8
0
  0
POLYLINE
  8
PLAN_1
 62
     2
  6
CONTINUOUS
 66
     1
 40
0.004370
 41
0.004370
  0
VERTEX
  8
PLAN_1
 62
     2
  6
CONTINUOUS
 10
-2.173398
 20
2.648803
  0
VERTEX
  8
PLAN_1
 62
     2
  6
CONTINUOUS
 10
-1.810075
 20
2.648803
  0
SEQEND
  8
0
  0
SOLID
  8
PLAN_1
 62
     2
 10
-1.780343
 20
2.648803
 11
-1.839366
 21
2.664543
 12
-1.780343
 22
2.648803
 13
-1.839366
 23
2.633063
  0
POLYLINE
  8
PLAN_1
 62
     2
  6
CONTINUOUS
 66
     1
 40
0.003000
 41
0.003000
  0
VERTEX
  8
PLAN_1
 62
     2
  6
CONTINUOUS
 10
-1.780343
 20
2.648803
  0
VERTEX
  8
PLAN_1
 62
     2
  6
CONTINUOUS
 10
-1.839366
 20
2.664543
  0
VERTEX
  8
PLAN_1
 62
     2
  6
CONTINUOUS
 10
-1.839366
 20
2.633063
  0
VERTEX
  8
PLAN_1
 62
     2
  6
CONTINUOUS
 10
-1.780343
 20
2.648803
  0
SEQEND
  8
0
  0
SOLID
  8
PLAN_1
 62
     2
 10
-2.203130
 20
2.648803
 11
-2.144106
 21
2.664543
 12
-2.203130
 22
2.648803
 13
-2.144106
 23
2.633063
  0
POLYLINE
  8
PLAN_1
 62
     2
  6
CONTINUOUS
 66
     1
 40
0.003000
 41
0.003000
  0
VERTEX
  8
PLAN_1
 62
     2
  6
CONTINUOUS
 10
-2.203130
 20
2.648803
  0
VERTEX
  8
PLAN_1
 62
     2
  6
CONTINUOUS
 10
-2.144106
 20
2.664543
  0
VERTEX
  8
PLAN_1
 62
     2
  6
CONTINUOUS
 10
-2.144106
 20
2.633063
  0
VERTEX
  8
PLAN_1
 62
     2
  6
CONTINUOUS
 10
-2.203130
 20
2.648803
  0
SEQEND
  8
0
  0
POLYLINE
  8
PLAN_1
 62
     2
  6
CONTINUOUS
 66
     1
 40
0.003000
 41
0.003000
  0
VERTEX
  8
PLAN_1
 62
     2
  6
CONTINUOUS
 10
-2.012504
 20
2.672413
  0
VERTEX
  8
PLAN_1
 62
     2
  6
CONTINUOUS
 10
-2.022122
 20
2.672413
  0
VERTEX
  8
PLAN_1
 62
     2
  6
CONTINUOUS
 10
-2.022122
 20
2.724004
  0
VERTEX
  8
PLAN_1
 62
     2
  6
CONTINUOUS
 10
-2.039173
 20
2.724004
  0
VERTEX
  8
PLAN_1
 62
     2
  6
CONTINUOUS
 10
-2.039173
 20
2.731437
  0
VERTEX
  8
PLAN_1
 62
     2
  6
CONTINUOUS
 10
-2.034803
 20
2.731874
  0
VERTEX
  8
PLAN_1
 62
     2
  6
CONTINUOUS
 10
-2.031303
 20
2.732311
  0
VERTEX
  8
PLAN_1
 62
     2
  6
CONTINUOUS
 10
-2.028681
 20
2.733185
  0
VERTEX
  8
PLAN_1
 62
     2
  6
CONTINUOUS
 10
-2.026059
 20
2.734059
  0
VERTEX
  8
PLAN_1
 62
     2
  6
CONTINUOUS
 10
-2.023870
 20
2.735807
  0
VERTEX
  8
PLAN_1
 62
     2
  6
CONTINUOUS
 10
-2.022122
 20
2.738433
  0
VERTEX
  8
PLAN_1
 62
     2
  6
CONTINUOUS
 10
-2.020811
 20
2.741492
  0
VERTEX
  8
PLAN_1
 62
     2
  6
CONTINUOUS
 10
-2.019500
 20
2.745425
  0
VERTEX
  8
PLAN_1
 62
     2
  6
CONTINUOUS
 10
-2.012504
 20
2.745425
  0
VERTEX
  8
PLAN_1
 62
     2
  6
CONTINUOUS
 10
-2.012504
 20
2.672413
  0
SEQEND
  8
0
  0
POLYLINE
  8
PLAN_1
 62
     2
  6
CONTINUOUS
 66
     1
 40
0.003000
 41
0.003000
  0
VERTEX
  8
PLAN_1
 62
     2
  6
CONTINUOUS
 10
-1.968346
 20
2.713949
  0
VERTEX
  8
PLAN_1
 62
     2
  6
CONTINUOUS
 10
-1.967909
 20
2.713949
  0
VERTEX
  8
PLAN_1
 62
     2
  6
CONTINUOUS
 10
-1.967472
 20
2.713949
  0
VERTEX
  8
PLAN_1
 62
     2
  6
CONTINUOUS
 10
-1.966598
 20
2.713949
  0
VERTEX
  8
PLAN_1
 62
     2
  6
CONTINUOUS
 10
-1.966157
 20
2.713949
  0
VERTEX
  8
PLAN_1
 62
     2
  6
CONTINUOUS
 10
-1.965283
 20
2.713512
  0
VERTEX
  8
PLAN_1
 62
     2
  6
CONTINUOUS
 10
-1.964846
 20
2.713512
  0
VERTEX
  8
PLAN_1
 62
     2
  6
CONTINUOUS
 10
-1.964409
 20
2.713512
  0
VERTEX
  8
PLAN_1
 62
     2
  6
CONTINUOUS
 10
-1.963535
 20
2.713512
  0
VERTEX
  8
PLAN_1
 62
     2
  6
CONTINUOUS
 10
-1.960913
 20
2.713949
  0
VERTEX
  8
PLAN_1
 62
     2
  6
CONTINUOUS
 10
-1.958291
 20
2.714386
  0
VERTEX
  8
PLAN_1
 62
     2
  6
CONTINUOUS
 10
-1.956102
 20
2.715260
  0
VERTEX
  8
PLAN_1
 62
     2
  6
CONTINUOUS
 10
-1.953917
 20
2.716134
  0
VERTEX
  8
PLAN_1
 62
     2
  6
CONTINUOUS
 10
-1.952169
 20
2.717882
  0
VERTEX
  8
PLAN_1
 62
     2
  6
CONTINUOUS
 10
-1.950858
 20
2.720067
  0
VERTEX
  8
PLAN_1
 62
     2
  6
CONTINUOUS
 10
-1.949984
 20
2.722693
  0
VERTEX
  8
PLAN_1
 62
     2
  6
CONTINUOUS
 10
-1.949543
 20
2.725752
  0
VERTEX
  8
PLAN_1
 62
     2
  6
CONTINUOUS
 10
-1.949984
 20
2.727500
  0
VERTEX
  8
PLAN_1
 62
     2
  6
CONTINUOUS
 10
-1.950421
 20
2.729248
  0
VERTEX
  8
PLAN_1
 62
     2
  6
CONTINUOUS
 10
-1.951295
 20
2.731000
  0
VERTEX
  8
PLAN_1
 62
     2
  6
CONTINUOUS
 10
-1.952606
 20
2.733185
  0
VERTEX
  8
PLAN_1
 62
     2
  6
CONTINUOUS
 10
-1.954354
 20
2.734496
  0
VERTEX
  8
PLAN_1
 62
     2
  6
CONTINUOUS
 10
-1.956539
 20
2.735807
  0
VERTEX
  8
PLAN_1
 62
     2
  6
CONTINUOUS
 10
-1.959602
 20
2.736681
  0
VERTEX
  8
PLAN_1
 62
     2
  6
CONTINUOUS
 10
-1.963098
 20
2.737118
  0
VERTEX
  8
PLAN_1
 62
     2
  6
CONTINUOUS
 10
-1.965720
 20
2.737118
  0
VERTEX
  8
PLAN_1
 62
     2
  6
CONTINUOUS
 10
-1.967472
 20
2.736681
  0
VERTEX
  8
PLAN_1
 62
     2
  6
CONTINUOUS
 10
-1.969220
 20
2.736244
  0
VERTEX
  8
PLAN_1
 62
     2
  6
CONTINUOUS
 10
-1.970969
 20
2.735370
  0
VERTEX
  8
PLAN_1
 62
     2
  6
CONTINUOUS
 10
-1.973154
 20
2.733622
  0
VERTEX
  8
PLAN_1
 62
     2
  6
CONTINUOUS
 10
-1.974906
 20
2.731437
  0
VERTEX
  8
PLAN_1
 62
     2
  6
CONTINUOUS
 10
-1.976217
 20
2.728811
  0
VERTEX
  8
PLAN_1
 62
     2
  6
CONTINUOUS
 10
-1.977091
 20
2.726189
  0
VERTEX
  8
PLAN_1
 62
     2
  6
CONTINUOUS
 10
-1.977091
 20
2.723567
  0
VERTEX
  8
PLAN_1
 62
     2
  6
CONTINUOUS
 10
-1.977528
 20
2.721382
  0
VERTEX
  8
PLAN_1
 62
     2
  6
CONTINUOUS
 10
-1.986272
 20
2.721382
  0
VERTEX
  8
PLAN_1
 62
     2
  6
CONTINUOUS
 10
-1.986272
 20
2.725752
  0
VERTEX
  8
PLAN_1
 62
     2
  6
CONTINUOUS
 10
-1.985398
 20
2.729689
  0
VERTEX
  8
PLAN_1
 62
     2
  6
CONTINUOUS
 10
-1.984087
 20
2.733622
  0
VERTEX
  8
PLAN_1
 62
     2
  6
CONTINUOUS
 10
-1.981898
 20
2.737555
  0
VERTEX
  8
PLAN_1
 62
     2
  6
CONTINUOUS
 10
-1.980587
 20
2.739307
  0
VERTEX
  8
PLAN_1
 62
     2
  6
CONTINUOUS
 10
-1.978839
 20
2.740618
  0
VERTEX
  8
PLAN_1
 62
     2
  6
CONTINUOUS
 10
-1.976654
 20
2.741929
  0
VERTEX
  8
PLAN_1
 62
     2
  6
CONTINUOUS
 10
-1.974465
 20
2.743240
  0
VERTEX
  8
PLAN_1
 62
     2
  6
CONTINUOUS
 10
-1.972280
 20
2.744114
  0
VERTEX
  8
PLAN_1
 62
     2
  6
CONTINUOUS
 10
-1.969220
 20
2.744988
  0
VERTEX
  8
PLAN_1
 62
     2
  6
CONTINUOUS
 10
-1.966157
 20
2.745425
  0
VERTEX
  8
PLAN_1
 62
     2
  6
CONTINUOUS
 10
-1.962661
 20
2.745425
  0
VERTEX
  8
PLAN_1
 62
     2
  6
CONTINUOUS
 10
-1.957850
 20
2.744988
  0
VERTEX
  8
PLAN_1
 62
     2
  6
CONTINUOUS
 10
-1.953480
 20
2.744114
  0
VERTEX
  8
PLAN_1
 62
     2
  6
CONTINUOUS
 10
-1.949543
 20
2.742366
  0
VERTEX
  8
PLAN_1
 62
     2
  6
CONTINUOUS
 10
-1.946047
 20
2.739744
  0
VERTEX
  8
PLAN_1
 62
     2
  6
CONTINUOUS
 10
-1.943862
 20
2.737118
  0
VERTEX
  8
PLAN_1
 62
     2
  6
CONTINUOUS
 10
-1.941677
 20
2.734059
  0
VERTEX
  8
PLAN_1
 62
     2
  6
CONTINUOUS
 10
-1.940799
 20
2.730126
  0
VERTEX
  8
PLAN_1
 62
     2
  6
CONTINUOUS
 10
-1.940362
 20
2.726189
  0
VERTEX
  8
PLAN_1
 62
     2
  6
CONTINUOUS
 10
-1.940362
 20
2.722693
  0
VERTEX
  8
PLAN_1
 62
     2
  6
CONTINUOUS
 10
-1.941236
 20
2.720067
  0
VERTEX
  8
PLAN_1
 62
     2
  6
CONTINUOUS
 10
-1.942114
 20
2.717445
  0
VERTEX
  8
PLAN_1
 62
     2
  6
CONTINUOUS
 10
-1.943425
 20
2.715697
  0
VERTEX
  8
PLAN_1
 62
     2
  6
CONTINUOUS
 10
-1.944736
 20
2.713949
  0
VERTEX
  8
PLAN_1
 62
     2
  6
CONTINUOUS
 10
-1.946484
 20
2.712634
  0
VERTEX
  8
PLAN_1
 62
     2
  6
CONTINUOUS
 10
-1.948232
 20
2.711760
  0
VERTEX
  8
PLAN_1
 62
     2
  6
CONTINUOUS
 10
-1.949543
 20
2.710886
  0
VERTEX
  8
PLAN_1
 62
     2
  6
CONTINUOUS
 10
-1.946921
 20
2.710012
  0
VERTEX
  8
PLAN_1
 62
     2
  6
CONTINUOUS
 10
-1.944736
 20
2.708701
  0
VERTEX
  8
PLAN_1
 62
     2
  6
CONTINUOUS
 10
-1.942551
 20
2.706953
  0
VERTEX
  8
PLAN_1
 62
     2
  6
CONTINUOUS
 10
-1.940799
 20
2.705205
  0
VERTEX
  8
PLAN_1
 62
     2
  6
CONTINUOUS
 10
-1.939488
 20
2.703016
  0
VERTEX
  8
PLAN_1
 62
     2
  6
CONTINUOUS
 10
-1.938177
 20
2.700394
  0
VERTEX
  8
PLAN_1
 62
     2
  6
CONTINUOUS
 10
-1.937740
 20
2.697335
  0
VERTEX
  8
PLAN_1
 62
     2
  6
CONTINUOUS
 10
-1.937303
 20
2.693835
  0
VERTEX
  8
PLAN_1
 62
     2
  6
CONTINUOUS
 10
-1.937740
 20
2.689465
  0
VERTEX
  8
PLAN_1
 62
     2
  6
CONTINUOUS
 10
-1.939051
 20
2.685091
  0
VERTEX
  8
PLAN_1
 62
     2
  6
CONTINUOUS
 10
-1.939925
 20
2.682906
  0
VERTEX
  8
PLAN_1
 62
     2
  6
CONTINUOUS
 10
-1.940799
 20
2.681157
  0
VERTEX
  8
PLAN_1
 62
     2
  6
CONTINUOUS
 10
-1.942114
 20
2.679406
  0
VERTEX
  8
PLAN_1
 62
     2
  6
CONTINUOUS
 10
-1.943425
 20
2.677657
  0
VERTEX
  8
PLAN_1
 62
     2
  6
CONTINUOUS
 10
-1.945173
 20
2.675909
  0
VERTEX
  8
PLAN_1
 62
     2
  6
CONTINUOUS
 10
-1.947358
 20
2.674598
  0
VERTEX
  8
PLAN_1
 62
     2
  6
CONTINUOUS
 10
-1.949543
 20
2.673287
  0
VERTEX
  8
PLAN_1
 62
     2
  6
CONTINUOUS
 10
-1.951732
 20
2.672413
  0
VERTEX
  8
PLAN_1
 62
     2
  6
CONTINUOUS
 10
-1.954354
 20
2.671539
  0
VERTEX
  8
PLAN_1
 62
     2
  6
CONTINUOUS
 10
-1.957413
 20
2.670661
  0
VERTEX
  8
PLAN_1
 62
     2
  6
CONTINUOUS
 10
-1.960476
 20
2.670224
  0
VERTEX
  8
PLAN_1
 62
     2
  6
CONTINUOUS
 10
-1.963972
 20
2.670224
  0
VERTEX
  8
PLAN_1
 62
     2
  6
CONTINUOUS
 10
-1.965720
 20
2.670224
  0
VERTEX
  8
PLAN_1
 62
     2
  6
CONTINUOUS
 10
-1.967472
 20
2.670661
  0
VERTEX
  8
PLAN_1
 62
     2
  6
CONTINUOUS
 10
-1.969657
 20
2.670661
  0
VERTEX
  8
PLAN_1
 62
     2
  6
CONTINUOUS
 10
-1.971406
 20
2.671098
  0
VERTEX
  8
PLAN_1
 62
     2
  6
CONTINUOUS
 10
-1.972717
 20
2.671539
  0
VERTEX
  8
PLAN_1
 62
     2
  6
CONTINUOUS
 10
-1.974465
 20
2.672413
  0
VERTEX
  8
PLAN_1
 62
     2
  6
CONTINUOUS
 10
-1.975780
 20
2.672850
  0
VERTEX
  8
PLAN_1
 62
     2
  6
CONTINUOUS
 10
-1.977091
 20
2.673724
  0
VERTEX
  8
PLAN_1
 62
     2
  6
CONTINUOUS
 10
-1.980150
 20
2.675472
  0
VERTEX
  8
PLAN_1
 62
     2
  6
CONTINUOUS
 10
-1.982335
 20
2.677220
  0
VERTEX
  8
PLAN_1
 62
     2
  6
CONTINUOUS
 10
-1.984087
 20
2.679846
  0
VERTEX
  8
PLAN_1
 62
     2
  6
CONTINUOUS
 10
-1.985398
 20
2.682469
  0
VERTEX
  8
PLAN_1
 62
     2
  6
CONTINUOUS
 10
-1.986709
 20
2.685528
  0
VERTEX
  8
PLAN_1
 62
     2
  6
CONTINUOUS
 10
-1.987583
 20
2.688591
  0
VERTEX
  8
PLAN_1
 62
     2
  6
CONTINUOUS
 10
-1.988020
 20
2.691650
  0
VERTEX
  8
PLAN_1
 62
     2
  6
CONTINUOUS
 10
-1.988020
 20
2.694709
  0
VERTEX
  8
PLAN_1
 62
     2
  6
CONTINUOUS
 10
-1.978839
 20
2.694709
  0
VERTEX
  8
PLAN_1
 62
     2
  6
CONTINUOUS
 10
-1.978402
 20
2.692087
  0
VERTEX
  8
PLAN_1
 62
     2
  6
CONTINUOUS
 10
-1.977965
 20
2.689028
  0
VERTEX
  8
PLAN_1
 62
     2
  6
CONTINUOUS
 10
-1.977091
 20
2.686402
  0
VERTEX
  8
PLAN_1
 62
     2
  6
CONTINUOUS
 10
-1.975780
 20
2.684217
  0
VERTEX
  8
PLAN_1
 62
     2
  6
CONTINUOUS
 10
-1.974028
 20
2.681594
  0
VERTEX
  8
PLAN_1
 62
     2
  6
CONTINUOUS
 10
-1.971406
 20
2.679846
  0
VERTEX
  8
PLAN_1
 62
     2
  6
CONTINUOUS
 10
-1.969657
 20
2.679406
  0
VERTEX
  8
PLAN_1
 62
     2
  6
CONTINUOUS
 10
-1.967909
 20
2.678969
  0
VERTEX
  8
PLAN_1
 62
     2
  6
CONTINUOUS
 10
-1.965720
 20
2.678531
  0
VERTEX
  8
PLAN_1
 62
     2
  6
CONTINUOUS
 10
-1.963098
 20
2.678531
  0
VERTEX
  8
PLAN_1
 62
     2
  6
CONTINUOUS
 10
-1.959602
 20
2.678969
  0
VERTEX
  8
PLAN_1
 62
     2
  6
CONTINUOUS
 10
-1.956539
 20
2.679406
  0
VERTEX
  8
PLAN_1
 62
     2
  6
CONTINUOUS
 10
-1.953917
 20
2.680720
  0
VERTEX
  8
PLAN_1
 62
     2
  6
CONTINUOUS
 10
-1.951732
 20
2.682469
  0
VERTEX
  8
PLAN_1
 62
     2
  6
CONTINUOUS
 10
-1.949984
 20
2.684654
  0
VERTEX
  8
PLAN_1
 62
     2
  6
CONTINUOUS
 10
-1.948232
 20
2.686839
  0
VERTEX
  8
PLAN_1
 62
     2
  6
CONTINUOUS
 10
-1.947358
 20
2.689465
  0
VERTEX
  8
PLAN_1
 62
     2
  6
CONTINUOUS
 10
-1.947358
 20
2.692524
  0
VERTEX
  8
PLAN_1
 62
     2
  6
CONTINUOUS
 10
-1.947358
 20
2.694709
  0
VERTEX
  8
PLAN_1
 62
     2
  6
CONTINUOUS
 10
-1.947795
 20
2.696898
  0
VERTEX
  8
PLAN_1
 62
     2
  6
CONTINUOUS
 10
-1.948232
 20
2.698646
  0
VERTEX
  8
PLAN_1
 62
     2
  6
CONTINUOUS
 10
-1.949106
 20
2.699957
  0
VERTEX
  8
PLAN_1
 62
     2
  6
CONTINUOUS
 10
-1.950858
 20
2.702142
  0
VERTEX
  8
PLAN_1
 62
     2
  6
CONTINUOUS
 10
-1.953480
 20
2.703890
  0
VERTEX
  8
PLAN_1
 62
     2
  6
CONTINUOUS
 10
-1.956102
 20
2.705205
  0
VERTEX
  8
PLAN_1
 62
     2
  6
CONTINUOUS
 10
-1.959165
 20
2.705642
  0
VERTEX
  8
PLAN_1
 62
     2
  6
CONTINUOUS
 10
-1.961787
 20
2.706079
  0
VERTEX
  8
PLAN_1
 62
     2
  6
CONTINUOUS
 10
-1.964409
 20
2.706079
  0
VERTEX
  8
PLAN_1
 62
     2
  6
CONTINUOUS
 10
-1.964846
 20
2.706079
  0
VERTEX
  8
PLAN_1
 62
     2
  6
CONTINUOUS
 10
-1.965283
 20
2.706079
  0
VERTEX
  8
PLAN_1
 62
     2
  6
CONTINUOUS
 10
-1.965720
 20
2.706079
  0
VERTEX
  8
PLAN_1
 62
     2
  6
CONTINUOUS
 10
-1.966157
 20
2.706079
  0
VERTEX
  8
PLAN_1
 62
     2
  6
CONTINUOUS
 10
-1.967035
 20
2.706079
  0
VERTEX
  8
PLAN_1
 62
     2
  6
CONTINUOUS
 10
-1.967472
 20
2.706079
  0
VERTEX
  8
PLAN_1
 62
     2
  6
CONTINUOUS
 10
-1.967909
 20
2.706079
  0
VERTEX
  8
PLAN_1
 62
     2
  6
CONTINUOUS
 10
-1.968346
 20
2.706079
  0
VERTEX
  8
PLAN_1
 62
     2
  6
CONTINUOUS
 10
-1.968346
 20
2.713949
  0
SEQEND
  8
0
  0
POLYLINE
  8
PLAN_1
 62
     2
  6
CONTINUOUS
 66
     1
 40
0.004370
 41
0.004370
  0
VERTEX
  8
PLAN_1
 62
     2
  6
CONTINUOUS
 10
0.435465
 20
1.195063
  0
VERTEX
  8
PLAN_1
 62
     2
  6
CONTINUOUS
 10
0.435465
 20
3.217181
  0
SEQEND
  8
0
  0
SOLID
  8
PLAN_1
 62
     2
 10
0.435465
 20
3.246476
 11
0.419724
 21
3.187453
 12
0.435465
 22
3.246476
 13
0.451642
 23
3.187453
  0
POLYLINE
  8
PLAN_1
 62
     2
  6
CONTINUOUS
 66
     1
 40
0.003000
 41
0.003000
  0
VERTEX
  8
PLAN_1
 62
     2
  6
CONTINUOUS
 10
0.435465
 20
3.246476
  0
VERTEX
  8
PLAN_1
 62
     2
  6
CONTINUOUS
 10
0.419724
 20
3.187453
  0
VERTEX
  8
PLAN_1
 62
     2
  6
CONTINUOUS
 10
0.451642
 20
3.187453
  0
VERTEX
  8
PLAN_1
 62
     2
  6
CONTINUOUS
 10
0.435465
 20
3.246476
  0
SEQEND
  8
0
  0
SOLID
  8
PLAN_1
 62
     2
 10
0.435465
 20
1.165768
 11
0.419724
 21
1.224791
 12
0.435465
 22
1.165768
 13
0.451642
 23
1.224791
  0
POLYLINE
  8
PLAN_1
 62
     2
  6
CONTINUOUS
 66
     1
 40
0.003000
 41
0.003000
  0
VERTEX
  8
PLAN_1
 62
     2
  6
CONTINUOUS
 10
0.435465
 20
1.165768
  0
VERTEX
  8
PLAN_1
 62
     2
  6
CONTINUOUS
 10
0.419724
 20
1.224791
  0
VERTEX
  8
PLAN_1
 62
     2
  6
CONTINUOUS
 10
0.451642
 20
1.224791
  0
VERTEX
  8
PLAN_1
 62
     2
  6
CONTINUOUS
 10
0.435465
 20
1.165768
  0
SEQEND
  8
0
  0
POLYLINE
  8
PLAN_1
 62
     2
  6
CONTINUOUS
 66
     1
 40
0.003000
 41
0.003000
  0
VERTEX
  8
PLAN_1
 62
     2
  6
CONTINUOUS
 10
0.369445
 20
2.163492
  0
VERTEX
  8
PLAN_1
 62
     2
  6
CONTINUOUS
 10
0.368571
 20
2.164803
  0
VERTEX
  8
PLAN_1
 62
     2
  6
CONTINUOUS
 10
0.367697
 20
2.166118
  0
VERTEX
  8
PLAN_1
 62
     2
  6
CONTINUOUS
 10
0.366823
 20
2.167429
  0
VERTEX
  8
PLAN_1
 62
     2
  6
CONTINUOUS
 10
0.366386
 20
2.169177
  0
VERTEX
  8
PLAN_1
 62
     2
  6
CONTINUOUS
 10
0.365949
 20
2.170925
  0
VERTEX
  8
PLAN_1
 62
     2
  6
CONTINUOUS
 10
0.365508
 20
2.173110
  0
VERTEX
  8
PLAN_1
 62
     2
  6
CONTINUOUS
 10
0.365071
 20
2.175299
  0
VERTEX
  8
PLAN_1
 62
     2
  6
CONTINUOUS
 10
0.365071
 20
2.177484
  0
VERTEX
  8
PLAN_1
 62
     2
  6
CONTINUOUS
 10
0.365508
 20
2.182295
  0
VERTEX
  8
PLAN_1
 62
     2
  6
CONTINUOUS
 10
0.366386
 20
2.186228
  0
VERTEX
  8
PLAN_1
 62
     2
  6
CONTINUOUS
 10
0.368571
 20
2.190602
  0
VERTEX
  8
PLAN_1
 62
     2
  6
CONTINUOUS
 10
0.371193
 20
2.194098
  0
VERTEX
  8
PLAN_1
 62
     2
  6
CONTINUOUS
 10
0.372504
 20
2.195846
  0
VERTEX
  8
PLAN_1
 62
     2
  6
CONTINUOUS
 10
0.374256
 20
2.197157
  0
VERTEX
  8
PLAN_1
 62
     2
  6
CONTINUOUS
 10
0.376004
 20
2.198472
  0
VERTEX
  8
PLAN_1
 62
     2
  6
CONTINUOUS
 10
0.378189
 20
2.199783
  0
VERTEX
  8
PLAN_1
 62
     2
  6
CONTINUOUS
 10
0.380374
 20
2.200657
  0
VERTEX
  8
PLAN_1
 62
     2
  6
CONTINUOUS
 10
0.383000
 20
2.201094
  0
VERTEX
  8
PLAN_1
 62
     2
  6
CONTINUOUS
 10
0.385622
 20
2.201531
  0
VERTEX
  8
PLAN_1
 62
     2
  6
CONTINUOUS
 10
0.388244
 20
2.201531
  0
VERTEX
  8
PLAN_1
 62
     2
  6
CONTINUOUS
 10
0.391744
 20
2.201531
  0
VERTEX
  8
PLAN_1
 62
     2
  6
CONTINUOUS
 10
0.395677
 20
2.200657
  0
VERTEX
  8
PLAN_1
 62
     2
  6
CONTINUOUS
 10
0.400051
 20
2.199346
  0
VERTEX
  8
PLAN_1
 62
     2
  6
CONTINUOUS
 10
0.404421
 20
2.197157
  0
VERTEX
  8
PLAN_1
 62
     2
  6
CONTINUOUS
 10
0.406169
 20
2.195409
  0
VERTEX
  8
PLAN_1
 62
     2
  6
CONTINUOUS
 10
0.407921
 20
2.193661
  0
VERTEX
  8
PLAN_1
 62
     2
  6
CONTINUOUS
 10
0.409669
 20
2.191476
  0
VERTEX
  8
PLAN_1
 62
     2
  6
CONTINUOUS
 10
0.410980
 20
2.188850
  0
VERTEX
  8
PLAN_1
 62
     2
  6
CONTINUOUS
 10
0.412291
 20
2.186228
  0
VERTEX
  8
PLAN_1
 62
     2
  6
CONTINUOUS
 10
0.413165
 20
2.182732
  0
VERTEX
  8
PLAN_1
 62
     2
  6
CONTINUOUS
 10
0.414039
 20
2.179232
  0
VERTEX
  8
PLAN_1
 62
     2
  6
CONTINUOUS
 10
0.414039
 20
2.175299
  0
VERTEX
  8
PLAN_1
 62
     2
  6
CONTINUOUS
 10
0.414039
 20
2.171362
  0
VERTEX
  8
PLAN_1
 62
     2
  6
CONTINUOUS
 10
0.413165
 20
2.167866
  0
VERTEX
  8
PLAN_1
 62
     2
  6
CONTINUOUS
 10
0.411854
 20
2.163929
  0
VERTEX
  8
PLAN_1
 62
     2
  6
CONTINUOUS
 10
0.410106
 20
2.160433
  0
VERTEX
  8
PLAN_1
 62
     2
  6
CONTINUOUS
 10
0.408795
 20
2.158685
  0
VERTEX
  8
PLAN_1
 62
     2
  6
CONTINUOUS
 10
0.407484
 20
2.157374
  0
VERTEX
  8
PLAN_1
 62
     2
  6
CONTINUOUS
 10
0.405732
 20
2.156059
  0
VERTEX
  8
PLAN_1
 62
     2
  6
CONTINUOUS
 10
0.403984
 20
2.154748
  0
VERTEX
  8
PLAN_1
 62
     2
  6
CONTINUOUS
 10
0.401799
 20
2.153437
  0
VERTEX
  8
PLAN_1
 62
     2
  6
CONTINUOUS
 10
0.399614
 20
2.152563
  0
VERTEX
  8
PLAN_1
 62
     2
  6
CONTINUOUS
 10
0.396551
 20
2.152126
  0
VERTEX
  8
PLAN_1
 62
     2
  6
CONTINUOUS
 10
0.393929
 20
2.151689
  0
VERTEX
  8
PLAN_1
 62
     2
  6
CONTINUOUS
 10
0.393929
 20
2.160870
  0
VERTEX
  8
PLAN_1
 62
     2
  6
CONTINUOUS
 10
0.396988
 20
2.161744
  0
VERTEX
  8
PLAN_1
 62
     2
  6
CONTINUOUS
 10
0.399177
 20
2.162618
  0
VERTEX
  8
PLAN_1
 62
     2
  6
CONTINUOUS
 10
0.401362
 20
2.164366
  0
VERTEX
  8
PLAN_1
 62
     2
  6
CONTINUOUS
 10
0.403110
 20
2.166118
  0
VERTEX
  8
PLAN_1
 62
     2
  6
CONTINUOUS
 10
0.404421
 20
2.168303
  0
VERTEX
  8
PLAN_1
 62
     2
  6
CONTINUOUS
 10
0.405295
 20
2.170925
  0
VERTEX
  8
PLAN_1
 62
     2
  6
CONTINUOUS
 10
0.406169
 20
2.173551
  0
VERTEX
  8
PLAN_1
 62
     2
  6
CONTINUOUS
 10
0.406169
 20
2.176610
  0
VERTEX
  8
PLAN_1
 62
     2
  6
CONTINUOUS
 10
0.405732
 20
2.179669
  0
VERTEX
  8
PLAN_1
 62
     2
  6
CONTINUOUS
 10
0.404858
 20
2.182732
  0
VERTEX
  8
PLAN_1
 62
     2
  6
CONTINUOUS
 10
0.403110
 20
2.185354
  0
VERTEX
  8
PLAN_1
 62
     2
  6
CONTINUOUS
 10
0.401362
 20
2.187976
  0
VERTEX
  8
PLAN_1
 62
     2
  6
CONTINUOUS
 10
0.398736
 20
2.189724
  0
VERTEX
  8
PLAN_1
 62
     2
  6
CONTINUOUS
 10
0.395677
 20
2.191039
  0
VERTEX
  8
PLAN_1
 62
     2
  6
CONTINUOUS
 10
0.392618
 20
2.191476
  0
VERTEX
  8
PLAN_1
 62
     2
  6
CONTINUOUS
 10
0.389555
 20
2.191913
  0
VERTEX
  8
PLAN_1
 62
     2
  6
CONTINUOUS
 10
0.385622
 20
2.191476
  0
VERTEX
  8
PLAN_1
 62
     2
  6
CONTINUOUS
 10
0.382563
 20
2.190602
  0
VERTEX
  8
PLAN_1
 62
     2
  6
CONTINUOUS
 10
0.379500
 20
2.189287
  0
VERTEX
  8
PLAN_1
 62
     2
  6
CONTINUOUS
 10
0.377315
 20
2.187102
  0
VERTEX
  8
PLAN_1
 62
     2
  6
CONTINUOUS
 10
0.375567
 20
2.184917
  0
VERTEX
  8
PLAN_1
 62
     2
  6
CONTINUOUS
 10
0.374256
 20
2.181858
  0
VERTEX
  8
PLAN_1
 62
     2
  6
CONTINUOUS
 10
0.373378
 20
2.178795
  0
VERTEX
  8
PLAN_1
 62
     2
  6
CONTINUOUS
 10
0.372941
 20
2.175736
  0
VERTEX
  8
PLAN_1
 62
     2
  6
CONTINUOUS
 10
0.373378
 20
2.173551
  0
VERTEX
  8
PLAN_1
 62
     2
  6
CONTINUOUS
 10
0.373815
 20
2.171799
  0
VERTEX
  8
PLAN_1
 62
     2
  6
CONTINUOUS
 10
0.374256
 20
2.170051
  0
VERTEX
  8
PLAN_1
 62
     2
  6
CONTINUOUS
 10
0.375130
 20
2.168303
  0
VERTEX
  8
PLAN_1
 62
     2
  6
CONTINUOUS
 10
0.376004
 20
2.166555
  0
VERTEX
  8
PLAN_1
 62
     2
  6
CONTINUOUS
 10
0.377315
 20
2.164803
  0
VERTEX
  8
PLAN_1
 62
     2
  6
CONTINUOUS
 10
0.378626
 20
2.163492
  0
VERTEX
  8
PLAN_1
 62
     2
  6
CONTINUOUS
 10
0.379937
 20
2.162181
  0
VERTEX
  8
PLAN_1
 62
     2
  6
CONTINUOUS
 10
0.379500
 20
2.154311
  0
VERTEX
  8
PLAN_1
 62
     2
  6
CONTINUOUS
 10
0.340587
 20
2.159559
  0
VERTEX
  8
PLAN_1
 62
     2
  6
CONTINUOUS
 10
0.340587
 20
2.197594
  0
VERTEX
  8
PLAN_1
 62
     2
  6
CONTINUOUS
 10
0.349335
 20
2.197594
  0
VERTEX
  8
PLAN_1
 62
     2
  6
CONTINUOUS
 10
0.349335
 20
2.166555
  0
VERTEX
  8
PLAN_1
 62
     2
  6
CONTINUOUS
 10
0.369445
 20
2.163492
  0
SEQEND
  8
0
  0
POLYLINE
  8
PLAN_1
 62
     2
  6
CONTINUOUS
 66
     1
 40
0.003000
 41
0.003000
  0
VERTEX
  8
PLAN_1
 62
     2
  6
CONTINUOUS
 10
0.394366
 20
2.249626
  0
VERTEX
  8
PLAN_1
 62
     2
  6
CONTINUOUS
 10
0.411854
 20
2.249626
  0
VERTEX
  8
PLAN_1
 62
     2
  6
CONTINUOUS
 10
0.411854
 20
2.240445
  0
VERTEX
  8
PLAN_1
 62
     2
  6
CONTINUOUS
 10
0.394366
 20
2.240445
  0
VERTEX
  8
PLAN_1
 62
     2
  6
CONTINUOUS
 10
0.394366
 20
2.208528
  0
VERTEX
  8
PLAN_1
 62
     2
  6
CONTINUOUS
 10
0.385185
 20
2.208528
  0
VERTEX
  8
PLAN_1
 62
     2
  6
CONTINUOUS
 10
0.338839
 20
2.242193
  0
VERTEX
  8
PLAN_1
 62
     2
  6
CONTINUOUS
 10
0.338839
 20
2.249626
  0
VERTEX
  8
PLAN_1
 62
     2
  6
CONTINUOUS
 10
0.386496
 20
2.249626
  0
VERTEX
  8
PLAN_1
 62
     2
  6
CONTINUOUS
 10
0.386496
 20
2.260555
  0
VERTEX
  8
PLAN_1
 62
     2
  6
CONTINUOUS
 10
0.394366
 20
2.260555
  0
VERTEX
  8
PLAN_1
 62
     2
  6
CONTINUOUS
 10
0.394366
 20
2.249626
  0
SEQEND
  8
0
  0
SOLID
  8
PLAN_1
 62
     2
 10
0.386496
 20
2.217272
 11
0.386496
 21
2.240445
 12
0.386496
 22
2.217272
 13
0.353268
 23
2.240445
  0
POLYLINE
  8
PLAN_1
 62
     2
  6
CONTINUOUS
 66
     1
 40
0.003000
 41
0.003000
  0
VERTEX
  8
PLAN_1
 62
     2
  6
CONTINUOUS
 10
0.386496
 20
2.217272
  0
VERTEX
  8
PLAN_1
 62
     2
  6
CONTINUOUS
 10
0.386496
 20
2.240445
  0
VERTEX
  8
PLAN_1
 62
     2
  6
CONTINUOUS
 10
0.353268
 20
2.240445
  0
VERTEX
  8
PLAN_1
 62
     2
  6
CONTINUOUS
 10
0.386496
 20
2.217272
  0
SEQEND
  8
0
  0
SOLID
  8
PLAN_1
 62
     2
 10
-0.906350
 20
3.245602
 11
-0.875744
 21
3.298504
 12
-0.906350
 22
3.245602
 13
-0.853445
 23
3.276205
  0
POLYLINE
  8
PLAN_1
 62
     2
  6
CONTINUOUS
 66
     1
 40
0.003000
 41
0.003000
  0
VERTEX
  8
PLAN_1
 62
     2
  6
CONTINUOUS
 10
-0.906350
 20
3.245602
  0
VERTEX
  8
PLAN_1
 62
     2
  6
CONTINUOUS
 10
-0.875744
 20
3.298504
  0
VERTEX
  8
PLAN_1
 62
     2
  6
CONTINUOUS
 10
-0.853445
 20
3.276205
  0
VERTEX
  8
PLAN_1
 62
     2
  6
CONTINUOUS
 10
-0.906350
 20
3.245602
  0
SEQEND
  8
0
  0
POLYLINE
  8
PLAN_1
 62
     2
  6
CONTINUOUS
 66
     1
 40
0.004370
 41
0.004370
  0
VERTEX
  8
PLAN_1
 62
     2
  6
CONTINUOUS
 10
-0.880118
 20
3.272272
  0
VERTEX
  8
PLAN_1
 62
     2
  6
CONTINUOUS
 10
-0.750264
 20
3.396878
  0
VERTEX
  8
PLAN_1
 62
     2
  6
CONTINUOUS
 10
-0.462138
 20
3.396878
  0
SEQEND
  8
0
  0
POLYLINE
  8
PLAN_1
 62
     2
  6
CONTINUOUS
 66
     1
 40
0.003000
 41
0.003000
  0
VERTEX
  8
PLAN_1
 62
     2
  6
CONTINUOUS
 10
-0.644894
 20
3.484319
  0
VERTEX
  8
PLAN_1
 62
     2
  6
CONTINUOUS
 10
-0.642709
 20
3.481260
  0
VERTEX
  8
PLAN_1
 62
     2
  6
CONTINUOUS
 10
-0.640961
 20
3.478201
  0
VERTEX
  8
PLAN_1
 62
     2
  6
CONTINUOUS
 10
-0.639213
 20
3.474701
  0
VERTEX
  8
PLAN_1
 62
     2
  6
CONTINUOUS
 10
-0.637898
 20
3.471205
  0
VERTEX
  8
PLAN_1
 62
     2
  6
CONTINUOUS
 10
-0.637461
 20
3.467705
  0
VERTEX
  8
PLAN_1
 62
     2
  6
CONTINUOUS
 10
-0.636587
 20
3.464209
  0
VERTEX
  8
PLAN_1
 62
     2
  6
CONTINUOUS
 10
-0.636150
 20
3.460713
  0
VERTEX
  8
PLAN_1
 62
     2
  6
CONTINUOUS
 10
-0.636150
 20
3.457650
  0
VERTEX
  8
PLAN_1
 62
     2
  6
CONTINUOUS
 10
-0.636587
 20
3.451531
  0
VERTEX
  8
PLAN_1
 62
     2
  6
CONTINUOUS
 10
-0.637898
 20
3.444535
  0
VERTEX
  8
PLAN_1
 62
     2
  6
CONTINUOUS
 10
-0.639213
 20
3.441472
  0
VERTEX
  8
PLAN_1
 62
     2
  6
CONTINUOUS
 10
-0.640524
 20
3.437976
  0
VERTEX
  8
PLAN_1
 62
     2
  6
CONTINUOUS
 10
-0.641835
 20
3.434917
  0
VERTEX
  8
PLAN_1
 62
     2
  6
CONTINUOUS
 10
-0.644020
 20
3.431854
  0
VERTEX
  8
PLAN_1
 62
     2
  6
CONTINUOUS
 10
-0.646205
 20
3.429232
  0
VERTEX
  8
PLAN_1
 62
     2
  6
CONTINUOUS
 10
-0.648831
 20
3.426610
  0
VERTEX
  8
PLAN_1
 62
     2
  6
CONTINUOUS
 10
-0.651890
 20
3.424421
  0
VERTEX
  8
PLAN_1
 62
     2
  6
CONTINUOUS
 10
-0.654949
 20
3.422236
  0
VERTEX
  8
PLAN_1
 62
     2
  6
CONTINUOUS
 10
-0.658886
 20
3.420488
  0
VERTEX
  8
PLAN_1
 62
     2
  6
CONTINUOUS
 10
-0.662819
 20
3.419177
  0
VERTEX
  8
PLAN_1
 62
     2
  6
CONTINUOUS
 10
-0.667630
 20
3.418740
  0
VERTEX
  8
PLAN_1
 62
     2
  6
CONTINUOUS
 10
-0.672441
 20
3.418303
  0
VERTEX
  8
PLAN_1
 62
     2
  6
CONTINUOUS
 10
-0.676374
 20
3.418303
  0
VERTEX
  8
PLAN_1
 62
     2
  6
CONTINUOUS
 10
-0.680311
 20
3.419177
  0
VERTEX
  8
PLAN_1
 62
     2
  6
CONTINUOUS
 10
-0.683807
 20
3.419614
  0
VERTEX
  8
PLAN_1
 62
     2
  6
CONTINUOUS
 10
-0.686866
 20
3.420925
  0
VERTEX
  8
PLAN_1
 62
     2
  6
CONTINUOUS
 10
-0.689929
 20
3.422236
  0
VERTEX
  8
PLAN_1
 62
     2
  6
CONTINUOUS
 10
-0.692551
 20
3.423547
  0
VERTEX
  8
PLAN_1
 62
     2
  6
CONTINUOUS
 10
-0.694736
 20
3.425295
  0
VERTEX
  8
PLAN_1
 62
     2
  6
CONTINUOUS
 10
-0.697362
 20
3.427484
  0
VERTEX
  8
PLAN_1
 62
     2
  6
CONTINUOUS
 10
-0.705669
 20
3.418303
  0
VERTEX
  8
PLAN_1
 62
     2
  6
CONTINUOUS
 10
-0.708728
 20
3.421362
  0
VERTEX
  8
PLAN_1
 62
     2
  6
CONTINUOUS
 10
-0.699984
 20
3.430543
  0
VERTEX
  8
PLAN_1
 62
     2
  6
CONTINUOUS
 10
-0.702606
 20
3.433602
  0
VERTEX
  8
PLAN_1
 62
     2
  6
CONTINUOUS
 10
-0.704354
 20
3.437102
  0
VERTEX
  8
PLAN_1
 62
     2
  6
CONTINUOUS
 10
-0.705669
 20
3.440598
  0
VERTEX
  8
PLAN_1
 62
     2
  6
CONTINUOUS
 10
-0.706980
 20
3.444098
  0
VERTEX
  8
PLAN_1
 62
     2
  6
CONTINUOUS
 10
-0.707854
 20
3.447594
  0
VERTEX
  8
PLAN_1
 62
     2
  6
CONTINUOUS
 10
-0.708728
 20
3.451091
  0
VERTEX
  8
PLAN_1
 62
     2
  6
CONTINUOUS
 10
-0.708728
 20
3.454591
  0
VERTEX
  8
PLAN_1
 62
     2
  6
CONTINUOUS
 10
-0.709165
 20
3.457650
  0
VERTEX
  8
PLAN_1
 62
     2
  6
CONTINUOUS
 10
-0.708728
 20
3.460713
  0
VERTEX
  8
PLAN_1
 62
     2
  6
CONTINUOUS
 10
-0.708728
 20
3.464209
  0
VERTEX
  8
PLAN_1
 62
     2
  6
CONTINUOUS
 10
-0.707854
 20
3.467268
  0
VERTEX
  8
PLAN_1
 62
     2
  6
CONTINUOUS
 10
-0.707417
 20
3.470768
  0
VERTEX
  8
PLAN_1
 62
     2
  6
CONTINUOUS
 10
-0.706106
 20
3.473827
  0
VERTEX
  8
PLAN_1
 62
     2
  6
CONTINUOUS
 10
-0.704795
 20
3.477327
  0
VERTEX
  8
PLAN_1
 62
     2
  6
CONTINUOUS
 10
-0.703043
 20
3.480386
  0
VERTEX
  8
PLAN_1
 62
     2
  6
CONTINUOUS
 10
-0.701295
 20
3.483445
  0
VERTEX
  8
PLAN_1
 62
     2
  6
CONTINUOUS
 10
-0.699110
 20
3.486071
  0
VERTEX
  8
PLAN_1
 62
     2
  6
CONTINUOUS
 10
-0.696488
 20
3.488693
  0
VERTEX
  8
PLAN_1
 62
     2
  6
CONTINUOUS
 10
-0.693425
 20
3.491315
  0
VERTEX
  8
PLAN_1
 62
     2
  6
CONTINUOUS
 10
-0.689929
 20
3.493067
  0
VERTEX
  8
PLAN_1
 62
     2
  6
CONTINUOUS
 10
-0.686429
 20
3.494815
  0
VERTEX
  8
PLAN_1
 62
     2
  6
CONTINUOUS
 10
-0.682059
 20
3.496126
  0
VERTEX
  8
PLAN_1
 62
     2
  6
CONTINUOUS
 10
-0.677685
 20
3.496563
  0
VERTEX
  8
PLAN_1
 62
     2
  6
CONTINUOUS
 10
-0.672441
 20
3.497000
  0
VERTEX
  8
PLAN_1
 62
     2
  6
CONTINUOUS
 10
-0.668504
 20
3.497000
  0
VERTEX
  8
PLAN_1
 62
     2
  6
CONTINUOUS
 10
-0.664571
 20
3.496126
  0
VERTEX
  8
PLAN_1
 62
     2
  6
CONTINUOUS
 10
-0.661071
 20
3.495689
  0
VERTEX
  8
PLAN_1
 62
     2
  6
CONTINUOUS
 10
-0.658012
 20
3.494378
  0
VERTEX
  8
PLAN_1
 62
     2
  6
CONTINUOUS
 10
-0.654949
 20
3.493067
  0
VERTEX
  8
PLAN_1
 62
     2
  6
CONTINUOUS
 10
-0.652327
 20
3.491315
  0
VERTEX
  8
PLAN_1
 62
     2
  6
CONTINUOUS
 10
-0.650142
 20
3.489567
  0
VERTEX
  8
PLAN_1
 62
     2
  6
CONTINUOUS
 10
-0.647520
 20
3.487819
  0
VERTEX
  8
PLAN_1
 62
     2
  6
CONTINUOUS
 10
-0.639213
 20
3.497000
  0
VERTEX
  8
PLAN_1
 62
     2
  6
CONTINUOUS
 10
-0.636150
 20
3.493941
  0
VERTEX
  8
PLAN_1
 62
     2
  6
CONTINUOUS
 10
-0.644894
 20
3.484319
  0
SEQEND
  8
0
  0
POLYLINE
  8
PLAN_1
 62
     2
  6
CONTINUOUS
 66
     1
 40
0.003000
 41
0.003000
  0
VERTEX
  8
PLAN_1
 62
     2
  6
CONTINUOUS
 10
-0.690366
 20
3.434476
  0
VERTEX
  8
PLAN_1
 62
     2
  6
CONTINUOUS
 10
-0.688618
 20
3.433165
  0
VERTEX
  8
PLAN_1
 62
     2
  6
CONTINUOUS
 10
-0.686866
 20
3.431417
  0
VERTEX
  8
PLAN_1
 62
     2
  6
CONTINUOUS
 10
-0.684681
 20
3.430106
  0
VERTEX
  8
PLAN_1
 62
     2
  6
CONTINUOUS
 10
-0.682933
 20
3.429232
  0
VERTEX
  8
PLAN_1
 62
     2
  6
CONTINUOUS
 10
-0.680311
 20
3.428358
  0
VERTEX
  8
PLAN_1
 62
     2
  6
CONTINUOUS
 10
-0.678122
 20
3.427921
  0
VERTEX
  8
PLAN_1
 62
     2
  6
CONTINUOUS
 10
-0.675500
 20
3.427484
  0
VERTEX
  8
PLAN_1
 62
     2
  6
CONTINUOUS
 10
-0.672441
 20
3.427484
  0
VERTEX
  8
PLAN_1
 62
     2
  6
CONTINUOUS
 10
-0.669815
 20
3.427484
  0
VERTEX
  8
PLAN_1
 62
     2
  6
CONTINUOUS
 10
-0.666756
 20
3.427921
  0
VERTEX
  8
PLAN_1
 62
     2
  6
CONTINUOUS
 10
-0.664134
 20
3.428795
  0
VERTEX
  8
PLAN_1
 62
     2
  6
CONTINUOUS
 10
-0.661508
 20
3.429669
  0
VERTEX
  8
PLAN_1
 62
     2
  6
CONTINUOUS
 10
-0.659323
 20
3.430980
  0
VERTEX
  8
PLAN_1
 62
     2
  6
CONTINUOUS
 10
-0.657138
 20
3.432291
  0
VERTEX
  8
PLAN_1
 62
     2
  6
CONTINUOUS
 10
-0.655390
 20
3.434039
  0
VERTEX
  8
PLAN_1
 62
     2
  6
CONTINUOUS
 10
-0.653638
 20
3.435791
  0
VERTEX
  8
PLAN_1
 62
     2
  6
CONTINUOUS
 10
-0.651890
 20
3.437976
  0
VERTEX
  8
PLAN_1
 62
     2
  6
CONTINUOUS
 10
-0.650579
 20
3.440161
  0
VERTEX
  8
PLAN_1
 62
     2
  6
CONTINUOUS
 10
-0.649268
 20
3.442783
  0
VERTEX
  8
PLAN_1
 62
     2
  6
CONTINUOUS
 10
-0.648394
 20
3.445409
  0
VERTEX
  8
PLAN_1
 62
     2
  6
CONTINUOUS
 10
-0.647520
 20
3.448469
  0
VERTEX
  8
PLAN_1
 62
     2
  6
CONTINUOUS
 10
-0.647083
 20
3.451531
  0
VERTEX
  8
PLAN_1
 62
     2
  6
CONTINUOUS
 10
-0.646642
 20
3.454591
  0
VERTEX
  8
PLAN_1
 62
     2
  6
CONTINUOUS
 10
-0.646642
 20
3.457650
  0
VERTEX
  8
PLAN_1
 62
     2
  6
CONTINUOUS
 10
-0.646642
 20
3.460276
  0
VERTEX
  8
PLAN_1
 62
     2
  6
CONTINUOUS
 10
-0.647083
 20
3.463335
  0
VERTEX
  8
PLAN_1
 62
     2
  6
CONTINUOUS
 10
-0.647520
 20
3.465520
  0
VERTEX
  8
PLAN_1
 62
     2
  6
CONTINUOUS
 10
-0.647957
 20
3.468146
  0
VERTEX
  8
PLAN_1
 62
     2
  6
CONTINUOUS
 10
-0.648831
 20
3.470331
  0
VERTEX
  8
PLAN_1
 62
     2
  6
CONTINUOUS
 10
-0.649705
 20
3.472953
  0
VERTEX
  8
PLAN_1
 62
     2
  6
CONTINUOUS
 10
-0.650579
 20
3.474701
  0
VERTEX
  8
PLAN_1
 62
     2
  6
CONTINUOUS
 10
-0.651890
 20
3.476890
  0
VERTEX
  8
PLAN_1
 62
     2
  6
CONTINUOUS
 10
-0.690366
 20
3.434476
  0
SEQEND
  8
0
  0
POLYLINE
  8
PLAN_1
 62
     2
  6
CONTINUOUS
 66
     1
 40
0.003000
 41
0.003000
  0
VERTEX
  8
PLAN_1
 62
     2
  6
CONTINUOUS
 10
-0.654512
 20
3.480386
  0
VERTEX
  8
PLAN_1
 62
     2
  6
CONTINUOUS
 10
-0.656264
 20
3.482134
  0
VERTEX
  8
PLAN_1
 62
     2
  6
CONTINUOUS
 10
-0.658012
 20
3.483445
  0
VERTEX
  8
PLAN_1
 62
     2
  6
CONTINUOUS
 10
-0.660197
 20
3.484760
  0
VERTEX
  8
PLAN_1
 62
     2
  6
CONTINUOUS
 10
-0.662382
 20
3.486071
  0
VERTEX
  8
PLAN_1
 62
     2
  6
CONTINUOUS
 10
-0.664571
 20
3.486945
  0
VERTEX
  8
PLAN_1
 62
     2
  6
CONTINUOUS
 10
-0.667193
 20
3.487382
  0
VERTEX
  8
PLAN_1
 62
     2
  6
CONTINUOUS
 10
-0.669815
 20
3.487819
  0
VERTEX
  8
PLAN_1
 62
     2
  6
CONTINUOUS
 10
-0.672441
 20
3.488256
  0
VERTEX
  8
PLAN_1
 62
     2
  6
CONTINUOUS
 10
-0.675500
 20
3.487819
  0
VERTEX
  8
PLAN_1
 62
     2
  6
CONTINUOUS
 10
-0.678559
 20
3.487382
  0
VERTEX
  8
PLAN_1
 62
     2
  6
CONTINUOUS
 10
-0.681185
 20
3.486945
  0
VERTEX
  8
PLAN_1
 62
     2
  6
CONTINUOUS
 10
-0.683370
 20
3.485634
  0
VERTEX
  8
PLAN_1
 62
     2
  6
CONTINUOUS
 10
-0.685992
 20
3.484760
  0
VERTEX
  8
PLAN_1
 62
     2
  6
CONTINUOUS
 10
-0.688181
 20
3.483008
  0
VERTEX
  8
PLAN_1
 62
     2
  6
CONTINUOUS
 10
-0.689929
 20
3.481260
  0
VERTEX
  8
PLAN_1
 62
     2
  6
CONTINUOUS
 10
-0.691677
 20
3.479512
  0
VERTEX
  8
PLAN_1
 62
     2
  6
CONTINUOUS
 10
-0.693425
 20
3.477327
  0
VERTEX
  8
PLAN_1
 62
     2
  6
CONTINUOUS
 10
-0.694736
 20
3.475138
  0
VERTEX
  8
PLAN_1
 62
     2
  6
CONTINUOUS
 10
-0.696047
 20
3.472516
  0
VERTEX
  8
PLAN_1
 62
     2
  6
CONTINUOUS
 10
-0.696925
 20
3.469894
  0
VERTEX
  8
PLAN_1
 62
     2
  6
CONTINUOUS
 10
-0.697799
 20
3.466831
  0
VERTEX
  8
PLAN_1
 62
     2
  6
CONTINUOUS
 10
-0.698236
 20
3.464209
  0
VERTEX
  8
PLAN_1
 62
     2
  6
CONTINUOUS
 10
-0.698673
 20
3.460713
  0
VERTEX
  8
PLAN_1
 62
     2
  6
CONTINUOUS
 10
-0.698673
 20
3.457650
  0
VERTEX
  8
PLAN_1
 62
     2
  6
CONTINUOUS
 10
-0.698673
 20
3.455028
  0
VERTEX
  8
PLAN_1
 62
     2
  6
CONTINUOUS
 10
-0.698236
 20
3.451969
  0
VERTEX
  8
PLAN_1
 62
     2
  6
CONTINUOUS
 10
-0.697799
 20
3.449343
  0
VERTEX
  8
PLAN_1
 62
     2
  6
CONTINUOUS
 10
-0.697362
 20
3.447157
  0
VERTEX
  8
PLAN_1
 62
     2
  6
CONTINUOUS
 10
-0.696488
 20
3.444535
  0
VERTEX
  8
PLAN_1
 62
     2
  6
CONTINUOUS
 10
-0.695610
 20
3.442346
  0
VERTEX
  8
PLAN_1
 62
     2
  6
CONTINUOUS
 10
-0.694736
 20
3.440161
  0
VERTEX
  8
PLAN_1
 62
     2
  6
CONTINUOUS
 10
-0.693425
 20
3.437976
  0
VERTEX
  8
PLAN_1
 62
     2
  6
CONTINUOUS
 10
-0.654512
 20
3.480386
  0
SEQEND
  8
0
  0
POLYLINE
  8
PLAN_1
 62
     2
  6
CONTINUOUS
 66
     1
 40
0.003000
 41
0.003000
  0
VERTEX
  8
PLAN_1
 62
     2
  6
CONTINUOUS
 10
-0.627406
 20
3.467268
  0
VERTEX
  8
PLAN_1
 62
     2
  6
CONTINUOUS
 10
-0.627406
 20
3.471642
  0
VERTEX
  8
PLAN_1
 62
     2
  6
CONTINUOUS
 10
-0.626531
 20
3.475138
  0
VERTEX
  8
PLAN_1
 62
     2
  6
CONTINUOUS
 10
-0.625657
 20
3.478638
  0
VERTEX
  8
PLAN_1
 62
     2
  6
CONTINUOUS
 10
-0.624783
 20
3.481260
  0
VERTEX
  8
PLAN_1
 62
     2
  6
CONTINUOUS
 10
-0.623035
 20
3.483882
  0
VERTEX
  8
PLAN_1
 62
     2
  6
CONTINUOUS
 10
-0.621720
 20
3.486071
  0
VERTEX
  8
PLAN_1
 62
     2
  6
CONTINUOUS
 10
-0.619972
 20
3.487819
  0
VERTEX
  8
PLAN_1
 62
     2
  6
CONTINUOUS
 10
-0.617787
 20
3.489130
  0
VERTEX
  8
PLAN_1
 62
     2
  6
CONTINUOUS
 10
-0.613854
 20
3.491315
  0
VERTEX
  8
PLAN_1
 62
     2
  6
CONTINUOUS
 10
-0.609480
 20
3.492626
  0
VERTEX
  8
PLAN_1
 62
     2
  6
CONTINUOUS
 10
-0.605547
 20
3.493504
  0
VERTEX
  8
PLAN_1
 62
     2
  6
CONTINUOUS
 10
-0.602047
 20
3.493504
  0
VERTEX
  8
PLAN_1
 62
     2
  6
CONTINUOUS
 10
-0.597677
 20
3.493067
  0
VERTEX
  8
PLAN_1
 62
     2
  6
CONTINUOUS
 10
-0.593303
 20
3.491752
  0
VERTEX
  8
PLAN_1
 62
     2
  6
CONTINUOUS
 10
-0.589370
 20
3.490004
  0
VERTEX
  8
PLAN_1
 62
     2
  6
CONTINUOUS
 10
-0.585870
 20
3.487819
  0
VERTEX
  8
PLAN_1
 62
     2
  6
CONTINUOUS
 10
-0.584559
 20
3.486071
  0
VERTEX
  8
PLAN_1
 62
     2
  6
CONTINUOUS
 10
-0.583248
 20
3.484319
  0
VERTEX
  8
PLAN_1
 62
     2
  6
CONTINUOUS
 10
-0.581937
 20
3.482571
  0
VERTEX
  8
PLAN_1
 62
     2
  6
CONTINUOUS
 10
-0.581063
 20
3.480823
  0
VERTEX
  8
PLAN_1
 62
     2
  6
CONTINUOUS
 10
-0.580185
 20
3.478638
  0
VERTEX
  8
PLAN_1
 62
     2
  6
CONTINUOUS
 10
-0.579748
 20
3.476453
  0
VERTEX
  8
PLAN_1
 62
     2
  6
CONTINUOUS
 10
-0.579311
 20
3.474264
  0
VERTEX
  8
PLAN_1
 62
     2
  6
CONTINUOUS
 10
-0.579311
 20
3.471642
  0
VERTEX
  8
PLAN_1
 62
     2
  6
CONTINUOUS
 10
-0.579748
 20
3.466831
  0
VERTEX
  8
PLAN_1
 62
     2
  6
CONTINUOUS
 10
-0.580626
 20
3.462898
  0
VERTEX
  8
PLAN_1
 62
     2
  6
CONTINUOUS
 10
-0.582811
 20
3.459839
  0
VERTEX
  8
PLAN_1
 62
     2
  6
CONTINUOUS
 10
-0.584996
 20
3.456776
  0
VERTEX
  8
PLAN_1
 62
     2
  6
CONTINUOUS
 10
-0.588055
 20
3.454154
  0
VERTEX
  8
PLAN_1
 62
     2
  6
CONTINUOUS
 10
-0.591118
 20
3.451531
  0
VERTEX
  8
PLAN_1
 62
     2
  6
CONTINUOUS
 10
-0.595051
 20
3.449343
  0
VERTEX
  8
PLAN_1
 62
     2
  6
CONTINUOUS
 10
-0.598988
 20
3.447157
  0
VERTEX
  8
PLAN_1
 62
     2
  6
CONTINUOUS
 10
-0.606421
 20
3.443224
  0
VERTEX
  8
PLAN_1
 62
     2
  6
CONTINUOUS
 10
-0.609917
 20
3.441035
  0
VERTEX
  8
PLAN_1
 62
     2
  6
CONTINUOUS
 10
-0.612539
 20
3.438850
  0
VERTEX
  8
PLAN_1
 62
     2
  6
CONTINUOUS
 10
-0.614728
 20
3.436665
  0
VERTEX
  8
PLAN_1
 62
     2
  6
CONTINUOUS
 10
-0.616476
 20
3.434917
  0
VERTEX
  8
PLAN_1
 62
     2
  6
CONTINUOUS
 10
-0.617350
 20
3.433165
  0
VERTEX
  8
PLAN_1
 62
     2
  6
CONTINUOUS
 10
-0.618224
 20
3.431417
  0
VERTEX
  8
PLAN_1
 62
     2
  6
CONTINUOUS
 10
-0.618661
 20
3.430106
  0
VERTEX
  8
PLAN_1
 62
     2
  6
CONTINUOUS
 10
-0.619098
 20
3.428795
  0
VERTEX
  8
PLAN_1
 62
     2
  6
CONTINUOUS
 10
-0.579311
 20
3.428795
  0
VERTEX
  8
PLAN_1
 62
     2
  6
CONTINUOUS
 10
-0.579311
 20
3.420488
  0
VERTEX
  8
PLAN_1
 62
     2
  6
CONTINUOUS
 10
-0.629154
 20
3.420488
  0
VERTEX
  8
PLAN_1
 62
     2
  6
CONTINUOUS
 10
-0.628717
 20
3.425732
  0
VERTEX
  8
PLAN_1
 62
     2
  6
CONTINUOUS
 10
-0.627843
 20
3.430543
  0
VERTEX
  8
PLAN_1
 62
     2
  6
CONTINUOUS
 10
-0.626094
 20
3.434476
  0
VERTEX
  8
PLAN_1
 62
     2
  6
CONTINUOUS
 10
-0.624346
 20
3.438413
  0
VERTEX
  8
PLAN_1
 62
     2
  6
CONTINUOUS
 10
-0.621720
 20
3.441472
  0
VERTEX
  8
PLAN_1
 62
     2
  6
CONTINUOUS
 10
-0.619098
 20
3.444535
  0
VERTEX
  8
PLAN_1
 62
     2
  6
CONTINUOUS
 10
-0.615602
 20
3.447157
  0
VERTEX
  8
PLAN_1
 62
     2
  6
CONTINUOUS
 10
-0.612102
 20
3.449343
  0
VERTEX
  8
PLAN_1
 62
     2
  6
CONTINUOUS
 10
-0.602484
 20
3.455028
  0
VERTEX
  8
PLAN_1
 62
     2
  6
CONTINUOUS
 10
-0.599862
 20
3.456776
  0
VERTEX
  8
PLAN_1
 62
     2
  6
CONTINUOUS
 10
-0.597240
 20
3.458087
  0
VERTEX
  8
PLAN_1
 62
     2
  6
CONTINUOUS
 10
-0.595051
 20
3.459839
  0
VERTEX
  8
PLAN_1
 62
     2
  6
CONTINUOUS
 10
-0.592866
 20
3.461587
  0
VERTEX
  8
PLAN_1
 62
     2
  6
CONTINUOUS
 10
-0.591118
 20
3.463772
  0
VERTEX
  8
PLAN_1
 62
     2
  6
CONTINUOUS
 10
-0.590244
 20
3.465957
  0
VERTEX
  8
PLAN_1
 62
     2
  6
CONTINUOUS
 10
-0.589370
 20
3.468583
  0
VERTEX
  8
PLAN_1
 62
     2
  6
CONTINUOUS
 10
-0.588933
 20
3.472079
  0
VERTEX
  8
PLAN_1
 62
     2
  6
CONTINUOUS
 10
-0.589370
 20
3.474264
  0
VERTEX
  8
PLAN_1
 62
     2
  6
CONTINUOUS
 10
-0.589807
 20
3.476453
  0
VERTEX
  8
PLAN_1
 62
     2
  6
CONTINUOUS
 10
-0.590681
 20
3.478638
  0
VERTEX
  8
PLAN_1
 62
     2
  6
CONTINUOUS
 10
-0.592429
 20
3.480823
  0
VERTEX
  8
PLAN_1
 62
     2
  6
CONTINUOUS
 10
-0.594177
 20
3.482571
  0
VERTEX
  8
PLAN_1
 62
     2
  6
CONTINUOUS
 10
-0.596799
 20
3.483882
  0
VERTEX
  8
PLAN_1
 62
     2
  6
CONTINUOUS
 10
-0.599862
 20
3.484760
  0
VERTEX
  8
PLAN_1
 62
     2
  6
CONTINUOUS
 10
-0.603358
 20
3.485197
  0
VERTEX
  8
PLAN_1
 62
     2
  6
CONTINUOUS
 10
-0.605984
 20
3.485197
  0
VERTEX
  8
PLAN_1
 62
     2
  6
CONTINUOUS
 10
-0.608169
 20
3.484760
  0
VERTEX
  8
PLAN_1
 62
     2
  6
CONTINUOUS
 10
-0.609917
 20
3.483882
  0
VERTEX
  8
PLAN_1
 62
     2
  6
CONTINUOUS
 10
-0.611665
 20
3.483008
  0
VERTEX
  8
PLAN_1
 62
     2
  6
CONTINUOUS
 10
-0.612976
 20
3.482134
  0
VERTEX
  8
PLAN_1
 62
     2
  6
CONTINUOUS
 10
-0.614291
 20
3.480823
  0
VERTEX
  8
PLAN_1
 62
     2
  6
CONTINUOUS
 10
-0.615165
 20
3.479512
  0
VERTEX
  8
PLAN_1
 62
     2
  6
CONTINUOUS
 10
-0.616039
 20
3.478201
  0
VERTEX
  8
PLAN_1
 62
     2
  6
CONTINUOUS
 10
-0.617350
 20
3.475138
  0
VERTEX
  8
PLAN_1
 62
     2
  6
CONTINUOUS
 10
-0.617787
 20
3.472079
  0
VERTEX
  8
PLAN_1
 62
     2
  6
CONTINUOUS
 10
-0.618224
 20
3.469457
  0
VERTEX
  8
PLAN_1
 62
     2
  6
CONTINUOUS
 10
-0.618224
 20
3.467268
  0
VERTEX
  8
PLAN_1
 62
     2
  6
CONTINUOUS
 10
-0.627406
 20
3.467268
  0
SEQEND
  8
0
  0
POLYLINE
  8
PLAN_1
 62
     2
  6
CONTINUOUS
 66
     1
 40
0.003000
 41
0.003000
  0
VERTEX
  8
PLAN_1
 62
     2
  6
CONTINUOUS
 10
-0.545209
 20
3.418303
  0
VERTEX
  8
PLAN_1
 62
     2
  6
CONTINUOUS
 10
-0.549146
 20
3.418740
  0
VERTEX
  8
PLAN_1
 62
     2
  6
CONTINUOUS
 10
-0.552205
 20
3.419177
  0
VERTEX
  8
PLAN_1
 62
     2
  6
CONTINUOUS
 10
-0.555264
 20
3.420488
  0
VERTEX
  8
PLAN_1
 62
     2
  6
CONTINUOUS
 10
-0.557890
 20
3.422236
  0
VERTEX
  8
PLAN_1
 62
     2
  6
CONTINUOUS
 10
-0.560512
 20
3.423984
  0
VERTEX
  8
PLAN_1
 62
     2
  6
CONTINUOUS
 10
-0.562260
 20
3.426169
  0
VERTEX
  8
PLAN_1
 62
     2
  6
CONTINUOUS
 10
-0.564012
 20
3.428795
  0
VERTEX
  8
PLAN_1
 62
     2
  6
CONTINUOUS
 10
-0.565760
 20
3.431417
  0
VERTEX
  8
PLAN_1
 62
     2
  6
CONTINUOUS
 10
-0.567071
 20
3.434476
  0
VERTEX
  8
PLAN_1
 62
     2
  6
CONTINUOUS
 10
-0.567945
 20
3.437539
  0
VERTEX
  8
PLAN_1
 62
     2
  6
CONTINUOUS
 10
-0.568819
 20
3.440598
  0
VERTEX
  8
PLAN_1
 62
     2
  6
CONTINUOUS
 10
-0.569256
 20
3.443661
  0
VERTEX
  8
PLAN_1
 62
     2
  6
CONTINUOUS
 10
-0.570130
 20
3.449780
  0
VERTEX
  8
PLAN_1
 62
     2
  6
CONTINUOUS
 10
-0.570130
 20
3.455902
  0
VERTEX
  8
PLAN_1
 62
     2
  6
CONTINUOUS
 10
-0.570130
 20
3.462024
  0
VERTEX
  8
PLAN_1
 62
     2
  6
CONTINUOUS
 10
-0.569256
 20
3.468146
  0
VERTEX
  8
PLAN_1
 62
     2
  6
CONTINUOUS
 10
-0.568819
 20
3.471205
  0
VERTEX
  8
PLAN_1
 62
     2
  6
CONTINUOUS
 10
-0.567945
 20
3.474264
  0
VERTEX
  8
PLAN_1
 62
     2
  6
CONTINUOUS
 10
-0.567071
 20
3.477327
  0
VERTEX
  8
PLAN_1
 62
     2
  6
CONTINUOUS
 10
-0.565760
 20
3.480386
  0
VERTEX
  8
PLAN_1
 62
     2
  6
CONTINUOUS
 10
-0.564012
 20
3.483008
  0
VERTEX
  8
PLAN_1
 62
     2
  6
CONTINUOUS
 10
-0.562260
 20
3.485634
  0
VERTEX
  8
PLAN_1
 62
     2
  6
CONTINUOUS
 10
-0.560512
 20
3.487819
  0
VERTEX
  8
PLAN_1
 62
     2
  6
CONTINUOUS
 10
-0.557890
 20
3.489567
  0
VERTEX
  8
PLAN_1
 62
     2
  6
CONTINUOUS
 10
-0.555264
 20
3.491315
  0
VERTEX
  8
PLAN_1
 62
     2
  6
CONTINUOUS
 10
-0.552205
 20
3.492626
  0
VERTEX
  8
PLAN_1
 62
     2
  6
CONTINUOUS
 10
-0.549146
 20
3.493067
  0
VERTEX
  8
PLAN_1
 62
     2
  6
CONTINUOUS
 10
-0.545209
 20
3.493504
  0
VERTEX
  8
PLAN_1
 62
     2
  6
CONTINUOUS
 10
-0.541713
 20
3.493067
  0
VERTEX
  8
PLAN_1
 62
     2
  6
CONTINUOUS
 10
-0.538213
 20
3.492626
  0
VERTEX
  8
PLAN_1
 62
     2
  6
CONTINUOUS
 10
-0.535154
 20
3.491315
  0
VERTEX
  8
PLAN_1
 62
     2
  6
CONTINUOUS
 10
-0.532531
 20
3.489567
  0
VERTEX
  8
PLAN_1
 62
     2
  6
CONTINUOUS
 10
-0.529906
 20
3.487819
  0
VERTEX
  8
PLAN_1
 62
     2
  6
CONTINUOUS
 10
-0.528157
 20
3.485634
  0
VERTEX
  8
PLAN_1
 62
     2
  6
CONTINUOUS
 10
-0.526409
 20
3.483008
  0
VERTEX
  8
PLAN_1
 62
     2
  6
CONTINUOUS
 10
-0.524661
 20
3.480386
  0
VERTEX
  8
PLAN_1
 62
     2
  6
CONTINUOUS
 10
-0.523787
 20
3.477327
  0
VERTEX
  8
PLAN_1
 62
     2
  6
CONTINUOUS
 10
-0.522476
 20
3.474264
  0
VERTEX
  8
PLAN_1
 62
     2
  6
CONTINUOUS
 10
-0.521598
 20
3.471205
  0
VERTEX
  8
PLAN_1
 62
     2
  6
CONTINUOUS
 10
-0.521161
 20
3.468146
  0
VERTEX
  8
PLAN_1
 62
     2
  6
CONTINUOUS
 10
-0.520287
 20
3.462024
  0
VERTEX
  8
PLAN_1
 62
     2
  6
CONTINUOUS
 10
-0.520287
 20
3.455902
  0
VERTEX
  8
PLAN_1
 62
     2
  6
CONTINUOUS
 10
-0.520287
 20
3.449780
  0
VERTEX
  8
PLAN_1
 62
     2
  6
CONTINUOUS
 10
-0.521161
 20
3.443661
  0
VERTEX
  8
PLAN_1
 62
     2
  6
CONTINUOUS
 10
-0.521598
 20
3.440598
  0
VERTEX
  8
PLAN_1
 62
     2
  6
CONTINUOUS
 10
-0.522476
 20
3.437539
  0
VERTEX
  8
PLAN_1
 62
     2
  6
CONTINUOUS
 10
-0.523787
 20
3.434476
  0
VERTEX
  8
PLAN_1
 62
     2
  6
CONTINUOUS
 10
-0.524661
 20
3.431417
  0
VERTEX
  8
PLAN_1
 62
     2
  6
CONTINUOUS
 10
-0.526409
 20
3.428795
  0
VERTEX
  8
PLAN_1
 62
     2
  6
CONTINUOUS
 10
-0.528157
 20
3.426169
  0
VERTEX
  8
PLAN_1
 62
     2
  6
CONTINUOUS
 10
-0.529906
 20
3.423984
  0
VERTEX
  8
PLAN_1
 62
     2
  6
CONTINUOUS
 10
-0.532531
 20
3.422236
  0
VERTEX
  8
PLAN_1
 62
     2
  6
CONTINUOUS
 10
-0.535154
 20
3.420488
  0
VERTEX
  8
PLAN_1
 62
     2
  6
CONTINUOUS
 10
-0.538213
 20
3.419177
  0
VERTEX
  8
PLAN_1
 62
     2
  6
CONTINUOUS
 10
-0.541713
 20
3.418740
  0
VERTEX
  8
PLAN_1
 62
     2
  6
CONTINUOUS
 10
-0.545209
 20
3.418303
  0
SEQEND
  8
0
  0
POLYLINE
  8
PLAN_1
 62
     2
  6
CONTINUOUS
 66
     1
 40
0.003000
 41
0.003000
  0
VERTEX
  8
PLAN_1
 62
     2
  6
CONTINUOUS
 10
-0.545209
 20
3.485197
  0
VERTEX
  8
PLAN_1
 62
     2
  6
CONTINUOUS
 10
-0.546957
 20
3.485197
  0
VERTEX
  8
PLAN_1
 62
     2
  6
CONTINUOUS
 10
-0.548709
 20
3.484760
  0
VERTEX
  8
PLAN_1
 62
     2
  6
CONTINUOUS
 10
-0.550457
 20
3.483882
  0
VERTEX
  8
PLAN_1
 62
     2
  6
CONTINUOUS
 10
-0.552205
 20
3.483445
  0
VERTEX
  8
PLAN_1
 62
     2
  6
CONTINUOUS
 10
-0.553516
 20
3.482134
  0
VERTEX
  8
PLAN_1
 62
     2
  6
CONTINUOUS
 10
-0.554827
 20
3.480823
  0
VERTEX
  8
PLAN_1
 62
     2
  6
CONTINUOUS
 10
-0.555705
 20
3.479075
  0
VERTEX
  8
PLAN_1
 62
     2
  6
CONTINUOUS
 10
-0.557016
 20
3.477327
  0
VERTEX
  8
PLAN_1
 62
     2
  6
CONTINUOUS
 10
-0.558327
 20
3.473390
  0
VERTEX
  8
PLAN_1
 62
     2
  6
CONTINUOUS
 10
-0.559638
 20
3.468146
  0
VERTEX
  8
PLAN_1
 62
     2
  6
CONTINUOUS
 10
-0.560512
 20
3.462461
  0
VERTEX
  8
PLAN_1
 62
     2
  6
CONTINUOUS
 10
-0.560512
 20
3.455902
  0
VERTEX
  8
PLAN_1
 62
     2
  6
CONTINUOUS
 10
-0.560512
 20
3.449343
  0
VERTEX
  8
PLAN_1
 62
     2
  6
CONTINUOUS
 10
-0.559638
 20
3.443661
  0
VERTEX
  8
PLAN_1
 62
     2
  6
CONTINUOUS
 10
-0.558327
 20
3.438413
  0
VERTEX
  8
PLAN_1
 62
     2
  6
CONTINUOUS
 10
-0.557016
 20
3.434476
  0
VERTEX
  8
PLAN_1
 62
     2
  6
CONTINUOUS
 10
-0.555705
 20
3.432728
  0
VERTEX
  8
PLAN_1
 62
     2
  6
CONTINUOUS
 10
-0.554827
 20
3.430980
  0
VERTEX
  8
PLAN_1
 62
     2
  6
CONTINUOUS
 10
-0.553516
 20
3.429669
  0
VERTEX
  8
PLAN_1
 62
     2
  6
CONTINUOUS
 10
-0.552205
 20
3.428795
  0
VERTEX
  8
PLAN_1
 62
     2
  6
CONTINUOUS
 10
-0.550457
 20
3.427921
  0
VERTEX
  8
PLAN_1
 62
     2
  6
CONTINUOUS
 10
-0.548709
 20
3.427047
  0
VERTEX
  8
PLAN_1
 62
     2
  6
CONTINUOUS
 10
-0.546957
 20
3.426610
  0
VERTEX
  8
PLAN_1
 62
     2
  6
CONTINUOUS
 10
-0.545209
 20
3.426610
  0
VERTEX
  8
PLAN_1
 62
     2
  6
CONTINUOUS
 10
-0.543461
 20
3.426610
  0
VERTEX
  8
PLAN_1
 62
     2
  6
CONTINUOUS
 10
-0.541713
 20
3.427047
  0
VERTEX
  8
PLAN_1
 62
     2
  6
CONTINUOUS
 10
-0.539965
 20
3.427921
  0
VERTEX
  8
PLAN_1
 62
     2
  6
CONTINUOUS
 10
-0.538213
 20
3.428795
  0
VERTEX
  8
PLAN_1
 62
     2
  6
CONTINUOUS
 10
-0.536902
 20
3.429669
  0
VERTEX
  8
PLAN_1
 62
     2
  6
CONTINUOUS
 10
-0.535591
 20
3.430980
  0
VERTEX
  8
PLAN_1
 62
     2
  6
CONTINUOUS
 10
-0.534717
 20
3.432728
  0
VERTEX
  8
PLAN_1
 62
     2
  6
CONTINUOUS
 10
-0.533843
 20
3.434476
  0
VERTEX
  8
PLAN_1
 62
     2
  6
CONTINUOUS
 10
-0.532094
 20
3.438413
  0
VERTEX
  8
PLAN_1
 62
     2
  6
CONTINUOUS
 10
-0.530783
 20
3.443661
  0
VERTEX
  8
PLAN_1
 62
     2
  6
CONTINUOUS
 10
-0.530343
 20
3.449343
  0
VERTEX
  8
PLAN_1
 62
     2
  6
CONTINUOUS
 10
-0.529906
 20
3.455902
  0
VERTEX
  8
PLAN_1
 62
     2
  6
CONTINUOUS
 10
-0.530343
 20
3.462461
  0
VERTEX
  8
PLAN_1
 62
     2
  6
CONTINUOUS
 10
-0.530783
 20
3.468146
  0
VERTEX
  8
PLAN_1
 62
     2
  6
CONTINUOUS
 10
-0.532094
 20
3.473390
  0
VERTEX
  8
PLAN_1
 62
     2
  6
CONTINUOUS
 10
-0.533843
 20
3.477327
  0
VERTEX
  8
PLAN_1
 62
     2
  6
CONTINUOUS
 10
-0.534717
 20
3.479075
  0
VERTEX
  8
PLAN_1
 62
     2
  6
CONTINUOUS
 10
-0.535591
 20
3.480823
  0
VERTEX
  8
PLAN_1
 62
     2
  6
CONTINUOUS
 10
-0.536902
 20
3.482134
  0
VERTEX
  8
PLAN_1
 62
     2
  6
CONTINUOUS
 10
-0.538213
 20
3.483445
  0
VERTEX
  8
PLAN_1
 62
     2
  6
CONTINUOUS
 10
-0.539965
 20
3.483882
  0
VERTEX
  8
PLAN_1
 62
     2
  6
CONTINUOUS
 10
-0.541713
 20
3.484760
  0
VERTEX
  8
PLAN_1
 62
     2
  6
CONTINUOUS
 10
-0.543461
 20
3.485197
  0
VERTEX
  8
PLAN_1
 62
     2
  6
CONTINUOUS
 10
-0.545209
 20
3.485197
  0
SEQEND
  8
0
  0
POLYLINE
  8
PLAN_1
  6
CONTINUOUS
 66
     1
 40
0.004370
 41
0.004370
  0
VERTEX
  8
PLAN_1
  6
CONTINUOUS
 10
0.459512
 20
1.165768
  0
VERTEX
  8
PLAN_1
  6
CONTINUOUS
 10
0.128102
 20
1.165768
  0
SEQEND
  8
0
  0
POLYLINE
  8
PLAN_1
 62
     2
  6
CONTINUOUS
 66
     1
 40
0.004370
 41
0.004370
  0
VERTEX
  8
PLAN_1
 62
     2
  6
CONTINUOUS
 10
-0.833772
 20
3.246476
  0
VERTEX
  8
PLAN_1
 62
     2
  6
CONTINUOUS
 10
0.459512
 20
3.246476
  0
SEQEND
  8
0
  0
POLYLINE
  8
PLAN_1
 62
     2
  6
CONTINUOUS
 66
     1
 40
0.004370
 41
0.004370
  0
VERTEX
  8
PLAN_1
 62
     2
  6
CONTINUOUS
 10
-2.203130
 20
2.672413
  0
VERTEX
  8
PLAN_1
 62
     2
  6
CONTINUOUS
 10
-2.203130
 20
2.324390
  0
SEQEND
  8
0
  0
POLYLINE
  8
PLAN_1
 62
     2
  6
CONTINUOUS
 66
     1
 40
0.004370
 41
0.004370
  0
VERTEX
  8
PLAN_1
 62
     2
  6
CONTINUOUS
 10
-1.780343
 20
2.670224
  0
VERTEX
  8
PLAN_1
 62
     2
  6
CONTINUOUS
 10
-1.780343
 20
1.314858
  0
SEQEND
  8
0
  0
ENDSEC
  0
EOF
