999
DXF file: C:\Users\sesa63760\Dev\_Creo\CAD\MCADID0003699_3D-CAD\drw0001_1.dxf
999
Pro/ENGINEER 2019471 by Parametric Technology Corporation
  0
SECTION
  2
HEADER
  9
$ACADVER
  1
AC1024
  9
$DWGCODEPAGE
  3
ANSI_1252
  9
$EXTMAX
 10
52.0739544145
 20
73.6474498148
 30
0.0
  9
$EXTMIN
 10
0.0
 20
0.0
 30
0.0
  9
$LIMMIN
 10
0.0
 20
0.0
  9
$LIMMAX
 10
52.0739544145
 20
73.6474498148
  9
$VIEWCTR
 10
26.0369772073
 20
36.8237249074
  9
$VIEWSIZE
 40
73.6474498148
  9
$CLAYER
  8
0
  9
$LTSCALE
 40
4.8007226546
  9
$CELTYPE
  6
BYLAYER
  9
$DIMSCALE
 40
1.0
  9
$DIMASZ
 40
0.6199280287
  9
$DIMEXO
 40
1.0
  9
$DIMDLI
 40
3.316862925
  9
$DIMEXE
 40
1.0
  9
$DIMCEN
 40
0.785572798
  9
$DIMLFAC
 40
1.0
  9
$DIMBLK
  1
_FILLED
  9
$DIMALT
 70
0
  9
$DIMALTF
 40
0.0393700787
  9
$DIMTXT
 40
0.8678992402
  9
$DIMTOL
 70
1
  9
$DIMLIM
 70
0
  9
$DIMTFAC
 40
1.0
  9
$DIMTP
 40
0.01
  9
$DIMTM
 40
0.01
  9
$DIMGAP
 40
0.625
  9
$DIMDSEP
 70
46
  9
$AUNITS
 70
0
  9
$PDMODE
 70
3
  9
$PDSIZE
 40
0.3125
  9
$HANDSEED
  5
2A6
  9
$TILEMODE
 70
1
  9
$MEASUREMENT
 70
1
  9
$INSUNITS
 70
4
  0
ENDSEC
  0
SECTION
  2
CLASSES
  0
CLASS
  1
ACDBDICTIONARYWDFLT
  2
AcDbDictionaryWithDefault
  3
AutoCAD 2000
 90
0
 91
1
280
0
281
0
  0
CLASS
  1
ACDBPLACEHOLDER
  2
AcDbPlaceHolder
  3
AutoCAD 2000
 90
0
 91
1
280
0
281
0
  0
CLASS
  1
LAYOUT
  2
AcDbLayout
  3
AutoCAD 2000
 90
0
 91
0
280
0
281
0
  0
ENDSEC
  0
SECTION
  2
TABLES
  0
TABLE
  2
VPORT
  5
8
100
AcDbSymbolTable
 70
2
  0
VPORT
  5
1F4
100
AcDbSymbolTableRecord
100
AcDbViewportTableRecord
  2
*ACTIVE
 70
0
 10
0.0
 20
0.0
 11
1.0
 21
1.0
 12
26.0369772073
 22
36.8237249074
 13
0.0
 23
0.0
 14
1.0
 24
1.0
 15
0.0
 25
0.0
 16
0.0
 26
0.0
 36
1.0
 17
0.0
 27
0.0
 37
0.0
 40
73.6474498148
 41
0.7070707071
 42
50.0
 43
0.0
 44
0.0
 50
0.0
 51
0.0
 71
0
 72
100
 73
1
 74
1
 75
0
 76
0
 77
0
 78
0
  0
ENDTAB
  0
TABLE
  2
LTYPE
  5
5
100
AcDbSymbolTable
 70
6
  0
LTYPE
  5
14
100
AcDbSymbolTableRecord
100
AcDbLinetypeTableRecord
  2
BYBLOCK
 70
0
  3

 72
65
 73
0
 40
0.0
  0
LTYPE
  5
15
100
AcDbSymbolTableRecord
100
AcDbLinetypeTableRecord
  2
BYLAYER
 70
0
  3

 72
65
 73
0
 40
0.0
  0
LTYPE
  5
16
100
AcDbSymbolTableRecord
100
AcDbLinetypeTableRecord
  2
CONTINUOUS
 70
64
  3
Solid line
 72
65
 73
0
 40
0.0
  0
LTYPE
  5
1F5
100
AcDbSymbolTableRecord
100
AcDbLinetypeTableRecord
  2
CENTER
 70
64
  3
____ _ ____ _ ____ _ ____ _ ____ _ ____ _ ____
 72
65
 73
4
 40
0.6
 49
0.375
 74
0
 49
-0.075
 74
0
 49
0.075
 74
0
 49
-0.075
 74
0
  0
LTYPE
  5
1F6
100
AcDbSymbolTableRecord
100
AcDbLinetypeTableRecord
  2
HIDDEN
 70
64
  3
- - - - - - - - - - - - - - - - - - - -
 72
65
 73
2
 40
0.2
 49
0.1
 74
0
 49
-0.1
 74
0
  0
LTYPE
  5
1F7
100
AcDbSymbolTableRecord
100
AcDbLinetypeTableRecord
  2
PHANTOM
 70
64
  3
_____ _ _ _____ _ _ _____ _ _ _____
 72
65
 73
6
 40
0.8
 49
0.45
 74
0
 49
-0.05
 74
0
 49
0.1
 74
0
 49
-0.05
 74
0
 49
0.1
 74
0
 49
-0.05
 74
0
  0
LTYPE
  5
1F8
100
AcDbSymbolTableRecord
100
AcDbLinetypeTableRecord
  2
DOT
 70
64
  3
. . . . . . . . . . . . . . . . . . . .
 72
65
 73
2
 40
0.2
 49
0.1
 74
0
 49
-0.1
 74
0
  0
LTYPE
  5
1F9
100
AcDbSymbolTableRecord
100
AcDbLinetypeTableRecord
  2
DASHED
 70
64
  3
- - - - - - - - - - - - - - - - - - - -
 72
65
 73
2
 40
0.2
 49
0.1
 74
0
 49
-0.1
 74
0
  0
ENDTAB
  0
TABLE
  2
LAYER
  5
2
100
AcDbSymbolTable
 70
36
  0
LAYER
  5
10
100
AcDbSymbolTableRecord
100
AcDbLayerTableRecord
  2
0
 70
0
 62
7
  6
CONTINUOUS
370
-3
390
F
  0
LAYER
  5
1FA
100
AcDbSymbolTableRecord
100
AcDbLayerTableRecord
  2
DEFAULT_1
 70
0
 62
7
  6
CENTER
370
-3
390
F
  0
LAYER
  5
1FB
100
AcDbSymbolTableRecord
100
AcDbLayerTableRecord
  2
DEFAULT_2
 70
0
 62
7
  6
HIDDEN
370
-3
390
F
  0
LAYER
  5
1FC
100
AcDbSymbolTableRecord
100
AcDbLayerTableRecord
  2
DEFAULT_3
 70
0
 62
7
  6
PHANTOM
370
-3
390
F
  0
LAYER
  5
1FD
100
AcDbSymbolTableRecord
100
AcDbLayerTableRecord
  2
00_COMPONENTS
 70
0
 62
7
  6
CONTINUOUS
370
-3
390
F
  0
LAYER
  5
1FE
100
AcDbSymbolTableRecord
100
AcDbLayerTableRecord
  2
01_1_DEFAULT_DATUMS
 70
0
 62
7
  6
CONTINUOUS
370
-3
390
F
  0
LAYER
  5
1FF
100
AcDbSymbolTableRecord
100
AcDbLayerTableRecord
  2
01_PLANES
 70
0
 62
7
  6
CONTINUOUS
370
-3
390
F
  0
LAYER
  5
200
100
AcDbSymbolTableRecord
100
AcDbLayerTableRecord
  2
02_COORD_SYS
 70
0
 62
7
  6
CONTINUOUS
370
-3
390
F
  0
LAYER
  5
201
100
AcDbSymbolTableRecord
100
AcDbLayerTableRecord
  2
03_AXES
 70
0
 62
7
  6
CONTINUOUS
370
-3
390
F
  0
LAYER
  5
202
100
AcDbSymbolTableRecord
100
AcDbLayerTableRecord
  2
04_POINTS
 70
0
 62
7
  6
CONTINUOUS
370
-3
390
F
  0
LAYER
  5
203
100
AcDbSymbolTableRecord
100
AcDbLayerTableRecord
  2
05_CURVES
 70
0
 62
7
  6
CONTINUOUS
370
-3
390
F
  0
LAYER
  5
204
100
AcDbSymbolTableRecord
100
AcDbLayerTableRecord
  2
06_SURFS
 70
0
 62
7
  6
CONTINUOUS
370
-3
390
F
  0
LAYER
  5
205
100
AcDbSymbolTableRecord
100
AcDbLayerTableRecord
  2
07_COSMETICS
 70
0
 62
7
  6
CONTINUOUS
370
-3
390
F
  0
LAYER
  5
206
100
AcDbSymbolTableRecord
100
AcDbLayerTableRecord
  2
10_NOTES
 70
0
 62
7
  6
CONTINUOUS
370
-3
390
F
  0
LAYER
  5
207
100
AcDbSymbolTableRecord
100
AcDbLayerTableRecord
  2
11_NOTES_PUB
 70
0
 62
7
  6
CONTINUOUS
370
-3
390
F
  0
LAYER
  5
208
100
AcDbSymbolTableRecord
100
AcDbLayerTableRecord
  2
13_REF_GTOL
 70
0
 62
7
  6
CONTINUOUS
370
-3
390
F
  0
LAYER
  5
209
100
AcDbSymbolTableRecord
100
AcDbLayerTableRecord
  2
16_MISC
 70
0
 62
7
  6
CONTINUOUS
370
-3
390
F
  0
LAYER
  5
20A
100
AcDbSymbolTableRecord
100
AcDbLayerTableRecord
  2
17_NO_PRINT
 70
0
 62
7
  6
CONTINUOUS
370
-3
390
F
  0
LAYER
  5
20B
100
AcDbSymbolTableRecord
100
AcDbLayerTableRecord
  2
18_DATUM_CAMS_JOINTS
 70
0
 62
7
  6
CONTINUOUS
370
-3
390
F
  0
LAYER
  5
20C
100
AcDbSymbolTableRecord
100
AcDbLayerTableRecord
  2
19_DATUM_FUNCTIONAL
 70
0
 62
7
  6
CONTINUOUS
370
-3
390
F
  0
LAYER
  5
20D
100
AcDbSymbolTableRecord
100
AcDbLayerTableRecord
  2
20_DATUM_KINEMATIC_SCHEME
 70
0
 62
7
  6
CONTINUOUS
370
-3
390
F
  0
ENDTAB
  0
TABLE
  2
STYLE
  5
3
100
AcDbSymbolTable
 70
1
  0
STYLE
  5
11
100
AcDbSymbolTableRecord
100
AcDbTextStyleTableRecord
  2
STANDARD
 70
0
 40
0.0
 41
1.0
 50
0.0
 71
0
 42
0.2
  3
ARIAL.TTF
  4

  0
STYLE
  5
20E
100
AcDbSymbolTableRecord
100
AcDbTextStyleTableRecord
  2
TEXTSTYLE_1
 70
0
 40
0.0
 41
0.8
 50
0.0
 71
0
 42
0.2
  3
gdt
  4

  0
ENDTAB
  0
TABLE
  2
VIEW
  5
6
100
AcDbSymbolTable
 70
0
  0
ENDTAB
  0
TABLE
  2
UCS
  5
7
100
AcDbSymbolTable
 70
0
  0
ENDTAB
  0
TABLE
  2
APPID
  5
9
100
AcDbSymbolTable
 70
1
  0
APPID
  5
20F
100
AcDbSymbolTableRecord
100
AcDbRegAppTableRecord
  2
ACAD
 70
0
  0
ENDTAB
  0
TABLE
  2
BLOCK_RECORD
  5
1
100
AcDbSymbolTable
 70
0
  0
BLOCK_RECORD
  5
210
100
AcDbSymbolTableRecord
100
AcDbBlockTableRecord
  2
*Model_Space
  0
BLOCK_RECORD
  5
211
100
AcDbSymbolTableRecord
100
AcDbBlockTableRecord
  2
*Paper_Space
  0
BLOCK_RECORD
  5
212
100
AcDbSymbolTableRecord
100
AcDbBlockTableRecord
  2
_FILLED
  0
ENDTAB
  0
TABLE
  2
DIMSTYLE
  5
A
100
AcDbSymbolTable
 70
1
100
AcDbDimStyleTable
 71
0
  0
DIMSTYLE
105
213
100
AcDbSymbolTableRecord
100
AcDbDimStyleTableRecord
  2
STANDARD
 70
0
  3

  4

 40
1.0
 41
0.6199280287
 42
1.0
 43
0.38
 44
1.0
 45
0.0
 46
0.0
 47
0.01
 48
0.01
140
0.8678992402
141
0.09
142
0.0
143
25.4
144
1.0
145
0.0
146
1.0
147
0.625
 71
1
 72
0
 73
0
 74
0
 75
0
 76
0
 77
1
 78
8
 79
2
170
0
171
1
172
0
173
0
174
0
175
0
176
0
177
0
178
0
270
2
179
2
271
2
272
2
273
2
274
2
275
0
280
0
281
0
282
0
283
1
284
8
285
0
286
0
287
3
288
0
340
11
278
46
341
212
342
212
343
212
344
212
  0
ENDTAB
  0
ENDSEC
  0
SECTION
  2
BLOCKS
  0
BLOCK
  5
20
100
AcDbEntity
  8
0
100
AcDbBlockBegin
  2
*Model_Space
 70
0
 10
0.0
 20
0.0
 30
0.0
  3
*Model_Space
  1

  0
ENDBLK
  5
21
100
AcDbEntity
  8
0
100
AcDbBlockEnd
  0
BLOCK
  5
1C
100
AcDbEntity
  8
0
100
AcDbBlockBegin
  2
*Paper_Space
 70
0
 10
0.0
 20
0.0
 30
0.0
  3
*Paper_Space
  1

  0
ENDBLK
  5
1D
100
AcDbEntity
  8
0
100
AcDbBlockEnd
  0
BLOCK
  5
214
100
AcDbEntity
  8
0
100
AcDbBlockBegin
  2
_FILLED
 70
64
 10
0.0
 20
0.0
  3
_FILLED
  1

  0
SOLID
  5
215
100
AcDbEntity
  8
0
  6
BYBLOCK
 62
0
100
AcDbTrace
 10
0.0
 20
0.0
 11
-1.0
 21
0.25
 12
-1.0
 22
-0.25
 13
-1.0
 23
-0.25
  0
ENDBLK
  5
216
100
AcDbEntity
  8
0
  6
BYBLOCK
 62
0
100
AcDbBlockEnd
  0
ENDSEC
  0
SECTION
  2
ENTITIES
  0
LINE
  5
217
100
AcDbEntity
  8
0
100
AcDbLine
 62
7
  6
BYLAYER
 10
19.1127499432
 20
67.0320334251
 11
20.8805095363
 21
68.0526438097
  0
LINE
  5
218
100
AcDbEntity
  8
0
100
AcDbLine
 62
7
  6
BYLAYER
 10
20.1127459285
 20
66.9329846002
 11
21.8805055216
 21
67.9535949849
  0
LINE
  5
219
100
AcDbEntity
  8
0
100
AcDbLine
 62
7
  6
BYLAYER
 10
22.5898837711
 20
67.5440445268
 11
20.8221241781
 21
66.5234341421
  0
LINE
  5
21A
100
AcDbEntity
  8
0
100
AcDbLine
 62
7
  6
BYLAYER
 10
23.6482793723
 20
65.7082397397
 11
21.8805197792
 21
64.687629355
  0
LINE
  5
21B
100
AcDbEntity
  8
0
100
AcDbLine
 62
7
  6
BYLAYER
 10
25.0624988226
 20
64.8917582307
 11
23.2947392295
 21
63.871147846
  0
LINE
  5
21C
100
AcDbEntity
  8
0
100
AcDbLine
 62
7
  6
BYLAYER
 10
25.0624988226
 20
61.8706992873
 11
23.2947392295
 21
60.8500889026
  0
LINE
  5
21D
100
AcDbEntity
  8
0
100
AcDbLine
 62
7
  6
BYLAYER
 10
6.7991921298
 20
25.1892104126
 11
6.7991921298
 21
27.2304664555
  0
LINE
  5
21E
100
AcDbEntity
  8
0
100
AcDbLine
 62
7
  6
BYLAYER
 10
36.694510031
 20
6.6142373855
 11
8.4101210251
 21
22.9438675663
  0
LINE
  5
21F
100
AcDbEntity
  8
0
100
AcDbLine
 62
7
  6
BYLAYER
 10
8.4101210251
 20
22.9438675663
 11
8.4101210251
 21
24.9851236092
  0
LINE
  5
220
100
AcDbEntity
  8
0
100
AcDbLine
 62
7
  6
BYLAYER
 10
8.4101210251
 20
24.9851236092
 11
36.694510031
 21
8.6554934283
  0
LINE
  5
221
100
AcDbEntity
  8
0
100
AcDbLine
 62
7
  6
BYLAYER
 10
10.4253669612
 20
26.1486194477
 11
13.9609155869
 21
24.1074156751
  0
LINE
  5
222
100
AcDbEntity
  8
0
100
AcDbLine
 62
7
  6
BYLAYER
 10
35.1742073413
 20
11.8601930395
 11
38.709755967
 21
9.8189892669
  0
LINE
  5
223
100
AcDbEntity
  8
0
100
AcDbLine
 62
7
  6
BYLAYER
 10
33.5478155243
 20
59.9928691764
 11
31.7800559313
 21
58.9722587917
  0
LINE
  5
224
100
AcDbEntity
  8
0
100
AcDbLine
 62
7
  6
BYLAYER
 10
36.0204305757
 20
59.7900901317
 11
33.1942753816
 21
58.1557772827
  0
LINE
  5
225
100
AcDbEntity
  8
0
100
AcDbLine
 62
7
  6
BYLAYER
 10
22.1987400577
 20
19.8821260754
 11
27.8556178589
 21
16.6162000392
  0
LINE
  5
226
100
AcDbEntity
  8
0
100
AcDbLine
 62
7
  6
BYLAYER
 10
14.1730172984
 20
26.2710574204
 11
17.7085659241
 21
24.2298536478
  0
LINE
  5
227
100
AcDbEntity
  8
0
100
AcDbLine
 62
7
  6
BYLAYER
 10
38.9218576785
 20
11.9826310122
 11
42.4574063043
 21
9.9414272396
  0
LINE
  5
228
100
AcDbEntity
  8
0
100
AcDbLine
 62
7
  6
BYLAYER
 10
32.9294298543
 20
15.7281033602
 11
32.0982614899
 21
16.2079677831
  0
LINE
  5
229
100
AcDbEntity
  8
0
100
AcDbLine
 62
7
  6
BYLAYER
 10
21.4916156127
 20
22.3315791009
 11
20.6604472484
 21
22.8114435238
  0
LINE
  5
22A
100
AcDbEntity
  8
0
100
AcDbLine
 62
7
  6
BYLAYER
 10
14.1730172984
 20
26.2710574204
 11
14.1730172984
 21
28.3123134632
  0
LINE
  5
22B
100
AcDbEntity
  8
0
100
AcDbLine
 62
7
  6
BYLAYER
 10
36.7298097496
 20
59.38053914
 11
34.9620501566
 21
58.3599287553
  0
LINE
  5
22C
100
AcDbEntity
  8
0
100
AcDbLine
 62
7
  6
BYLAYER
 10
32.098255602
 20
17.0244526915
 11
32.0911845047
 21
17.028535099
  0
LINE
  5
22D
100
AcDbEntity
  8
0
100
AcDbLine
 62
7
  6
BYLAYER
 10
22.9129002723
 20
22.3275000927
 11
22.9058291751
 21
22.3315825002
  0
LINE
  5
22E
100
AcDbEntity
  8
0
100
AcDbLine
 62
7
  6
BYLAYER
 10
32.1265396966
 20
17.0489473067
 11
30.365836481
 21
18.0654667855
  0
LINE
  5
22F
100
AcDbEntity
  8
0
100
AcDbLine
 62
7
  6
BYLAYER
 10
24.7089586798
 20
21.3313928216
 11
22.9482554642
 21
22.3479123004
  0
LINE
  5
230
100
AcDbEntity
  8
0
100
AcDbLine
 62
7
  6
BYLAYER
 10
22.9411843669
 20
23.1684971251
 11
22.2340746418
 21
23.5767378796
  0
LINE
  5
231
100
AcDbEntity
  8
0
100
AcDbLine
 62
7
  6
BYLAYER
 10
32.1336107939
 20
17.8613673163
 11
32.840720519
 21
17.4531265618
  0
LINE
  5
232
100
AcDbEntity
  8
0
100
AcDbLine
 62
7
  6
BYLAYER
 10
42.4574063043
 20
11.9826832824
 11
38.9218576785
 21
14.023887055
  0
LINE
  5
233
100
AcDbEntity
  8
0
100
AcDbLine
 62
7
  6
BYLAYER
 10
17.7085659241
 20
26.2711096906
 11
14.1730172984
 21
28.3123134632
  0
LINE
  5
234
100
AcDbEntity
  8
0
100
AcDbLine
 62
7
  6
BYLAYER
 10
30.365836481
 20
20.5149740369
 11
24.7089586798
 21
23.780900073
  0
LINE
  5
235
100
AcDbEntity
  8
0
100
AcDbLine
 62
7
  6
BYLAYER
 10
36.3762691447
 20
55.9104426788
 11
38.1440287378
 21
56.9310530635
  0
LINE
  5
236
100
AcDbEntity
  8
0
100
AcDbLine
 62
7
  6
BYLAYER
 10
44.4726522403
 20
13.1461791209
 11
40.9371036146
 21
15.1873828935
  0
LINE
  5
237
100
AcDbEntity
  8
0
100
AcDbLine
 62
7
  6
BYLAYER
 10
19.7238118602
 20
27.4346055291
 11
16.1882632345
 21
29.4758093017
  0
LINE
  5
238
100
AcDbEntity
  8
0
100
AcDbLine
 62
7
  6
BYLAYER
 10
17.7085659241
 20
26.2711096906
 11
17.7085659241
 21
24.2298536478
  0
LINE
  5
239
100
AcDbEntity
  8
0
100
AcDbLine
 62
7
  6
BYLAYER
 10
18.6985260161
 20
66.1164615418
 11
18.6985260161
 21
41.6213890279
  0
LINE
  5
23A
100
AcDbEntity
  8
0
100
AcDbLine
 62
7
  6
BYLAYER
 10
21.5269649166
 20
43.3360859201
 11
23.2947245097
 21
44.3566963047
  0
LINE
  5
23B
100
AcDbEntity
  8
0
100
AcDbLine
 62
7
  6
BYLAYER
 10
20.5163494963
 20
23.5226992169
 11
20.5163494963
 21
22.9575413926
  0
LINE
  5
23C
100
AcDbEntity
  8
0
100
AcDbLine
 62
7
  6
BYLAYER
 10
21.3347407555
 20
23.14800664
 11
21.3347407555
 21
25.1892626828
  0
LINE
  5
23D
100
AcDbEntity
  8
0
100
AcDbLine
 62
7
  6
BYLAYER
 10
21.5269649166
 20
59.6661342627
 11
21.5269649166
 21
43.3360859201
  0
LINE
  5
23E
100
AcDbEntity
  8
0
100
AcDbLine
 62
7
  6
BYLAYER
 10
22.2340746418
 20
37.9471804211
 11
22.2340746418
 21
23.5767378796
  0
LINE
  5
23F
100
AcDbEntity
  8
0
100
AcDbLine
 62
7
  6
BYLAYER
 10
22.9411843669
 20
22.3315825002
 11
22.9411843669
 21
23.1684971251
  0
LINE
  5
240
100
AcDbEntity
  8
0
100
AcDbLine
 62
7
  6
BYLAYER
 10
23.2947245097
 20
44.3566963047
 11
23.2947245097
 21
58.6455408747
  0
LINE
  5
241
100
AcDbEntity
  8
0
100
AcDbLine
 62
7
  6
BYLAYER
 10
23.2947392295
 20
60.8500889026
 11
23.2947392295
 21
63.871147846
  0
LINE
  5
242
100
AcDbEntity
  8
0
100
AcDbLine
 62
7
  6
BYLAYER
 10
24.7089586798
 20
23.780900073
 11
24.7089586798
 21
21.3313928216
  0
LINE
  5
243
100
AcDbEntity
  8
0
100
AcDbLine
 62
7
  6
BYLAYER
 10
25.0624988226
 20
64.8917582307
 11
25.0624988226
 21
61.8706992873
  0
LINE
  5
244
100
AcDbEntity
  8
0
100
AcDbLine
 62
7
  6
BYLAYER
 10
26.4767182728
 20
22.2703529646
 11
26.4767182728
 21
22.760306685
  0
LINE
  5
245
100
AcDbEntity
  8
0
100
AcDbLine
 62
7
  6
BYLAYER
 10
21.3347038682
 20
23.1480066481
 11
21.1408377178
 21
22.5340962314
  0
LINE
  5
246
100
AcDbEntity
  8
0
100
AcDbLine
 62
7
  6
BYLAYER
 10
19.4056357412
 20
40.3966458563
 11
21.5269649166
 21
39.1719235927
  0
LINE
  5
247
100
AcDbEntity
  8
0
100
AcDbLine
 62
7
  6
BYLAYER
 10
33.5478302441
 20
32.2318307659
 11
35.6691594196
 21
31.0071085023
  0
LINE
  5
248
100
AcDbEntity
  8
0
100
AcDbLine
 62
7
  6
BYLAYER
 10
30.365836481
 20
18.0654667855
 11
30.365836481
 21
20.5149740369
  0
LINE
  5
249
100
AcDbEntity
  8
0
100
AcDbLine
 62
7
  6
BYLAYER
 10
21.5269649166
 20
43.3360859201
 11
33.5478302441
 21
36.3959930932
  0
LINE
  5
24A
100
AcDbEntity
  8
0
100
AcDbLine
 62
7
  6
BYLAYER
 10
33.5478302441
 20
38.4371968659
 11
23.2947245097
 21
44.3566963047
  0
LINE
  5
24B
100
AcDbEntity
  8
0
100
AcDbLine
 62
7
  6
BYLAYER
 10
31.7800559313
 20
55.9511998484
 11
31.7800559313
 21
58.9722587917
  0
LINE
  5
24C
100
AcDbEntity
  8
0
100
AcDbLine
 62
7
  6
BYLAYER
 10
32.098255602
 20
16.2079677831
 11
32.098255602
 21
17.0244526915
  0
LINE
  5
24D
100
AcDbEntity
  8
0
100
AcDbLine
 62
7
  6
BYLAYER
 10
32.1265396966
 20
16.1916417222
 11
32.1265396966
 21
17.0489473067
  0
LINE
  5
24E
100
AcDbEntity
  8
0
100
AcDbLine
 62
7
  6
BYLAYER
 10
32.1336107939
 20
16.1875593146
 11
32.1336107939
 21
17.8613673163
  0
LINE
  5
24F
100
AcDbEntity
  8
0
100
AcDbLine
 62
7
  6
BYLAYER
 10
32.840720519
 20
17.4531265618
 11
32.840720519
 21
31.8235691033
  0
LINE
  5
250
100
AcDbEntity
  8
0
100
AcDbLine
 62
7
  6
BYLAYER
 10
33.5478302441
 20
36.3959930932
 11
33.5478302441
 21
52.7260414358
  0
LINE
  5
251
100
AcDbEntity
  8
0
100
AcDbLine
 62
7
  6
BYLAYER
 10
33.9013703869
 20
18.0654893932
 11
33.9013703869
 21
17.9838250421
  0
LINE
  5
252
100
AcDbEntity
  8
0
100
AcDbLine
 62
7
  6
BYLAYER
 10
32.840720519
 20
31.8235691033
 11
33.5478363537
 21
32.2318201838
  0
LINE
  5
253
100
AcDbEntity
  8
0
100
AcDbLine
 62
7
  6
BYLAYER
 10
34.608480112
 20
31.6194781324
 11
34.608480112
 21
18.4737369465
  0
LINE
  5
254
100
AcDbEntity
  8
0
100
AcDbLine
 62
7
  6
BYLAYER
 10
36.3762691447
 20
31.4153701649
 11
36.3762691447
 21
55.9104426788
  0
LINE
  5
255
100
AcDbEntity
  8
0
100
AcDbLine
 62
7
  6
BYLAYER
 10
38.1440287378
 20
32.4359805496
 11
36.3762691447
 21
31.4153701649
  0
LINE
  5
256
100
AcDbEntity
  8
0
100
AcDbLine
 62
7
  6
BYLAYER
 10
36.1691571811
 20
30.9575842233
 11
37.9369167742
 21
31.978194608
  0
LINE
  5
257
100
AcDbEntity
  8
0
100
AcDbLine
 62
7
  6
BYLAYER
 10
21.8805197792
 20
64.687629355
 11
20.8221241781
 21
66.5234341421
  0
LINE
  5
258
100
AcDbEntity
  8
0
100
AcDbLine
 62
7
  6
BYLAYER
 10
36.694510031
 20
8.6554934283
 11
36.694510031
 21
6.6142373855
  0
LINE
  5
259
100
AcDbEntity
  8
0
100
AcDbLine
 62
7
  6
BYLAYER
 10
38.1440287378
 20
56.9310530635
 11
38.1440287378
 21
32.4359805496
  0
LINE
  5
25A
100
AcDbEntity
  8
0
100
AcDbLine
 62
7
  6
BYLAYER
 10
38.9218576785
 20
11.9826310122
 11
38.9218576785
 21
14.023887055
  0
LINE
  5
25B
100
AcDbEntity
  8
0
100
AcDbLine
 62
7
  6
BYLAYER
 10
22.9482554642
 20
22.3479123004
 11
22.9129002723
 21
22.3275000927
  0
LINE
  5
25C
100
AcDbEntity
  8
0
100
AcDbLine
 62
7
  6
BYLAYER
 10
22.5898837711
 20
67.5440445268
 11
23.6482793723
 21
65.7082397397
  0
LINE
  5
25D
100
AcDbEntity
  8
0
100
AcDbLine
 62
7
  6
BYLAYER
 10
24.7089586798
 20
21.3313928216
 11
22.1987400577
 21
19.8821260754
  0
LINE
  5
25E
100
AcDbEntity
  8
0
100
AcDbLine
 62
7
  6
BYLAYER
 10
23.9665449187
 20
18.8615065525
 11
24.7796690635
 21
19.3309611942
  0
LINE
  5
25F
100
AcDbEntity
  8
0
100
AcDbLine
 62
7
  6
BYLAYER
 10
42.4574063043
 20
11.9826832824
 11
42.4574063043
 21
9.9414272396
  0
LINE
  5
260
100
AcDbEntity
  8
0
100
AcDbLine
 62
7
  6
BYLAYER
 10
33.5478302441
 20
52.7260414358
 11
21.5269649166
 21
59.6661342627
  0
LINE
  5
261
100
AcDbEntity
  8
0
100
AcDbLine
 62
7
  6
BYLAYER
 10
46.0835811357
 20
8.8595802318
 11
46.0835811357
 21
10.9008362746
  0
LINE
  5
262
100
AcDbEntity
  8
0
100
AcDbLine
 62
7
  6
BYLAYER
 10
27.8556178589
 20
16.6162000392
 11
30.365836481
 21
18.0654667855
  0
LINE
  5
263
100
AcDbEntity
  8
0
100
AcDbLine
 62
7
  6
BYLAYER
 10
23.2947392295
 20
60.8500889026
 11
31.7800559313
 21
55.9511998484
  0
LINE
  5
264
100
AcDbEntity
  8
0
100
AcDbLine
 62
7
  6
BYLAYER
 10
32.0911845047
 20
17.028535099
 11
32.1265396966
 21
17.0489473067
  0
LINE
  5
265
100
AcDbEntity
  8
0
100
AcDbLine
 62
7
  6
BYLAYER
 10
34.608480112
 20
18.4737369465
 11
32.840720519
 21
17.4531265618
  0
LINE
  5
266
100
AcDbEntity
  8
0
100
AcDbLine
 62
7
  6
BYLAYER
 10
33.2411389285
 20
16.0512879147
 11
32.8053956535
 21
15.7997129193
  0
LINE
  5
267
100
AcDbEntity
  8
0
100
AcDbLine
 62
7
  6
BYLAYER
 10
25.0624988226
 20
61.8706992873
 11
31.7800559313
 21
57.992403621
  0
LINE
  5
268
100
AcDbEntity
  8
0
100
AcDbLine
 62
7
  6
BYLAYER
 10
33.1942753816
 20
58.1557772827
 11
31.7800559313
 21
58.9722587917
  0
LINE
  5
269
100
AcDbEntity
  8
0
100
AcDbLine
 62
7
  6
BYLAYER
 10
23.2947392295
 20
63.871147846
 11
21.8805197792
 21
64.687629355
  0
LINE
  5
26A
100
AcDbEntity
  8
0
100
AcDbLine
 62
7
  6
BYLAYER
 10
34.9620496944
 20
58.3599290221
 11
34.2526709827
 21
58.769479747
  0
LINE
  5
26B
100
AcDbEntity
  8
0
100
AcDbLine
 62
7
  6
BYLAYER
 10
20.8221241781
 20
66.5234341421
 11
20.1127454664
 21
66.932984867
  0
LINE
  5
26C
100
AcDbEntity
  8
0
100
AcDbLine
 62
7
  6
BYLAYER
 10
23.6482793723
 20
65.7082397397
 11
25.0624988226
 21
64.8917582307
  0
LINE
  5
26D
100
AcDbEntity
  8
0
100
AcDbLine
 62
7
  6
BYLAYER
 10
33.5478155243
 20
59.9928691764
 11
34.9620349746
 21
59.1763876674
  0
LINE
  5
26E
100
AcDbEntity
  8
0
100
AcDbLine
 62
7
  6
BYLAYER
 10
21.8805050594
 20
67.9535952517
 11
22.5898837711
 21
67.5440445268
  0
LINE
  5
26F
100
AcDbEntity
  8
0
100
AcDbLine
 62
7
  6
BYLAYER
 10
36.0204305757
 20
59.7900901317
 11
36.7298092875
 21
59.3805394068
  0
ARC
  5
270
100
AcDbEntity
  8
0
100
AcDbCircle
 62
7
  6
BYLAYER
 10
29.8845973747
 20
18.3362879266
 40
4.0523496218
100
AcDbArc
 50
325.4774288262
 51
325.7459756133
  0
ARC
  5
271
100
AcDbEntity
  8
0
100
AcDbCircle
 62
7
  6
BYLAYER
 10
29.9805819897
 20
18.2663284585
 40
3.9336207576
100
AcDbArc
 50
319.4875581581
 51
325.5246561275
  0
ARC
  5
272
100
AcDbEntity
  8
0
100
AcDbCircle
 62
7
  6
BYLAYER
 10
11.6399453688
 20
24.1670036791
 40
2.4294531996
100
AcDbArc
 50
119.9963893651
 51
121.7730761618
  0
ARC
  5
273
100
AcDbEntity
  8
0
100
AcDbCircle
 62
7
  6
BYLAYER
 10
36.388785749
 20
9.8785772708
 40
2.4294531997
100
AcDbArc
 50
119.9963893652
 51
121.7730761618
  0
ARC
  5
274
100
AcDbEntity
  8
0
100
AcDbCircle
 62
7
  6
BYLAYER
 10
41.2526643069
 20
7.8538193023
 40
2.4102925507
100
AcDbArc
 50
58.2196788602
 51
60.0110962963
  0
ARC
  5
275
100
AcDbEntity
  8
0
100
AcDbCircle
 62
7
  6
BYLAYER
 10
16.5038239268
 20
22.1422457105
 40
2.4102925507
100
AcDbArc
 50
58.2196788602
 51
60.0110962964
  0
SPLINE
  5
276
100
AcDbEntity
  8
0
100
AcDbSpline
 62
7
  6
BYLAYER
 70
0
 71
3
 72
14
 73
10
 74
0
 42
0.0000001
 43
0.0000001
 44
0.0000000001
 40
0.0
 40
0.0
 40
0.0
 40
0.0
 40
0.1080450031
 40
0.2181337829
 40
0.3321057623
 40
0.4514799957
 40
0.5774272149
 40
0.7107510372
 40
1.0
 40
1.0
 40
1.0
 40
1.0
 10
43.2335616561
 20
10.9008362746
 30
0.0
 10
43.2335616567
 20
10.8506699001
 30
0.0
 10
43.2248757757
 20
10.7491806803
 30
0.0
 10
43.1859420906
 20
10.5992966884
 30
0.0
 10
43.121784102
 20
10.4526297727
 30
0.0
 10
43.0331302508
 20
10.310688512
 30
0.0
 10
42.9209560314
 20
10.1747079864
 30
0.0
 10
42.7366274058
 20
9.998332468
 30
0.0
 10
42.5737303178
 20
9.8861485664
 30
0.0
 10
42.4574219073
 20
9.8189982752
 30
0.0
  0
SPLINE
  5
277
100
AcDbEntity
  8
0
100
AcDbSpline
 62
7
  6
BYLAYER
 70
0
 71
3
 72
14
 73
10
 74
0
 42
0.0000001
 43
0.0000001
 44
0.0000000001
 40
0.0
 40
0.0
 40
0.0
 40
0.0
 40
0.1485935507
 40
0.2896325823
 40
0.548444204
 40
0.6678481211
 40
0.7818428013
 40
0.8919403448
 40
1.0
 40
1.0
 40
1.0
 40
1.0
 10
8.4101210251
 20
22.9438675663
 30
0.0
 10
8.2861245546
 20
23.0154553424
 30
0.0
 10
8.0500020895
 20
23.1651882985
 30
0.0
 10
7.6317606668
 20
23.4887519232
 30
0.0
 10
7.2832091478
 20
23.8555069588
 30
0.0
 10
7.031269037
 20
24.2589426302
 30
0.0
 10
6.8979703647
 20
24.5633416875
 30
0.0
 10
6.8173232948
 20
24.8744644872
 30
0.0
 10
6.7992015219
 20
25.0850890478
 30
0.0
 10
6.7992015194
 20
25.1892104126
 30
0.0
  0
SPLINE
  5
278
100
AcDbEntity
  8
0
100
AcDbSpline
 62
7
  6
BYLAYER
 70
0
 71
3
 72
17
 73
13
 74
0
 42
0.0000001
 43
0.0000001
 44
0.0000000001
 40
0.0
 40
0.0
 40
0.0
 40
0.0
 40
0.0558318892
 40
0.114220514
 40
0.2373710272
 40
0.3669983383
 40
0.4999994972
 40
0.6330007256
 40
0.7626282418
 40
0.8857790746
 40
0.9441678938
 40
1.0
 40
1.0
 40
1.0
 40
1.0
 10
44.472684624
 20
6.614256082
 30
0.0
 10
44.3424477403
 20
6.5390642309
 30
0.0
 10
44.0692036365
 20
6.3967890367
 30
0.0
 10
43.4806516441
 20
6.1457629693
 30
0.0
 10
42.676070195
 20
5.9012617979
 30
0.0
 10
41.6498578341
 20
5.7239411966
 30
0.0
 10
40.5836037478
 20
5.6640822958
 30
0.0
 10
39.5173488296
 20
5.7239361623
 30
0.0
 10
38.4911340162
 20
5.9012519138
 30
0.0
 10
37.6865493866
 20
6.1457491909
 30
0.0
 10
37.0979940146
 20
6.3967723389
 30
0.0
 10
36.8247479632
 20
6.5390461813
 30
0.0
 10
36.694510031
 20
6.6142373855
 30
0.0
  0
SPLINE
  5
279
100
AcDbEntity
  8
0
100
AcDbSpline
 62
7
  6
BYLAYER
 70
0
 71
3
 72
14
 73
10
 74
0
 42
0.0000001
 43
0.0000001
 44
0.0000000001
 40
0.0
 40
0.0
 40
0.0
 40
0.0
 40
0.1080450031
 40
0.2181337829
 40
0.3321057623
 40
0.4514799957
 40
0.5774272149
 40
0.7107510372
 40
1.0
 40
1.0
 40
1.0
 40
1.0
 10
18.4847212759
 20
25.1892626828
 30
0.0
 10
18.4847212766
 20
25.1390963083
 30
0.0
 10
18.4760353956
 20
25.0376070885
 30
0.0
 10
18.4371017105
 20
24.8877230966
 30
0.0
 10
18.3729437219
 20
24.7410561809
 30
0.0
 10
18.2842898707
 20
24.5991149202
 30
0.0
 10
18.1721156512
 20
24.4631343946
 30
0.0
 10
17.9877870257
 20
24.2867588762
 30
0.0
 10
17.8248899376
 20
24.1745749746
 30
0.0
 10
17.7085815272
 20
24.1074246834
 30
0.0
  0
SPLINE
  5
27A
100
AcDbEntity
  8
0
100
AcDbSpline
 62
7
  6
BYLAYER
 70
0
 71
3
 72
11
 73
7
 74
0
 42
0.0000001
 43
0.0000001
 44
0.0000000001
 40
0.0
 40
0.0
 40
0.0
 40
0.0
 40
0.2177470838
 40
0.450887992
 40
0.7104637237
 40
1.0
 40
1.0
 40
1.0
 40
1.0
 10
33.0478563421
 20
32.2813137192
 30
0.0
 10
33.0808361225
 20
32.3003545007
 30
0.0
 10
33.1565887595
 20
32.3279408878
 30
0.0
 10
33.2825214943
 20
32.3310976225
 30
0.0
 10
33.4166658058
 20
32.2986284032
 30
0.0
 10
33.5039771479
 20
32.25714879
 30
0.0
 10
33.5478302441
 20
32.2318307659
 30
0.0
  0
SPLINE
  5
27B
100
AcDbEntity
  8
0
100
AcDbSpline
 62
7
  6
BYLAYER
 70
0
 71
3
 72
13
 73
9
 74
0
 42
0.0000001
 43
0.0000001
 44
0.0000000001
 40
0.0
 40
0.0
 40
0.0
 40
0.0
 40
0.108104295
 40
0.2182395309
 40
0.3322406488
 40
0.4516652796
 40
0.7106952255
 40
1.0
 40
1.0
 40
1.0
 40
1.0
 10
20.8805145261
 20
68.052635167
 30
0.0
 10
20.9133067299
 20
68.0715676275
 30
0.0
 10
20.9829453394
 20
68.1041348746
 30
0.0
 10
21.0955769006
 20
68.1352970035
 30
0.0
 10
21.2156452056
 20
68.1487221116
 30
0.0
 10
21.3885584146
 20
68.1426981117
 30
0.0
 10
21.6182644283
 20
68.0873133261
 30
0.0
 10
21.7927474242
 20
68.0042610329
 30
0.0
 10
21.8805050594
 20
67.9535952517
 30
0.0
  0
SPLINE
  5
27C
100
AcDbEntity
  8
0
100
AcDbSpline
 62
7
  6
BYLAYER
 70
0
 71
3
 72
15
 73
11
 74
0
 42
0.0000001
 43
0.0000001
 44
0.0000000001
 40
0.0
 40
0.0
 40
0.0
 40
0.0
 40
0.1141469224
 40
0.2373360366
 40
0.366976904
 40
0.5000005214
 40
0.6330240662
 40
0.7626647219
 40
0.8858535023
 40
1.0
 40
1.0
 40
1.0
 40
1.0
 10
14.1730172984
 20
26.2710574204
 30
0.0
 10
14.0447470785
 20
26.345112591
 30
0.0
 10
13.7642247583
 20
26.4757205187
 30
0.0
 10
13.3074459348
 20
26.6145805902
 30
0.0
 10
12.8128877289
 20
26.7000017977
 30
0.0
 10
12.2991811682
 20
26.7288563184
 30
0.0
 10
11.7854750181
 20
26.6999993596
 30
0.0
 10
11.2909180254
 20
26.6145758039
 30
0.0
 10
10.8341411685
 20
26.475713561
 30
0.0
 10
10.5536205668
 20
26.3451042322
 30
0.0
 10
10.4253513581
 20
26.2710484121
 30
0.0
  0
SPLINE
  5
27D
100
AcDbEntity
  8
0
100
AcDbSpline
 62
7
  6
BYLAYER
 70
0
 71
3
 72
13
 73
9
 74
0
 42
0.0000001
 43
0.0000001
 44
0.0000000001
 40
0.0
 40
0.0
 40
0.0
 40
0.0
 40
0.1081037873
 40
0.2182385973
 40
0.3322394299
 40
0.4516639533
 40
0.7106942462
 40
1.0
 40
1.0
 40
1.0
 40
1.0
 10
19.1127549331
 20
67.0320247823
 30
0.0
 10
19.079962014
 20
67.0130918885
 30
0.0
 10
19.016937069
 20
66.9690659077
 30
0.0
 10
18.9336321938
 20
66.8871032314
 30
0.0
 10
18.8619701163
 20
66.7898309634
 30
0.0
 10
18.7807291377
 20
66.6370671808
 30
0.0
 10
18.713840711
 20
66.4104364594
 30
0.0
 10
18.6985260161
 20
66.2177978306
 30
0.0
 10
18.6985260161
 20
66.1164615418
 30
0.0
  0
SPLINE
  5
27E
100
AcDbEntity
  8
0
100
AcDbSpline
 62
7
  6
BYLAYER
 70
0
 71
3
 72
15
 73
11
 74
0
 42
0.0000001
 43
0.0000001
 44
0.0000000001
 40
0.0
 40
0.0
 40
0.0
 40
0.0
 40
0.1141469224
 40
0.2373360366
 40
0.366976904
 40
0.5000005214
 40
0.6330240662
 40
0.7626647219
 40
0.8858535023
 40
1.0
 40
1.0
 40
1.0
 40
1.0
 10
38.9218576785
 20
11.9826310122
 30
0.0
 10
38.7935874586
 20
12.0566861828
 30
0.0
 10
38.5130651384
 20
12.1872941105
 30
0.0
 10
38.056286315
 20
12.326154182
 30
0.0
 10
37.5617281091
 20
12.4115753895
 30
0.0
 10
37.0480215483
 20
12.4404299102
 30
0.0
 10
36.5343153983
 20
12.4115729514
 30
0.0
 10
36.0397584056
 20
12.3261493957
 30
0.0
 10
35.5829815486
 20
12.1872871528
 30
0.0
 10
35.302460947
 20
12.056677824
 30
0.0
 10
35.1741917383
 20
11.9826220039
 30
0.0
  0
SPLINE
  5
27F
100
AcDbEntity
  8
0
100
AcDbSpline
 62
7
  6
BYLAYER
 70
0
 71
3
 72
15
 73
11
 74
0
 42
0.0000001
 43
0.0000001
 44
0.0000000001
 40
0.0
 40
0.0
 40
0.0
 40
0.0
 40
0.1080120025
 40
0.2180589573
 40
0.3320009655
 40
0.4513537402
 40
0.5772571011
 40
0.7104931219
 40
0.8514652578
 40
1.0
 40
1.0
 40
1.0
 40
1.0
 10
21.3347274729
 20
25.18926269
 30
0.0
 10
21.3347394031
 20
25.2933849286
 30
0.0
 10
21.3166213203
 20
25.5040104096
 30
0.0
 10
21.235957152
 20
25.8151327946
 30
0.0
 10
21.1026791033
 20
26.1195130459
 30
0.0
 10
20.9186872769
 20
26.4141453673
 30
0.0
 10
20.6858813844
 20
26.6963011369
 30
0.0
 10
20.4066892272
 20
26.96357011
 30
0.0
 10
20.0838748197
 20
27.2133415079
 30
0.0
 10
19.8478149812
 20
27.3630139135
 30
0.0
 10
19.7238118602
 20
27.4346055291
 30
0.0
  0
SPLINE
  5
280
100
AcDbEntity
  8
0
100
AcDbSpline
 62
7
  6
BYLAYER
 70
0
 71
3
 72
14
 73
10
 74
0
 42
0.0000001
 43
0.0000001
 44
0.0000000001
 40
0.0
 40
0.0
 40
0.0
 40
0.0
 40
0.108059661
 40
0.218157209
 40
0.332151892
 40
0.4515558139
 40
0.7103674264
 40
0.8514064464
 40
1.0
 40
1.0
 40
1.0
 40
1.0
 10
46.083571746
 20
10.9008362746
 30
0.0
 10
46.083571753
 20
11.0049576453
 30
0.0
 10
46.0654499652
 20
11.2155822161
 30
0.0
 10
45.9848028967
 20
11.5267050278
 30
0.0
 10
45.851504217
 20
11.8311040961
 30
0.0
 10
45.5995640892
 20
12.2345397557
 30
0.0
 10
45.2510125835
 20
12.6012947801
 30
0.0
 10
44.832771176
 20
12.9248583985
 30
0.0
 10
44.5966487134
 20
13.0745913434
 30
0.0
 10
44.4726522403
 20
13.1461791209
 30
0.0
  0
SPLINE
  5
281
100
AcDbEntity
  8
0
100
AcDbSpline
 62
7
  6
BYLAYER
 70
0
 71
3
 72
15
 73
11
 74
0
 42
0.0000001
 43
0.0000001
 44
0.0000000001
 40
0.0
 40
0.0
 40
0.0
 40
0.0
 40
0.1140735323
 40
0.237356339
 40
0.3669847709
 40
0.4999988212
 40
0.6330130232
 40
0.7626419462
 40
0.8859255398
 40
1.0
 40
1.0
 40
1.0
 40
1.0
 10
21.5269649166
 20
39.1719235927
 30
0.0
 10
21.5753374136
 20
39.1439963504
 30
0.0
 10
21.6709237146
 20
39.0769144753
 30
0.0
 10
21.8025468628
 20
38.953902111
 30
0.0
 10
21.9238014578
 20
38.808365767
 30
0.0
 10
22.0300948212
 20
38.6459117042
 30
0.0
 10
22.1176384367
 20
38.4726321344
 30
0.0
 10
22.18305053
 20
38.2948541087
 30
0.0
 10
22.223772128
 20
38.1193581458
 30
0.0
 10
22.2340746418
 20
38.0030363078
 30
0.0
 10
22.2340746418
 20
37.9471804211
 30
0.0
  0
SPLINE
  5
282
100
AcDbEntity
  8
0
100
AcDbSpline
 62
7
  6
BYLAYER
 70
0
 71
3
 72
15
 73
11
 74
0
 42
0.0000001
 43
0.0000001
 44
0.0000000001
 40
0.0
 40
0.0
 40
0.0
 40
0.0
 40
0.1140744128
 40
0.2373579131
 40
0.3669867845
 40
0.5000009849
 40
0.6330150368
 40
0.7626435203
 40
0.8859264203
 40
1.0
 40
1.0
 40
1.0
 40
1.0
 10
18.6985260161
 20
41.6213890279
 30
0.0
 10
18.6985260161
 20
41.5655331644
 30
0.0
 10
18.708828495
 20
41.4492113924
 30
0.0
 10
18.7495500897
 20
41.2737155252
 30
0.0
 10
18.8149621121
 20
41.0959375522
 30
0.0
 10
18.902505694
 20
40.9226579919
 30
0.0
 10
19.0087990489
 20
40.7602038952
 30
0.0
 10
19.1300536539
 20
40.6146674635
 30
0.0
 10
19.2616768834
 20
40.4916550485
 30
0.0
 10
19.3572632242
 20
40.4245731102
 30
0.0
 10
19.4056357412
 20
40.3966458563
 30
0.0
  0
SPLINE
  5
283
100
AcDbEntity
  8
0
100
AcDbSpline
 62
7
  6
BYLAYER
 70
0
 71
3
 72
11
 73
7
 74
0
 42
0.0000001
 43
0.0000001
 44
0.0000000001
 40
0.0
 40
0.0
 40
0.0
 40
0.0
 40
0.2895362931
 40
0.5491119104
 40
0.782252836
 40
1.0
 40
1.0
 40
1.0
 40
1.0
 10
35.6691594196
 20
31.0071085023
 30
0.0
 10
35.7130125187
 20
30.9817904765
 30
0.0
 10
35.8003238357
 20
30.940310841
 30
0.0
 10
35.9344681414
 20
30.9078416691
 30
0.0
 10
36.0604008764
 20
30.910998358
 30
0.0
 10
36.136153524
 20
30.9385847698
 30
0.0
 10
36.169133322
 20
30.9576255492
 30
0.0
  0
SPLINE
  5
284
100
AcDbEntity
  8
0
100
AcDbSpline
 62
7
  6
BYLAYER
 70
0
 71
3
 72
15
 73
11
 74
0
 42
0.0000001
 43
0.0000001
 44
0.0000000001
 40
0.0
 40
0.0
 40
0.0
 40
0.0
 40
0.1141462769
 40
0.2373347432
 40
0.3669750849
 40
0.4999983967
 40
0.6330219315
 40
0.7626629244
 40
0.8858524171
 40
1.0
 40
1.0
 40
1.0
 40
1.0
 10
24.7796690635
 20
19.3309611942
 30
0.0
 10
24.895837323
 20
19.3980305697
 30
0.0
 10
25.1253060664
 20
19.5589050383
 30
0.0
 10
25.441061478
 20
19.854284929
 30
0.0
 10
25.7320108005
 20
20.2034960909
 30
0.0
 10
25.9872641103
 20
20.59334219
 30
0.0
 10
26.1972523838
 20
21.0093227994
 30
0.0
 10
26.3542024563
 20
21.435900616
 30
0.0
 10
26.4521309646
 20
21.8570464072
 30
0.0
 10
26.4767182728
 20
22.1362120783
 30
0.0
 10
26.4767182728
 20
22.2703529646
 30
0.0
  0
SPLINE
  5
285
100
AcDbEntity
  8
0
100
AcDbSpline
 62
7
  6
BYLAYER
 70
0
 71
3
 72
14
 73
10
 74
0
 42
0.0000001
 43
0.0000001
 44
0.0000000001
 40
0.0
 40
0.0
 40
0.0
 40
0.0
 40
0.1080599057
 40
0.2181576606
 40
0.3321524822
 40
0.4515564544
 40
0.710367899
 40
0.851406711
 40
1.0
 40
1.0
 40
1.0
 40
1.0
 10
46.083571746
 20
8.8595802318
 30
0.0
 10
46.0835717485
 20
8.7554599693
 30
0.0
 10
46.0654503601
 20
8.5448376894
 30
0.0
 10
45.984805021
 20
8.2337181516
 30
0.0
 10
45.8515091697
 20
7.9293221331
 30
0.0
 10
45.5995744056
 20
7.5258903614
 30
0.0
 10
45.2510300166
 20
7.1591380935
 30
0.0
 10
44.8327967197
 20
6.835576151
 30
0.0
 10
44.5966787596
 20
6.6858437022
 30
0.0
 10
44.472684624
 20
6.614256082
 30
0.0
  0
SPLINE
  5
286
100
AcDbEntity
  8
0
100
AcDbSpline
 62
7
  6
BYLAYER
 70
0
 71
3
 72
11
 73
7
 74
0
 42
0.0000001
 43
0.0000001
 44
0.0000000001
 40
0.0
 40
0.0
 40
0.0
 40
0.0
 40
0.2895372962
 40
0.549113267
 40
0.7822537841
 40
1.0
 40
1.0
 40
1.0
 40
1.0
 10
38.1440287378
 20
32.4359805496
 30
0.0
 10
38.1440287378
 20
32.3853421097
 30
0.0
 10
38.1362961918
 20
32.2889855788
 30
0.0
 10
38.0973431533
 20
32.1565745801
 30
0.0
 10
38.0316418855
 20
32.0490888635
 30
0.0
 10
37.9698734454
 20
31.9972771484
 30
0.0
 10
37.9368929146
 20
31.9782359336
 30
0.0
  0
SPLINE
  5
287
100
AcDbEntity
  8
0
100
AcDbSpline
 62
7
  6
BYLAYER
 70
0
 71
3
 72
15
 73
11
 74
0
 42
0.0000001
 43
0.0000001
 44
0.0000000001
 40
0.0
 40
0.0
 40
0.0
 40
0.0
 40
0.114123281
 40
0.2373467917
 40
0.3669716254
 40
0.4999988492
 40
0.6330262329
 40
0.7626515287
 40
0.885875802
 40
1.0
 40
1.0
 40
1.0
 40
1.0
 10
36.7298092875
 20
59.3805394068
 30
0.0
 10
36.826596887
 20
59.3246602878
 30
0.0
 10
37.0178126798
 20
59.1905687414
 30
0.0
 10
37.2809701457
 20
58.9444556156
 30
0.0
 10
37.5234297002
 20
58.6534174786
 30
0.0
 10
37.7361552914
 20
58.3285652898
 30
0.0
 10
37.9111246345
 20
57.9819138796
 30
0.0
 10
38.0419436414
 20
57.6264181099
 30
0.0
 10
38.1235078327
 20
57.2754589907
 30
0.0
 10
38.1440287378
 20
57.0428140409
 30
0.0
 10
38.1440287378
 20
56.9310530635
 30
0.0
  0
SPLINE
  5
288
100
AcDbEntity
  8
0
100
AcDbSpline
 62
7
  6
BYLAYER
 70
0
 71
3
 72
11
 73
7
 74
0
 42
0.0000001
 43
0.0000001
 44
0.0000000001
 40
0.0
 40
0.0
 40
0.0
 40
0.0
 40
0.2895392506
 40
0.5491157405
 40
0.7822554452
 40
1.0
 40
1.0
 40
1.0
 40
1.0
 10
32.0982614899
 20
16.2079677831
 30
0.0
 10
32.0544077817
 20
16.2332861606
 30
0.0
 10
31.9748277279
 20
16.2881590934
 30
0.0
 10
31.8796336942
 20
16.3880956163
 30
0.0
 10
31.8193992179
 20
16.4987339152
 30
0.0
 10
31.8054130529
 20
16.5781305208
 30
0.0
 10
31.805413046
 20
16.6162119372
 30
0.0
  0
SPLINE
  5
289
100
AcDbEntity
  8
0
100
AcDbSpline
 62
7
  6
BYLAYER
 70
0
 71
3
 72
12
 73
8
 74
0
 42
0.0000001
 43
0.0000001
 44
0.0000000001
 40
0.0
 40
0.0
 40
0.0
 40
0.0
 40
0.2500196747
 40
0.5124339312
 40
0.7681284457
 40
0.8880611032
 40
1.0
 40
1.0
 40
1.0
 40
1.0
 10
34.1613796636
 20
15.6449155961
 30
0.0
 10
34.0618659615
 20
15.6094899549
 30
0.0
 10
33.848708798
 20
15.5615520667
 30
0.0
 10
33.5226807817
 20
15.5524121212
 30
0.0
 10
33.254466377
 20
15.5957025024
 30
0.0
 10
33.0589741677
 20
15.661804846
 30
0.0
 10
32.9703872362
 20
15.7044571396
 30
0.0
 10
32.9294298543
 20
15.7281033602
 30
0.0
  0
SPLINE
  5
28A
100
AcDbEntity
  8
0
100
AcDbSpline
 62
7
  6
BYLAYER
 70
0
 71
3
 72
15
 73
11
 74
0
 42
0.0000001
 43
0.0000001
 44
0.0000000001
 40
0.0
 40
0.0
 40
0.0
 40
0.0
 40
0.1118804222
 40
0.2316245459
 40
0.3574945704
 40
0.487412298
 40
0.6190277061
 40
0.7498923179
 40
0.8776351643
 40
1.0
 40
1.0
 40
1.0
 40
1.0
 10
40.9371036146
 20
15.1873828935
 30
0.0
 10
40.7117302826
 20
15.3174993038
 30
0.0
 10
40.2246281172
 20
15.5521845004
 30
0.0
 10
39.4352559285
 20
15.818979112
 30
0.0
 10
38.5805311014
 20
16.0068918028
 30
0.0
 10
37.6839835924
 20
16.1108694984
 30
0.0
 10
36.7700184342
 20
16.1280059698
 30
0.0
 10
35.8636002086
 20
16.0579249126
 30
0.0
 10
34.989744353
 20
15.9024632557
 30
0.0
 10
34.4295202732
 20
15.7403703207
 30
0.0
 10
34.1613796636
 20
15.6449155961
 30
0.0
  0
SPLINE
  5
28B
100
AcDbEntity
  8
0
100
AcDbSpline
 62
7
  6
BYLAYER
 70
0
 71
3
 72
14
 73
10
 74
0
 42
0.0000001
 43
0.0000001
 44
0.0000000001
 40
0.0
 40
0.0
 40
0.0
 40
0.0
 40
0.148593286
 40
0.2896321097
 40
0.5484435635
 40
0.6678475308
 40
0.7818423497
 40
0.8919401002
 40
1.0
 40
1.0
 40
1.0
 40
1.0
 10
8.4100886415
 20
29.4757906053
 30
0.0
 10
8.2860945084
 20
29.4042029865
 30
0.0
 10
8.0499765459
 20
29.2544705264
 30
0.0
 10
7.6317432336
 20
28.9309085778
 30
0.0
 10
7.2831988314
 20
28.5641562986
 30
0.0
 10
7.0312640843
 20
28.160724515
 30
0.0
 10
6.8979682404
 20
27.8563285076
 30
0.0
 10
6.8173228999
 20
27.5452089819
 30
0.0
 10
6.7992015264
 20
27.3345867122
 30
0.0
 10
6.7992015194
 20
27.2304664554
 30
0.0
  0
SPLINE
  5
28C
100
AcDbEntity
  8
0
100
AcDbSpline
 62
7
  6
BYLAYER
 70
0
 71
3
 72
17
 73
13
 74
0
 42
0.0000001
 43
0.0000001
 44
0.0000000001
 40
0.0
 40
0.0
 40
0.0
 40
0.0
 40
0.0558321097
 40
0.1142209377
 40
0.2373717846
 40
0.3669993074
 40
0.5000005388
 40
0.6330016947
 40
0.7626289991
 40
0.8857794983
 40
0.9441681143
 40
1.0
 40
1.0
 40
1.0
 40
1.0
 10
16.1882632345
 20
29.4758093017
 30
0.0
 10
16.0580252941
 20
29.5510005106
 30
0.0
 10
15.7847792092
 20
29.6932743605
 30
0.0
 10
15.1962237723
 20
29.9442975367
 30
0.0
 10
14.3916390605
 20
30.1887948217
 30
0.0
 10
13.3654241785
 20
30.3661105516
 30
0.0
 10
12.2991692411
 20
30.4259643915
 30
0.0
 10
11.2329151741
 20
30.3661054641
 30
0.0
 10
10.2067028817
 20
30.1887848412
 30
0.0
 10
9.4021215148
 20
29.9442836777
 30
0.0
 10
8.8135695873
 20
29.6932576385
 30
0.0
 10
8.5403255171
 20
29.5509824517
 30
0.0
 10
8.4100886415
 20
29.4757906053
 30
0.0
  0
SPLINE
  5
28D
100
AcDbEntity
  8
0
100
AcDbSpline
 62
7
  6
BYLAYER
 70
0
 71
3
 72
11
 73
7
 74
0
 42
0.0000001
 43
0.0000001
 44
0.0000000001
 40
0.0
 40
0.0
 40
0.0
 40
0.0
 40
0.2896901885
 40
0.5490939754
 40
0.7822200945
 40
1.0
 40
1.0
 40
1.0
 40
1.0
 10
20.6604472484
 20
22.8114435238
 30
0.0
 10
20.6165702286
 20
22.8367753599
 30
0.0
 10
20.5369655431
 20
22.8916113386
 30
0.0
 10
20.4418153471
 20
22.9915923621
 30
0.0
 10
20.3816280469
 20
23.1022128596
 30
0.0
 10
20.3675741126
 20
23.1815996938
 30
0.0
 10
20.3675591451
 20
23.2196876807
 30
0.0
  0
SPLINE
  5
28E
100
AcDbEntity
  8
0
100
AcDbSpline
 62
7
  6
BYLAYER
 70
0
 71
3
 72
15
 73
11
 74
0
 42
0.0000001
 43
0.0000001
 44
0.0000000001
 40
0.0
 40
0.0
 40
0.0
 40
0.0
 40
0.1140734351
 40
0.2373563733
 40
0.3669850588
 40
0.4999993817
 40
0.6330137787
 40
0.7626427274
 40
0.8859260933
 40
1.0
 40
1.0
 40
1.0
 40
1.0
 10
22.9058291751
 20
22.3315825002
 30
0.0
 10
22.8574570097
 20
22.3036549842
 30
0.0
 10
22.751568914
 20
22.2544170044
 30
0.0
 10
22.5792253106
 20
22.2019355782
 30
0.0
 10
22.3925597467
 20
22.1696950337
 30
0.0
 10
22.1987237289
 20
22.15886959
 30
0.0
 10
22.0048875315
 20
22.1696940894
 30
0.0
 10
21.8182214286
 20
22.2019337125
 30
0.0
 10
21.645876998
 20
22.2544143643
 30
0.0
 10
21.5399881795
 20
22.3036518183
 30
0.0
 10
21.4916156127
 20
22.3315791009
 30
0.0
  0
SPLINE
  5
28F
100
AcDbEntity
  8
0
100
AcDbSpline
 62
7
  6
BYLAYER
 70
0
 71
3
 72
14
 73
10
 74
0
 42
0.0000001
 43
0.0000001
 44
0.0000000001
 40
0.0
 40
0.0
 40
0.0
 40
0.0
 40
0.2892494338
 40
0.4225733849
 40
0.5485206453
 40
0.6678948276
 40
0.7818666694
 40
0.8919552416
 40
1.0
 40
1.0
 40
1.0
 40
1.0
 10
10.4253669612
 20
26.1486194477
 30
0.0
 10
10.3090563757
 20
26.2157698764
 30
0.0
 10
10.1461561502
 20
26.3279542354
 30
0.0
 10
9.9618237778
 20
26.5043310381
 30
0.0
 10
9.8496472536
 20
26.6403126903
 30
0.0
 10
9.7609915532
 20
26.7822552703
 30
0.0
 10
9.6968321964
 20
26.9289236528
 30
0.0
 10
9.6578976794
 20
27.0788092236
 30
0.0
 10
9.64921161
 20
27.1802995469
 30
0.0
 10
9.6492116094
 20
27.2304664555
 30
0.0
  0
SPLINE
  5
290
100
AcDbEntity
  8
0
100
AcDbSpline
 62
7
  6
BYLAYER
 70
0
 71
3
 72
15
 73
11
 74
0
 42
0.0000001
 43
0.0000001
 44
0.0000000001
 40
0.0
 40
0.0
 40
0.0
 40
0.0
 40
0.1141464977
 40
0.2373352781
 40
0.3669759338
 40
0.4999994786
 40
0.633023096
 40
0.7626639634
 40
0.8858530776
 40
1.0
 40
1.0
 40
1.0
 40
1.0
 10
17.7085815272
 20
24.1074246834
 30
0.0
 10
17.5803123185
 20
24.0333688633
 30
0.0
 10
17.2997917168
 20
23.9027595345
 30
0.0
 10
16.8430148599
 20
23.7638972916
 30
0.0
 10
16.3484578672
 20
23.6784737359
 30
0.0
 10
15.8347517171
 20
23.6496167771
 30
0.0
 10
15.3210451564
 20
23.6784712977
 30
0.0
 10
14.8264869505
 20
23.7638925052
 30
0.0
 10
14.369708127
 20
23.9027525768
 30
0.0
 10
14.0891858068
 20
24.0333605044
 30
0.0
 10
13.9609155869
 20
24.1074156751
 30
0.0
  0
SPLINE
  5
291
100
AcDbEntity
  8
0
100
AcDbSpline
 62
7
  6
BYLAYER
 70
0
 71
3
 72
14
 73
10
 74
0
 42
0.0000001
 43
0.0000001
 44
0.0000000001
 40
0.0
 40
0.0
 40
0.0
 40
0.0
 40
0.2892494338
 40
0.4225733849
 40
0.5485206453
 40
0.6678948276
 40
0.7818666694
 40
0.8919552416
 40
1.0
 40
1.0
 40
1.0
 40
1.0
 10
35.1742073413
 20
11.8601930395
 30
0.0
 10
35.0578967558
 20
11.9273434682
 30
0.0
 10
34.8949965304
 20
12.0395278272
 30
0.0
 10
34.710664158
 20
12.2159046299
 30
0.0
 10
34.5984876337
 20
12.3518862821
 30
0.0
 10
34.5098319334
 20
12.4938288621
 30
0.0
 10
34.4456725765
 20
12.6404972446
 30
0.0
 10
34.4067380596
 20
12.7903828154
 30
0.0
 10
34.3980519901
 20
12.8918731387
 30
0.0
 10
34.3980519895
 20
12.9420400472
 30
0.0
  0
SPLINE
  5
292
100
AcDbEntity
  8
0
100
AcDbSpline
 62
7
  6
BYLAYER
 70
0
 71
3
 72
15
 73
11
 74
0
 42
0.0000001
 43
0.0000001
 44
0.0000000001
 40
0.0
 40
0.0
 40
0.0
 40
0.0
 40
0.1141464977
 40
0.2373352781
 40
0.3669759338
 40
0.4999994786
 40
0.633023096
 40
0.7626639634
 40
0.8858530776
 40
1.0
 40
1.0
 40
1.0
 40
1.0
 10
42.4574219073
 20
9.8189982752
 30
0.0
 10
42.3291526986
 20
9.7449424551
 30
0.0
 10
42.048632097
 20
9.6143331263
 30
0.0
 10
41.59185524
 20
9.4754708834
 30
0.0
 10
41.0972982473
 20
9.3900473277
 30
0.0
 10
40.5835920973
 20
9.3611903689
 30
0.0
 10
40.0698855365
 20
9.3900448895
 30
0.0
 10
39.5753273306
 20
9.475466097
 30
0.0
 10
39.1185485071
 20
9.6143261685
 30
0.0
 10
38.838026187
 20
9.7449340962
 30
0.0
 10
38.709755967
 20
9.8189892669
 30
0.0
  0
SPLINE
  5
293
100
AcDbEntity
  8
0
100
AcDbSpline
 62
7
  6
BYLAYER
 70
0
 71
3
 72
11
 73
7
 74
0
 42
0.0000001
 43
0.0000001
 44
0.0000000001
 40
0.0
 40
0.0
 40
0.0
 40
0.0
 40
0.2643224405
 40
0.5246417669
 40
0.7722768165
 40
1.0
 40
1.0
 40
1.0
 40
1.0
 10
33.2411389285
 20
16.0512879147
 30
0.0
 10
33.3437474731
 20
16.2019659411
 30
0.0
 10
33.5277673399
 20
16.5149256373
 30
0.0
 10
33.7361004149
 20
17.0068171709
 30
0.0
 10
33.8676642137
 20
17.4985811827
 30
0.0
 10
33.9013703869
 20
17.8267692562
 30
0.0
 10
33.9013703869
 20
17.9838250421
 30
0.0
  0
SPLINE
  5
294
100
AcDbEntity
  8
0
100
AcDbSpline
 62
7
  6
BYLAYER
 70
0
 71
3
 72
11
 73
7
 74
0
 42
0.0000001
 43
0.0000001
 44
0.0000000001
 40
0.0
 40
0.0
 40
0.0
 40
0.0
 40
0.2177449315
 40
0.4508848156
 40
0.7104612496
 40
1.0
 40
1.0
 40
1.0
 40
1.0
 10
31.805413046
 20
16.6162119372
 30
0.0
 10
31.805413039
 20
16.6542929286
 30
0.0
 10
31.8193989012
 20
16.733688597
 30
0.0
 10
31.8796320346
 20
16.8443258481
 30
0.0
 10
31.9748241823
 20
16.9442616114
 30
0.0
 10
32.0544027173
 20
16.9991343678
 30
0.0
 10
32.098255602
 20
17.0244526915
 30
0.0
  0
SPLINE
  5
295
100
AcDbEntity
  8
0
100
AcDbSpline
 62
7
  6
BYLAYER
 70
0
 71
3
 72
14
 73
10
 74
0
 42
0.0000001
 43
0.0000001
 44
0.0000000001
 40
0.0
 40
0.0
 40
0.0
 40
0.0
 40
0.108059661
 40
0.218157209
 40
0.332151892
 40
0.4515558139
 40
0.7103674264
 40
0.8514064464
 40
1.0
 40
1.0
 40
1.0
 40
1.0
 10
6.7992015194
 20
27.2304664554
 30
0.0
 10
6.7992015124
 20
27.1263450848
 30
0.0
 10
6.8173233002
 20
26.915720514
 30
0.0
 10
6.8979703687
 20
26.6045977022
 30
0.0
 10
7.0312690485
 20
26.3001986339
 30
0.0
 10
7.2832091762
 20
25.8967629744
 30
0.0
 10
7.631760682
 20
25.53000795
 30
0.0
 10
8.0500020894
 20
25.2064443315
 30
0.0
 10
8.2861245521
 20
25.0567113867
 30
0.0
 10
8.4101210251
 20
24.9851236092
 30
0.0
  0
SPLINE
  5
296
100
AcDbEntity
  8
0
100
AcDbSpline
 62
7
  6
BYLAYER
 70
0
 71
3
 72
11
 73
7
 74
0
 42
0.0000001
 43
0.0000001
 44
0.0000000001
 40
0.0
 40
0.0
 40
0.0
 40
0.0
 40
0.230839688
 40
0.4702054845
 40
0.7252562801
 40
1.0
 40
1.0
 40
1.0
 40
1.0
 10
20.3675591451
 20
23.2196876807
 30
0.0
 10
20.3675486599
 20
23.246369402
 30
0.0
 10
20.3742123522
 20
23.3009231731
 30
0.0
 10
20.4035777111
 20
23.3801491888
 30
0.0
 10
20.4514800003
 20
23.4556996105
 30
0.0
 10
20.4931687632
 20
23.5009938689
 30
0.0
 10
20.5163494963
 20
23.5226992169
 30
0.0
  0
SPLINE
  5
297
100
AcDbEntity
  8
0
100
AcDbSpline
 62
7
  6
BYLAYER
 70
0
 71
3
 72
14
 73
10
 74
0
 42
0.0000001
 43
0.0000001
 44
0.0000000001
 40
0.0
 40
0.0
 40
0.0
 40
0.0
 40
0.148593286
 40
0.2896321097
 40
0.5484435635
 40
0.6678475308
 40
0.7818423497
 40
0.8919401002
 40
1.0
 40
1.0
 40
1.0
 40
1.0
 10
44.472684624
 20
8.6555121248
 30
0.0
 10
44.596678757
 20
8.7270997436
 30
0.0
 10
44.8327967196
 20
8.8768322037
 30
0.0
 10
45.2510300318
 20
9.2003941523
 30
0.0
 10
45.599574434
 20
9.5671464315
 30
0.0
 10
45.8515091812
 20
9.9705782151
 30
0.0
 10
45.984805025
 20
10.2749742225
 30
0.0
 10
46.0654503655
 20
10.5860937482
 30
0.0
 10
46.083571739
 20
10.7967160179
 30
0.0
 10
46.083571746
 20
10.9008362746
 30
0.0
  0
SPLINE
  5
298
100
AcDbEntity
  8
0
100
AcDbSpline
 62
7
  6
BYLAYER
 70
0
 71
3
 72
17
 73
13
 74
0
 42
0.0000001
 43
0.0000001
 44
0.0000000001
 40
0.0
 40
0.0
 40
0.0
 40
0.0
 40
0.0558321097
 40
0.1142209377
 40
0.2373717846
 40
0.3669993074
 40
0.5000005388
 40
0.6330016947
 40
0.7626289991
 40
0.8857794983
 40
0.9441681143
 40
1.0
 40
1.0
 40
1.0
 40
1.0
 10
36.694510031
 20
8.6554934283
 30
0.0
 10
36.8247479713
 20
8.5803022195
 30
0.0
 10
37.0979940562
 20
8.4380283696
 30
0.0
 10
37.6865494931
 20
8.1870051934
 30
0.0
 10
38.4911342049
 20
7.9425079084
 30
0.0
 10
39.5173490869
 20
7.7651921785
 30
0.0
 10
40.5836040243
 20
7.7053383386
 30
0.0
 10
41.6498580914
 20
7.765197266
 30
0.0
 10
42.6760703838
 20
7.9425178889
 30
0.0
 10
43.4806517507
 20
8.1870190524
 30
0.0
 10
44.0692036781
 20
8.4380450916
 30
0.0
 10
44.3424477483
 20
8.5803202784
 30
0.0
 10
44.472684624
 20
8.6555121248
 30
0.0
  0
SPLINE
  5
299
100
AcDbEntity
  8
0
100
AcDbSpline
 62
7
  6
BYLAYER
 70
0
 71
3
 72
15
 73
11
 74
0
 42
0.0000001
 43
0.0000001
 44
0.0000000001
 40
0.0
 40
0.0
 40
0.0
 40
0.0
 40
0.1141241598
 40
0.2373483675
 40
0.3669736387
 40
0.5000010134
 40
0.6330282462
 40
0.7626531045
 40
0.8858766807
 40
1.0
 40
1.0
 40
1.0
 40
1.0
 10
36.3762691447
 20
55.9104426788
 30
0.0
 10
36.3762691447
 20
56.0222036188
 30
0.0
 10
36.3557482837
 20
56.2548484698
 30
0.0
 10
36.2741841159
 20
56.605807466
 30
0.0
 10
36.1433651849
 20
56.9613031579
 30
0.0
 10
35.9683958932
 20
57.3079545677
 30
0.0
 10
35.7556703273
 20
57.6328068011
 30
0.0
 10
35.5132107434
 20
57.9238450429
 30
0.0
 10
35.2500531827
 20
58.1699582504
 30
0.0
 10
35.0588373264
 20
58.3040498844
 30
0.0
 10
34.9620496944
 20
58.3599290221
 30
0.0
  0
SPLINE
  5
29A
100
AcDbEntity
  8
0
100
AcDbSpline
 62
7
  6
BYLAYER
 70
0
 71
3
 72
14
 73
10
 74
0
 42
0.0000001
 43
0.0000001
 44
0.0000000001
 40
0.0
 40
0.0
 40
0.0
 40
0.0
 40
0.1080450031
 40
0.2181337829
 40
0.3321057623
 40
0.4514799957
 40
0.5774272149
 40
0.7107510372
 40
1.0
 40
1.0
 40
1.0
 40
1.0
 10
9.6492116094
 20
27.2304664555
 30
0.0
 10
9.6492116087
 20
27.28063283
 30
0.0
 10
9.6578974897
 20
27.3821220498
 30
0.0
 10
9.6968311748
 20
27.5320060417
 30
0.0
 10
9.7609891634
 20
27.6786729574
 30
0.0
 10
9.8496430146
 20
27.8206142181
 30
0.0
 10
9.961817234
 20
27.9565947437
 30
0.0
 10
10.1461458596
 20
28.1329702621
 30
0.0
 10
10.3090429477
 20
28.2451541637
 30
0.0
 10
10.4253513581
 20
28.3123044549
 30
0.0
  0
SPLINE
  5
29B
100
AcDbEntity
  8
0
100
AcDbSpline
 62
7
  6
BYLAYER
 70
0
 71
3
 72
11
 73
7
 74
0
 42
0.0000001
 43
0.0000001
 44
0.0000000001
 40
0.0
 40
0.0
 40
0.0
 40
0.0
 40
0.274952549
 40
0.5298082174
 40
0.7691067749
 40
1.0
 40
1.0
 40
1.0
 40
1.0
 10
20.5163494963
 20
23.5226992169
 30
0.0
 10
20.6439421104
 20
23.6421709384
 30
0.0
 10
20.8734023513
 20
23.8911704785
 30
0.0
 10
21.1365753653
 20
24.3068492937
 30
0.0
 10
21.2981192019
 20
24.7424345451
 30
0.0
 10
21.3347106543
 20
25.0424772503
 30
0.0
 10
21.3347274729
 20
25.18926269
 30
0.0
  0
SPLINE
  5
29C
100
AcDbEntity
  8
0
100
AcDbSpline
 62
7
  6
BYLAYER
 70
0
 71
3
 72
11
 73
7
 74
0
 42
0.0000001
 43
0.0000001
 44
0.0000000001
 40
0.0
 40
0.0
 40
0.0
 40
0.0
 40
0.2895372962
 40
0.549113267
 40
0.7822537841
 40
1.0
 40
1.0
 40
1.0
 40
1.0
 10
32.840720519
 20
31.8235691033
 30
0.0
 10
32.840720519
 20
31.8742075431
 30
0.0
 10
32.848453065
 20
31.9705640741
 30
0.0
 10
32.8874061035
 20
32.1029750727
 30
0.0
 10
32.9531073712
 20
32.2104607894
 30
0.0
 10
33.0148758113
 20
32.2622725045
 30
0.0
 10
33.0478563421
 20
32.2813137192
 30
0.0
  0
SPLINE
  5
29D
100
AcDbEntity
  8
0
100
AcDbSpline
 62
7
  6
BYLAYER
 70
0
 71
3
 72
14
 73
10
 74
0
 42
0.0000001
 43
0.0000001
 44
0.0000000001
 40
0.0
 40
0.0
 40
0.0
 40
0.0
 40
0.2892494338
 40
0.4225733849
 40
0.5485206453
 40
0.6678948276
 40
0.7818666694
 40
0.8919552416
 40
1.0
 40
1.0
 40
1.0
 40
1.0
 10
17.7085659241
 20
26.2711096906
 30
0.0
 10
17.8248765096
 20
26.2039592619
 30
0.0
 10
17.9877767351
 20
26.0917749029
 30
0.0
 10
18.1721091075
 20
25.9153981002
 30
0.0
 10
18.2842856317
 20
25.779416448
 30
0.0
 10
18.3729413321
 20
25.637473868
 30
0.0
 10
18.4371006889
 20
25.4908054855
 30
0.0
 10
18.4760352058
 20
25.3409199147
 30
0.0
 10
18.4847212753
 20
25.2394295914
 30
0.0
 10
18.4847212759
 20
25.1892626828
 30
0.0
  0
SPLINE
  5
29E
100
AcDbEntity
  8
0
100
AcDbSpline
 62
7
  6
BYLAYER
 70
0
 71
3
 72
15
 73
11
 74
0
 42
0.0000001
 43
0.0000001
 44
0.0000000001
 40
0.0
 40
0.0
 40
0.0
 40
0.0
 40
0.1141464977
 40
0.2373352781
 40
0.3669759338
 40
0.4999994786
 40
0.633023096
 40
0.7626639634
 40
0.8858530776
 40
1.0
 40
1.0
 40
1.0
 40
1.0
 10
10.4253513581
 20
28.3123044549
 30
0.0
 10
10.5536205668
 20
28.386360275
 30
0.0
 10
10.8341411685
 20
28.5169696038
 30
0.0
 10
11.2909180254
 20
28.6558318467
 30
0.0
 10
11.7854750181
 20
28.7412554024
 30
0.0
 10
12.2991811682
 20
28.7701123612
 30
0.0
 10
12.8128877289
 20
28.7412578406
 30
0.0
 10
13.3074459348
 20
28.6558366331
 30
0.0
 10
13.7642247583
 20
28.5169765615
 30
0.0
 10
14.0447470785
 20
28.3863686339
 30
0.0
 10
14.1730172984
 20
28.3123134632
 30
0.0
  0
SPLINE
  5
29F
100
AcDbEntity
  8
0
100
AcDbSpline
 62
7
  6
BYLAYER
 70
0
 71
3
 72
14
 73
10
 74
0
 42
0.0000001
 43
0.0000001
 44
0.0000000001
 40
0.0
 40
0.0
 40
0.0
 40
0.0
 40
0.2892494338
 40
0.4225733849
 40
0.5485206453
 40
0.6678948276
 40
0.7818666694
 40
0.8919552416
 40
1.0
 40
1.0
 40
1.0
 40
1.0
 10
42.4574063043
 20
11.9826832824
 30
0.0
 10
42.5737168898
 20
11.9155328537
 30
0.0
 10
42.7366171152
 20
11.8033484947
 30
0.0
 10
42.9209494876
 20
11.626971692
 30
0.0
 10
43.0331260119
 20
11.4909900398
 30
0.0
 10
43.1217817122
 20
11.3490474598
 30
0.0
 10
43.1859410691
 20
11.2023790773
 30
0.0
 10
43.224875586
 20
11.0524935064
 30
0.0
 10
43.2335616554
 20
10.9510031832
 30
0.0
 10
43.2335616561
 20
10.9008362746
 30
0.0
  0
SPLINE
  5
2A0
100
AcDbEntity
  8
0
100
AcDbSpline
 62
7
  6
BYLAYER
 70
0
 71
3
 72
15
 73
11
 74
0
 42
0.0000001
 43
0.0000001
 44
0.0000000001
 40
0.0
 40
0.0
 40
0.0
 40
0.0
 40
0.1141464977
 40
0.2373352781
 40
0.3669759338
 40
0.4999994786
 40
0.633023096
 40
0.7626639634
 40
0.8858530776
 40
1.0
 40
1.0
 40
1.0
 40
1.0
 10
35.1741917383
 20
14.0238780467
 30
0.0
 10
35.302460947
 20
14.0979338668
 30
0.0
 10
35.5829815486
 20
14.2285431956
 30
0.0
 10
36.0397584056
 20
14.3674054385
 30
0.0
 10
36.5343153983
 20
14.4528289942
 30
0.0
 10
37.0480215483
 20
14.481685953
 30
0.0
 10
37.5617281091
 20
14.4528314324
 30
0.0
 10
38.056286315
 20
14.3674102249
 30
0.0
 10
38.5130651384
 20
14.2285501533
 30
0.0
 10
38.7935874586
 20
14.0979422256
 30
0.0
 10
38.9218576785
 20
14.023887055
 30
0.0
  0
SPLINE
  5
2A1
100
AcDbEntity
  8
0
100
AcDbSpline
 62
7
  6
BYLAYER
 70
0
 71
3
 72
14
 73
10
 74
0
 42
0.0000001
 43
0.0000001
 44
0.0000000001
 40
0.0
 40
0.0
 40
0.0
 40
0.0
 40
0.1080450031
 40
0.2181337829
 40
0.3321057623
 40
0.4514799957
 40
0.5774272149
 40
0.7107510372
 40
1.0
 40
1.0
 40
1.0
 40
1.0
 10
34.3980519895
 20
12.9420400472
 30
0.0
 10
34.3980519889
 20
12.9922064218
 30
0.0
 10
34.4067378699
 20
13.0936956416
 30
0.0
 10
34.4456715549
 20
13.2435796335
 30
0.0
 10
34.5098295436
 20
13.3902465492
 30
0.0
 10
34.5984833948
 20
13.5321878099
 30
0.0
 10
34.7106576142
 20
13.6681683354
 30
0.0
 10
34.8949862398
 20
13.8445438539
 30
0.0
 10
35.0578833278
 20
13.9567277555
 30
0.0
 10
35.1741917383
 20
14.0238780467
 30
0.0
  0
SPLINE
  5
2A2
100
AcDbEntity
  8
0
100
AcDbSpline
 62
7
  6
BYLAYER
 70
0
 71
3
 72
11
 73
7
 74
0
 42
0.0000001
 43
0.0000001
 44
0.0000000001
 40
0.0
 40
0.0
 40
0.0
 40
0.0
 40
0.2177461357
 40
0.4508866354
 40
0.7104627206
 40
1.0
 40
1.0
 40
1.0
 40
1.0
 10
36.169133322
 20
30.9576255492
 30
0.0
 10
36.2021138458
 20
30.9766667476
 30
0.0
 10
36.2638822592
 20
31.0284784658
 30
0.0
 10
36.3295835664
 20
31.1359641595
 30
0.0
 10
36.3685365669
 20
31.2683751868
 30
0.0
 10
36.3762691447
 20
31.3647317283
 30
0.0
 10
36.3762691447
 20
31.4153701649
 30
0.0
  0
SPLINE
  5
2A3
100
AcDbEntity
  8
0
100
AcDbSpline
 62
7
  6
BYLAYER
 70
0
 71
3
 72
13
 73
9
 74
0
 42
0.0000001
 43
0.0000001
 44
0.0000000001
 40
0.0
 40
0.0
 40
0.0
 40
0.0
 40
0.2893047725
 40
0.5483346469
 40
0.6677592844
 40
0.7817604222
 40
0.8918956829
 40
1.0
 40
1.0
 40
1.0
 40
1.0
 10
20.1127454664
 20
66.932984867
 30
0.0
 10
20.0249878311
 20
66.9836506483
 30
0.0
 10
19.8505048702
 20
67.0667029664
 30
0.0
 10
19.6207988718
 20
67.1220877087
 30
0.0
 10
19.447885678
 20
67.128111742
 30
0.0
 10
19.3278173564
 20
67.114686616
 30
0.0
 10
19.2151857627
 20
67.0835245195
 30
0.0
 10
19.145547135
 20
67.0509572621
 30
0.0
 10
19.1127549331
 20
67.0320247823
 30
0.0
  0
ENDSEC
  0
SECTION
  2
OBJECTS
  0
DICTIONARY
  5
C
100
AcDbDictionary
280
0
281
1
  3
ACAD_GROUP
350
D
  3
ACAD_MLINESTYLE
350
17
  3
ACAD_LAYOUT
350
1A
  3
ACAD_PLOTSETTINGS
350
19
  3
ACAD_PLOTSTYLENAME
350
E
  0
DICTIONARY
  5
D
102
{ACAD_REACTORS
330
C
102
}
100
AcDbDictionary
280
0
281
1
  0
ACDBDICTIONARYWDFLT
  5
E
102
{ACAD_REACTORS
330
C
102
}
100
AcDbDictionary
281
1
  3
Normal
350
F
100
AcDbDictionaryWithDefault
340
F
  0
DICTIONARY
  5
17
102
{ACAD_REACTORS
330
C
102
}
100
AcDbDictionary
280
0
281
1
  3
Standard
350
18
  0
DICTIONARY
  5
19
102
{ACAD_REACTORS
330
C
102
}
100
AcDbDictionary
281
1
  0
DICTIONARY
  5
1A
102
{ACAD_REACTORS
330
C
102
}
100
AcDbDictionary
281
1
  3
Model
350
2A4
  3
Layout1
350
2A5
  0
ACDBPLACEHOLDER
  5
F
102
{ACAD_REACTORS
330
E
102
}
  0
MLINESTYLE
  5
18
102
{ACAD_REACTORS
330
17
102
}
100
AcDbMlineStyle
  2
STANDARD
 70
0
  3

 62
256
 51
90.0
 52
90.0
 71
2
 49
0.5
 62
256
  6
BYLAYER
 49
-0.5
 62
256
  6
BYLAYER
  0
LAYOUT
  5
2A4
102
{ACAD_REACTORS
330
1A
102
}
100
AcDbPlotSettings
  1

  2
none_device
  4

  6

 40
0.0
 41
0.0
 42
0.0
 43
0.0
 44
210.0
 45
297.0
 46
0.0
 47
0.0
 48
0.0
 49
0.0
140
0.0
141
0.0
142
1.0
143
1.0
 70
1024
 72
1
 73
0
 74
0
  7

 75
0
147
1.0
148
0.0
149
0.0
100
AcDbLayout
  1
Model
 70
0
 71
0
 10
0.0
 20
0.0
 11
210.0
 21
297.0
 12
0.0
 22
0.0
 32
0.0
 14
0.0
 24
0.0
 34
0.0
 15
0.0
 25
0.0
 35
0.0
146
0.0
 13
0.0
 23
0.0
 33
0.0
 16
1.0
 26
0.0
 36
0.0
 17
0.0
 27
1.0
 37
0.0
 76
0
330
210
345
0
346
0
  0
LAYOUT
  5
2A5
102
{ACAD_REACTORS
330
1A
102
}
100
AcDbPlotSettings
  1

  2
none_device
  4

  6

 40
0.0
 41
0.0
 42
0.0
 43
0.0
 44
210.0
 45
297.0
 46
0.0
 47
0.0
 48
0.0
 49
0.0
140
0.0
141
0.0
142
1.0
143
1.0
 70
0
 72
1
 73
0
 74
0
  7

 75
0
147
1.0
148
0.0
149
0.0
100
AcDbLayout
  1
Layout1
 70
0
 71
1
 10
0.0
 20
0.0
 11
210.0
 21
297.0
 12
0.0
 22
0.0
 32
0.0
 14
0.0
 24
0.0
 34
0.0
 15
0.0
 25
0.0
 35
0.0
146
0.0
 13
0.0
 23
0.0
 33
0.0
 16
1.0
 26
0.0
 36
0.0
 17
0.0
 27
1.0
 37
0.0
 76
0
330
211
345
0
346
0
  0
ENDSEC
  0
EOF
