999
DXF file: C:\Users\sesa63760\Dev\_Creo\CAD\MCADID0003393_3D-CAD\drw0001_5.dxf
999
Pro/ENGINEER 2019471 by Parametric Technology Corporation
  0
SECTION
  2
HEADER
  9
$ACADVER
  1
AC1024
  9
$DWGCODEPAGE
  3
ANSI_1252
  9
$EXTMAX
 10
93.4724799011
 20
132.1967930029
 30
0.0
  9
$EXTMIN
 10
0.0
 20
0.0
 30
0.0
  9
$LIMMIN
 10
0.0
 20
0.0
  9
$LIMMAX
 10
93.4724799011
 20
132.1967930029
  9
$VIEWCTR
 10
46.7362399505
 20
66.0983965015
  9
$VIEWSIZE
 40
132.1967930029
  9
$CLAYER
  8
0
  9
$LTSCALE
 40
8.6172724328
  9
$CELTYPE
  6
BYLAYER
  9
$DIMSCALE
 40
1.0
  9
$DIMASZ
 40
1.1127676179
  9
$DIMEXO
 40
1.0
  9
$DIMDLI
 40
5.9537518626
  9
$DIMEXE
 40
1.0
  9
$DIMCEN
 40
1.4100991254
  9
$DIMLFAC
 40
1.0
  9
$DIMBLK
  1
_FILLED
  9
$DIMALT
 70
0
  9
$DIMALTF
 40
0.0393700787
  9
$DIMTXT
 40
1.557874665
  9
$DIMTOL
 70
1
  9
$DIMLIM
 70
0
  9
$DIMTFAC
 40
1.0
  9
$DIMTP
 40
0.01
  9
$DIMTM
 40
0.01
  9
$DIMGAP
 40
0.625
  9
$DIMDSEP
 70
46
  9
$AUNITS
 70
0
  9
$PDMODE
 70
3
  9
$PDSIZE
 40
0.3125
  9
$HANDSEED
  5
297
  9
$TILEMODE
 70
1
  9
$MEASUREMENT
 70
1
  9
$INSUNITS
 70
4
  0
ENDSEC
  0
SECTION
  2
CLASSES
  0
CLASS
  1
ACDBDICTIONARYWDFLT
  2
AcDbDictionaryWithDefault
  3
AutoCAD 2000
 90
0
 91
1
280
0
281
0
  0
CLASS
  1
ACDBPLACEHOLDER
  2
AcDbPlaceHolder
  3
AutoCAD 2000
 90
0
 91
1
280
0
281
0
  0
CLASS
  1
LAYOUT
  2
AcDbLayout
  3
AutoCAD 2000
 90
0
 91
0
280
0
281
0
  0
ENDSEC
  0
SECTION
  2
TABLES
  0
TABLE
  2
VPORT
  5
8
100
AcDbSymbolTable
 70
2
  0
VPORT
  5
1F4
100
AcDbSymbolTableRecord
100
AcDbViewportTableRecord
  2
*ACTIVE
 70
0
 10
0.0
 20
0.0
 11
1.0
 21
1.0
 12
46.7362399505
 22
66.0983965015
 13
0.0
 23
0.0
 14
1.0
 24
1.0
 15
0.0
 25
0.0
 16
0.0
 26
0.0
 36
1.0
 17
0.0
 27
0.0
 37
0.0
 40
132.1967930029
 41
0.7070707071
 42
50.0
 43
0.0
 44
0.0
 50
0.0
 51
0.0
 71
0
 72
100
 73
1
 74
1
 75
0
 76
0
 77
0
 78
0
  0
ENDTAB
  0
TABLE
  2
LTYPE
  5
5
100
AcDbSymbolTable
 70
6
  0
LTYPE
  5
14
100
AcDbSymbolTableRecord
100
AcDbLinetypeTableRecord
  2
BYBLOCK
 70
0
  3

 72
65
 73
0
 40
0.0
  0
LTYPE
  5
15
100
AcDbSymbolTableRecord
100
AcDbLinetypeTableRecord
  2
BYLAYER
 70
0
  3

 72
65
 73
0
 40
0.0
  0
LTYPE
  5
16
100
AcDbSymbolTableRecord
100
AcDbLinetypeTableRecord
  2
CONTINUOUS
 70
64
  3
Solid line
 72
65
 73
0
 40
0.0
  0
LTYPE
  5
1F5
100
AcDbSymbolTableRecord
100
AcDbLinetypeTableRecord
  2
CENTER
 70
64
  3
____ _ ____ _ ____ _ ____ _ ____ _ ____ _ ____
 72
65
 73
4
 40
0.6
 49
0.375
 74
0
 49
-0.075
 74
0
 49
0.075
 74
0
 49
-0.075
 74
0
  0
LTYPE
  5
1F6
100
AcDbSymbolTableRecord
100
AcDbLinetypeTableRecord
  2
HIDDEN
 70
64
  3
- - - - - - - - - - - - - - - - - - - -
 72
65
 73
2
 40
0.2
 49
0.1
 74
0
 49
-0.1
 74
0
  0
LTYPE
  5
1F7
100
AcDbSymbolTableRecord
100
AcDbLinetypeTableRecord
  2
PHANTOM
 70
64
  3
_____ _ _ _____ _ _ _____ _ _ _____
 72
65
 73
6
 40
0.8
 49
0.45
 74
0
 49
-0.05
 74
0
 49
0.1
 74
0
 49
-0.05
 74
0
 49
0.1
 74
0
 49
-0.05
 74
0
  0
LTYPE
  5
1F8
100
AcDbSymbolTableRecord
100
AcDbLinetypeTableRecord
  2
DOT
 70
64
  3
. . . . . . . . . . . . . . . . . . . .
 72
65
 73
2
 40
0.2
 49
0.1
 74
0
 49
-0.1
 74
0
  0
LTYPE
  5
1F9
100
AcDbSymbolTableRecord
100
AcDbLinetypeTableRecord
  2
DASHED
 70
64
  3
- - - - - - - - - - - - - - - - - - - -
 72
65
 73
2
 40
0.2
 49
0.1
 74
0
 49
-0.1
 74
0
  0
ENDTAB
  0
TABLE
  2
LAYER
  5
2
100
AcDbSymbolTable
 70
36
  0
LAYER
  5
10
100
AcDbSymbolTableRecord
100
AcDbLayerTableRecord
  2
0
 70
0
 62
7
  6
CONTINUOUS
370
-3
390
F
  0
LAYER
  5
1FA
100
AcDbSymbolTableRecord
100
AcDbLayerTableRecord
  2
DEFAULT_1
 70
0
 62
7
  6
CENTER
370
-3
390
F
  0
LAYER
  5
1FB
100
AcDbSymbolTableRecord
100
AcDbLayerTableRecord
  2
DEFAULT_2
 70
0
 62
7
  6
HIDDEN
370
-3
390
F
  0
LAYER
  5
1FC
100
AcDbSymbolTableRecord
100
AcDbLayerTableRecord
  2
DEFAULT_3
 70
0
 62
7
  6
PHANTOM
370
-3
390
F
  0
LAYER
  5
1FD
100
AcDbSymbolTableRecord
100
AcDbLayerTableRecord
  2
00_COMPONENTS
 70
0
 62
7
  6
CONTINUOUS
370
-3
390
F
  0
LAYER
  5
1FE
100
AcDbSymbolTableRecord
100
AcDbLayerTableRecord
  2
01_1_DEFAULT_DATUMS
 70
0
 62
7
  6
CONTINUOUS
370
-3
390
F
  0
LAYER
  5
1FF
100
AcDbSymbolTableRecord
100
AcDbLayerTableRecord
  2
01_PLANES
 70
0
 62
7
  6
CONTINUOUS
370
-3
390
F
  0
LAYER
  5
200
100
AcDbSymbolTableRecord
100
AcDbLayerTableRecord
  2
02_COORD_SYS
 70
0
 62
7
  6
CONTINUOUS
370
-3
390
F
  0
LAYER
  5
201
100
AcDbSymbolTableRecord
100
AcDbLayerTableRecord
  2
03_AXES
 70
0
 62
7
  6
CONTINUOUS
370
-3
390
F
  0
LAYER
  5
202
100
AcDbSymbolTableRecord
100
AcDbLayerTableRecord
  2
04_POINTS
 70
0
 62
7
  6
CONTINUOUS
370
-3
390
F
  0
LAYER
  5
203
100
AcDbSymbolTableRecord
100
AcDbLayerTableRecord
  2
05_CURVES
 70
0
 62
7
  6
CONTINUOUS
370
-3
390
F
  0
LAYER
  5
204
100
AcDbSymbolTableRecord
100
AcDbLayerTableRecord
  2
06_SURFS
 70
0
 62
7
  6
CONTINUOUS
370
-3
390
F
  0
LAYER
  5
205
100
AcDbSymbolTableRecord
100
AcDbLayerTableRecord
  2
07_COSMETICS
 70
0
 62
7
  6
CONTINUOUS
370
-3
390
F
  0
LAYER
  5
206
100
AcDbSymbolTableRecord
100
AcDbLayerTableRecord
  2
10_NOTES
 70
0
 62
7
  6
CONTINUOUS
370
-3
390
F
  0
LAYER
  5
207
100
AcDbSymbolTableRecord
100
AcDbLayerTableRecord
  2
11_NOTES_PUB
 70
0
 62
7
  6
CONTINUOUS
370
-3
390
F
  0
LAYER
  5
208
100
AcDbSymbolTableRecord
100
AcDbLayerTableRecord
  2
13_REF_GTOL
 70
0
 62
7
  6
CONTINUOUS
370
-3
390
F
  0
LAYER
  5
209
100
AcDbSymbolTableRecord
100
AcDbLayerTableRecord
  2
16_MISC
 70
0
 62
7
  6
CONTINUOUS
370
-3
390
F
  0
LAYER
  5
20A
100
AcDbSymbolTableRecord
100
AcDbLayerTableRecord
  2
17_NO_PRINT
 70
0
 62
7
  6
CONTINUOUS
370
-3
390
F
  0
LAYER
  5
20B
100
AcDbSymbolTableRecord
100
AcDbLayerTableRecord
  2
18_DATUM_CAMS_JOINTS
 70
0
 62
7
  6
CONTINUOUS
370
-3
390
F
  0
LAYER
  5
20C
100
AcDbSymbolTableRecord
100
AcDbLayerTableRecord
  2
19_DATUM_FUNCTIONAL
 70
0
 62
7
  6
CONTINUOUS
370
-3
390
F
  0
LAYER
  5
20D
100
AcDbSymbolTableRecord
100
AcDbLayerTableRecord
  2
20_DATUM_KINEMATIC_SCHEME
 70
0
 62
7
  6
CONTINUOUS
370
-3
390
F
  0
ENDTAB
  0
TABLE
  2
STYLE
  5
3
100
AcDbSymbolTable
 70
1
  0
STYLE
  5
11
100
AcDbSymbolTableRecord
100
AcDbTextStyleTableRecord
  2
STANDARD
 70
0
 40
0.0
 41
1.0
 50
0.0
 71
0
 42
0.2
  3
ARIAL.TTF
  4

  0
STYLE
  5
20E
100
AcDbSymbolTableRecord
100
AcDbTextStyleTableRecord
  2
TEXTSTYLE_1
 70
0
 40
0.0
 41
0.8
 50
0.0
 71
0
 42
0.2
  3
gdt
  4

  0
ENDTAB
  0
TABLE
  2
VIEW
  5
6
100
AcDbSymbolTable
 70
0
  0
ENDTAB
  0
TABLE
  2
UCS
  5
7
100
AcDbSymbolTable
 70
0
  0
ENDTAB
  0
TABLE
  2
APPID
  5
9
100
AcDbSymbolTable
 70
1
  0
APPID
  5
20F
100
AcDbSymbolTableRecord
100
AcDbRegAppTableRecord
  2
ACAD
 70
0
  0
ENDTAB
  0
TABLE
  2
BLOCK_RECORD
  5
1
100
AcDbSymbolTable
 70
0
  0
BLOCK_RECORD
  5
210
100
AcDbSymbolTableRecord
100
AcDbBlockTableRecord
  2
*Model_Space
  0
BLOCK_RECORD
  5
211
100
AcDbSymbolTableRecord
100
AcDbBlockTableRecord
  2
*Paper_Space
  0
BLOCK_RECORD
  5
212
100
AcDbSymbolTableRecord
100
AcDbBlockTableRecord
  2
_FILLED
  0
ENDTAB
  0
TABLE
  2
DIMSTYLE
  5
A
100
AcDbSymbolTable
 70
1
100
AcDbDimStyleTable
 71
0
  0
DIMSTYLE
105
213
100
AcDbSymbolTableRecord
100
AcDbDimStyleTableRecord
  2
STANDARD
 70
0
  3

  4

 40
1.0
 41
1.1127676179
 42
1.0
 43
0.38
 44
1.0
 45
0.0
 46
0.0
 47
0.01
 48
0.01
140
1.557874665
141
0.09
142
0.0
143
25.4
144
1.0
145
0.0
146
1.0
147
0.625
 71
1
 72
0
 73
0
 74
0
 75
0
 76
0
 77
1
 78
8
 79
2
170
0
171
1
172
0
173
0
174
0
175
0
176
0
177
0
178
0
270
2
179
2
271
2
272
2
273
2
274
2
275
0
280
0
281
0
282
0
283
1
284
8
285
0
286
0
287
3
288
0
340
11
278
46
341
212
342
212
343
212
344
212
  0
ENDTAB
  0
ENDSEC
  0
SECTION
  2
BLOCKS
  0
BLOCK
  5
20
100
AcDbEntity
  8
0
100
AcDbBlockBegin
  2
*Model_Space
 70
0
 10
0.0
 20
0.0
 30
0.0
  3
*Model_Space
  1

  0
ENDBLK
  5
21
100
AcDbEntity
  8
0
100
AcDbBlockEnd
  0
BLOCK
  5
1C
100
AcDbEntity
  8
0
100
AcDbBlockBegin
  2
*Paper_Space
 70
0
 10
0.0
 20
0.0
 30
0.0
  3
*Paper_Space
  1

  0
ENDBLK
  5
1D
100
AcDbEntity
  8
0
100
AcDbBlockEnd
  0
BLOCK
  5
214
100
AcDbEntity
  8
0
100
AcDbBlockBegin
  2
_FILLED
 70
64
 10
0.0
 20
0.0
  3
_FILLED
  1

  0
SOLID
  5
215
100
AcDbEntity
  8
0
  6
BYBLOCK
 62
0
100
AcDbTrace
 10
0.0
 20
0.0
 11
-1.0
 21
0.25
 12
-1.0
 22
-0.25
 13
-1.0
 23
-0.25
  0
ENDBLK
  5
216
100
AcDbEntity
  8
0
  6
BYBLOCK
 62
0
100
AcDbBlockEnd
  0
ENDSEC
  0
SECTION
  2
ENTITIES
  0
LINE
  5
217
100
AcDbEntity
  8
0
100
AcDbLine
 62
7
  6
BYLAYER
 10
49.1056854864
 20
10.7602040816
 11
27.4057156974
 21
10.7602040816
  0
LINE
  5
218
100
AcDbEntity
  8
0
100
AcDbLine
 62
7
  6
BYLAYER
 10
25.7557005919
 20
14.2602040816
 11
49.7557005919
 21
14.2602040816
  0
LINE
  5
219
100
AcDbEntity
  8
0
100
AcDbLine
 62
7
  6
BYLAYER
 10
42.942798643
 20
15.2602040816
 11
35.5354541612
 21
15.2602040816
  0
LINE
  5
21A
100
AcDbEntity
  8
0
100
AcDbLine
 62
7
  6
BYLAYER
 10
38.7926807204
 20
17.1602040816
 11
41.3753043109
 21
17.1602040816
  0
LINE
  5
21B
100
AcDbEntity
  8
0
100
AcDbLine
 62
7
  6
BYLAYER
 10
41.2715498603
 20
17.2602040816
 11
38.7826807204
 21
17.2602040816
  0
LINE
  5
21C
100
AcDbEntity
  8
0
100
AcDbLine
 62
7
  6
BYLAYER
 10
41.4462936497
 20
18.2602040816
 11
43.6737796784
 21
18.2602040816
  0
LINE
  5
21D
100
AcDbEntity
  8
0
100
AcDbLine
 62
7
  6
BYLAYER
 10
36.9791155823
 20
18.9455547257
 11
37.7189578552
 21
18.9455547257
  0
LINE
  5
21E
100
AcDbEntity
  8
0
100
AcDbLine
 62
7
  6
BYLAYER
 10
37.7819450261
 20
20.2602040816
 11
25.7557005919
 21
20.2602040816
  0
LINE
  5
21F
100
AcDbEntity
  8
0
100
AcDbLine
 62
7
  6
BYLAYER
 10
38.7926807204
 20
17.1602040816
 11
38.2943421534
 21
18.6541207168
  0
LINE
  5
220
100
AcDbEntity
  8
0
100
AcDbLine
 62
7
  6
BYLAYER
 10
37.7819450261
 20
20.2602040816
 11
38.7826807204
 21
17.2602040816
  0
LINE
  5
221
100
AcDbEntity
  8
0
100
AcDbLine
 62
7
  6
BYLAYER
 10
25.7557005919
 20
14.2602040816
 11
25.7557005919
 21
79.2601997076
  0
LINE
  5
222
100
AcDbEntity
  8
0
100
AcDbLine
 62
7
  6
BYLAYER
 10
27.4057005919
 20
10.7602040816
 11
27.4057005919
 21
14.2602040816
  0
LINE
  5
223
100
AcDbEntity
  8
0
100
AcDbLine
 62
7
  6
BYLAYER
 10
30.2557005919
 20
79.2602040816
 11
30.2557005919
 21
94.9602040816
  0
LINE
  5
224
100
AcDbEntity
  8
0
100
AcDbLine
 62
7
  6
BYLAYER
 10
57.9856737079
 20
102.2551939632
 11
61.4057005919
 21
106.6326287553
  0
LINE
  5
225
100
AcDbEntity
  8
0
100
AcDbLine
 62
7
  6
BYLAYER
 10
62.9817220991
 20
105.4013058046
 11
59.4557005919
 21
100.8882040816
  0
LINE
  5
226
100
AcDbEntity
  8
0
100
AcDbLine
 62
7
  6
BYLAYER
 10
38.0210928366
 20
89.2602040816
 11
38.0210928366
 21
94.2294623253
  0
LINE
  5
227
100
AcDbEntity
  8
0
100
AcDbLine
 62
7
  6
BYLAYER
 10
38.4903083472
 20
85.3808615643
 11
38.4903083472
 21
89.2602040816
  0
LINE
  5
228
100
AcDbEntity
  8
0
100
AcDbLine
 62
7
  6
BYLAYER
 10
41.4462936497
 20
18.2602040816
 11
41.3753043109
 21
17.1602040816
  0
LINE
  5
229
100
AcDbEntity
  8
0
100
AcDbLine
 62
7
  6
BYLAYER
 10
50.7557005919
 20
62.5458355602
 11
48.462146597
 21
62.5458355602
  0
LINE
  5
22A
100
AcDbEntity
  8
0
100
AcDbLine
 62
7
  6
BYLAYER
 10
50.7657005919
 20
62.5458355602
 11
55.7657005919
 21
62.5458355602
  0
LINE
  5
22B
100
AcDbEntity
  8
0
100
AcDbLine
 62
7
  6
BYLAYER
 10
46.2557005919
 20
79.2602040816
 11
46.2557005919
 21
79.780862031
  0
LINE
  5
22C
100
AcDbEntity
  8
0
100
AcDbLine
 62
7
  6
BYLAYER
 10
56.1474917557
 20
65.6025436349
 11
55.7657005919
 21
65.5691412363
  0
LINE
  5
22D
100
AcDbEntity
  8
0
100
AcDbLine
 62
7
  6
BYLAYER
 10
55.7657005919
 20
63.3721087276
 11
51.0261611198
 21
63.3721087276
  0
LINE
  5
22E
100
AcDbEntity
  8
0
100
AcDbLine
 62
7
  6
BYLAYER
 10
55.7657005919
 20
64.937454606
 11
51.533571464
 21
64.937454606
  0
LINE
  5
22F
100
AcDbEntity
  8
0
100
AcDbLine
 62
7
  6
BYLAYER
 10
50.8157005919
 20
65.4303700308
 11
51.6970475266
 21
65.4303700308
  0
LINE
  5
230
100
AcDbEntity
  8
0
100
AcDbLine
 62
7
  6
BYLAYER
 10
55.7657005919
 20
66.1082108926
 11
50.8157005919
 21
66.1082108926
  0
LINE
  5
231
100
AcDbEntity
  8
0
100
AcDbLine
 62
7
  6
BYLAYER
 10
49.1057005919
 20
10.7602040816
 11
49.1057005919
 21
14.2602040816
  0
LINE
  5
232
100
AcDbEntity
  8
0
100
AcDbLine
 62
7
  6
BYLAYER
 10
50.7557005919
 20
79.2601997076
 11
50.7557005919
 21
62.5458355602
  0
LINE
  5
233
100
AcDbEntity
  8
0
100
AcDbLine
 62
7
  6
BYLAYER
 10
50.8157005919
 20
65.4303700308
 11
50.8157005919
 21
75.8457227107
  0
LINE
  5
234
100
AcDbEntity
  8
0
100
AcDbLine
 62
7
  6
BYLAYER
 10
56.8372011758
 20
67.4823866223
 11
57.0950961454
 21
67.4823866223
  0
LINE
  5
235
100
AcDbEntity
  8
0
100
AcDbLine
 62
7
  6
BYLAYER
 10
57.054946153
 20
69.0380215409
 11
57.0950961454
 21
69.0380215409
  0
LINE
  5
236
100
AcDbEntity
  8
0
100
AcDbLine
 62
7
  6
BYLAYER
 10
50.8157005919
 20
69.2800580805
 11
55.6930319991
 21
69.2800580805
  0
LINE
  5
237
100
AcDbEntity
  8
0
100
AcDbLine
 62
7
  6
BYLAYER
 10
55.7657005919
 20
66.7365755983
 11
55.7657005919
 21
19.3125228874
  0
LINE
  5
238
100
AcDbEntity
  8
0
100
AcDbLine
 62
7
  6
BYLAYER
 10
56.1474917557
 20
70.9178645283
 11
56.1474917557
 21
65.6025436349
  0
LINE
  5
239
100
AcDbEntity
  8
0
100
AcDbLine
 62
7
  6
BYLAYER
 10
56.2557005919
 20
66.8262273687
 11
56.2557005919
 21
66.0484099094
  0
LINE
  5
23A
100
AcDbEntity
  8
0
100
AcDbLine
 62
7
  6
BYLAYER
 10
55.5557070116
 20
70.9696395463
 11
55.5556484977
 21
70.8148545887
  0
LINE
  5
23B
100
AcDbEntity
  8
0
100
AcDbLine
 62
7
  6
BYLAYER
 10
56.1474917557
 20
70.9178645283
 11
55.5557005919
 21
70.9696395463
  0
LINE
  5
23C
100
AcDbEntity
  8
0
100
AcDbLine
 62
7
  6
BYLAYER
 10
56.5425746862
 20
66.2197551481
 11
56.5426738978
 21
65.8608709086
  0
LINE
  5
23D
100
AcDbEntity
  8
0
100
AcDbLine
 62
7
  6
BYLAYER
 10
56.5426740395
 20
70.6595369883
 11
56.5425746862
 21
66.9975726074
  0
LINE
  5
23E
100
AcDbEntity
  8
0
100
AcDbLine
 62
7
  6
BYLAYER
 10
57.4557005919
 20
79.7808675007
 11
57.4557005919
 21
100.7160402749
  0
LINE
  5
23F
100
AcDbEntity
  8
0
100
AcDbLine
 62
7
  6
BYLAYER
 10
59.4557005919
 20
100.8882040816
 11
59.4557005919
 21
80.7603398474
  0
LINE
  5
240
100
AcDbEntity
  8
0
100
AcDbLine
 62
7
  6
BYLAYER
 10
59.4709645669
 20
82.2617614262
 11
59.4709645669
 21
95.2586467371
  0
LINE
  5
241
100
AcDbEntity
  8
0
100
AcDbLine
 62
7
  6
BYLAYER
 10
59.9057005919
 20
110.1852040816
 11
59.9057005919
 21
114.2852040816
  0
LINE
  5
242
100
AcDbEntity
  8
0
100
AcDbLine
 62
7
  6
BYLAYER
 10
59.9700297872
 20
95.2586467371
 11
59.9700297872
 21
82.2617614262
  0
LINE
  5
243
100
AcDbEntity
  8
0
100
AcDbLine
 62
7
  6
BYLAYER
 10
36.1366677604
 20
18.2308463028
 11
35.2963297975
 21
16.479216785
  0
LINE
  5
244
100
AcDbEntity
  8
0
100
AcDbLine
 62
7
  6
BYLAYER
 10
54.7815835703
 20
74.9941288294
 11
50.8157005919
 21
74.9941288294
  0
LINE
  5
245
100
AcDbEntity
  8
0
100
AcDbLine
 62
7
  6
BYLAYER
 10
50.8157005919
 20
75.8459201776
 11
53.4288732676
 21
75.8459201776
  0
LINE
  5
246
100
AcDbEntity
  8
0
100
AcDbLine
 62
7
  6
BYLAYER
 10
25.7557005919
 20
76.5602040816
 11
50.7557005919
 21
76.5602040816
  0
LINE
  5
247
100
AcDbEntity
  8
0
100
AcDbLine
 62
7
  6
BYLAYER
 10
50.7557005919
 20
77.1434920274
 11
25.7557005919
 21
77.1434920274
  0
LINE
  5
248
100
AcDbEntity
  8
0
100
AcDbLine
 62
7
  6
BYLAYER
 10
61.4057005919
 20
106.6326287553
 11
61.4057005919
 21
119.6607919817
  0
LINE
  5
249
100
AcDbEntity
  8
0
100
AcDbLine
 62
7
  6
BYLAYER
 10
61.7706537046
 20
92.6443167617
 11
61.7706537046
 21
84.8760914016
  0
LINE
  5
24A
100
AcDbEntity
  8
0
100
AcDbLine
 62
7
  6
BYLAYER
 10
63.4057005919
 20
119.6607919817
 11
63.4057005919
 21
106.6326287553
  0
LINE
  5
24B
100
AcDbEntity
  8
0
100
AcDbLine
 62
7
  6
BYLAYER
 10
63.7057005919
 20
102.7102040816
 11
63.7057005919
 21
121.7602040816
  0
LINE
  5
24C
100
AcDbEntity
  8
0
100
AcDbLine
 62
7
  6
BYLAYER
 10
49.7557005919
 20
14.2602040816
 11
50.4181799837
 21
16.9108529912
  0
LINE
  5
24D
100
AcDbEntity
  8
0
100
AcDbLine
 62
7
  6
BYLAYER
 10
25.7557005919
 20
79.2602040816
 11
50.7557005919
 21
79.2602040816
  0
LINE
  5
24E
100
AcDbEntity
  8
0
100
AcDbLine
 62
7
  6
BYLAYER
 10
46.2557000953
 20
79.7808615643
 11
57.4557005919
 21
79.7808615643
  0
LINE
  5
24F
100
AcDbEntity
  8
0
100
AcDbLine
 62
7
  6
BYLAYER
 10
59.4557005919
 20
80.7602040816
 11
57.4557005919
 21
80.7602040816
  0
LINE
  5
250
100
AcDbEntity
  8
0
100
AcDbLine
 62
7
  6
BYLAYER
 10
59.9700297872
 20
82.2617614262
 11
59.4709645669
 21
82.2617614262
  0
LINE
  5
251
100
AcDbEntity
  8
0
100
AcDbLine
 62
7
  6
BYLAYER
 10
70.3057005919
 20
111.2352040816
 11
70.0657005919
 21
108.0852040816
  0
LINE
  5
252
100
AcDbEntity
  8
0
100
AcDbLine
 62
7
  6
BYLAYER
 10
36.3329153685
 20
18.522677272
 11
36.1366677604
 21
18.2308463028
  0
LINE
  5
253
100
AcDbEntity
  8
0
100
AcDbLine
 62
7
  6
BYLAYER
 10
61.7706537046
 20
84.8760914016
 11
59.9700297872
 21
84.7602034955
  0
LINE
  5
254
100
AcDbEntity
  8
0
100
AcDbLine
 62
7
  6
BYLAYER
 10
59.4709645669
 20
84.4602040816
 11
59.4557005919
 21
84.4602040816
  0
LINE
  5
255
100
AcDbEntity
  8
0
100
AcDbLine
 62
7
  6
BYLAYER
 10
57.4557005919
 20
85.3808615643
 11
38.4903083472
 21
85.3808615643
  0
LINE
  5
256
100
AcDbEntity
  8
0
100
AcDbLine
 62
7
  6
BYLAYER
 10
69.2057005919
 20
121.7602040816
 11
69.2057005919
 21
102.7102040816
  0
LINE
  5
257
100
AcDbEntity
  8
0
100
AcDbLine
 62
7
  6
BYLAYER
 10
70.0149305783
 20
107.9851970441
 11
70.014930575
 21
116.4852040816
  0
LINE
  5
258
100
AcDbEntity
  8
0
100
AcDbLine
 62
7
  6
BYLAYER
 10
70.0657005919
 20
116.3852040816
 11
70.0657005919
 21
108.0852040816
  0
LINE
  5
259
100
AcDbEntity
  8
0
100
AcDbLine
 62
7
  6
BYLAYER
 10
70.3057005919
 20
113.2352040816
 11
70.3057005919
 21
111.2352098103
  0
LINE
  5
25A
100
AcDbEntity
  8
0
100
AcDbLine
 62
7
  6
BYLAYER
 10
38.4903083472
 20
89.2602040816
 11
38.0210928366
 21
89.2602040816
  0
LINE
  5
25B
100
AcDbEntity
  8
0
100
AcDbLine
 62
7
  6
BYLAYER
 10
59.4557005919
 20
89.6370645962
 11
57.4557005919
 21
89.6370645962
  0
LINE
  5
25C
100
AcDbEntity
  8
0
100
AcDbLine
 62
7
  6
BYLAYER
 10
70.3057005919
 20
113.2352040816
 11
70.0657005919
 21
116.3852040816
  0
LINE
  5
25D
100
AcDbEntity
  8
0
100
AcDbLine
 62
7
  6
BYLAYER
 10
59.4557005919
 20
93.0602040816
 11
59.4709645669
 21
93.0602040816
  0
LINE
  5
25E
100
AcDbEntity
  8
0
100
AcDbLine
 62
7
  6
BYLAYER
 10
57.4557005919
 20
94.2294623253
 11
38.0210928366
 21
94.2294623253
  0
LINE
  5
25F
100
AcDbEntity
  8
0
100
AcDbLine
 62
7
  6
BYLAYER
 10
59.9700297872
 20
92.7602046678
 11
61.7706537046
 21
92.6443167617
  0
LINE
  5
260
100
AcDbEntity
  8
0
100
AcDbLine
 62
7
  6
BYLAYER
 10
55.443547514
 20
18.7550771178
 11
55.7657005919
 21
19.3125228874
  0
LINE
  5
261
100
AcDbEntity
  8
0
100
AcDbLine
 62
7
  6
BYLAYER
 10
59.4709645669
 20
95.2586467371
 11
59.9700297872
 21
95.2586467371
  0
LINE
  5
262
100
AcDbEntity
  8
0
100
AcDbLine
 62
7
  6
BYLAYER
 10
35.7745038715
 20
95.4233857778
 11
57.4557005919
 21
95.4233857778
  0
LINE
  5
263
100
AcDbEntity
  8
0
100
AcDbLine
 62
7
  6
BYLAYER
 10
32.2557005919
 20
96.9602056198
 11
57.4557005919
 21
96.9602056198
  0
LINE
  5
264
100
AcDbEntity
  8
0
100
AcDbLine
 62
7
  6
BYLAYER
 10
57.4558319612
 20
100.7416689512
 11
59.4557005919
 21
100.7416689512
  0
LINE
  5
265
100
AcDbEntity
  8
0
100
AcDbLine
 62
7
  6
BYLAYER
 10
57.8637699405
 20
102.084917972
 11
60.3906759536
 21
102.084917972
  0
LINE
  5
266
100
AcDbEntity
  8
0
100
AcDbLine
 62
7
  6
BYLAYER
 10
69.2057005919
 20
102.7102040816
 11
63.7057005919
 21
102.7102040816
  0
LINE
  5
267
100
AcDbEntity
  8
0
100
AcDbLine
 62
7
  6
BYLAYER
 10
58.5733914887
 20
103.0074384188
 11
61.1114279188
 21
103.0074384188
  0
LINE
  5
268
100
AcDbEntity
  8
0
100
AcDbLine
 62
7
  6
BYLAYER
 10
61.2111400392
 20
106.3836026039
 11
63.3901365259
 21
106.3836026039
  0
LINE
  5
269
100
AcDbEntity
  8
0
100
AcDbLine
 62
7
  6
BYLAYER
 10
63.7057005919
 20
107.4852040816
 11
63.4057005919
 21
107.4852040816
  0
LINE
  5
26A
100
AcDbEntity
  8
0
100
AcDbLine
 62
7
  6
BYLAYER
 10
70.0657005919
 20
108.0852040816
 11
70.014930575
 21
108.0852040816
  0
LINE
  5
26B
100
AcDbEntity
  8
0
100
AcDbLine
 62
7
  6
BYLAYER
 10
61.4057005919
 20
110.1852040816
 11
59.9057005919
 21
110.1852040816
  0
LINE
  5
26C
100
AcDbEntity
  8
0
100
AcDbLine
 62
7
  6
BYLAYER
 10
52.3331176285
 20
17.4960441739
 11
55.443547514
 21
18.7550771178
  0
LINE
  5
26D
100
AcDbEntity
  8
0
100
AcDbLine
 62
7
  6
BYLAYER
 10
48.5348311364
 20
16.3353151181
 11
52.3331176285
 21
17.4960441739
  0
LINE
  5
26E
100
AcDbEntity
  8
0
100
AcDbLine
 62
7
  6
BYLAYER
 10
59.9057005919
 20
114.2852040816
 11
61.4057005919
 21
114.2852040816
  0
LINE
  5
26F
100
AcDbEntity
  8
0
100
AcDbLine
 62
7
  6
BYLAYER
 10
61.4057005919
 20
115.580724424
 11
63.4057005919
 21
115.580724424
  0
LINE
  5
270
100
AcDbEntity
  8
0
100
AcDbLine
 62
7
  6
BYLAYER
 10
70.014930575
 20
116.3852040816
 11
70.0657005919
 21
116.3852040816
  0
LINE
  5
271
100
AcDbEntity
  8
0
100
AcDbLine
 62
7
  6
BYLAYER
 10
63.4057005919
 20
116.9852040816
 11
63.7057005919
 21
116.9852040816
  0
LINE
  5
272
100
AcDbEntity
  8
0
100
AcDbLine
 62
7
  6
BYLAYER
 10
63.4057005919
 20
119.6607986618
 11
61.4057005919
 21
119.6607986618
  0
LINE
  5
273
100
AcDbEntity
  8
0
100
AcDbLine
 62
7
  6
BYLAYER
 10
63.7057005919
 20
121.7602040816
 11
69.2057005919
 21
121.7602040816
  0
ARC
  5
274
100
AcDbEntity
  8
0
100
AcDbCircle
 62
7
  6
BYLAYER
 10
227.1013426989
 20
10.9672466303
 40
185.9363149573
100
AcDbArc
 50
163.8949567648
 51
178.0604715497
  0
ARC
  5
275
100
AcDbEntity
  8
0
100
AcDbCircle
 62
7
  6
BYLAYER
 10
200.1079322284
 20
15.9194360773
 40
156.4516643533
100
AcDbArc
 50
161.5509320684
 51
179.1427311933
  0
ARC
  5
276
100
AcDbEntity
  8
0
100
AcDbCircle
 62
7
  6
BYLAYER
 10
24.7138544258
 20
112.2352040816
 40
45.5000000032
100
AcDbArc
 50
347.9162840607
 51
354.6403835206
  0
ARC
  5
277
100
AcDbEntity
  8
0
100
AcDbCircle
 62
7
  6
BYLAYER
 10
24.7138544258
 20
112.2352040816
 40
45.5000000032
100
AcDbArc
 50
5.3596165259
 51
12.0837160051
  0
ARC
  5
278
100
AcDbEntity
  8
0
100
AcDbCircle
 62
7
  6
BYLAYER
 10
22.0961139628
 20
67.0473976517
 40
33.6710212813
100
AcDbArc
 50
359.4710868843
 51
13.0414812462
  0
ARC
  5
279
100
AcDbEntity
  8
0
100
AcDbCircle
 62
7
  6
BYLAYER
 10
41.2624845498
 20
39.0807358359
 40
23.8797233758
100
AcDbArc
 50
274.034993624
 51
287.7305307244
  0
ARC
  5
27A
100
AcDbEntity
  8
0
100
AcDbCircle
 62
7
  6
BYLAYER
 10
54.6055054652
 20
88.7602040816
 40
8.1501951267
100
AcDbArc
 50
331.538584533
 51
28.4614154804
  0
ARC
  5
27B
100
AcDbEntity
  8
0
100
AcDbCircle
 62
7
  6
BYLAYER
 10
52.1559666675
 20
68.2602040816
 40
5.0
100
AcDbArc
 50
11.9867078047
 51
28.6790610704
  0
ARC
  5
27C
100
AcDbEntity
  8
0
100
AcDbCircle
 62
7
  6
BYLAYER
 10
52.1559666675
 20
68.2602040816
 40
5.0
100
AcDbArc
 50
331.320938945
 51
351.0505216142
  0
ARC
  5
27D
100
AcDbEntity
  8
0
100
AcDbCircle
 62
7
  6
BYLAYER
 10
54.5402290856
 20
67.8562032714
 40
2.5866121371
100
AcDbArc
 50
8.9857708851
 51
16.2128504846
  0
ARC
  5
27E
100
AcDbEntity
  8
0
100
AcDbCircle
 62
7
  6
BYLAYER
 10
54.5575808139
 20
68.6378990824
 40
2.5688678517
100
AcDbArc
 50
8.9607771053
 51
16.2378442645
  0
ARC
  5
27F
100
AcDbEntity
  8
0
100
AcDbCircle
 62
7
  6
BYLAYER
 10
59.9557005919
 20
100.7160402749
 40
2.5
100
AcDbArc
 50
142.0
 51
180.0
  0
ARC
  5
280
100
AcDbEntity
  8
0
100
AcDbCircle
 62
7
  6
BYLAYER
 10
54.5875534744
 20
68.9665017456
 40
2.4673928113
100
AcDbArc
 50
0.0187886598
 51
9.0877658388
  0
ARC
  5
281
100
AcDbEntity
  8
0
100
AcDbCircle
 62
7
  6
BYLAYER
 10
54.5952750177
 20
68.9675050564
 40
2.459671143
100
AcDbArc
 50
350.8979690633
 51
359.9954764381
  0
ARC
  5
282
100
AcDbEntity
  8
0
100
AcDbCircle
 62
7
  6
BYLAYER
 10
54.5259192268
 20
67.2677791589
 40
2.4301567833
100
AcDbArc
 50
5.0695868039
 51
9.2680242051
  0
ARC
  5
283
100
AcDbEntity
  8
0
100
AcDbCircle
 62
7
  6
BYLAYER
 10
61.4057005919
 20
106.6326287553
 40
2.0
100
AcDbArc
 50
321.9999999987
 51
360.0
  0
ARC
  5
284
100
AcDbEntity
  8
0
100
AcDbCircle
 62
7
  6
BYLAYER
 10
32.2557005919
 20
94.9602040816
 40
2.0
100
AcDbArc
 50
90.0
 51
180.0
  0
ARC
  5
285
100
AcDbEntity
  8
0
100
AcDbCircle
 62
7
  6
BYLAYER
 10
53.4288732676
 20
74.3459198839
 40
1.5
100
AcDbArc
 50
11.519807081
 51
90.0
  0
ARC
  5
286
100
AcDbEntity
  8
0
100
AcDbCircle
 62
7
  6
BYLAYER
 10
36.3234844628
 20
16.0477458832
 40
1.114097772
100
AcDbArc
 50
157.2144675692
 51
224.9822356644
  0
ARC
  5
287
100
AcDbEntity
  8
0
100
AcDbCircle
 62
7
  6
BYLAYER
 10
36.9963684017
 20
18.2140217451
 40
0.7317364017
100
AcDbArc
 50
91.3510402672
 51
155.0509317607
  0
ARC
  5
288
100
AcDbEntity
  8
0
100
AcDbCircle
 62
7
  6
BYLAYER
 10
37.7209975549
 20
18.2358680778
 40
0.7096895791
100
AcDbArc
 50
36.1106045421
 51
90.1646724837
  0
ARC
  5
289
100
AcDbEntity
  8
0
100
AcDbCircle
 62
7
  6
BYLAYER
 10
56.1039138843
 20
66.100640984
 40
0.5
100
AcDbArc
 50
275.0
 51
331.3209388554
  0
ARC
  5
28A
100
AcDbEntity
  8
0
100
AcDbCircle
 62
7
  6
BYLAYER
 10
56.1039138843
 20
70.4197671793
 40
0.5
100
AcDbArc
 50
28.6790611446
 51
85.0
  0
SPLINE
  5
28B
100
AcDbEntity
  8
0
100
AcDbSpline
 62
7
  6
BYLAYER
 70
0
 71
3
 72
11
 73
7
 74
0
 42
0.0000001
 43
0.0000001
 44
0.0000000001
 40
0.0
 40
0.0
 40
0.0
 40
0.0
 40
0.3041579377
 40
0.5784323702
 40
0.8134875749
 40
1.0
 40
1.0
 40
1.0
 40
1.0
 10
35.7743997134
 20
95.4234826934
 30
0.0
 10
35.292360801
 20
95.4896714638
 30
0.0
 10
34.3801527829
 20
95.6509359227
 30
0.0
 10
33.1162639379
 20
95.964021903
 30
0.0
 10
32.0514722722
 20
96.2899579091
 30
0.0
 10
31.4150181168
 20
96.5133750218
 30
0.0
 10
31.1351991338
 20
96.6169246568
 30
0.0
  0
SPLINE
  5
28C
100
AcDbEntity
  8
0
100
AcDbSpline
 62
7
  6
BYLAYER
 70
0
 71
3
 72
12
 73
8
 74
0
 42
0.0000001
 43
0.0000001
 44
0.0000000001
 40
0.0
 40
0.0
 40
0.0
 40
0.0
 40
0.1265052564
 40
0.2526942383
 40
0.5034692494
 40
0.7525030444
 40
1.0
 40
1.0
 40
1.0
 40
1.0
 10
38.0210928366
 20
94.2294623253
 30
0.0
 10
37.9121425394
 20
94.239221295
 30
0.0
 10
37.6954994184
 20
94.2723049923
 30
0.0
 10
37.2751103852
 20
94.3884890339
 30
0.0
 10
36.7800266337
 20
94.6167222434
 30
0.0
 10
36.2460059424
 20
94.9843587577
 30
0.0
 10
35.9261262815
 20
95.2723592578
 30
0.0
 10
35.7745038715
 20
95.4233857778
 30
0.0
  0
SPLINE
  5
28D
100
AcDbEntity
  8
0
100
AcDbSpline
 62
7
  6
BYLAYER
 70
0
 71
3
 72
47
 73
43
 74
0
 42
0.0000001
 43
0.0000001
 44
0.0000000001
 40
0.0
 40
0.0
 40
0.0
 40
0.0
 40
0.0000259824
 40
0.0001029568
 40
0.0002309636
 40
0.0004100367
 40
0.0006402087
 40
0.0009215125
 40
0.0016376134
 40
0.0025577851
 40
0.0036806669
 40
0.0050048613
 40
0.0065289708
 40
0.0101713446
 40
0.0145966078
 40
0.0197934311
 40
0.0257463437
 40
0.0324352946
 40
0.0398399971
 40
0.0479401655
 40
0.0567154333
 40
0.0762030499
 40
0.098120456
 40
0.1222844289
 40
0.1485169873
 40
0.1766435152
 40
0.2064925839
 40
0.2379141489
 40
0.2707673614
 40
0.3402335572
 40
0.4139712873
 40
0.4912125842
 40
0.5713377105
 40
0.6538218556
 40
0.6958159185
 40
0.7382525423
 40
0.7810881627
 40
0.8242950759
 40
0.8678265086
 40
0.9116622012
 40
0.9557581467
 40
1.0
 40
1.0
 40
1.0
 40
1.0
 10
46.2556794191
 20
79.7809827395
 30
0.0
 10
46.2557008908
 20
79.781063951
 30
0.0
 10
46.2552721957
 20
79.7812487283
 30
0.0
 10
46.2549154529
 20
79.7818108202
 30
0.0
 10
46.2539122715
 20
79.7826409068
 30
0.0
 10
46.2526978944
 20
79.7838477392
 30
0.0
 10
46.2510589993
 20
79.7853783114
 30
0.0
 10
46.2481839618
 20
79.7881074851
 30
0.0
 10
46.2436716943
 20
79.7923633915
 30
0.0
 10
46.2371870737
 20
79.7984871417
 30
0.0
 10
46.2292670196
 20
79.8059569568
 30
0.0
 10
46.2199254489
 20
79.8147643917
 30
0.0
 10
46.2046531846
 20
79.8291559007
 30
0.0
 10
46.182077448
 20
79.8504158466
 30
0.0
 10
46.1508463418
 20
79.8798046862
 30
0.0
 10
46.1141634861
 20
79.9143004058
 30
0.0
 10
46.0721337768
 20
79.953793481
 30
0.0
 10
46.0248803954
 20
79.9981514826
 30
0.0
 10
45.9725385332
 20
80.0472320334
 30
0.0
 10
45.9152439635
 20
80.1008918611
 30
0.0
 10
45.8293846699
 20
80.1811993973
 30
0.0
 10
45.7107860795
 20
80.2918997565
 30
0.0
 10
45.5556184599
 20
80.4363353342
 30
0.0
 10
45.3842654927
 20
80.5953881798
 30
0.0
 10
45.1979029951
 20
80.7677778624
 30
0.0
 10
44.9976604187
 20
80.9522290649
 30
0.0
 10
44.7846073431
 20
81.1475335547
 30
0.0
 10
44.5597148501
 20
81.3525359632
 30
0.0
 10
44.2392353987
 20
81.6428022461
 30
0.0
 10
43.8153043987
 20
82.0226430753
 30
0.0
 10
43.2797028818
 20
82.4928638608
 30
0.0
 10
42.7114583015
 20
82.9780509442
 30
0.0
 10
42.112685797
 20
83.4708699643
 30
0.0
 10
41.5900800661
 20
83.8766650912
 30
0.0
 10
41.153338344
 20
84.1937140905
 30
0.0
 10
40.8141336643
 20
84.4267159844
 30
0.0
 10
40.4635722982
 20
84.6497223272
 30
0.0
 10
40.1003217662
 20
84.8587669907
 30
0.0
 10
39.7221108224
 20
85.0469966592
 30
0.0
 10
39.3276048474
 20
85.2067212779
 30
0.0
 10
38.9161645387
 20
85.3253505655
 30
0.0
 10
38.6328822327
 20
85.3693764398
 30
0.0
 10
38.4903083472
 20
85.3808615643
 30
0.0
  0
SPLINE
  5
28E
100
AcDbEntity
  8
0
100
AcDbSpline
 62
7
  6
BYLAYER
 70
0
 71
3
 72
29
 73
25
 74
0
 42
0.0000001
 43
0.0000001
 44
0.0000000001
 40
0.0
 40
0.0
 40
0.0
 40
0.0
 40
0.0003034904
 40
0.0012131169
 40
0.0027273438
 40
0.0048446357
 40
0.0075634576
 40
0.0108822748
 40
0.0193137554
 40
0.0301218248
 40
0.0432733703
 40
0.0587321505
 40
0.076461955
 40
0.0964220863
 40
0.1185572447
 40
0.1691199242
 40
0.2276605877
 40
0.2935970697
 40
0.3663043641
 40
0.4450804172
 40
0.5291845362
 40
0.6177963541
 40
0.8051617223
 40
1.0
 40
1.0
 40
1.0
 40
1.0
 10
32.255700604
 20
79.2602063999
 30
0.0
 10
32.2551400401
 20
79.2604423711
 30
0.0
 10
32.2603917678
 20
79.2594365655
 30
0.0
 10
32.2630875721
 20
79.2595475983
 30
0.0
 10
32.2736917668
 20
79.2581448581
 30
0.0
 10
32.285654185
 20
79.2569341668
 30
0.0
 10
32.3021659536
 20
79.2550869056
 30
0.0
 10
32.3308651602
 20
79.2519768117
 30
0.0
 10
32.3758924557
 20
79.2470837776
 30
0.0
 10
32.4403974905
 20
79.2401545858
 30
0.0
 10
32.5189652841
 20
79.2318151256
 30
0.0
 10
32.611325291
 20
79.2221646019
 30
0.0
 10
32.7172814076
 20
79.2112823216
 30
0.0
 10
32.8365686032
 20
79.1992623187
 30
0.0
 10
33.0213650931
 20
79.1810654887
 30
0.0
 10
33.2832075132
 20
79.1563318644
 30
0.0
 10
33.6326294429
 20
79.1253985836
 30
0.0
 10
34.0264853993
 20
79.093221824
 30
0.0
 10
34.4610160581
 20
79.061026466
 30
0.0
 10
34.9321291683
 20
79.0300314594
 30
0.0
 10
35.4353255869
 20
79.0014669981
 30
0.0
 10
36.1561452533
 20
78.9673726297
 30
0.0
 10
37.0992631858
 20
78.9371832426
 30
0.0
 10
37.8652376595
 20
78.9288919882
 30
0.0
 10
38.2557005919
 20
78.9288919882
 30
0.0
  0
SPLINE
  5
28F
100
AcDbEntity
  8
0
100
AcDbSpline
 62
7
  6
BYLAYER
 70
0
 71
3
 72
9
 73
5
 74
0
 42
0.0000001
 43
0.0000001
 44
0.0000000001
 40
0.0
 40
0.0
 40
0.0
 40
0.0
 40
0.4706988509
 40
1.0
 40
1.0
 40
1.0
 40
1.0
 10
56.5426498666
 20
66.9976896922
 30
0.0
 10
56.5106287524
 20
66.9551644998
 30
0.0
 10
56.4216251525
 20
66.8802112249
 30
0.0
 10
56.3140333001
 20
66.8396923355
 30
0.0
 10
56.2557005919
 20
66.8262547475
 30
0.0
  0
SPLINE
  5
290
100
AcDbEntity
  8
0
100
AcDbSpline
 62
7
  6
BYLAYER
 70
0
 71
3
 72
9
 73
5
 74
0
 42
0.0000001
 43
0.0000001
 44
0.0000000001
 40
0.0
 40
0.0
 40
0.0
 40
0.0
 40
0.4951030959
 40
1.0
 40
1.0
 40
1.0
 40
1.0
 10
57.0950961454
 20
68.2602040816
 30
0.0
 10
57.076675834
 20
68.143235374
 30
0.0
 10
57.0227565138
 20
67.9093444241
 30
0.0
 10
56.9377122757
 20
67.6849790163
 30
0.0
 10
56.8877956019
 20
67.5750267236
 30
0.0
  0
SPLINE
  5
291
100
AcDbEntity
  8
0
100
AcDbSpline
 62
7
  6
BYLAYER
 70
0
 71
3
 72
9
 73
5
 74
0
 42
0.0000001
 43
0.0000001
 44
0.0000000001
 40
0.0
 40
0.0
 40
0.0
 40
0.0
 40
0.2451146883
 40
1.0
 40
1.0
 40
1.0
 40
1.0
 10
56.8877956019
 20
67.5750267236
 30
0.0
 10
56.865051111
 20
67.5249270527
 30
0.0
 10
56.7663402645
 20
67.323249441
 30
0.0
 10
56.6445781781
 20
67.1330541075
 30
0.0
 10
56.5426498666
 20
66.9976896922
 30
0.0
  0
SPLINE
  5
292
100
AcDbEntity
  8
0
100
AcDbSpline
 62
7
  6
BYLAYER
 70
0
 71
3
 72
29
 73
25
 74
0
 42
0.0000001
 43
0.0000001
 44
0.0000000001
 40
0.0
 40
0.0
 40
0.0
 40
0.0
 40
0.1948443724
 40
0.3822118146
 40
0.4708219206
 40
0.5549244179
 40
0.6336989435
 40
0.7064046733
 40
0.7723402565
 40
0.830880483
 40
0.8814429512
 40
0.903577987
 40
0.9235382212
 40
0.9412681558
 40
0.9567267932
 40
0.9698781858
 40
0.9806863594
 40
0.9891179978
 40
0.9924367492
 40
0.9951554601
 40
0.9972726358
 40
0.9987867813
 40
0.9996964012
 40
1.0
 40
1.0
 40
1.0
 40
1.0
 10
38.2557005919
 20
78.9288919882
 30
0.0
 10
38.646175737
 20
78.9288919882
 30
0.0
 10
39.4121666002
 20
78.937182533
 30
0.0
 10
40.3552974021
 20
78.9673744967
 30
0.0
 10
41.0761145081
 20
79.0014695762
 30
0.0
 10
41.5793010881
 20
79.0300353713
 30
0.0
 10
42.0504048262
 20
79.0610288915
 30
0.0
 10
42.4849274824
 20
79.093223948
 30
0.0
 10
42.878777744
 20
79.1253991465
 30
0.0
 10
43.2281966062
 20
79.1563314536
 30
0.0
 10
43.4900376466
 20
79.1810643714
 30
0.0
 10
43.674833522
 20
79.1992608436
 30
0.0
 10
43.7941213397
 20
79.2112814846
 30
0.0
 10
43.900076168
 20
79.2221638602
 30
0.0
 10
43.9924400882
 20
79.2318162314
 30
0.0
 10
44.0709950398
 20
79.2401504391
 30
0.0
 10
44.1355348936
 20
79.2470946569
 30
0.0
 10
44.1804828938
 20
79.2519547445
 30
0.0
 10
44.2093038997
 20
79.2551159094
 30
0.0
 10
44.2255591258
 20
79.2568551921
 30
0.0
 10
44.2381828339
 20
79.2583440935
 30
0.0
 10
44.2472869771
 20
79.2591155937
 30
0.0
 10
44.2526164478
 20
79.2601126973
 30
0.0
 10
44.2551398159
 20
79.2599703446
 30
0.0
 10
44.2557005799
 20
79.2602063999
 30
0.0
  0
SPLINE
  5
293
100
AcDbEntity
  8
0
100
AcDbSpline
 62
7
  6
BYLAYER
 70
0
 71
3
 72
9
 73
5
 74
0
 42
0.0000001
 43
0.0000001
 44
0.0000000001
 40
0.0
 40
0.0
 40
0.0
 40
0.0
 40
0.5121339337
 40
1.0
 40
1.0
 40
1.0
 40
1.0
 10
56.5426517925
 20
66.2198752321
 30
0.0
 10
56.6852385221
 20
66.40923547
 30
0.0
 10
56.925476435
 20
66.8102743551
 30
0.0
 10
57.0599686171
 20
67.2593273321
 30
0.0
 10
57.0950961454
 20
67.4823866223
 30
0.0
  0
SPLINE
  5
294
100
AcDbEntity
  8
0
100
AcDbSpline
 62
7
  6
BYLAYER
 70
0
 71
3
 72
9
 73
5
 74
0
 42
0.0000001
 43
0.0000001
 44
0.0000000001
 40
0.0
 40
0.0
 40
0.0
 40
0.0
 40
0.5293029525
 40
1.0
 40
1.0
 40
1.0
 40
1.0
 10
56.2557005919
 20
66.0484365948
 30
0.0
 10
56.3140342676
 20
66.0618744055
 30
0.0
 10
56.4216295563
 20
66.1023906223
 30
0.0
 10
56.5106303791
 20
66.1773496421
 30
0.0
 10
56.5426517925
 20
66.2198752321
 30
0.0
  0
ENDSEC
  0
SECTION
  2
OBJECTS
  0
DICTIONARY
  5
C
100
AcDbDictionary
280
0
281
1
  3
ACAD_GROUP
350
D
  3
ACAD_MLINESTYLE
350
17
  3
ACAD_LAYOUT
350
1A
  3
ACAD_PLOTSETTINGS
350
19
  3
ACAD_PLOTSTYLENAME
350
E
  0
DICTIONARY
  5
D
102
{ACAD_REACTORS
330
C
102
}
100
AcDbDictionary
280
0
281
1
  0
ACDBDICTIONARYWDFLT
  5
E
102
{ACAD_REACTORS
330
C
102
}
100
AcDbDictionary
281
1
  3
Normal
350
F
100
AcDbDictionaryWithDefault
340
F
  0
DICTIONARY
  5
17
102
{ACAD_REACTORS
330
C
102
}
100
AcDbDictionary
280
0
281
1
  3
Standard
350
18
  0
DICTIONARY
  5
19
102
{ACAD_REACTORS
330
C
102
}
100
AcDbDictionary
281
1
  0
DICTIONARY
  5
1A
102
{ACAD_REACTORS
330
C
102
}
100
AcDbDictionary
281
1
  3
Model
350
295
  3
Layout1
350
296
  0
ACDBPLACEHOLDER
  5
F
102
{ACAD_REACTORS
330
E
102
}
  0
MLINESTYLE
  5
18
102
{ACAD_REACTORS
330
17
102
}
100
AcDbMlineStyle
  2
STANDARD
 70
0
  3

 62
256
 51
90.0
 52
90.0
 71
2
 49
0.5
 62
256
  6
BYLAYER
 49
-0.5
 62
256
  6
BYLAYER
  0
LAYOUT
  5
295
102
{ACAD_REACTORS
330
1A
102
}
100
AcDbPlotSettings
  1

  2
none_device
  4

  6

 40
0.0
 41
0.0
 42
0.0
 43
0.0
 44
210.0
 45
297.0
 46
0.0
 47
0.0
 48
0.0
 49
0.0
140
0.0
141
0.0
142
1.0
143
1.0
 70
1024
 72
1
 73
0
 74
0
  7

 75
0
147
1.0
148
0.0
149
0.0
100
AcDbLayout
  1
Model
 70
0
 71
0
 10
0.0
 20
0.0
 11
210.0
 21
297.0
 12
0.0
 22
0.0
 32
0.0
 14
0.0
 24
0.0
 34
0.0
 15
0.0
 25
0.0
 35
0.0
146
0.0
 13
0.0
 23
0.0
 33
0.0
 16
1.0
 26
0.0
 36
0.0
 17
0.0
 27
1.0
 37
0.0
 76
0
330
210
345
0
346
0
  0
LAYOUT
  5
296
102
{ACAD_REACTORS
330
1A
102
}
100
AcDbPlotSettings
  1

  2
none_device
  4

  6

 40
0.0
 41
0.0
 42
0.0
 43
0.0
 44
210.0
 45
297.0
 46
0.0
 47
0.0
 48
0.0
 49
0.0
140
0.0
141
0.0
142
1.0
143
1.0
 70
0
 72
1
 73
0
 74
0
  7

 75
0
147
1.0
148
0.0
149
0.0
100
AcDbLayout
  1
Layout1
 70
0
 71
1
 10
0.0
 20
0.0
 11
210.0
 21
297.0
 12
0.0
 22
0.0
 32
0.0
 14
0.0
 24
0.0
 34
0.0
 15
0.0
 25
0.0
 35
0.0
146
0.0
 13
0.0
 23
0.0
 33
0.0
 16
1.0
 26
0.0
 36
0.0
 17
0.0
 27
1.0
 37
0.0
 76
0
330
211
345
0
346
0
  0
ENDSEC
  0
EOF
