999
DXF file: C:\Users\sesa63760\Dev\_Creo\CAD\MCADPD0005436_3D-CAD\drw0001_1.dxf
999
Pro/ENGINEER 2019471 by Parametric Technology Corporation
  0
SECTION
  2
HEADER
  9
$ACADVER
  1
AC1024
  9
$DWGCODEPAGE
  3
ANSI_1252
  9
$EXTMAX
 10
90.113079081
 20
127.4456404146
 30
0.0
  9
$EXTMIN
 10
0.0
 20
0.0
 30
0.0
  9
$LIMMIN
 10
0.0
 20
0.0
  9
$LIMMAX
 10
90.113079081
 20
127.4456404146
  9
$VIEWCTR
 10
45.0565395405
 20
63.7228202073
  9
$VIEWSIZE
 40
127.4456404146
  9
$CLAYER
  8
0
  9
$LTSCALE
 40
8.3075676715
  9
$CELTYPE
  6
BYLAYER
  9
$DIMSCALE
 40
1.0
  9
$DIMASZ
 40
1.072774751
  9
$DIMEXO
 40
1.0
  9
$DIMDLI
 40
5.7397740276
  9
$DIMEXE
 40
1.0
  9
$DIMCEN
 40
1.3594201644
  9
$DIMLFAC
 40
1.0
  9
$DIMBLK
  1
_FILLED
  9
$DIMALT
 70
0
  9
$DIMALTF
 40
0.0393700787
  9
$DIMTXT
 40
1.5018846514
  9
$DIMTOL
 70
1
  9
$DIMLIM
 70
0
  9
$DIMTFAC
 40
1.0
  9
$DIMTP
 40
0.01
  9
$DIMTM
 40
0.01
  9
$DIMGAP
 40
0.625
  9
$DIMDSEP
 70
46
  9
$AUNITS
 70
0
  9
$PDMODE
 70
3
  9
$PDSIZE
 40
0.3125
  9
$HANDSEED
  5
2DE
  9
$TILEMODE
 70
1
  9
$MEASUREMENT
 70
1
  9
$INSUNITS
 70
4
  0
ENDSEC
  0
SECTION
  2
CLASSES
  0
CLASS
  1
ACDBDICTIONARYWDFLT
  2
AcDbDictionaryWithDefault
  3
AutoCAD 2000
 90
0
 91
1
280
0
281
0
  0
CLASS
  1
ACDBPLACEHOLDER
  2
AcDbPlaceHolder
  3
AutoCAD 2000
 90
0
 91
1
280
0
281
0
  0
CLASS
  1
LAYOUT
  2
AcDbLayout
  3
AutoCAD 2000
 90
0
 91
0
280
0
281
0
  0
ENDSEC
  0
SECTION
  2
TABLES
  0
TABLE
  2
VPORT
  5
8
100
AcDbSymbolTable
 70
2
  0
VPORT
  5
1F4
100
AcDbSymbolTableRecord
100
AcDbViewportTableRecord
  2
*ACTIVE
 70
0
 10
0.0
 20
0.0
 11
1.0
 21
1.0
 12
45.0565395405
 22
63.7228202073
 13
0.0
 23
0.0
 14
1.0
 24
1.0
 15
0.0
 25
0.0
 16
0.0
 26
0.0
 36
1.0
 17
0.0
 27
0.0
 37
0.0
 40
127.4456404146
 41
0.7070707071
 42
50.0
 43
0.0
 44
0.0
 50
0.0
 51
0.0
 71
0
 72
100
 73
1
 74
1
 75
0
 76
0
 77
0
 78
0
  0
ENDTAB
  0
TABLE
  2
LTYPE
  5
5
100
AcDbSymbolTable
 70
6
  0
LTYPE
  5
14
100
AcDbSymbolTableRecord
100
AcDbLinetypeTableRecord
  2
BYBLOCK
 70
0
  3

 72
65
 73
0
 40
0.0
  0
LTYPE
  5
15
100
AcDbSymbolTableRecord
100
AcDbLinetypeTableRecord
  2
BYLAYER
 70
0
  3

 72
65
 73
0
 40
0.0
  0
LTYPE
  5
16
100
AcDbSymbolTableRecord
100
AcDbLinetypeTableRecord
  2
CONTINUOUS
 70
64
  3
Solid line
 72
65
 73
0
 40
0.0
  0
LTYPE
  5
1F5
100
AcDbSymbolTableRecord
100
AcDbLinetypeTableRecord
  2
CENTER
 70
64
  3
____ _ ____ _ ____ _ ____ _ ____ _ ____ _ ____
 72
65
 73
4
 40
0.6
 49
0.375
 74
0
 49
-0.075
 74
0
 49
0.075
 74
0
 49
-0.075
 74
0
  0
LTYPE
  5
1F6
100
AcDbSymbolTableRecord
100
AcDbLinetypeTableRecord
  2
HIDDEN
 70
64
  3
- - - - - - - - - - - - - - - - - - - -
 72
65
 73
2
 40
0.2
 49
0.1
 74
0
 49
-0.1
 74
0
  0
LTYPE
  5
1F7
100
AcDbSymbolTableRecord
100
AcDbLinetypeTableRecord
  2
PHANTOM
 70
64
  3
_____ _ _ _____ _ _ _____ _ _ _____
 72
65
 73
6
 40
0.8
 49
0.45
 74
0
 49
-0.05
 74
0
 49
0.1
 74
0
 49
-0.05
 74
0
 49
0.1
 74
0
 49
-0.05
 74
0
  0
LTYPE
  5
1F8
100
AcDbSymbolTableRecord
100
AcDbLinetypeTableRecord
  2
DOT
 70
64
  3
. . . . . . . . . . . . . . . . . . . .
 72
65
 73
2
 40
0.2
 49
0.1
 74
0
 49
-0.1
 74
0
  0
LTYPE
  5
1F9
100
AcDbSymbolTableRecord
100
AcDbLinetypeTableRecord
  2
DASHED
 70
64
  3
- - - - - - - - - - - - - - - - - - - -
 72
65
 73
2
 40
0.2
 49
0.1
 74
0
 49
-0.1
 74
0
  0
ENDTAB
  0
TABLE
  2
LAYER
  5
2
100
AcDbSymbolTable
 70
36
  0
LAYER
  5
10
100
AcDbSymbolTableRecord
100
AcDbLayerTableRecord
  2
0
 70
0
 62
7
  6
CONTINUOUS
370
-3
390
F
  0
LAYER
  5
1FA
100
AcDbSymbolTableRecord
100
AcDbLayerTableRecord
  2
DEFAULT_1
 70
0
 62
7
  6
CENTER
370
-3
390
F
  0
LAYER
  5
1FB
100
AcDbSymbolTableRecord
100
AcDbLayerTableRecord
  2
DEFAULT_2
 70
0
 62
7
  6
HIDDEN
370
-3
390
F
  0
LAYER
  5
1FC
100
AcDbSymbolTableRecord
100
AcDbLayerTableRecord
  2
DEFAULT_3
 70
0
 62
7
  6
PHANTOM
370
-3
390
F
  0
LAYER
  5
1FD
100
AcDbSymbolTableRecord
100
AcDbLayerTableRecord
  2
00_COMPONENTS
 70
0
 62
7
  6
CONTINUOUS
370
-3
390
F
  0
LAYER
  5
1FE
100
AcDbSymbolTableRecord
100
AcDbLayerTableRecord
  2
01_1_DEFAULT_DATUMS
 70
0
 62
7
  6
CONTINUOUS
370
-3
390
F
  0
LAYER
  5
1FF
100
AcDbSymbolTableRecord
100
AcDbLayerTableRecord
  2
01_PLANES
 70
0
 62
7
  6
CONTINUOUS
370
-3
390
F
  0
LAYER
  5
200
100
AcDbSymbolTableRecord
100
AcDbLayerTableRecord
  2
02_COORD_SYS
 70
0
 62
7
  6
CONTINUOUS
370
-3
390
F
  0
LAYER
  5
201
100
AcDbSymbolTableRecord
100
AcDbLayerTableRecord
  2
03_AXES
 70
0
 62
7
  6
CONTINUOUS
370
-3
390
F
  0
LAYER
  5
202
100
AcDbSymbolTableRecord
100
AcDbLayerTableRecord
  2
04_POINTS
 70
0
 62
7
  6
CONTINUOUS
370
-3
390
F
  0
LAYER
  5
203
100
AcDbSymbolTableRecord
100
AcDbLayerTableRecord
  2
05_CURVES
 70
0
 62
7
  6
CONTINUOUS
370
-3
390
F
  0
LAYER
  5
204
100
AcDbSymbolTableRecord
100
AcDbLayerTableRecord
  2
06_SURFS
 70
0
 62
7
  6
CONTINUOUS
370
-3
390
F
  0
LAYER
  5
205
100
AcDbSymbolTableRecord
100
AcDbLayerTableRecord
  2
07_COSMETICS
 70
0
 62
7
  6
CONTINUOUS
370
-3
390
F
  0
LAYER
  5
206
100
AcDbSymbolTableRecord
100
AcDbLayerTableRecord
  2
10_NOTES
 70
0
 62
7
  6
CONTINUOUS
370
-3
390
F
  0
LAYER
  5
207
100
AcDbSymbolTableRecord
100
AcDbLayerTableRecord
  2
11_NOTES_PUB
 70
0
 62
7
  6
CONTINUOUS
370
-3
390
F
  0
LAYER
  5
208
100
AcDbSymbolTableRecord
100
AcDbLayerTableRecord
  2
13_REF_GTOL
 70
0
 62
7
  6
CONTINUOUS
370
-3
390
F
  0
LAYER
  5
209
100
AcDbSymbolTableRecord
100
AcDbLayerTableRecord
  2
16_MISC
 70
0
 62
7
  6
CONTINUOUS
370
-3
390
F
  0
LAYER
  5
20A
100
AcDbSymbolTableRecord
100
AcDbLayerTableRecord
  2
17_NO_PRINT
 70
0
 62
7
  6
CONTINUOUS
370
-3
390
F
  0
LAYER
  5
20B
100
AcDbSymbolTableRecord
100
AcDbLayerTableRecord
  2
18_DATUM_CAMS_JOINTS
 70
0
 62
7
  6
CONTINUOUS
370
-3
390
F
  0
LAYER
  5
20C
100
AcDbSymbolTableRecord
100
AcDbLayerTableRecord
  2
19_DATUM_FUNCTIONAL
 70
0
 62
7
  6
CONTINUOUS
370
-3
390
F
  0
LAYER
  5
20D
100
AcDbSymbolTableRecord
100
AcDbLayerTableRecord
  2
20_DATUM_KINEMATIC_SCHEME
 70
0
 62
7
  6
CONTINUOUS
370
-3
390
F
  0
ENDTAB
  0
TABLE
  2
STYLE
  5
3
100
AcDbSymbolTable
 70
1
  0
STYLE
  5
11
100
AcDbSymbolTableRecord
100
AcDbTextStyleTableRecord
  2
STANDARD
 70
0
 40
0.0
 41
1.0
 50
0.0
 71
0
 42
0.2
  3
ARIAL.TTF
  4

  0
STYLE
  5
20E
100
AcDbSymbolTableRecord
100
AcDbTextStyleTableRecord
  2
TEXTSTYLE_1
 70
0
 40
0.0
 41
0.8
 50
0.0
 71
0
 42
0.2
  3
gdt
  4

  0
ENDTAB
  0
TABLE
  2
VIEW
  5
6
100
AcDbSymbolTable
 70
0
  0
ENDTAB
  0
TABLE
  2
UCS
  5
7
100
AcDbSymbolTable
 70
0
  0
ENDTAB
  0
TABLE
  2
APPID
  5
9
100
AcDbSymbolTable
 70
1
  0
APPID
  5
20F
100
AcDbSymbolTableRecord
100
AcDbRegAppTableRecord
  2
ACAD
 70
0
  0
ENDTAB
  0
TABLE
  2
BLOCK_RECORD
  5
1
100
AcDbSymbolTable
 70
0
  0
BLOCK_RECORD
  5
210
100
AcDbSymbolTableRecord
100
AcDbBlockTableRecord
  2
*Model_Space
  0
BLOCK_RECORD
  5
211
100
AcDbSymbolTableRecord
100
AcDbBlockTableRecord
  2
*Paper_Space
  0
BLOCK_RECORD
  5
212
100
AcDbSymbolTableRecord
100
AcDbBlockTableRecord
  2
_FILLED
  0
ENDTAB
  0
TABLE
  2
DIMSTYLE
  5
A
100
AcDbSymbolTable
 70
1
100
AcDbDimStyleTable
 71
0
  0
DIMSTYLE
105
213
100
AcDbSymbolTableRecord
100
AcDbDimStyleTableRecord
  2
STANDARD
 70
0
  3

  4

 40
1.0
 41
1.072774751
 42
1.0
 43
0.38
 44
1.0
 45
0.0
 46
0.0
 47
0.01
 48
0.01
140
1.5018846514
141
0.09
142
0.0
143
25.4
144
1.0
145
0.0
146
1.0
147
0.625
 71
1
 72
0
 73
0
 74
0
 75
0
 76
0
 77
1
 78
8
 79
2
170
0
171
1
172
0
173
0
174
0
175
0
176
0
177
0
178
0
270
2
179
2
271
2
272
2
273
2
274
2
275
0
280
0
281
0
282
0
283
1
284
8
285
0
286
0
287
3
288
0
340
11
278
46
341
212
342
212
343
212
344
212
  0
ENDTAB
  0
ENDSEC
  0
SECTION
  2
BLOCKS
  0
BLOCK
  5
20
100
AcDbEntity
  8
0
100
AcDbBlockBegin
  2
*Model_Space
 70
0
 10
0.0
 20
0.0
 30
0.0
  3
*Model_Space
  1

  0
ENDBLK
  5
21
100
AcDbEntity
  8
0
100
AcDbBlockEnd
  0
BLOCK
  5
1C
100
AcDbEntity
  8
0
100
AcDbBlockBegin
  2
*Paper_Space
 70
0
 10
0.0
 20
0.0
 30
0.0
  3
*Paper_Space
  1

  0
ENDBLK
  5
1D
100
AcDbEntity
  8
0
100
AcDbBlockEnd
  0
BLOCK
  5
214
100
AcDbEntity
  8
0
100
AcDbBlockBegin
  2
_FILLED
 70
64
 10
0.0
 20
0.0
  3
_FILLED
  1

  0
SOLID
  5
215
100
AcDbEntity
  8
0
  6
BYBLOCK
 62
0
100
AcDbTrace
 10
0.0
 20
0.0
 11
-1.0
 21
0.25
 12
-1.0
 22
-0.25
 13
-1.0
 23
-0.25
  0
ENDBLK
  5
216
100
AcDbEntity
  8
0
  6
BYBLOCK
 62
0
100
AcDbBlockEnd
  0
ENDSEC
  0
SECTION
  2
ENTITIES
  0
LINE
  5
217
100
AcDbEntity
  8
0
100
AcDbLine
 62
7
  6
BYLAYER
 10
24.5432980003
 20
28.8279829848
 11
12.5224326728
 21
35.7680758117
  0
LINE
  5
218
100
AcDbEntity
  8
0
100
AcDbLine
 62
7
  6
BYLAYER
 10
26.7176422998
 20
30.8998361751
 11
27.4247520249
 21
30.4915954206
  0
LINE
  5
219
100
AcDbEntity
  8
0
100
AcDbLine
 62
7
  6
BYLAYER
 10
10.454153949
 20
48.2912022694
 11
10.454153949
 21
62.5799945691
  0
LINE
  5
21A
100
AcDbEntity
  8
0
100
AcDbLine
 62
7
  6
BYLAYER
 10
11.5148185367
 20
59.8855522737
 11
11.5148185367
 21
48.0345652548
  0
LINE
  5
21B
100
AcDbEntity
  8
0
100
AcDbLine
 62
7
  6
BYLAYER
 10
12.5224326728
 20
66.2236159706
 11
12.5224326728
 21
64.1123192267
  0
LINE
  5
21C
100
AcDbEntity
  8
0
100
AcDbLine
 62
7
  6
BYLAYER
 10
12.5224326728
 20
46.2806055883
 11
12.5224326728
 21
35.7680758117
  0
LINE
  5
21D
100
AcDbEntity
  8
0
100
AcDbLine
 62
7
  6
BYLAYER
 10
13.3002533705
 20
65.7745511406
 11
13.3002533705
 21
66.9993047663
  0
LINE
  5
21E
100
AcDbEntity
  8
0
100
AcDbLine
 62
7
  6
BYLAYER
 10
15.7574592238
 20
58.2525576375
 11
15.7574592238
 21
49.8834078619
  0
LINE
  5
21F
100
AcDbEntity
  8
0
100
AcDbLine
 62
7
  6
BYLAYER
 10
33.0992603186
 20
32.9512523383
 11
31.967894179
 21
33.1145641092
  0
LINE
  5
220
100
AcDbEntity
  8
0
100
AcDbLine
 62
7
  6
BYLAYER
 10
21.7679095513
 20
40.9428477799
 11
11.1612636741
 21
47.0664590977
  0
LINE
  5
221
100
AcDbEntity
  8
0
100
AcDbLine
 62
7
  6
BYLAYER
 10
34.8670228556
 20
33.5636202688
 11
33.8063582678
 21
34.1759814005
  0
LINE
  5
222
100
AcDbEntity
  8
0
100
AcDbLine
 62
7
  6
BYLAYER
 10
21.4143546888
 20
42.3191946915
 11
11.5148185367
 21
48.0345652548
  0
LINE
  5
223
100
AcDbEntity
  8
0
100
AcDbLine
 62
7
  6
BYLAYER
 10
21.4143435017
 20
45.7193484265
 11
14.2018243052
 21
49.8834041226
  0
LINE
  5
224
100
AcDbEntity
  8
0
100
AcDbLine
 62
7
  6
BYLAYER
 10
20.7248283526
 20
77.4912412294
 11
20.7248283526
 21
72.1023619607
  0
LINE
  5
225
100
AcDbEntity
  8
0
100
AcDbLine
 62
7
  6
BYLAYER
 10
21.4143546888
 20
42.3191946915
 11
21.4143546888
 21
54.1701817104
  0
LINE
  5
226
100
AcDbEntity
  8
0
100
AcDbLine
 62
7
  6
BYLAYER
 10
21.4319380778
 20
73.8169908064
 11
21.4319380778
 21
77.0830004749
  0
LINE
  5
227
100
AcDbEntity
  8
0
100
AcDbLine
 62
7
  6
BYLAYER
 10
22.4750192765
 20
41.3511094425
 11
22.4750192765
 21
55.6399017423
  0
LINE
  5
228
100
AcDbEntity
  8
0
100
AcDbLine
 62
7
  6
BYLAYER
 10
22.7754294805
 20
78.6751492757
 11
22.7754294805
 21
79.8182526597
  0
LINE
  5
229
100
AcDbEntity
  8
0
100
AcDbLine
 62
7
  6
BYLAYER
 10
22.7754294805
 20
79.8182526597
 11
54.5951021552
 21
98.1892395839
  0
LINE
  5
22A
100
AcDbEntity
  8
0
100
AcDbLine
 62
7
  6
BYLAYER
 10
20.7248283526
 20
77.4912412294
 11
22.7754294805
 21
78.6751492757
  0
LINE
  5
22B
100
AcDbEntity
  8
0
100
AcDbLine
 62
7
  6
BYLAYER
 10
55.5850728773
 20
97.6176926511
 11
56.6457032831
 21
98.2300442461
  0
LINE
  5
22C
100
AcDbEntity
  8
0
100
AcDbLine
 62
7
  6
BYLAYER
 10
21.4319380778
 20
77.0830004749
 11
23.4825392057
 21
78.2669085212
  0
LINE
  5
22D
100
AcDbEntity
  8
0
100
AcDbLine
 62
7
  6
BYLAYER
 10
56.2921826025
 20
97.2094518966
 11
57.3528130082
 21
97.8218034916
  0
LINE
  5
22E
100
AcDbEntity
  8
0
100
AcDbLine
 62
7
  6
BYLAYER
 10
21.4143546888
 20
54.1701817104
 11
17.595962173
 21
58.2118122234
  0
LINE
  5
22F
100
AcDbEntity
  8
0
100
AcDbLine
 62
7
  6
BYLAYER
 10
23.4825392057
 20
78.2669085212
 11
23.4825392057
 21
75.0008988526
  0
LINE
  5
230
100
AcDbEntity
  8
0
100
AcDbLine
 62
7
  6
BYLAYER
 10
23.7654773027
 20
59.7325879737
 11
23.7654773027
 21
60.9573415994
  0
LINE
  5
231
100
AcDbEntity
  8
0
100
AcDbLine
 62
7
  6
BYLAYER
 10
24.5432980003
 20
28.8279829848
 11
24.5432980003
 21
42.5452235926
  0
LINE
  5
232
100
AcDbEntity
  8
0
100
AcDbLine
 62
7
  6
BYLAYER
 10
24.5432980003
 20
56.8340158924
 11
24.5432980003
 21
59.2835231438
  0
LINE
  5
233
100
AcDbEntity
  8
0
100
AcDbLine
 62
7
  6
BYLAYER
 10
21.4319380778
 20
73.8169908064
 11
23.4825392057
 21
75.0008988526
  0
LINE
  5
234
100
AcDbEntity
  8
0
100
AcDbLine
 62
7
  6
BYLAYER
 10
22.563313638
 20
73.1638055992
 11
14.0073572077
 21
68.2240513373
  0
LINE
  5
235
100
AcDbEntity
  8
0
100
AcDbLine
 62
7
  6
BYLAYER
 10
60.2520459402
 20
94.9232754528
 11
67.0401449988
 21
98.8423628777
  0
LINE
  5
236
100
AcDbEntity
  8
0
100
AcDbLine
 62
7
  6
BYLAYER
 10
26.7176422998
 20
59.9673222249
 11
26.7176422998
 21
30.8998361751
  0
LINE
  5
237
100
AcDbEntity
  8
0
100
AcDbLine
 62
7
  6
BYLAYER
 10
27.2655762352
 20
74.8580668588
 11
27.2655762352
 21
72.816810816
  0
LINE
  5
238
100
AcDbEntity
  8
0
100
AcDbLine
 62
7
  6
BYLAYER
 10
27.4247520249
 20
59.5590814704
 11
27.4247520249
 21
30.4915954206
  0
LINE
  5
239
100
AcDbEntity
  8
0
100
AcDbLine
 62
7
  6
BYLAYER
 10
28.5737957604
 20
59.9775274953
 11
28.5737957604
 21
60.7940299124
  0
LINE
  5
23A
100
AcDbEntity
  8
0
100
AcDbLine
 62
7
  6
BYLAYER
 10
13.3002533705
 20
66.6726882792
 11
12.5224326728
 21
66.2236159706
  0
LINE
  5
23B
100
AcDbEntity
  8
0
100
AcDbLine
 62
7
  6
BYLAYER
 10
29.0333810962
 20
73.8374473359
 11
27.2655762352
 21
72.816810816
  0
LINE
  5
23C
100
AcDbEntity
  8
0
100
AcDbLine
 62
7
  6
BYLAYER
 10
12.7295446364
 20
64.2318946608
 11
10.6612659126
 21
63.0377805108
  0
LINE
  5
23D
100
AcDbEntity
  8
0
100
AcDbLine
 62
7
  6
BYLAYER
 10
13.229542398
 20
64.1823703818
 11
11.1612636741
 21
62.9882562318
  0
LINE
  5
23E
100
AcDbEntity
  8
0
100
AcDbLine
 62
7
  6
BYLAYER
 10
17.595962173
 20
58.2118122234
 11
15.3332110525
 21
59.5181826378
  0
LINE
  5
23F
100
AcDbEntity
  8
0
100
AcDbLine
 62
7
  6
BYLAYER
 10
21.7679095513
 20
56.864644914
 11
11.1612636741
 21
62.9882562318
  0
LINE
  5
240
100
AcDbEntity
  8
0
100
AcDbLine
 62
7
  6
BYLAYER
 10
32.4274772288
 20
71.8779093508
 11
32.4274772288
 21
69.836653308
  0
LINE
  5
241
100
AcDbEntity
  8
0
100
AcDbLine
 62
7
  6
BYLAYER
 10
27.3010029655
 20
60.8756753439
 11
26.7176422998
 21
59.9673222249
  0
LINE
  5
242
100
AcDbEntity
  8
0
100
AcDbLine
 62
7
  6
BYLAYER
 10
27.4247520249
 20
59.5590814704
 11
28.0081126906
 21
60.4674345893
  0
LINE
  5
243
100
AcDbEntity
  8
0
100
AcDbLine
 62
7
  6
BYLAYER
 10
14.2018243052
 20
49.8834041226
 11
15.7574592238
 21
49.8834078619
  0
LINE
  5
244
100
AcDbEntity
  8
0
100
AcDbLine
 62
7
  6
BYLAYER
 10
11.5148185367
 20
59.8855522737
 11
15.7574592238
 21
58.2525576375
  0
LINE
  5
245
100
AcDbEntity
  8
0
100
AcDbLine
 62
7
  6
BYLAYER
 10
23.8361882752
 20
58.058759064
 11
13.229542398
 21
64.1823703818
  0
LINE
  5
246
100
AcDbEntity
  8
0
100
AcDbLine
 62
7
  6
BYLAYER
 10
13.3002533705
 20
65.7745511406
 11
12.5224326728
 21
66.2236159706
  0
LINE
  5
247
100
AcDbEntity
  8
0
100
AcDbLine
 62
7
  6
BYLAYER
 10
23.7654773027
 20
59.7325879737
 11
24.5432980003
 21
59.2835231438
  0
LINE
  5
248
100
AcDbEntity
  8
0
100
AcDbLine
 62
7
  6
BYLAYER
 10
23.7654773027
 20
60.9573415994
 11
13.3002533705
 21
66.9993047663
  0
LINE
  5
249
100
AcDbEntity
  8
0
100
AcDbLine
 62
7
  6
BYLAYER
 10
26.7176422998
 20
59.9673222249
 11
27.4247520249
 21
59.5590814704
  0
LINE
  5
24A
100
AcDbEntity
  8
0
100
AcDbLine
 62
7
  6
BYLAYER
 10
33.0285375702
 20
67.1218424323
 11
33.0285375702
 21
64.2640839723
  0
LINE
  5
24B
100
AcDbEntity
  8
0
100
AcDbLine
 62
7
  6
BYLAYER
 10
33.0992603186
 20
32.9512523383
 11
33.0992603186
 21
33.7677547554
  0
LINE
  5
24C
100
AcDbEntity
  8
0
100
AcDbLine
 62
7
  6
BYLAYER
 10
34.1599131304
 20
66.468657225
 11
34.1599131304
 21
69.7346668936
  0
LINE
  5
24D
100
AcDbEntity
  8
0
100
AcDbLine
 62
7
  6
BYLAYER
 10
34.513467993
 20
63.4067783878
 11
34.513467993
 21
34.5842430632
  0
LINE
  5
24E
100
AcDbEntity
  8
0
100
AcDbLine
 62
7
  6
BYLAYER
 10
34.8670228556
 20
33.5636202688
 11
34.8670228556
 21
69.326426139
  0
LINE
  5
24F
100
AcDbEntity
  8
0
100
AcDbLine
 62
7
  6
BYLAYER
 10
36.9176239835
 20
71.6534375693
 11
68.7372966581
 21
90.0244244935
  0
LINE
  5
250
100
AcDbEntity
  8
0
100
AcDbLine
 62
7
  6
BYLAYER
 10
34.1599131304
 20
69.7346668936
 11
36.2105142583
 21
70.9185749398
  0
LINE
  5
251
100
AcDbEntity
  8
0
100
AcDbLine
 62
7
  6
BYLAYER
 10
68.7372966581
 20
89.6978094173
 11
70.0807880609
 21
90.4734699102
  0
LINE
  5
252
100
AcDbEntity
  8
0
100
AcDbLine
 62
7
  6
BYLAYER
 10
34.8670228556
 20
69.326426139
 11
36.9176239835
 21
70.5103341853
  0
LINE
  5
253
100
AcDbEntity
  8
0
100
AcDbLine
 62
7
  6
BYLAYER
 10
68.7372966581
 20
88.8813211095
 11
70.787897786
 21
90.0652291557
  0
LINE
  5
254
100
AcDbEntity
  8
0
100
AcDbLine
 62
7
  6
BYLAYER
 10
14.0073572077
 20
68.2240513373
 11
24.4725811399
 21
62.1820881704
  0
LINE
  5
255
100
AcDbEntity
  8
0
100
AcDbLine
 62
7
  6
BYLAYER
 10
27.3010029655
 20
60.8756753439
 11
28.0081126906
 21
60.4674345893
  0
LINE
  5
256
100
AcDbEntity
  8
0
100
AcDbLine
 62
7
  6
BYLAYER
 10
27.0888653376
 20
61.6513354969
 11
28.5737957604
 21
60.7940299124
  0
LINE
  5
257
100
AcDbEntity
  8
0
100
AcDbLine
 62
7
  6
BYLAYER
 10
47.339890879
 20
50.5949624281
 11
45.7135385111
 21
51.5339161635
  0
LINE
  5
258
100
AcDbEntity
  8
0
100
AcDbLine
 62
7
  6
BYLAYER
 10
36.9176239835
 20
70.5103341853
 11
36.9176239835
 21
71.6534375693
  0
LINE
  5
259
100
AcDbEntity
  8
0
100
AcDbLine
 62
7
  6
BYLAYER
 10
14.2018243052
 20
49.8834041226
 11
11.5148185367
 21
48.0345652548
  0
LINE
  5
25A
100
AcDbEntity
  8
0
100
AcDbLine
 62
7
  6
BYLAYER
 10
33.0285375702
 20
67.1218424323
 11
24.4725811399
 21
62.1820881704
  0
LINE
  5
25B
100
AcDbEntity
  8
0
100
AcDbLine
 62
7
  6
BYLAYER
 10
70.787897786
 20
88.9220890874
 11
77.5053689309
 21
92.8003997108
  0
LINE
  5
25C
100
AcDbEntity
  8
0
100
AcDbLine
 62
7
  6
BYLAYER
 10
27.0888653376
 20
61.6513354969
 11
23.7654773027
 21
59.7325879737
  0
LINE
  5
25D
100
AcDbEntity
  8
0
100
AcDbLine
 62
7
  6
BYLAYER
 10
74.8890847332
 20
89.2486402986
 11
78.2124727682
 21
91.1673878218
  0
LINE
  5
25E
100
AcDbEntity
  8
0
100
AcDbLine
 62
7
  6
BYLAYER
 10
33.0285375702
 20
64.2640839723
 11
27.795987282
 21
61.2430876878
  0
LINE
  5
25F
100
AcDbEntity
  8
0
100
AcDbLine
 62
7
  6
BYLAYER
 10
70.787897786
 20
86.0643306274
 11
74.8890847332
 21
88.4321378815
  0
LINE
  5
260
100
AcDbEntity
  8
0
100
AcDbLine
 62
7
  6
BYLAYER
 10
27.3010029655
 20
60.8756753439
 11
24.5432980003
 21
59.2835231438
  0
LINE
  5
261
100
AcDbEntity
  8
0
100
AcDbLine
 62
7
  6
BYLAYER
 10
76.2325885007
 20
89.1261707918
 11
78.9902934658
 21
90.7183229919
  0
LINE
  5
262
100
AcDbEntity
  8
0
100
AcDbLine
 62
7
  6
BYLAYER
 10
17.7374404708
 20
58.062062557
 11
15.7574592238
 21
58.2525576375
  0
LINE
  5
263
100
AcDbEntity
  8
0
100
AcDbLine
 62
7
  6
BYLAYER
 10
15.3332110525
 20
59.5181826378
 11
11.5148185367
 21
59.8855522737
  0
LINE
  5
264
100
AcDbEntity
  8
0
100
AcDbLine
 62
7
  6
BYLAYER
 10
48.8398654284
 20
53.1930533332
 11
47.2135130606
 21
54.1320070686
  0
LINE
  5
265
100
AcDbEntity
  8
0
100
AcDbLine
 62
7
  6
BYLAYER
 10
51.3071870708
 20
52.3225971899
 11
53.8527814925
 21
50.8529308136
  0
LINE
  5
266
100
AcDbEntity
  8
0
100
AcDbLine
 62
7
  6
BYLAYER
 10
28.5737957604
 20
60.7940299124
 11
28.0081126906
 21
60.4674345893
  0
LINE
  5
267
100
AcDbEntity
  8
0
100
AcDbLine
 62
7
  6
BYLAYER
 10
76.3740151561
 20
88.3913347142
 11
76.9396982258
 21
88.7179300373
  0
LINE
  5
268
100
AcDbEntity
  8
0
100
AcDbLine
 62
7
  6
BYLAYER
 10
21.7679095513
 20
56.864644914
 11
23.8361882752
 21
58.058759064
  0
LINE
  5
269
100
AcDbEntity
  8
0
100
AcDbLine
 62
7
  6
BYLAYER
 10
78.9902934658
 20
89.9018064654
 11
80.3514624645
 21
90.6876730622
  0
LINE
  5
26A
100
AcDbEntity
  8
0
100
AcDbLine
 62
7
  6
BYLAYER
 10
34.513467993
 20
63.4067783878
 11
28.5737957604
 21
59.9775274953
  0
LINE
  5
26B
100
AcDbEntity
  8
0
100
AcDbLine
 62
7
  6
BYLAYER
 10
70.787897786
 20
84.3497051811
 11
76.3740151561
 21
87.574832297
  0
LINE
  5
26C
100
AcDbEntity
  8
0
100
AcDbLine
 62
7
  6
BYLAYER
 10
81.0585721897
 20
89.4629298906
 11
78.9902934658
 21
88.2688157405
  0
LINE
  5
26D
100
AcDbEntity
  8
0
100
AcDbLine
 62
7
  6
BYLAYER
 10
24.5432980003
 20
56.8340158924
 11
22.4750192765
 21
55.6399017423
  0
LINE
  5
26E
100
AcDbEntity
  8
0
100
AcDbLine
 62
7
  6
BYLAYER
 10
21.4143546888
 20
53.149398486
 11
15.7574592238
 21
49.8834078619
  0
LINE
  5
26F
100
AcDbEntity
  8
0
100
AcDbLine
 62
7
  6
BYLAYER
 10
33.0285375702
 20
64.2640839723
 11
34.513467993
 21
63.4067783878
  0
LINE
  5
270
100
AcDbEntity
  8
0
100
AcDbLine
 62
7
  6
BYLAYER
 10
22.563313638
 20
73.1638055992
 11
21.4319380778
 21
73.8169908064
  0
LINE
  5
271
100
AcDbEntity
  8
0
100
AcDbLine
 62
7
  6
BYLAYER
 10
33.0285375702
 20
67.1218424323
 11
34.1599131304
 21
66.468657225
  0
LINE
  5
272
100
AcDbEntity
  8
0
100
AcDbLine
 62
7
  6
BYLAYER
 10
54.5598882737
 20
55.2620455657
 11
51.3071870708
 21
57.139961451
  0
LINE
  5
273
100
AcDbEntity
  8
0
100
AcDbLine
 62
7
  6
BYLAYER
 10
34.1599131304
 20
68.8364536013
 11
32.4274772288
 21
69.836653308
  0
LINE
  5
274
100
AcDbEntity
  8
0
100
AcDbLine
 62
7
  6
BYLAYER
 10
27.2655762352
 20
72.816810816
 11
23.4825392057
 21
75.0008988526
  0
LINE
  5
275
100
AcDbEntity
  8
0
100
AcDbLine
 62
7
  6
BYLAYER
 10
34.8670228556
 20
69.326426139
 11
34.1599131304
 21
69.7346668936
  0
LINE
  5
276
100
AcDbEntity
  8
0
100
AcDbLine
 62
7
  6
BYLAYER
 10
20.7248283526
 20
77.4912412294
 11
21.4319380778
 21
77.0830004749
  0
LINE
  5
277
100
AcDbEntity
  8
0
100
AcDbLine
 62
7
  6
BYLAYER
 10
53.5699134619
 20
59.1811795008
 11
56.7519072251
 21
57.3440961055
  0
LINE
  5
278
100
AcDbEntity
  8
0
100
AcDbLine
 62
7
  6
BYLAYER
 10
32.4274772288
 20
71.8779093508
 11
27.2655762352
 21
74.8580668588
  0
LINE
  5
279
100
AcDbEntity
  8
0
100
AcDbLine
 62
7
  6
BYLAYER
 10
54.3477335708
 20
65.5090829822
 11
51.3071870708
 21
63.7536331205
  0
LINE
  5
27A
100
AcDbEntity
  8
0
100
AcDbLine
 62
7
  6
BYLAYER
 10
23.4825392057
 20
78.2669085212
 11
22.7754294805
 21
78.6751492757
  0
LINE
  5
27B
100
AcDbEntity
  8
0
100
AcDbLine
 62
7
  6
BYLAYER
 10
36.2105142583
 20
70.9185749398
 11
36.9176239835
 21
70.5103341853
  0
LINE
  5
27C
100
AcDbEntity
  8
0
100
AcDbLine
 62
7
  6
BYLAYER
 10
58.4842910185
 20
58.8602347776
 11
60.1106433863
 21
57.9212810422
  0
LINE
  5
27D
100
AcDbEntity
  8
0
100
AcDbLine
 62
7
  6
BYLAYER
 10
36.9176239835
 20
71.6534375693
 11
22.7754294805
 21
79.8182526597
  0
LINE
  5
27E
100
AcDbEntity
  8
0
100
AcDbLine
 62
7
  6
BYLAYER
 10
60.1106433863
 20
59.7470359507
 11
58.4842910185
 21
60.6859896861
  0
LINE
  5
27F
100
AcDbEntity
  8
0
100
AcDbLine
 62
7
  6
BYLAYER
 10
51.3071870708
 20
63.7536331205
 11
51.3071870708
 21
50.6079442047
  0
LINE
  5
280
100
AcDbEntity
  8
0
100
AcDbLine
 62
7
  6
BYLAYER
 10
59.8984986929
 20
61.5024779939
 11
61.5248510608
 21
60.5635242585
  0
LINE
  5
281
100
AcDbEntity
  8
0
100
AcDbLine
 62
7
  6
BYLAYER
 10
71.1414408727
 20
55.731272725
 11
71.8485505979
 21
55.3230319704
  0
LINE
  5
282
100
AcDbEntity
  8
0
100
AcDbLine
 62
7
  6
BYLAYER
 10
53.6406238457
 20
59.1403557653
 11
53.6406238457
 21
65.1008354289
  0
LINE
  5
283
100
AcDbEntity
  8
0
100
AcDbLine
 62
7
  6
BYLAYER
 10
53.8527814925
 20
50.8529308136
 11
53.8527814925
 21
55.6702950746
  0
LINE
  5
284
100
AcDbEntity
  8
0
100
AcDbLine
 62
7
  6
BYLAYER
 10
54.3477335708
 20
58.7321150108
 11
54.3477335708
 21
65.5090829822
  0
LINE
  5
285
100
AcDbEntity
  8
0
100
AcDbLine
 62
7
  6
BYLAYER
 10
54.5598882737
 20
51.2611837218
 11
54.5598882737
 21
55.2620455657
  0
LINE
  5
286
100
AcDbEntity
  8
0
100
AcDbLine
 62
7
  6
BYLAYER
 10
22.4750192765
 20
41.3511094425
 11
24.5432980003
 21
42.5452235926
  0
LINE
  5
287
100
AcDbEntity
  8
0
100
AcDbLine
 62
7
  6
BYLAYER
 10
78.9902934658
 20
73.9800234407
 11
81.0585721897
 21
75.1741375908
  0
LINE
  5
288
100
AcDbEntity
  8
0
100
AcDbLine
 62
7
  6
BYLAYER
 10
53.5699134619
 20
59.1811795008
 11
51.3071870708
 21
57.8748016078
  0
LINE
  5
289
100
AcDbEntity
  8
0
100
AcDbLine
 62
7
  6
BYLAYER
 10
80.8514602261
 20
74.7163516492
 11
78.9902934658
 21
73.6418129332
  0
LINE
  5
28A
100
AcDbEntity
  8
0
100
AcDbLine
 62
7
  6
BYLAYER
 10
24.3361860368
 20
42.087437651
 11
22.2679073129
 21
40.8933235009
  0
LINE
  5
28B
100
AcDbEntity
  8
0
100
AcDbLine
 62
7
  6
BYLAYER
 10
56.7519072251
 20
57.3440961055
 11
56.7519101691
 21
52.5267405988
  0
LINE
  5
28C
100
AcDbEntity
  8
0
100
AcDbLine
 62
7
  6
BYLAYER
 10
57.3528130082
 20
97.8218034916
 11
57.3528130082
 21
96.5971104993
  0
LINE
  5
28D
100
AcDbEntity
  8
0
100
AcDbLine
 62
7
  6
BYLAYER
 10
58.4842910185
 20
60.6859896861
 11
58.4842910185
 21
58.8602347776
  0
LINE
  5
28E
100
AcDbEntity
  8
0
100
AcDbLine
 62
7
  6
BYLAYER
 10
53.8527814925
 20
55.6702950746
 11
56.7519072251
 21
57.3440961055
  0
LINE
  5
28F
100
AcDbEntity
  8
0
100
AcDbLine
 62
7
  6
BYLAYER
 10
54.5598882737
 20
55.2620455657
 11
56.7519101691
 21
56.5276024427
  0
LINE
  5
290
100
AcDbEntity
  8
0
100
AcDbLine
 62
7
  6
BYLAYER
 10
51.3071870708
 20
51.4244325125
 11
52.0850316181
 21
51.8735185906
  0
LINE
  5
291
100
AcDbEntity
  8
0
100
AcDbLine
 62
7
  6
BYLAYER
 10
60.1106433863
 20
57.9212810422
 11
60.1106433863
 21
59.7470359507
  0
LINE
  5
292
100
AcDbEntity
  8
0
100
AcDbLine
 62
7
  6
BYLAYER
 10
61.5248510608
 20
60.5635242585
 11
61.5248510608
 21
58.73776935
  0
LINE
  5
293
100
AcDbEntity
  8
0
100
AcDbLine
 62
7
  6
BYLAYER
 10
51.3071870708
 20
50.6079442047
 11
52.7921413433
 21
51.4652778361
  0
LINE
  5
294
100
AcDbEntity
  8
0
100
AcDbLine
 62
7
  6
BYLAYER
 10
56.7519101691
 20
52.5267405988
 11
53.8527814925
 21
50.8529308136
  0
LINE
  5
295
100
AcDbEntity
  8
0
100
AcDbLine
 62
7
  6
BYLAYER
 10
71.8485505979
 20
56.1395343876
 11
70.787897786
 21
55.5271698565
  0
LINE
  5
296
100
AcDbEntity
  8
0
100
AcDbLine
 62
7
  6
BYLAYER
 10
33.0992603186
 20
33.7677547554
 11
34.513467993
 21
34.5842430632
  0
LINE
  5
297
100
AcDbEntity
  8
0
100
AcDbLine
 62
7
  6
BYLAYER
 10
31.967894179
 20
33.1145641092
 11
24.5432980003
 21
28.8279829848
  0
LINE
  5
298
100
AcDbEntity
  8
0
100
AcDbLine
 62
7
  6
BYLAYER
 10
72.9799167374
 20
56.7927250338
 11
78.2831896286
 21
59.8545386791
  0
LINE
  5
299
100
AcDbEntity
  8
0
100
AcDbLine
 62
7
  6
BYLAYER
 10
68.7372966581
 20
90.0244244935
 11
68.7372966581
 21
88.8813211095
  0
LINE
  5
29A
100
AcDbEntity
  8
0
100
AcDbLine
 62
7
  6
BYLAYER
 10
70.787897786
 20
54.3024232854
 11
34.8670228556
 21
33.5636202688
  0
LINE
  5
29B
100
AcDbEntity
  8
0
100
AcDbLine
 62
7
  6
BYLAYER
 10
70.787897786
 20
90.0652291557
 11
70.787897786
 21
54.3024232854
  0
LINE
  5
29C
100
AcDbEntity
  8
0
100
AcDbLine
 62
7
  6
BYLAYER
 10
71.8485505979
 20
55.3230319704
 11
71.8485505979
 21
56.1395343876
  0
LINE
  5
29D
100
AcDbEntity
  8
0
100
AcDbLine
 62
7
  6
BYLAYER
 10
72.9799167374
 20
56.7927250338
 11
71.8485505979
 21
55.3230319704
  0
LINE
  5
29E
100
AcDbEntity
  8
0
100
AcDbLine
 62
7
  6
BYLAYER
 10
74.8890847332
 20
88.4321378815
 11
74.8890847332
 21
89.2486402986
  0
LINE
  5
29F
100
AcDbEntity
  8
0
100
AcDbLine
 62
7
  6
BYLAYER
 10
76.3740151561
 20
87.574832297
 11
76.3740151561
 21
88.3913347142
  0
LINE
  5
2A0
100
AcDbEntity
  8
0
100
AcDbLine
 62
7
  6
BYLAYER
 10
77.5230588915
 20
88.4831797722
 11
77.5230588915
 21
59.4156937224
  0
LINE
  5
2A1
100
AcDbEntity
  8
0
100
AcDbLine
 62
7
  6
BYLAYER
 10
78.2124727682
 20
91.1673878218
 11
78.2124727682
 21
92.3921414475
  0
LINE
  5
2A2
100
AcDbEntity
  8
0
100
AcDbLine
 62
7
  6
BYLAYER
 10
78.9902934658
 20
90.7183229919
 11
78.9902934658
 21
88.2688157405
  0
LINE
  5
2A3
100
AcDbEntity
  8
0
100
AcDbLine
 62
7
  6
BYLAYER
 10
78.9902934658
 20
73.9800234407
 11
78.9902934658
 21
61.0792852501
  0
LINE
  5
2A4
100
AcDbEntity
  8
0
100
AcDbLine
 62
7
  6
BYLAYER
 10
81.0585721897
 20
89.4629298906
 11
81.0585721897
 21
75.1741375908
  0
LINE
  5
2A5
100
AcDbEntity
  8
0
100
AcDbLine
 62
7
  6
BYLAYER
 10
76.9396982258
 20
88.7179300373
 11
77.5230588915
 21
88.4831797722
  0
LINE
  5
2A6
100
AcDbEntity
  8
0
100
AcDbLine
 62
7
  6
BYLAYER
 10
76.8159491664
 20
88.8914205267
 11
76.2325885007
 21
89.1261707918
  0
LINE
  5
2A7
100
AcDbEntity
  8
0
100
AcDbLine
 62
7
  6
BYLAYER
 10
68.7372966581
 20
90.0244244935
 11
54.5951021552
 21
98.1892395839
  0
LINE
  5
2A8
100
AcDbEntity
  8
0
100
AcDbLine
 62
7
  6
BYLAYER
 10
70.787897786
 20
90.0652291557
 11
70.0807880609
 21
90.4734699102
  0
LINE
  5
2A9
100
AcDbEntity
  8
0
100
AcDbLine
 62
7
  6
BYLAYER
 10
56.6457032831
 20
98.2300442461
 11
57.3528130082
 21
97.8218034916
  0
LINE
  5
2AA
100
AcDbEntity
  8
0
100
AcDbLine
 62
7
  6
BYLAYER
 10
74.8890847332
 20
88.4321378815
 11
76.3740151561
 21
87.574832297
  0
LINE
  5
2AB
100
AcDbEntity
  8
0
100
AcDbLine
 62
7
  6
BYLAYER
 10
74.8890847332
 20
89.2486402986
 11
76.3740151561
 21
88.3913347142
  0
LINE
  5
2AC
100
AcDbEntity
  8
0
100
AcDbLine
 62
7
  6
BYLAYER
 10
76.2325885007
 20
89.1261707918
 11
76.9396982258
 21
88.7179300373
  0
LINE
  5
2AD
100
AcDbEntity
  8
0
100
AcDbLine
 62
7
  6
BYLAYER
 10
76.8159491664
 20
88.8914205267
 11
77.5230588915
 21
88.4831797722
  0
LINE
  5
2AE
100
AcDbEntity
  8
0
100
AcDbLine
 62
7
  6
BYLAYER
 10
78.2124727682
 20
91.1673878218
 11
78.9902934658
 21
90.7183229919
  0
LINE
  5
2AF
100
AcDbEntity
  8
0
100
AcDbLine
 62
7
  6
BYLAYER
 10
80.3514624645
 20
90.6876730622
 11
78.2124727682
 21
91.9225914016
  0
LINE
  5
2B0
100
AcDbEntity
  8
0
100
AcDbLine
 62
7
  6
BYLAYER
 10
77.5053689309
 20
92.8003997108
 11
67.0401449988
 21
98.8423628777
  0
LINE
  5
2B1
100
AcDbEntity
  8
0
100
AcDbLine
 62
7
  6
BYLAYER
 10
78.0053604474
 20
92.8499275954
 11
67.5401365152
 21
98.8918907623
  0
SPLINE
  5
2B2
100
AcDbEntity
  8
0
100
AcDbSpline
 62
7
  6
BYLAYER
 70
0
 71
3
 72
17
 73
13
 74
0
 42
0.0000001
 43
0.0000001
 44
0.0000000001
 40
0.0
 40
0.0
 40
0.0
 40
0.0
 40
0.0428576877
 40
0.0874849505
 40
0.1353173333
 40
0.1872806034
 40
0.3045412648
 40
0.4382087218
 40
0.5825511809
 40
0.7297102049
 40
0.8713097134
 40
1.0
 40
1.0
 40
1.0
 40
1.0
 10
44.5807902781
 20
71.2501151162
 30
0.0
 10
44.5376586815
 20
71.2750397011
 30
0.0
 10
44.4425492943
 20
71.3145484174
 30
0.0
 10
44.2855741135
 20
71.3375702736
 30
0.0
 10
44.1169899285
 20
71.3251456988
 30
0.0
 10
43.8720357716
 20
71.2600083868
 30
0.0
 10
43.5588996559
 20
71.0887807951
 30
0.0
 10
43.2129361932
 20
70.7823922833
 30
0.0
 10
42.907118548
 20
70.3909546488
 30
0.0
 10
42.6664276839
 20
69.9460878077
 30
0.0
 10
42.5102391952
 20
69.4842717203
 30
0.0
 10
42.4683891056
 20
69.1697442124
 30
0.0
 10
42.4683891056
 20
69.0201618947
 30
0.0
  0
SPLINE
  5
2B3
100
AcDbEntity
  8
0
100
AcDbSpline
 62
7
  6
BYLAYER
 70
0
 71
3
 72
11
 73
7
 74
0
 42
0.0000001
 43
0.0000001
 44
0.0000000001
 40
0.0
 40
0.0
 40
0.0
 40
0.0
 40
0.2177651606
 40
0.4508956102
 40
0.7103690052
 40
1.0
 40
1.0
 40
1.0
 40
1.0
 10
48.8398496226
 20
53.1930261585
 30
0.0
 10
48.8893141291
 20
53.1644422526
 30
0.0
 10
48.9819391521
 20
53.0866915855
 30
0.0
 10
49.0804829014
 20
52.9254953494
 30
0.0
 10
49.1389840296
 20
52.7268986077
 30
0.0
 10
49.1505339095
 20
52.5823571891
 30
0.0
 10
49.1505339095
 20
52.5063741115
 30
0.0
  0
SPLINE
  5
2B4
100
AcDbEntity
  8
0
100
AcDbSpline
 62
7
  6
BYLAYER
 70
0
 71
3
 72
17
 73
13
 74
0
 42
0.0000001
 43
0.0000001
 44
0.0000000001
 40
0.0
 40
0.0
 40
0.0
 40
0.0
 40
0.0428576877
 40
0.0874849505
 40
0.1353173333
 40
0.1872806034
 40
0.3045412648
 40
0.4382087218
 40
0.5825511809
 40
0.7297102049
 40
0.8713097134
 40
1.0
 40
1.0
 40
1.0
 40
1.0
 10
62.8240692782
 20
57.2877417722
 30
0.0
 10
62.7809376816
 20
57.3126663571
 30
0.0
 10
62.6858282944
 20
57.3521750734
 30
0.0
 10
62.5288531136
 20
57.3751969296
 30
0.0
 10
62.3602689286
 20
57.3627723548
 30
0.0
 10
62.1153147717
 20
57.2976350428
 30
0.0
 10
61.802178656
 20
57.1264074511
 30
0.0
 10
61.4562151933
 20
56.8200189393
 30
0.0
 10
61.1503975481
 20
56.4285813048
 30
0.0
 10
60.909706684
 20
55.9837144637
 30
0.0
 10
60.7535181953
 20
55.5218983763
 30
0.0
 10
60.7116681057
 20
55.2073708684
 30
0.0
 10
60.7116681057
 20
55.0577885507
 30
0.0
  0
SPLINE
  5
2B5
100
AcDbEntity
  8
0
100
AcDbSpline
 62
7
  6
BYLAYER
 70
0
 71
3
 72
17
 73
13
 74
0
 42
0.0000001
 43
0.0000001
 44
0.0000000001
 40
0.0
 40
0.0
 40
0.0
 40
0.0
 40
0.0428576877
 40
0.0874849505
 40
0.1353173333
 40
0.1872806034
 40
0.3045412648
 40
0.4382087218
 40
0.5825511809
 40
0.7297102049
 40
0.8713097134
 40
1.0
 40
1.0
 40
1.0
 40
1.0
 10
44.5807902781
 20
46.7550426023
 30
0.0
 10
44.5376586815
 20
46.7799671872
 30
0.0
 10
44.4425492943
 20
46.8194759035
 30
0.0
 10
44.2855741135
 20
46.8424977598
 30
0.0
 10
44.1169899285
 20
46.8300731849
 30
0.0
 10
43.8720357716
 20
46.7649358729
 30
0.0
 10
43.5588996559
 20
46.5937082812
 30
0.0
 10
43.2129361932
 20
46.2873197694
 30
0.0
 10
42.907118548
 20
45.895882135
 30
0.0
 10
42.6664276839
 20
45.4510152938
 30
0.0
 10
42.5102391952
 20
44.9891992065
 30
0.0
 10
42.4683891056
 20
44.6746716985
 30
0.0
 10
42.4683891056
 20
44.5250893808
 30
0.0
  0
SPLINE
  5
2B6
100
AcDbEntity
  8
0
100
AcDbSpline
 62
7
  6
BYLAYER
 70
0
 71
3
 72
17
 73
13
 74
0
 42
0.0000001
 43
0.0000001
 44
0.0000000001
 40
0.0
 40
0.0
 40
0.0
 40
0.0
 40
0.0428576877
 40
0.0874849505
 40
0.1353173333
 40
0.1872806034
 40
0.3045412648
 40
0.4382087218
 40
0.5825511809
 40
0.7297102049
 40
0.8713097134
 40
1.0
 40
1.0
 40
1.0
 40
1.0
 10
62.8240692782
 20
81.7828142861
 30
0.0
 10
62.7809376816
 20
81.807738871
 30
0.0
 10
62.6858282944
 20
81.8472475872
 30
0.0
 10
62.5288531136
 20
81.8702694435
 30
0.0
 10
62.3602689286
 20
81.8578448687
 30
0.0
 10
62.1153147717
 20
81.7927075567
 30
0.0
 10
61.802178656
 20
81.621479965
 30
0.0
 10
61.4562151933
 20
81.3150914532
 30
0.0
 10
61.1503975481
 20
80.9236538187
 30
0.0
 10
60.909706684
 20
80.4787869776
 30
0.0
 10
60.7535181953
 20
80.0169708902
 30
0.0
 10
60.7116681057
 20
79.7024433823
 30
0.0
 10
60.7116681057
 20
79.5528610646
 30
0.0
  0
SPLINE
  5
2B7
100
AcDbEntity
  8
0
100
AcDbSpline
 62
7
  6
BYLAYER
 70
0
 71
3
 72
11
 73
7
 74
0
 42
0.0000001
 43
0.0000001
 44
0.0000000001
 40
0.0
 40
0.0
 40
0.0
 40
0.0
 40
0.217745073
 40
0.4508830113
 40
0.7104597664
 40
1.0
 40
1.0
 40
1.0
 40
1.0
 10
80.8514322494
 20
74.7164001057
 30
0.0
 10
80.884412394
 20
74.7354411032
 30
0.0
 10
80.9461806585
 20
74.7872504449
 30
0.0
 10
81.0118870692
 20
74.8947316626
 30
0.0
 10
81.0508402002
 20
75.027142459
 30
0.0
 10
81.0585721897
 20
75.1234989606
 30
0.0
 10
81.0585721897
 20
75.1741375908
 30
0.0
  0
SPLINE
  5
2B8
100
AcDbEntity
  8
0
100
AcDbSpline
 62
7
  6
BYLAYER
 70
0
 71
3
 72
11
 73
7
 74
0
 42
0.0000001
 43
0.0000001
 44
0.0000000001
 40
0.0
 40
0.0
 40
0.0
 40
0.0
 40
0.2177456295
 40
0.4508837762
 40
0.7104602913
 40
1.0
 40
1.0
 40
1.0
 40
1.0
 10
67.5401085395
 20
98.8918423051
 30
0.0
 10
67.507129431
 20
98.9108823658
 30
0.0
 10
67.4313796854
 20
98.9384688636
 30
0.0
 10
67.3054498021
 20
98.9416311438
 30
0.0
 10
67.1713074029
 20
98.9091613923
 30
0.0
 10
67.0839976401
 20
98.8676810608
 30
0.0
 10
67.0401449988
 20
98.8423628777
 30
0.0
  0
SPLINE
  5
2B9
100
AcDbEntity
  8
0
100
AcDbSpline
 62
7
  6
BYLAYER
 70
0
 71
3
 72
11
 73
7
 74
0
 42
0.0000001
 43
0.0000001
 44
0.0000000001
 40
0.0
 40
0.0
 40
0.0
 40
0.0
 40
0.2177442246
 40
0.4508817658
 40
0.7104588047
 40
1.0
 40
1.0
 40
1.0
 40
1.0
 10
78.005332471
 20
92.8498791386
 30
0.0
 10
78.0383126631
 20
92.830838429
 30
0.0
 10
78.1000811073
 20
92.7790294268
 30
0.0
 10
78.1657876172
 20
92.6715482593
 30
0.0
 10
78.2047407871
 20
92.539137142
 30
0.0
 10
78.2124727682
 20
92.4427803065
 30
0.0
 10
78.2124727682
 20
92.3921414475
 30
0.0
  0
SPLINE
  5
2BA
100
AcDbEntity
  8
0
100
AcDbSpline
 62
7
  6
BYLAYER
 70
0
 71
3
 72
11
 73
7
 74
0
 42
0.0000001
 43
0.0000001
 44
0.0000000001
 40
0.0
 40
0.0
 40
0.0
 40
0.0
 40
0.2177460211
 40
0.4508843679
 40
0.7104607696
 40
1.0
 40
1.0
 40
1.0
 40
1.0
 10
22.2678793369
 20
40.8933719578
 30
0.0
 10
22.2348999201
 20
40.8743314041
 30
0.0
 10
22.1591494157
 20
40.8467439575
 30
0.0
 10
22.0332180054
 20
40.8435805653
 30
0.0
 10
21.8990738287
 20
40.8760495562
 30
0.0
 10
21.8117628153
 20
40.917529659
 30
0.0
 10
21.7679095513
 20
40.9428477799
 30
0.0
  0
SPLINE
  5
2BB
100
AcDbEntity
  8
0
100
AcDbSpline
 62
7
  6
BYLAYER
 70
0
 71
3
 72
13
 73
9
 74
0
 42
0.0000001
 43
0.0000001
 44
0.0000000001
 40
0.0
 40
0.0
 40
0.0
 40
0.0
 40
0.114176888
 40
0.2375715548
 40
0.5000017735
 40
0.762431024
 40
0.8858245003
 40
1.0
 40
1.0
 40
1.0
 40
1.0
 10
78.9902934658
 20
61.0792852501
 30
0.0
 10
78.9902934658
 20
61.0234292627
 30
0.0
 10
78.9799987348
 20
60.9070980435
 30
0.0
 10
78.9245190677
 20
60.6682669518
 30
0.0
 10
78.7952495691
 20
60.375395212
 30
0.0
 10
78.6062515332
 20
60.1170081863
 30
0.0
 10
78.4271592725
 20
59.949546536
 30
0.0
 10
78.3315618166
 20
59.8824662081
 30
0.0
 10
78.2831896286
 20
59.8545386791
 30
0.0
  0
SPLINE
  5
2BC
100
AcDbEntity
  8
0
100
AcDbSpline
 62
7
  6
BYLAYER
 70
0
 71
3
 72
11
 73
7
 74
0
 42
0.0000001
 43
0.0000001
 44
0.0000000001
 40
0.0
 40
0.0
 40
0.0
 40
0.0
 40
0.2896423581
 40
0.5491120121
 40
0.7822364467
 40
1.0
 40
1.0
 40
1.0
 40
1.0
 10
60.7116681057
 20
79.5528610646
 30
0.0
 10
60.7116681057
 20
79.4642105364
 30
0.0
 10
60.7251429438
 20
79.2955764261
 30
0.0
 10
60.7933954163
 20
79.0638788175
 30
0.0
 10
60.9083665162
 20
78.8758238073
 30
0.0
 10
61.0164222662
 20
78.7851103326
 30
0.0
 10
61.0741303635
 20
78.7517623816
 30
0.0
  0
SPLINE
  5
2BD
100
AcDbEntity
  8
0
100
AcDbSpline
 62
7
  6
BYLAYER
 70
0
 71
3
 72
11
 73
7
 74
0
 42
0.0000001
 43
0.0000001
 44
0.0000000001
 40
0.0
 40
0.0
 40
0.0
 40
0.0
 40
0.2896423581
 40
0.5491120121
 40
0.7822364467
 40
1.0
 40
1.0
 40
1.0
 40
1.0
 10
42.4683891056
 20
44.5250893808
 30
0.0
 10
42.4683891056
 20
44.4364388526
 30
0.0
 10
42.4818639436
 20
44.2678047423
 30
0.0
 10
42.5501164162
 20
44.0361071337
 30
0.0
 10
42.6650875161
 20
43.8480521235
 30
0.0
 10
42.7731432661
 20
43.7573386488
 30
0.0
 10
42.8308513634
 20
43.7239906978
 30
0.0
  0
SPLINE
  5
2BE
100
AcDbEntity
  8
0
100
AcDbSpline
 62
7
  6
BYLAYER
 70
0
 71
3
 72
11
 73
7
 74
0
 42
0.0000001
 43
0.0000001
 44
0.0000000001
 40
0.0
 40
0.0
 40
0.0
 40
0.0
 40
0.2896423581
 40
0.5491120121
 40
0.7822364467
 40
1.0
 40
1.0
 40
1.0
 40
1.0
 10
60.7116681057
 20
55.0577885507
 30
0.0
 10
60.7116681057
 20
54.9691380225
 30
0.0
 10
60.7251429438
 20
54.8005039122
 30
0.0
 10
60.7933954163
 20
54.5688063036
 30
0.0
 10
60.9083665162
 20
54.3807512934
 30
0.0
 10
61.0164222662
 20
54.2900378187
 30
0.0
 10
61.0741303635
 20
54.2566898677
 30
0.0
  0
SPLINE
  5
2BF
100
AcDbEntity
  8
0
100
AcDbSpline
 62
7
  6
BYLAYER
 70
0
 71
3
 72
11
 73
7
 74
0
 42
0.0000001
 43
0.0000001
 44
0.0000000001
 40
0.0
 40
0.0
 40
0.0
 40
0.0
 40
0.2896423581
 40
0.5491120121
 40
0.7822364467
 40
1.0
 40
1.0
 40
1.0
 40
1.0
 10
42.4683891056
 20
69.0201618947
 30
0.0
 10
42.4683891056
 20
68.9315113665
 30
0.0
 10
42.4818639436
 20
68.7628772562
 30
0.0
 10
42.5501164162
 20
68.5311796476
 30
0.0
 10
42.6650875161
 20
68.3431246374
 30
0.0
 10
42.7731432661
 20
68.2524111627
 30
0.0
 10
42.8308513634
 20
68.2190632117
 30
0.0
  0
SPLINE
  5
2C0
100
AcDbEntity
  8
0
100
AcDbSpline
 62
7
  6
BYLAYER
 70
0
 71
3
 72
13
 73
9
 74
0
 42
0.0000001
 43
0.0000001
 44
0.0000000001
 40
0.0
 40
0.0
 40
0.0
 40
0.0
 40
0.1141759018
 40
0.2375697245
 40
0.4999990825
 40
0.762428944
 40
0.8858232992
 40
1.0
 40
1.0
 40
1.0
 40
1.0
 10
11.1612636741
 20
47.0664590977
 30
0.0
 10
11.1128910861
 20
47.0943863927
 30
0.0
 10
11.0172928169
 20
47.1614663238
 30
0.0
 10
10.8381989835
 20
47.32892712
 30
0.0
 10
10.6491993581
 20
47.5873133415
 30
0.0
 10
10.5199288297
 20
47.8801845763
 30
0.0
 10
10.464448696
 20
48.1190152907
 30
0.0
 10
10.454153949
 20
48.2353463409
 30
0.0
 10
10.454153949
 20
48.2912022694
 30
0.0
  0
SPLINE
  5
2C1
100
AcDbEntity
  8
0
100
AcDbSpline
 62
7
  6
BYLAYER
 70
0
 71
3
 72
11
 73
7
 74
0
 42
0.0000001
 43
0.0000001
 44
0.0000000001
 40
0.0
 40
0.0
 40
0.0
 40
0.0
 40
0.2895401978
 40
0.5491171512
 40
0.782255066
 40
1.0
 40
1.0
 40
1.0
 40
1.0
 10
10.454153949
 20
62.5799945691
 30
0.0
 10
10.454153949
 20
62.6306331923
 30
0.0
 10
10.4618859988
 20
62.7269897108
 30
0.0
 10
10.500839068
 20
62.859400553
 30
0.0
 10
10.5665455335
 20
62.9668817401
 30
0.0
 10
10.6283137554
 20
63.0186910864
 30
0.0
 10
10.6612938886
 20
63.0377320538
 30
0.0
  0
SPLINE
  5
2C2
100
AcDbEntity
  8
0
100
AcDbSpline
 62
7
  6
BYLAYER
 70
0
 71
3
 72
13
 73
9
 74
0
 42
0.0000001
 43
0.0000001
 44
0.0000000001
 40
0.0
 40
0.0
 40
0.0
 40
0.0
 40
0.114175582
 40
0.23756922
 40
0.49999856
 40
0.7624286893
 40
0.8858231943
 40
1.0
 40
1.0
 40
1.0
 40
1.0
 10
14.0073572077
 20
68.2240513373
 30
0.0
 10
13.9589849848
 20
68.1961237881
 30
0.0
 10
13.863387462
 20
68.1290433469
 30
0.0
 10
13.6842950627
 20
67.9615816094
 30
0.0
 10
13.4952970584
 20
67.7031944427
 30
0.0
 10
13.3660276978
 20
67.410322746
 30
0.0
 10
13.3105480368
 20
67.1714918179
 30
0.0
 10
13.3002533705
 20
67.0551607134
 30
0.0
 10
13.3002533705
 20
66.9993047663
 30
0.0
  0
SPLINE
  5
2C3
100
AcDbEntity
  8
0
100
AcDbSpline
 62
7
  6
BYLAYER
 70
0
 71
3
 72
14
 73
10
 74
0
 42
0.0000001
 43
0.0000001
 44
0.0000000001
 40
0.0
 40
0.0
 40
0.0
 40
0.0
 40
0.304035179
 40
0.4465810426
 40
0.5791940483
 40
0.70030311
 40
0.8095267247
 40
0.9083513982
 40
1.0
 40
1.0
 40
1.0
 40
1.0
 10
61.5248510608
 20
58.73776935
 30
0.0
 10
61.4309162769
 20
58.5865198759
 30
0.0
 10
61.2696247526
 20
58.3770769044
 30
0.0
 10
61.0181064033
 20
58.1485142024
 30
0.0
 10
60.8265263717
 20
58.0161143527
 30
0.0
 10
60.6342077839
 20
57.9232790805
 30
0.0
 10
60.4464817622
 20
57.8734407575
 30
0.0
 10
60.2691368751
 20
57.8693678024
 30
0.0
 10
60.1594860242
 20
57.8990351539
 30
0.0
 10
60.1106433863
 20
57.9212810422
 30
0.0
  0
SPLINE
  5
2C4
100
AcDbEntity
  8
0
100
AcDbSpline
 62
7
  6
BYLAYER
 70
0
 71
3
 72
17
 73
13
 74
0
 42
0.0000001
 43
0.0000001
 44
0.0000000001
 40
0.0
 40
0.0
 40
0.0
 40
0.0
 40
0.1286891333
 40
0.2702803493
 40
0.4174326844
 40
0.5617743804
 40
0.6954465661
 40
0.8127104963
 40
0.8646756522
 40
0.91250911
 40
0.9571392634
 40
1.0
 40
1.0
 40
1.0
 40
1.0
 10
49.1505339095
 20
52.5063741115
 30
0.0
 10
49.1505339095
 20
52.3781619273
 30
0.0
 10
49.1146648257
 20
52.1085763278
 30
0.0
 10
48.9807960078
 20
51.7127492631
 30
0.0
 10
48.7745042691
 20
51.3314450617
 30
0.0
 10
48.5123817948
 20
50.9959262448
 30
0.0
 10
48.2158429721
 20
50.7332934077
 30
0.0
 10
47.9474338549
 20
50.5865237102
 30
0.0
 10
47.7374707384
 20
50.5306727893
 30
0.0
 10
47.5929643202
 20
50.5200306317
 30
0.0
 10
47.458404804
 20
50.5397501259
 30
0.0
 10
47.3768793273
 20
50.573624333
 30
0.0
 10
47.3399066848
 20
50.5949896028
 30
0.0
  0
SPLINE
  5
2C5
100
AcDbEntity
  8
0
100
AcDbSpline
 62
7
  6
BYLAYER
 70
0
 71
3
 72
13
 73
9
 74
0
 42
0.0000001
 43
0.0000001
 44
0.0000000001
 40
0.0
 40
0.0
 40
0.0
 40
0.0
 40
0.1141767831
 40
0.2375713001
 40
0.500001251
 40
0.7624305195
 40
0.8858241805
 40
1.0
 40
1.0
 40
1.0
 40
1.0
 10
81.0585721897
 20
89.4629298906
 30
0.0
 10
81.0585721897
 20
89.5187858593
 30
0.0
 10
81.0482773779
 20
89.6351170242
 30
0.0
 10
80.9927972381
 20
89.8739479022
 30
0.0
 10
80.8635265717
 20
90.1668191802
 30
0.0
 10
80.6745269147
 20
90.4252052605
 30
0.0
 10
80.4954332199
 20
90.5926659696
 30
0.0
 10
80.3998350177
 20
90.6597457874
 30
0.0
 10
80.3514624645
 20
90.6876730622
 30
0.0
  0
SPLINE
  5
2C6
100
AcDbEntity
  8
0
100
AcDbSpline
 62
7
  6
BYLAYER
 70
0
 71
3
 72
11
 73
7
 74
0
 42
0.0000001
 43
0.0000001
 44
0.0000000001
 40
0.0
 40
0.0
 40
0.0
 40
0.0
 40
0.2896423581
 40
0.5491120121
 40
0.7822364467
 40
1.0
 40
1.0
 40
1.0
 40
1.0
 10
44.9432525359
 20
70.4490164332
 30
0.0
 10
44.9432525359
 20
70.5376669614
 30
0.0
 10
44.9297776978
 20
70.7063010717
 30
0.0
 10
44.8615252253
 20
70.9379986803
 30
0.0
 10
44.7465541254
 20
71.1260536905
 30
0.0
 10
44.6384983754
 20
71.2167671652
 30
0.0
 10
44.5807902781
 20
71.2501151162
 30
0.0
  0
SPLINE
  5
2C7
100
AcDbEntity
  8
0
100
AcDbSpline
 62
7
  6
BYLAYER
 70
0
 71
3
 72
17
 73
13
 74
0
 42
0.0000001
 43
0.0000001
 44
0.0000000001
 40
0.0
 40
0.0
 40
0.0
 40
0.0
 40
0.0428576877
 40
0.0874849505
 40
0.1353173333
 40
0.1872806034
 40
0.3045412648
 40
0.4382087218
 40
0.5825511809
 40
0.7297102049
 40
0.8713097134
 40
1.0
 40
1.0
 40
1.0
 40
1.0
 10
47.2134996064
 20
54.1319838608
 30
0.0
 10
47.1765296665
 20
54.1533477907
 30
0.0
 10
47.0950073346
 20
54.1872124047
 30
0.0
 10
46.9604571797
 20
54.2069454244
 30
0.0
 10
46.8159564497
 20
54.1962957888
 30
0.0
 10
46.6059957437
 20
54.1404638071
 30
0.0
 10
46.3375933589
 20
53.9936972999
 30
0.0
 10
46.041053248
 20
53.7310785755
 30
0.0
 10
45.7789238378
 20
53.3955606031
 30
0.0
 10
45.5726173829
 20
53.0142461678
 30
0.0
 10
45.4387415354
 20
52.6184038073
 30
0.0
 10
45.4028700301
 20
52.3488088005
 30
0.0
 10
45.4028700301
 20
52.2205953852
 30
0.0
  0
SPLINE
  5
2C8
100
AcDbEntity
  8
0
100
AcDbSpline
 62
7
  6
BYLAYER
 70
0
 71
3
 72
17
 73
13
 74
0
 42
0.0000001
 43
0.0000001
 44
0.0000000001
 40
0.0
 40
0.0
 40
0.0
 40
0.0
 40
0.0428576877
 40
0.0874849505
 40
0.1353173333
 40
0.1872806034
 40
0.3045412648
 40
0.4382087218
 40
0.5825511809
 40
0.7297102049
 40
0.8713097134
 40
1.0
 40
1.0
 40
1.0
 40
1.0
 10
42.8308513634
 20
43.7239906978
 30
0.0
 10
42.87398296
 20
43.6990661129
 30
0.0
 10
42.9690923472
 20
43.6595573966
 30
0.0
 10
43.126067528
 20
43.6365355404
 30
0.0
 10
43.294651713
 20
43.6489601152
 30
0.0
 10
43.5396058699
 20
43.7140974272
 30
0.0
 10
43.8527419856
 20
43.8853250189
 30
0.0
 10
44.1987054483
 20
44.1917135307
 30
0.0
 10
44.5045230935
 20
44.5831511652
 30
0.0
 10
44.7452139576
 20
45.0280180063
 30
0.0
 10
44.9014024463
 20
45.4898340937
 30
0.0
 10
44.9432525359
 20
45.8043616016
 30
0.0
 10
44.9432525359
 20
45.9539439193
 30
0.0
  0
SPLINE
  5
2C9
100
AcDbEntity
  8
0
100
AcDbSpline
 62
7
  6
BYLAYER
 70
0
 71
3
 72
14
 73
10
 74
0
 42
0.0000001
 43
0.0000001
 44
0.0000000001
 40
0.0
 40
0.0
 40
0.0
 40
0.0
 40
0.304035179
 40
0.4465810426
 40
0.5791940483
 40
0.70030311
 40
0.8095267247
 40
0.9083513982
 40
1.0
 40
1.0
 40
1.0
 40
1.0
 10
60.1106433863
 20
59.7470359507
 30
0.0
 10
60.2045781703
 20
59.8982854248
 30
0.0
 10
60.3658696946
 20
60.1077283963
 30
0.0
 10
60.6173880438
 20
60.3362910983
 30
0.0
 10
60.8089680755
 20
60.468690948
 30
0.0
 10
61.0012866632
 20
60.5615262202
 30
0.0
 10
61.1890126849
 20
60.6113645432
 30
0.0
 10
61.3663575721
 20
60.6154374982
 30
0.0
 10
61.4760084229
 20
60.5857701467
 30
0.0
 10
61.5248510608
 20
60.5635242585
 30
0.0
  0
SPLINE
  5
2CA
100
AcDbEntity
  8
0
100
AcDbSpline
 62
7
  6
BYLAYER
 70
0
 71
3
 72
13
 73
9
 74
0
 42
0.0000001
 43
0.0000001
 44
0.0000000001
 40
0.0
 40
0.0
 40
0.0
 40
0.0
 40
0.1141767831
 40
0.2375713001
 40
0.500001251
 40
0.7624305195
 40
0.8858241805
 40
1.0
 40
1.0
 40
1.0
 40
1.0
 10
24.5432980003
 20
56.8340158924
 30
0.0
 10
24.5432980003
 20
56.8898718611
 30
0.0
 10
24.5330031886
 20
57.006203026
 30
0.0
 10
24.4775230488
 20
57.245033904
 30
0.0
 10
24.3482523824
 20
57.537905182
 30
0.0
 10
24.1592527254
 20
57.7962912623
 30
0.0
 10
23.9801590306
 20
57.9637519714
 30
0.0
 10
23.8845608284
 20
58.0308317892
 30
0.0
 10
23.8361882752
 20
58.058759064
 30
0.0
  0
SPLINE
  5
2CB
100
AcDbEntity
  8
0
100
AcDbSpline
 62
7
  6
BYLAYER
 70
0
 71
3
 72
11
 73
7
 74
0
 42
0.0000001
 43
0.0000001
 44
0.0000000001
 40
0.0
 40
0.0
 40
0.0
 40
0.0
 40
0.2895391946
 40
0.5491157945
 40
0.7822541179
 40
1.0
 40
1.0
 40
1.0
 40
1.0
 10
13.229542398
 20
64.1823703818
 30
0.0
 10
13.1856891402
 20
64.2076884993
 30
0.0
 10
13.098378082
 20
64.2491685582
 30
0.0
 10
12.9642338965
 20
64.2816376255
 30
0.0
 10
12.8383024852
 20
64.2784741707
 30
0.0
 10
12.7625519982
 20
64.2508867632
 30
0.0
 10
12.7295726131
 20
64.2318462043
 30
0.0
  0
SPLINE
  5
2CC
100
AcDbEntity
  8
0
100
AcDbSpline
 62
7
  6
BYLAYER
 70
0
 71
3
 72
11
 73
7
 74
0
 42
0.0000001
 43
0.0000001
 44
0.0000000001
 40
0.0
 40
0.0
 40
0.0
 40
0.0
 40
0.2177460211
 40
0.4508843679
 40
0.7104607696
 40
1.0
 40
1.0
 40
1.0
 40
1.0
 10
10.6612938886
 20
63.0377320538
 30
0.0
 10
10.6942733054
 20
63.0567726076
 30
0.0
 10
10.7700238098
 20
63.0843600542
 30
0.0
 10
10.8959552201
 20
63.0875234464
 30
0.0
 10
11.0300993968
 20
63.0550544555
 30
0.0
 10
11.1174104102
 20
63.0135743527
 30
0.0
 10
11.1612636741
 20
62.9882562318
 30
0.0
  0
SPLINE
  5
2CD
100
AcDbEntity
  8
0
100
AcDbSpline
 62
7
  6
BYLAYER
 70
0
 71
3
 72
13
 73
9
 74
0
 42
0.0000001
 43
0.0000001
 44
0.0000000001
 40
0.0
 40
0.0
 40
0.0
 40
0.0
 40
0.114176888
 40
0.2375715548
 40
0.5000017735
 40
0.762431024
 40
0.8858245003
 40
1.0
 40
1.0
 40
1.0
 40
1.0
 10
23.7654773027
 20
60.9573415994
 30
0.0
 10
23.7654773027
 20
61.0131975868
 30
0.0
 10
23.7757720337
 20
61.129528806
 30
0.0
 10
23.8312517008
 20
61.3683598977
 30
0.0
 10
23.9605211994
 20
61.6612316375
 30
0.0
 10
24.1495192353
 20
61.9196186632
 30
0.0
 10
24.328611496
 20
62.0870803135
 30
0.0
 10
24.4242089519
 20
62.1541606414
 30
0.0
 10
24.4725811399
 20
62.1820881704
 30
0.0
  0
SPLINE
  5
2CE
100
AcDbEntity
  8
0
100
AcDbSpline
 62
7
  6
BYLAYER
 70
0
 71
3
 72
17
 73
13
 74
0
 42
0.0000001
 43
0.0000001
 44
0.0000000001
 40
0.0
 40
0.0
 40
0.0
 40
0.0
 40
0.1286891333
 40
0.2702803493
 40
0.4174326844
 40
0.5617743804
 40
0.6954465661
 40
0.8127104963
 40
0.8646756522
 40
0.91250911
 40
0.9571392634
 40
1.0
 40
1.0
 40
1.0
 40
1.0
 10
47.0292223979
 20
51.2816416499
 30
0.0
 10
47.0292223979
 20
51.409853834
 30
0.0
 10
47.0650914817
 20
51.6794394335
 30
0.0
 10
47.1989602996
 20
52.0752664983
 30
0.0
 10
47.4052520383
 20
52.4565706996
 30
0.0
 10
47.6673745126
 20
52.7920895165
 30
0.0
 10
47.9639133353
 20
53.0547223537
 30
0.0
 10
48.2323224525
 20
53.2014920511
 30
0.0
 10
48.442285569
 20
53.257342972
 30
0.0
 10
48.5867919873
 20
53.2679851297
 30
0.0
 10
48.7213515034
 20
53.2482656354
 30
0.0
 10
48.8028769802
 20
53.2143914284
 30
0.0
 10
48.8398496226
 20
53.1930261585
 30
0.0
  0
SPLINE
  5
2CF
100
AcDbEntity
  8
0
100
AcDbSpline
 62
7
  6
BYLAYER
 70
0
 71
3
 72
11
 73
7
 74
0
 42
0.0000001
 43
0.0000001
 44
0.0000000001
 40
0.0
 40
0.0
 40
0.0
 40
0.0
 40
0.2177651606
 40
0.4508956102
 40
0.7103690052
 40
1.0
 40
1.0
 40
1.0
 40
1.0
 10
47.3399066848
 20
50.5949896028
 30
0.0
 10
47.2904421783
 20
50.6235735087
 30
0.0
 10
47.1978171553
 20
50.7013241758
 30
0.0
 10
47.0992734061
 20
50.862520412
 30
0.0
 10
47.0407722778
 20
51.0611171536
 30
0.0
 10
47.0292223979
 20
51.2056585722
 30
0.0
 10
47.0292223979
 20
51.2816416499
 30
0.0
  0
SPLINE
  5
2D0
100
AcDbEntity
  8
0
100
AcDbSpline
 62
7
  6
BYLAYER
 70
0
 71
3
 72
13
 73
9
 74
0
 42
0.0000001
 43
0.0000001
 44
0.0000000001
 40
0.0
 40
0.0
 40
0.0
 40
0.0
 40
0.1141759018
 40
0.2375697245
 40
0.4999990825
 40
0.762428944
 40
0.8858232992
 40
1.0
 40
1.0
 40
1.0
 40
1.0
 10
21.7679095513
 20
56.864644914
 30
0.0
 10
21.8162821394
 20
56.836717619
 30
0.0
 10
21.9118804086
 20
56.7696376878
 30
0.0
 10
22.090974242
 20
56.6021768916
 30
0.0
 10
22.2799738674
 20
56.3437906702
 30
0.0
 10
22.4092443958
 20
56.0509194354
 30
0.0
 10
22.4647245295
 20
55.812088721
 30
0.0
 10
22.4750192765
 20
55.6957576707
 30
0.0
 10
22.4750192765
 20
55.6399017423
 30
0.0
  0
SPLINE
  5
2D1
100
AcDbEntity
  8
0
100
AcDbSpline
 62
7
  6
BYLAYER
 70
0
 71
3
 72
11
 73
7
 74
0
 42
0.0000001
 43
0.0000001
 44
0.0000000001
 40
0.0
 40
0.0
 40
0.0
 40
0.0
 40
0.2895401978
 40
0.5491171512
 40
0.782255066
 40
1.0
 40
1.0
 40
1.0
 40
1.0
 10
22.4750192765
 20
41.3511094425
 30
0.0
 10
22.4750192765
 20
41.3004708194
 30
0.0
 10
22.4672872267
 20
41.2041143009
 30
0.0
 10
22.4283341575
 20
41.0717034587
 30
0.0
 10
22.362627692
 20
40.9642222716
 30
0.0
 10
22.3008594701
 20
40.9124129253
 30
0.0
 10
22.2678793369
 20
40.8933719578
 30
0.0
  0
SPLINE
  5
2D2
100
AcDbEntity
  8
0
100
AcDbSpline
 62
7
  6
BYLAYER
 70
0
 71
3
 72
11
 73
7
 74
0
 42
0.0000001
 43
0.0000001
 44
0.0000000001
 40
0.0
 40
0.0
 40
0.0
 40
0.0
 40
0.2896423581
 40
0.5491120121
 40
0.7822364467
 40
1.0
 40
1.0
 40
1.0
 40
1.0
 10
63.186531536
 20
80.9817156031
 30
0.0
 10
63.186531536
 20
81.0703661313
 30
0.0
 10
63.173056698
 20
81.2390002415
 30
0.0
 10
63.1048042254
 20
81.4706978502
 30
0.0
 10
62.9898331255
 20
81.6587528604
 30
0.0
 10
62.8817773755
 20
81.7494663351
 30
0.0
 10
62.8240692782
 20
81.7828142861
 30
0.0
  0
SPLINE
  5
2D3
100
AcDbEntity
  8
0
100
AcDbSpline
 62
7
  6
BYLAYER
 70
0
 71
3
 72
11
 73
7
 74
0
 42
0.0000001
 43
0.0000001
 44
0.0000000001
 40
0.0
 40
0.0
 40
0.0
 40
0.0
 40
0.2896423581
 40
0.5491120121
 40
0.7822364467
 40
1.0
 40
1.0
 40
1.0
 40
1.0
 10
44.9432525359
 20
45.9539439193
 30
0.0
 10
44.9432525359
 20
46.0425944475
 30
0.0
 10
44.9297776978
 20
46.2112285578
 30
0.0
 10
44.8615252253
 20
46.4429261664
 30
0.0
 10
44.7465541254
 20
46.6309811766
 30
0.0
 10
44.6384983754
 20
46.7216946513
 30
0.0
 10
44.5807902781
 20
46.7550426023
 30
0.0
  0
SPLINE
  5
2D4
100
AcDbEntity
  8
0
100
AcDbSpline
 62
7
  6
BYLAYER
 70
0
 71
3
 72
17
 73
13
 74
0
 42
0.0000001
 43
0.0000001
 44
0.0000000001
 40
0.0
 40
0.0
 40
0.0
 40
0.0
 40
0.0428576877
 40
0.0874849505
 40
0.1353173333
 40
0.1872806034
 40
0.3045412648
 40
0.4382087218
 40
0.5825511809
 40
0.7297102049
 40
0.8713097134
 40
1.0
 40
1.0
 40
1.0
 40
1.0
 10
61.0741303635
 20
54.2566898677
 30
0.0
 10
61.1172619601
 20
54.2317652828
 30
0.0
 10
61.2123713473
 20
54.1922565665
 30
0.0
 10
61.3693465281
 20
54.1692347102
 30
0.0
 10
61.5379307131
 20
54.1816592851
 30
0.0
 10
61.78288487
 20
54.2467965971
 30
0.0
 10
62.0960209857
 20
54.4180241888
 30
0.0
 10
62.4419844484
 20
54.7244127005
 30
0.0
 10
62.7478020936
 20
55.115850335
 30
0.0
 10
62.9884929577
 20
55.5607171762
 30
0.0
 10
63.1446814464
 20
56.0225332635
 30
0.0
 10
63.186531536
 20
56.3370607715
 30
0.0
 10
63.186531536
 20
56.4866430892
 30
0.0
  0
SPLINE
  5
2D5
100
AcDbEntity
  8
0
100
AcDbSpline
 62
7
  6
BYLAYER
 70
0
 71
3
 72
11
 73
7
 74
0
 42
0.0000001
 43
0.0000001
 44
0.0000000001
 40
0.0
 40
0.0
 40
0.0
 40
0.0
 40
0.2896423581
 40
0.5491120121
 40
0.7822364467
 40
1.0
 40
1.0
 40
1.0
 40
1.0
 10
63.186531536
 20
56.4866430892
 30
0.0
 10
63.186531536
 20
56.5752936174
 30
0.0
 10
63.173056698
 20
56.7439277277
 30
0.0
 10
63.1048042254
 20
56.9756253363
 30
0.0
 10
62.9898331255
 20
57.1636803465
 30
0.0
 10
62.8817773755
 20
57.2543938212
 30
0.0
 10
62.8240692782
 20
57.2877417722
 30
0.0
  0
SPLINE
  5
2D6
100
AcDbEntity
  8
0
100
AcDbSpline
 62
7
  6
BYLAYER
 70
0
 71
3
 72
17
 73
13
 74
0
 42
0.0000001
 43
0.0000001
 44
0.0000000001
 40
0.0
 40
0.0
 40
0.0
 40
0.0
 40
0.0428576877
 40
0.0874849505
 40
0.1353173333
 40
0.1872806034
 40
0.3045412648
 40
0.4382087218
 40
0.5825511809
 40
0.7297102049
 40
0.8713097134
 40
1.0
 40
1.0
 40
1.0
 40
1.0
 10
61.0741303635
 20
78.7517623816
 30
0.0
 10
61.1172619601
 20
78.7268377967
 30
0.0
 10
61.2123713473
 20
78.6873290804
 30
0.0
 10
61.3693465281
 20
78.6643072241
 30
0.0
 10
61.5379307131
 20
78.6767317989
 30
0.0
 10
61.78288487
 20
78.741869111
 30
0.0
 10
62.0960209857
 20
78.9130967027
 30
0.0
 10
62.4419844484
 20
79.2194852144
 30
0.0
 10
62.7478020936
 20
79.6109228489
 30
0.0
 10
62.9884929577
 20
80.0557896901
 30
0.0
 10
63.1446814464
 20
80.5176057774
 30
0.0
 10
63.186531536
 20
80.8321332853
 30
0.0
 10
63.186531536
 20
80.9817156031
 30
0.0
  0
SPLINE
  5
2D7
100
AcDbEntity
  8
0
100
AcDbSpline
 62
7
  6
BYLAYER
 70
0
 71
3
 72
11
 73
7
 74
0
 42
0.0000001
 43
0.0000001
 44
0.0000000001
 40
0.0
 40
0.0
 40
0.0
 40
0.0
 40
0.217745073
 40
0.4508830113
 40
0.7104597664
 40
1.0
 40
1.0
 40
1.0
 40
1.0
 10
24.33615806
 20
42.0874861075
 30
0.0
 10
24.3691382047
 20
42.106527105
 30
0.0
 10
24.4309064692
 20
42.1583364468
 30
0.0
 10
24.4966128799
 20
42.2658176644
 30
0.0
 10
24.5355660109
 20
42.3982284608
 30
0.0
 10
24.5432980003
 20
42.4945849624
 30
0.0
 10
24.5432980003
 20
42.5452235926
 30
0.0
  0
SPLINE
  5
2D8
100
AcDbEntity
  8
0
100
AcDbSpline
 62
7
  6
BYLAYER
 70
0
 71
3
 72
17
 73
13
 74
0
 42
0.0000001
 43
0.0000001
 44
0.0000000001
 40
0.0
 40
0.0
 40
0.0
 40
0.0
 40
0.0428576877
 40
0.0874849505
 40
0.1353173333
 40
0.1872806034
 40
0.3045412648
 40
0.4382087218
 40
0.5825511809
 40
0.7297102049
 40
0.8713097134
 40
1.0
 40
1.0
 40
1.0
 40
1.0
 10
42.8308513634
 20
68.2190632117
 30
0.0
 10
42.87398296
 20
68.1941386268
 30
0.0
 10
42.9690923472
 20
68.1546299105
 30
0.0
 10
43.126067528
 20
68.1316080542
 30
0.0
 10
43.294651713
 20
68.1440326291
 30
0.0
 10
43.5396058699
 20
68.2091699411
 30
0.0
 10
43.8527419856
 20
68.3803975328
 30
0.0
 10
44.1987054483
 20
68.6867860446
 30
0.0
 10
44.5045230935
 20
69.078223679
 30
0.0
 10
44.7452139576
 20
69.5230905202
 30
0.0
 10
44.9014024463
 20
69.9849066075
 30
0.0
 10
44.9432525359
 20
70.2994341155
 30
0.0
 10
44.9432525359
 20
70.4490164332
 30
0.0
  0
SPLINE
  5
2D9
100
AcDbEntity
  8
0
100
AcDbSpline
 62
7
  6
BYLAYER
 70
0
 71
3
 72
11
 73
7
 74
0
 42
0.0000001
 43
0.0000001
 44
0.0000000001
 40
0.0
 40
0.0
 40
0.0
 40
0.0
 40
0.2896423581
 40
0.5491120121
 40
0.7822364467
 40
1.0
 40
1.0
 40
1.0
 40
1.0
 10
45.4028700301
 20
52.2205953852
 30
0.0
 10
45.4028700301
 20
52.1446092183
 30
0.0
 10
45.4144198912
 20
52.0000656952
 30
0.0
 10
45.4729220105
 20
51.8014677449
 30
0.0
 10
45.5714686676
 20
51.6402777362
 30
0.0
 10
45.6640878819
 20
51.5625233293
 30
0.0
 10
45.7135519653
 20
51.5339393713
 30
0.0
  0
SPLINE
  5
2DA
100
AcDbEntity
  8
0
100
AcDbSpline
 62
7
  6
BYLAYER
 70
0
 71
3
 72
11
 73
7
 74
0
 42
0.0000001
 43
0.0000001
 44
0.0000000001
 40
0.0
 40
0.0
 40
0.0
 40
0.0
 40
0.2895396729
 40
0.5491163863
 40
0.7822545095
 40
1.0
 40
1.0
 40
1.0
 40
1.0
 10
77.5053689309
 20
92.8003997108
 30
0.0
 10
77.5492215661
 20
92.8257178904
 30
0.0
 10
77.6365313738
 20
92.8671981781
 30
0.0
 10
77.7706737818
 20
92.8996680059
 30
0.0
 10
77.896603666
 20
92.8965056631
 30
0.0
 10
77.9723533943
 20
92.8689192044
 30
0.0
 10
78.005332471
 20
92.8498791386
 30
0.0
  0
SPLINE
  5
2DB
100
AcDbEntity
  8
0
100
AcDbSpline
 62
7
  6
BYLAYER
 70
0
 71
3
 72
14
 73
10
 74
0
 42
0.0000001
 43
0.0000001
 44
0.0000000001
 40
0.0
 40
0.0
 40
0.0
 40
0.0
 40
0.0916486481
 40
0.1904734197
 40
0.2996971024
 40
0.4208061848
 40
0.5534192126
 40
0.6959650307
 40
1.0
 40
1.0
 40
1.0
 40
1.0
 10
59.8984986929
 20
61.5024779939
 30
0.0
 10
59.8496560307
 20
61.5247238933
 30
0.0
 10
59.7400050783
 20
61.5543911919
 30
0.0
 10
59.5626600698
 20
61.550318273
 30
0.0
 10
59.3749339609
 20
61.5004798205
 30
0.0
 10
59.1826153447
 20
61.4076444729
 30
0.0
 10
58.9910353488
 20
61.2752445738
 30
0.0
 10
58.7395171537
 20
61.046681911
 30
0.0
 10
58.5782257371
 20
60.837239055
 30
0.0
 10
58.4842910185
 20
60.6859896861
 30
0.0
  0
ENDSEC
  0
SECTION
  2
OBJECTS
  0
DICTIONARY
  5
C
100
AcDbDictionary
280
0
281
1
  3
ACAD_GROUP
350
D
  3
ACAD_MLINESTYLE
350
17
  3
ACAD_LAYOUT
350
1A
  3
ACAD_PLOTSETTINGS
350
19
  3
ACAD_PLOTSTYLENAME
350
E
  0
DICTIONARY
  5
D
102
{ACAD_REACTORS
330
C
102
}
100
AcDbDictionary
280
0
281
1
  0
ACDBDICTIONARYWDFLT
  5
E
102
{ACAD_REACTORS
330
C
102
}
100
AcDbDictionary
281
1
  3
Normal
350
F
100
AcDbDictionaryWithDefault
340
F
  0
DICTIONARY
  5
17
102
{ACAD_REACTORS
330
C
102
}
100
AcDbDictionary
280
0
281
1
  3
Standard
350
18
  0
DICTIONARY
  5
19
102
{ACAD_REACTORS
330
C
102
}
100
AcDbDictionary
281
1
  0
DICTIONARY
  5
1A
102
{ACAD_REACTORS
330
C
102
}
100
AcDbDictionary
281
1
  3
Model
350
2DC
  3
Layout1
350
2DD
  0
ACDBPLACEHOLDER
  5
F
102
{ACAD_REACTORS
330
E
102
}
  0
MLINESTYLE
  5
18
102
{ACAD_REACTORS
330
17
102
}
100
AcDbMlineStyle
  2
STANDARD
 70
0
  3

 62
256
 51
90.0
 52
90.0
 71
2
 49
0.5
 62
256
  6
BYLAYER
 49
-0.5
 62
256
  6
BYLAYER
  0
LAYOUT
  5
2DC
102
{ACAD_REACTORS
330
1A
102
}
100
AcDbPlotSettings
  1

  2
none_device
  4

  6

 40
0.0
 41
0.0
 42
0.0
 43
0.0
 44
210.0
 45
297.0
 46
0.0
 47
0.0
 48
0.0
 49
0.0
140
0.0
141
0.0
142
1.0
143
1.0
 70
1024
 72
1
 73
0
 74
0
  7

 75
0
147
1.0
148
0.0
149
0.0
100
AcDbLayout
  1
Model
 70
0
 71
0
 10
0.0
 20
0.0
 11
210.0
 21
297.0
 12
0.0
 22
0.0
 32
0.0
 14
0.0
 24
0.0
 34
0.0
 15
0.0
 25
0.0
 35
0.0
146
0.0
 13
0.0
 23
0.0
 33
0.0
 16
1.0
 26
0.0
 36
0.0
 17
0.0
 27
1.0
 37
0.0
 76
0
330
210
345
0
346
0
  0
LAYOUT
  5
2DD
102
{ACAD_REACTORS
330
1A
102
}
100
AcDbPlotSettings
  1

  2
none_device
  4

  6

 40
0.0
 41
0.0
 42
0.0
 43
0.0
 44
210.0
 45
297.0
 46
0.0
 47
0.0
 48
0.0
 49
0.0
140
0.0
141
0.0
142
1.0
143
1.0
 70
0
 72
1
 73
0
 74
0
  7

 75
0
147
1.0
148
0.0
149
0.0
100
AcDbLayout
  1
Layout1
 70
0
 71
1
 10
0.0
 20
0.0
 11
210.0
 21
297.0
 12
0.0
 22
0.0
 32
0.0
 14
0.0
 24
0.0
 34
0.0
 15
0.0
 25
0.0
 35
0.0
146
0.0
 13
0.0
 23
0.0
 33
0.0
 16
1.0
 26
0.0
 36
0.0
 17
0.0
 27
1.0
 37
0.0
 76
0
330
211
345
0
346
0
  0
ENDSEC
  0
EOF
