999
DXF file: C:\Users\sesa63760\Dev\_Creo\CAD\MCADPP0000419_3D-CAD\drw0001_3.dxf
999
Pro/ENGINEER 2019471 by Parametric Technology Corporation
  0
SECTION
  2
HEADER
  9
$ACADVER
  1
AC1024
  9
$DWGCODEPAGE
  3
ANSI_1252
  9
$EXTMAX
 10
132.0945781668
 20
186.8194748359
 30
0.0
  9
$EXTMIN
 10
0.0
 20
0.0
 30
0.0
  9
$LIMMIN
 10
0.0
 20
0.0
  9
$LIMMAX
 10
132.0945781668
 20
186.8194748359
  9
$VIEWCTR
 10
66.0472890834
 20
93.4097374179
  9
$VIEWSIZE
 40
186.8194748359
  9
$CLAYER
  8
0
  9
$LTSCALE
 40
12.1778620634
  9
$CELTYPE
  6
BYLAYER
  9
$DIMSCALE
 40
1.0
  9
$DIMASZ
 40
1.572554502
  9
$DIMEXO
 40
1.0
  9
$DIMDLI
 40
8.4137956074
  9
$DIMEXE
 40
1.0
  9
$DIMCEN
 40
1.9927410649
  9
$DIMLFAC
 40
1.0
  9
$DIMBLK
  1
_FILLED
  9
$DIMALT
 70
0
  9
$DIMALTF
 40
0.0393700787
  9
$DIMTXT
 40
2.2015763028
  9
$DIMTOL
 70
1
  9
$DIMLIM
 70
0
  9
$DIMTFAC
 40
1.0
  9
$DIMTP
 40
0.01
  9
$DIMTM
 40
0.01
  9
$DIMGAP
 40
0.625
  9
$DIMDSEP
 70
46
  9
$AUNITS
 70
0
  9
$PDMODE
 70
3
  9
$PDSIZE
 40
0.3125
  9
$HANDSEED
  5
255
  9
$TILEMODE
 70
1
  9
$MEASUREMENT
 70
1
  9
$INSUNITS
 70
4
  0
ENDSEC
  0
SECTION
  2
CLASSES
  0
CLASS
  1
ACDBDICTIONARYWDFLT
  2
AcDbDictionaryWithDefault
  3
AutoCAD 2000
 90
0
 91
1
280
0
281
0
  0
CLASS
  1
ACDBPLACEHOLDER
  2
AcDbPlaceHolder
  3
AutoCAD 2000
 90
0
 91
1
280
0
281
0
  0
CLASS
  1
LAYOUT
  2
AcDbLayout
  3
AutoCAD 2000
 90
0
 91
0
280
0
281
0
  0
ENDSEC
  0
SECTION
  2
TABLES
  0
TABLE
  2
VPORT
  5
8
100
AcDbSymbolTable
 70
2
  0
VPORT
  5
1F4
100
AcDbSymbolTableRecord
100
AcDbViewportTableRecord
  2
*ACTIVE
 70
0
 10
0.0
 20
0.0
 11
1.0
 21
1.0
 12
66.0472890834
 22
93.4097374179
 13
0.0
 23
0.0
 14
1.0
 24
1.0
 15
0.0
 25
0.0
 16
0.0
 26
0.0
 36
1.0
 17
0.0
 27
0.0
 37
0.0
 40
186.8194748359
 41
0.7070707071
 42
50.0
 43
0.0
 44
0.0
 50
0.0
 51
0.0
 71
0
 72
100
 73
1
 74
1
 75
0
 76
0
 77
0
 78
0
  0
ENDTAB
  0
TABLE
  2
LTYPE
  5
5
100
AcDbSymbolTable
 70
6
  0
LTYPE
  5
14
100
AcDbSymbolTableRecord
100
AcDbLinetypeTableRecord
  2
BYBLOCK
 70
0
  3

 72
65
 73
0
 40
0.0
  0
LTYPE
  5
15
100
AcDbSymbolTableRecord
100
AcDbLinetypeTableRecord
  2
BYLAYER
 70
0
  3

 72
65
 73
0
 40
0.0
  0
LTYPE
  5
16
100
AcDbSymbolTableRecord
100
AcDbLinetypeTableRecord
  2
CONTINUOUS
 70
64
  3
Solid line
 72
65
 73
0
 40
0.0
  0
LTYPE
  5
1F5
100
AcDbSymbolTableRecord
100
AcDbLinetypeTableRecord
  2
CENTER
 70
64
  3
____ _ ____ _ ____ _ ____ _ ____ _ ____ _ ____
 72
65
 73
4
 40
0.6
 49
0.375
 74
0
 49
-0.075
 74
0
 49
0.075
 74
0
 49
-0.075
 74
0
  0
LTYPE
  5
1F6
100
AcDbSymbolTableRecord
100
AcDbLinetypeTableRecord
  2
HIDDEN
 70
64
  3
- - - - - - - - - - - - - - - - - - - -
 72
65
 73
2
 40
0.2
 49
0.1
 74
0
 49
-0.1
 74
0
  0
LTYPE
  5
1F7
100
AcDbSymbolTableRecord
100
AcDbLinetypeTableRecord
  2
PHANTOM
 70
64
  3
_____ _ _ _____ _ _ _____ _ _ _____
 72
65
 73
6
 40
0.8
 49
0.45
 74
0
 49
-0.05
 74
0
 49
0.1
 74
0
 49
-0.05
 74
0
 49
0.1
 74
0
 49
-0.05
 74
0
  0
LTYPE
  5
1F8
100
AcDbSymbolTableRecord
100
AcDbLinetypeTableRecord
  2
DOT
 70
64
  3
. . . . . . . . . . . . . . . . . . . .
 72
65
 73
2
 40
0.2
 49
0.1
 74
0
 49
-0.1
 74
0
  0
LTYPE
  5
1F9
100
AcDbSymbolTableRecord
100
AcDbLinetypeTableRecord
  2
DASHED
 70
64
  3
- - - - - - - - - - - - - - - - - - - -
 72
65
 73
2
 40
0.2
 49
0.1
 74
0
 49
-0.1
 74
0
  0
ENDTAB
  0
TABLE
  2
LAYER
  5
2
100
AcDbSymbolTable
 70
36
  0
LAYER
  5
10
100
AcDbSymbolTableRecord
100
AcDbLayerTableRecord
  2
0
 70
0
 62
7
  6
CONTINUOUS
370
-3
390
F
  0
LAYER
  5
1FA
100
AcDbSymbolTableRecord
100
AcDbLayerTableRecord
  2
DEFAULT_1
 70
0
 62
7
  6
CENTER
370
-3
390
F
  0
LAYER
  5
1FB
100
AcDbSymbolTableRecord
100
AcDbLayerTableRecord
  2
DEFAULT_2
 70
0
 62
8
  6
HIDDEN
370
-3
390
F
  0
LAYER
  5
1FC
100
AcDbSymbolTableRecord
100
AcDbLayerTableRecord
  2
DEFAULT_3
 70
0
 62
7
  6
PHANTOM
370
-3
390
F
  0
LAYER
  5
1FD
100
AcDbSymbolTableRecord
100
AcDbLayerTableRecord
  2
00_COMPONENTS
 70
0
 62
7
  6
CONTINUOUS
370
-3
390
F
  0
LAYER
  5
1FE
100
AcDbSymbolTableRecord
100
AcDbLayerTableRecord
  2
01_1_DEFAULT_DATUMS
 70
0
 62
7
  6
CONTINUOUS
370
-3
390
F
  0
LAYER
  5
1FF
100
AcDbSymbolTableRecord
100
AcDbLayerTableRecord
  2
01_PLANES
 70
0
 62
7
  6
CONTINUOUS
370
-3
390
F
  0
LAYER
  5
200
100
AcDbSymbolTableRecord
100
AcDbLayerTableRecord
  2
02_COORD_SYS
 70
0
 62
7
  6
CONTINUOUS
370
-3
390
F
  0
LAYER
  5
201
100
AcDbSymbolTableRecord
100
AcDbLayerTableRecord
  2
03_AXES
 70
0
 62
7
  6
CONTINUOUS
370
-3
390
F
  0
LAYER
  5
202
100
AcDbSymbolTableRecord
100
AcDbLayerTableRecord
  2
04_POINTS
 70
0
 62
7
  6
CONTINUOUS
370
-3
390
F
  0
LAYER
  5
203
100
AcDbSymbolTableRecord
100
AcDbLayerTableRecord
  2
05_CURVES
 70
0
 62
7
  6
CONTINUOUS
370
-3
390
F
  0
LAYER
  5
204
100
AcDbSymbolTableRecord
100
AcDbLayerTableRecord
  2
06_SURFS
 70
0
 62
7
  6
CONTINUOUS
370
-3
390
F
  0
LAYER
  5
205
100
AcDbSymbolTableRecord
100
AcDbLayerTableRecord
  2
07_COSMETICS
 70
0
 62
7
  6
CONTINUOUS
370
-3
390
F
  0
LAYER
  5
206
100
AcDbSymbolTableRecord
100
AcDbLayerTableRecord
  2
10_NOTES
 70
0
 62
7
  6
CONTINUOUS
370
-3
390
F
  0
LAYER
  5
207
100
AcDbSymbolTableRecord
100
AcDbLayerTableRecord
  2
11_NOTES_PUB
 70
0
 62
7
  6
CONTINUOUS
370
-3
390
F
  0
LAYER
  5
208
100
AcDbSymbolTableRecord
100
AcDbLayerTableRecord
  2
13_REF_GTOL
 70
0
 62
7
  6
CONTINUOUS
370
-3
390
F
  0
LAYER
  5
209
100
AcDbSymbolTableRecord
100
AcDbLayerTableRecord
  2
16_MISC
 70
0
 62
7
  6
CONTINUOUS
370
-3
390
F
  0
LAYER
  5
20A
100
AcDbSymbolTableRecord
100
AcDbLayerTableRecord
  2
17_NO_PRINT
 70
0
 62
7
  6
CONTINUOUS
370
-3
390
F
  0
LAYER
  5
20B
100
AcDbSymbolTableRecord
100
AcDbLayerTableRecord
  2
18_DATUM_CAMS_JOINTS
 70
0
 62
7
  6
CONTINUOUS
370
-3
390
F
  0
LAYER
  5
20C
100
AcDbSymbolTableRecord
100
AcDbLayerTableRecord
  2
19_DATUM_FUNCTIONAL
 70
0
 62
7
  6
CONTINUOUS
370
-3
390
F
  0
LAYER
  5
20D
100
AcDbSymbolTableRecord
100
AcDbLayerTableRecord
  2
20_DATUM_KINEMATIC_SCHEME
 70
0
 62
7
  6
CONTINUOUS
370
-3
390
F
  0
ENDTAB
  0
TABLE
  2
STYLE
  5
3
100
AcDbSymbolTable
 70
1
  0
STYLE
  5
11
100
AcDbSymbolTableRecord
100
AcDbTextStyleTableRecord
  2
STANDARD
 70
0
 40
0.0
 41
0.8
 50
0.0
 71
0
 42
0.2
  3
txt
  4

  0
STYLE
  5
20E
100
AcDbSymbolTableRecord
100
AcDbTextStyleTableRecord
  2
TEXTSTYLE_1
 70
0
 40
0.0
 41
0.8
 50
0.0
 71
0
 42
0.2
  3
gdt
  4

  0
ENDTAB
  0
TABLE
  2
VIEW
  5
6
100
AcDbSymbolTable
 70
0
  0
ENDTAB
  0
TABLE
  2
UCS
  5
7
100
AcDbSymbolTable
 70
0
  0
ENDTAB
  0
TABLE
  2
APPID
  5
9
100
AcDbSymbolTable
 70
1
  0
APPID
  5
20F
100
AcDbSymbolTableRecord
100
AcDbRegAppTableRecord
  2
ACAD
 70
0
  0
ENDTAB
  0
TABLE
  2
BLOCK_RECORD
  5
1
100
AcDbSymbolTable
 70
0
  0
BLOCK_RECORD
  5
210
100
AcDbSymbolTableRecord
100
AcDbBlockTableRecord
  2
*Model_Space
  0
BLOCK_RECORD
  5
211
100
AcDbSymbolTableRecord
100
AcDbBlockTableRecord
  2
*Paper_Space
  0
BLOCK_RECORD
  5
212
100
AcDbSymbolTableRecord
100
AcDbBlockTableRecord
  2
_FILLED
  0
ENDTAB
  0
TABLE
  2
DIMSTYLE
  5
A
100
AcDbSymbolTable
 70
1
100
AcDbDimStyleTable
 71
0
  0
DIMSTYLE
105
213
100
AcDbSymbolTableRecord
100
AcDbDimStyleTableRecord
  2
STANDARD
 70
0
  3

  4

 40
1.0
 41
1.572554502
 42
1.0
 43
0.38
 44
1.0
 45
0.0
 46
0.0
 47
0.01
 48
0.01
140
2.2015763028
141
0.09
142
0.0
143
25.4
144
1.0
145
0.0
146
1.0
147
0.625
 71
1
 72
0
 73
0
 74
0
 75
0
 76
0
 77
1
 78
8
 79
2
170
0
171
1
172
0
173
0
174
0
175
0
176
0
177
0
178
0
270
2
179
2
271
2
272
2
273
2
274
2
275
0
280
0
281
0
282
0
283
1
284
8
285
0
286
0
287
3
288
0
340
11
278
46
341
212
342
212
343
212
344
212
  0
ENDTAB
  0
ENDSEC
  0
SECTION
  2
BLOCKS
  0
BLOCK
  5
20
100
AcDbEntity
  8
0
100
AcDbBlockBegin
  2
*Model_Space
 70
0
 10
0.0
 20
0.0
 30
0.0
  3
*Model_Space
  1

  0
ENDBLK
  5
21
100
AcDbEntity
  8
0
100
AcDbBlockEnd
  0
BLOCK
  5
1C
100
AcDbEntity
  8
0
100
AcDbBlockBegin
  2
*Paper_Space
 70
0
 10
0.0
 20
0.0
 30
0.0
  3
*Paper_Space
  1

  0
ENDBLK
  5
1D
100
AcDbEntity
  8
0
100
AcDbBlockEnd
  0
BLOCK
  5
214
100
AcDbEntity
  8
0
100
AcDbBlockBegin
  2
_FILLED
 70
64
 10
0.0
 20
0.0
  3
_FILLED
  1

  0
SOLID
  5
215
100
AcDbEntity
  8
0
  6
BYBLOCK
 62
0
100
AcDbTrace
 10
0.0
 20
0.0
 11
-1.0
 21
0.25
 12
-1.0
 22
-0.25
 13
-1.0
 23
-0.25
  0
ENDBLK
  5
216
100
AcDbEntity
  8
0
  6
BYBLOCK
 62
0
100
AcDbBlockEnd
  0
ENDSEC
  0
SECTION
  2
ENTITIES
  0
LINE
  5
217
100
AcDbEntity
  8
0
100
AcDbLine
 62
7
  6
CONTINUOUS
 10
15.6266107464
 20
51.8670678337
 11
15.6266107464
 21
66.3170678337
  0
LINE
  5
218
100
AcDbEntity
  8
0
100
AcDbLine
 62
7
  6
CONTINUOUS
 10
22.3766107464
 20
66.3170678337
 11
22.3766107464
 21
101.3670678337
  0
LINE
  5
219
100
AcDbEntity
  8
0
100
AcDbLine
 62
7
  6
CONTINUOUS
 10
120.1266107464
 20
51.8670678337
 11
15.6266107464
 21
51.8670678337
  0
LINE
  5
21A
100
AcDbEntity
  8
0
100
AcDbLine
 62
7
  6
CONTINUOUS
 10
120.1266107464
 20
66.3170678337
 11
15.6266107464
 21
66.3170678337
  0
LINE
  5
21B
100
AcDbEntity
  8
0
100
AcDbLine
 62
7
  6
CONTINUOUS
 10
49.6266107464
 20
101.7670678337
 11
49.6266107464
 21
115.0921395836
  0
LINE
  5
21C
100
AcDbEntity
  8
0
100
AcDbLine
 62
7
  6
CONTINUOUS
 10
64.6266107464
 20
101.7670678337
 11
64.6266107464
 21
101.3670678337
  0
LINE
  5
21D
100
AcDbEntity
  8
0
100
AcDbLine
 62
7
  6
CONTINUOUS
 10
113.3766107464
 20
101.3670678337
 11
22.3766107464
 21
101.3670678337
  0
LINE
  5
21E
100
AcDbEntity
  8
0
100
AcDbLine
 62
7
  6
CONTINUOUS
 10
49.6266157197
 20
101.7670678337
 11
104.6266057731
 21
101.7670678337
  0
LINE
  5
21F
100
AcDbEntity
  8
0
100
AcDbLine
 62
7
  6
CONTINUOUS
 10
82.8039209209
 20
107.5645019704
 11
79.897455662
 21
107.5600282418
  0
LINE
  5
220
100
AcDbEntity
  8
0
100
AcDbLine
 62
7
  6
CONTINUOUS
 10
95.8786407869
 20
107.5645036299
 11
97.9198396595
 21
107.5600279209
  0
LINE
  5
221
100
AcDbEntity
  8
0
100
AcDbLine
 62
7
  6
CONTINUOUS
 10
89.6266107464
 20
101.7670678337
 11
89.6266107464
 21
101.3670678337
  0
LINE
  5
222
100
AcDbEntity
  8
0
100
AcDbLine
 62
7
  6
CONTINUOUS
 10
104.6266107464
 20
101.7670678337
 11
104.6266107464
 21
115.0126964559
  0
LINE
  5
223
100
AcDbEntity
  8
0
100
AcDbLine
 62
7
  6
CONTINUOUS
 10
104.7794030171
 20
132.1664096605
 11
104.2419805366
 21
132.166420388
  0
LINE
  5
224
100
AcDbEntity
  8
0
100
AcDbLine
 62
7
  6
CONTINUOUS
 10
57.7927538702
 20
133.4058289434
 11
104.2432533761
 21
133.4058289434
  0
LINE
  5
225
100
AcDbEntity
  8
0
100
AcDbLine
 62
7
  6
CONTINUOUS
 10
104.2588245066
 20
135.8670678337
 11
50.0044741076
 21
135.8670678337
  0
LINE
  5
226
100
AcDbEntity
  8
0
100
AcDbLine
 62
7
  6
CONTINUOUS
 10
105.3528858155
 20
131.8900753504
 11
105.4244084535
 21
131.5487155354
  0
LINE
  5
227
100
AcDbEntity
  8
0
100
AcDbLine
 62
7
  6
CONTINUOUS
 10
113.3766107464
 20
66.3170678337
 11
113.3766107464
 21
101.3670678337
  0
LINE
  5
228
100
AcDbEntity
  8
0
100
AcDbLine
 62
7
  6
CONTINUOUS
 10
120.1266107464
 20
51.8670678337
 11
120.1266107464
 21
66.3170678337
  0
LINE
  5
229
100
AcDbEntity
  8
0
100
AcDbLine
 62
7
  6
CONTINUOUS
 10
104.7794030171
 20
132.1664096605
 11
104.2428900523
 21
133.0520477731
  0
LINE
  5
22A
100
AcDbEntity
  8
0
100
AcDbLine
 62
7
  6
CONTINUOUS
 10
105.3529306186
 20
131.890102438
 11
104.2452437263
 21
133.7185945585
  0
ARC
  5
22B
100
AcDbEntity
  8
0
100
AcDbCircle
 62
7
  6
CONTINUOUS
 10
89.3412838985
 20
-3795.474187742
 40
3903.0433654368
100
AcDbArc
 50
89.9040330058
 51
90.0959669942
  0
SPLINE
  5
22C
100
AcDbEntity
  8
0
100
AcDbSpline
 62
7
  6
CONTINUOUS
 70
0
 71
3
 72
9
 73
5
 74
0
 42
0.0000001
 43
0.0000001
 44
0.0000000001
 40
0.0
 40
0.0
 40
0.0
 40
0.0
 40
0.5159418465
 40
1.0
 40
1.0
 40
1.0
 40
1.0
 10
88.3599266932
 20
128.5670678337
 30
0.0
 10
88.3599266932
 20
128.224441461
 30
0.0
 10
88.3156770363
 20
127.5596002708
 30
0.0
 10
88.1785518194
 20
126.9067750869
 30
0.0
 10
88.0856074684
 20
126.5990521233
 30
0.0
  0
SPLINE
  5
22D
100
AcDbEntity
  8
0
100
AcDbSpline
 62
7
  6
CONTINUOUS
 70
0
 71
3
 72
10
 73
6
 74
0
 42
0.0000001
 43
0.0000001
 44
0.0000000001
 40
0.0
 40
0.0
 40
0.0
 40
0.0
 40
0.2337247856
 40
0.4804979538
 40
1.0
 40
1.0
 40
1.0
 40
1.0
 10
67.60214261
 20
130.7602789678
 30
0.0
 10
67.6597841945
 20
130.5964370087
 30
0.0
 10
67.7610681206
 20
130.2533362132
 30
0.0
 10
67.90735704
 20
129.5241480262
 30
0.0
 10
67.9499655483
 20
128.9531206113
 30
0.0
 10
67.9499655483
 20
128.5670678337
 30
0.0
  0
SPLINE
  5
22E
100
AcDbEntity
  8
0
100
AcDbSpline
 62
7
  6
CONTINUOUS
 70
0
 71
3
 72
9
 73
5
 74
0
 42
0.0000001
 43
0.0000001
 44
0.0000000001
 40
0.0
 40
0.0
 40
0.0
 40
0.0
 40
0.5159418465
 40
1.0
 40
1.0
 40
1.0
 40
1.0
 10
78.1549461207
 20
128.5670678337
 30
0.0
 10
78.1549461207
 20
128.224441461
 30
0.0
 10
78.1106964639
 20
127.5596002708
 30
0.0
 10
77.973571247
 20
126.9067750869
 30
0.0
 10
77.880626896
 20
126.5990521233
 30
0.0
  0
SPLINE
  5
22F
100
AcDbEntity
  8
0
100
AcDbSpline
 62
7
  6
CONTINUOUS
 70
0
 71
3
 72
9
 73
5
 74
0
 42
0.0000001
 43
0.0000001
 44
0.0000000001
 40
0.0
 40
0.0
 40
0.0
 40
0.0
 40
0.5159418465
 40
1.0
 40
1.0
 40
1.0
 40
1.0
 10
67.9499655483
 20
128.5670678337
 30
0.0
 10
67.9499655483
 20
128.224441461
 30
0.0
 10
67.9057158915
 20
127.5596002708
 30
0.0
 10
67.7685906746
 20
126.9067750869
 30
0.0
 10
67.6756463236
 20
126.5990521233
 30
0.0
  0
SPLINE
  5
230
100
AcDbEntity
  8
0
100
AcDbSpline
 62
7
  6
CONTINUOUS
 70
0
 71
3
 72
10
 73
6
 74
0
 42
0.0000001
 43
0.0000001
 44
0.0000000001
 40
0.0
 40
0.0
 40
0.0
 40
0.0
 40
0.2337247856
 40
0.4804979538
 40
1.0
 40
1.0
 40
1.0
 40
1.0
 10
77.8071231824
 20
130.7602789678
 30
0.0
 10
77.8647647669
 20
130.5964370087
 30
0.0
 10
77.966048693
 20
130.2533362132
 30
0.0
 10
78.1123376125
 20
129.5241480262
 30
0.0
 10
78.1549461207
 20
128.9531206113
 30
0.0
 10
78.1549461207
 20
128.5670678337
 30
0.0
  0
SPLINE
  5
231
100
AcDbEntity
  8
0
100
AcDbSpline
 62
7
  6
CONTINUOUS
 70
0
 71
3
 72
10
 73
6
 74
0
 42
0.0000001
 43
0.0000001
 44
0.0000000001
 40
0.0
 40
0.0
 40
0.0
 40
0.0
 40
0.2337247856
 40
0.4804979538
 40
1.0
 40
1.0
 40
1.0
 40
1.0
 10
88.0121037548
 20
130.7602789678
 30
0.0
 10
88.0697453393
 20
130.5964370087
 30
0.0
 10
88.1710292654
 20
130.2533362132
 30
0.0
 10
88.3173181849
 20
129.5241480262
 30
0.0
 10
88.3599266932
 20
128.9531206113
 30
0.0
 10
88.3599266932
 20
128.5670678337
 30
0.0
  0
SPLINE
  5
232
100
AcDbEntity
  8
0
100
AcDbSpline
 62
7
  6
CONTINUOUS
 70
0
 71
3
 72
9
 73
5
 74
0
 42
0.0000001
 43
0.0000001
 44
0.0000000001
 40
0.0
 40
0.0
 40
0.0
 40
0.0
 40
0.4902809525
 40
1.0
 40
1.0
 40
1.0
 40
1.0
 10
105.4244084535
 20
131.5487155354
 30
0.0
 10
105.3535254551
 20
130.6673855089
 30
0.0
 10
105.0905295927
 20
128.8778559239
 30
0.0
 10
104.6161844486
 20
127.1334436146
 30
0.0
 10
104.3274031115
 20
126.2607521511
 30
0.0
  0
SPLINE
  5
233
100
AcDbEntity
  8
0
100
AcDbSpline
 62
7
  6
CONTINUOUS
 70
0
 71
3
 72
14
 73
10
 74
0
 42
0.0000001
 43
0.0000001
 44
0.0000000001
 40
0.0
 40
0.0
 40
0.0
 40
0.0
 40
0.125300833
 40
0.2505360603
 40
0.3757055971
 40
0.5008869156
 40
0.7509620372
 40
0.8761706141
 40
1.0
 40
1.0
 40
1.0
 40
1.0
 10
83.6410870995
 20
128.5670678337
 30
0.0
 10
83.6410870995
 20
128.8095921892
 30
0.0
 10
83.5899731402
 20
129.295988233
 30
0.0
 10
83.367584123
 20
129.9930408254
 30
0.0
 10
83.0182934973
 20
130.6353035639
 30
0.0
 10
82.4151568172
 20
131.3977393204
 30
0.0
 10
81.6442781367
 20
132.0101779387
 30
0.0
 10
80.7818931798
 20
132.4492540154
 30
0.0
 10
80.3248979409
 20
132.6089125963
 30
0.0
 10
80.0933766479
 20
132.6709015236
 30
0.0
  0
SPLINE
  5
234
100
AcDbEntity
  8
0
100
AcDbSpline
 62
7
  6
CONTINUOUS
 70
0
 71
3
 72
14
 73
10
 74
0
 42
0.0000001
 43
0.0000001
 44
0.0000000001
 40
0.0
 40
0.0
 40
0.0
 40
0.0
 40
0.1243700622
 40
0.2496054563
 40
0.4994770304
 40
0.6245551473
 40
0.7496361927
 40
0.8747862862
 40
1.0
 40
1.0
 40
1.0
 40
1.0
 10
90.5237371065
 20
124.5294543893
 30
0.0
 10
90.7437831266
 20
124.5998354601
 30
0.0
 10
91.1762987044
 20
124.7717024823
 30
0.0
 10
91.988898718
 20
125.2225491289
 30
0.0
 10
92.7101929809
 20
125.8308419492
 30
0.0
 10
93.270978124
 20
126.5753772282
 30
0.0
 10
93.5941922869
 20
127.1972936451
 30
0.0
 10
93.7990991487
 20
127.8680970647
 30
0.0
 10
93.8460676719
 20
128.3344730944
 30
0.0
 10
93.8460676719
 20
128.5670678337
 30
0.0
  0
SPLINE
  5
235
100
AcDbEntity
  8
0
100
AcDbSpline
 62
7
  6
CONTINUOUS
 70
0
 71
3
 72
11
 73
7
 74
0
 42
0.0000001
 43
0.0000001
 44
0.0000000001
 40
0.0
 40
0.0
 40
0.0
 40
0.0
 40
0.2760601463
 40
0.5321611995
 40
0.7710352535
 40
1.0
 40
1.0
 40
1.0
 40
1.0
 10
104.7793287079
 20
132.1665323249
 30
0.0
 10
104.840436426
 20
132.1665323249
 30
0.0
 10
104.9586879374
 20
132.155566098
 30
0.0
 10
105.1225399744
 20
132.1022795046
 30
0.0
 10
105.2587113091
 20
132.014073697
 30
0.0
 10
105.3266688516
 20
131.9334507351
 30
0.0
 10
105.3529290229
 20
131.890101525
 30
0.0
  0
SPLINE
  5
236
100
AcDbEntity
  8
0
100
AcDbSpline
 62
7
  6
CONTINUOUS
 70
0
 71
3
 72
14
 73
10
 74
0
 42
0.0000001
 43
0.0000001
 44
0.0000000001
 40
0.0
 40
0.0
 40
0.0
 40
0.0
 40
0.1243700622
 40
0.2496054563
 40
0.4994770304
 40
0.6245551473
 40
0.7496361927
 40
0.8747862862
 40
1.0
 40
1.0
 40
1.0
 40
1.0
 10
80.3187565341
 20
124.5294543893
 30
0.0
 10
80.5388025542
 20
124.5998354601
 30
0.0
 10
80.971318132
 20
124.7717024823
 30
0.0
 10
81.7839181456
 20
125.2225491289
 30
0.0
 10
82.5052124085
 20
125.8308419492
 30
0.0
 10
83.0659975516
 20
126.5753772282
 30
0.0
 10
83.3892117145
 20
127.1972936451
 30
0.0
 10
83.5941185763
 20
127.8680970647
 30
0.0
 10
83.6410870995
 20
128.3344730944
 30
0.0
 10
83.6410870995
 20
128.5670678337
 30
0.0
  0
SPLINE
  5
237
100
AcDbEntity
  8
0
100
AcDbSpline
 62
7
  6
CONTINUOUS
 70
0
 71
3
 72
14
 73
10
 74
0
 42
0.0000001
 43
0.0000001
 44
0.0000000001
 40
0.0
 40
0.0
 40
0.0
 40
0.0
 40
0.125300833
 40
0.2505360603
 40
0.3757055971
 40
0.5008869156
 40
0.7509620372
 40
0.8761706141
 40
1.0
 40
1.0
 40
1.0
 40
1.0
 10
73.4361065271
 20
128.5670678337
 30
0.0
 10
73.4361065271
 20
128.8095921892
 30
0.0
 10
73.3849925677
 20
129.295988233
 30
0.0
 10
73.1626035506
 20
129.9930408254
 30
0.0
 10
72.8133129249
 20
130.6353035639
 30
0.0
 10
72.2101762448
 20
131.3977393204
 30
0.0
 10
71.4392975643
 20
132.0101779387
 30
0.0
 10
70.5769126074
 20
132.4492540154
 30
0.0
 10
70.1199173685
 20
132.6089125963
 30
0.0
 10
69.8883960755
 20
132.6709015236
 30
0.0
  0
SPLINE
  5
238
100
AcDbEntity
  8
0
100
AcDbSpline
 62
7
  6
CONTINUOUS
 70
0
 71
3
 72
14
 73
10
 74
0
 42
0.0000001
 43
0.0000001
 44
0.0000000001
 40
0.0
 40
0.0
 40
0.0
 40
0.0
 40
0.125300833
 40
0.2505360603
 40
0.3757055971
 40
0.5008869156
 40
0.7509620372
 40
0.8761706141
 40
1.0
 40
1.0
 40
1.0
 40
1.0
 10
93.8460676719
 20
128.5670678337
 30
0.0
 10
93.8460676719
 20
128.8095921892
 30
0.0
 10
93.7949537126
 20
129.295988233
 30
0.0
 10
93.5725646954
 20
129.9930408254
 30
0.0
 10
93.2232740697
 20
130.6353035639
 30
0.0
 10
92.6201373896
 20
131.3977393204
 30
0.0
 10
91.8492587091
 20
132.0101779387
 30
0.0
 10
90.9868737522
 20
132.4492540154
 30
0.0
 10
90.5298785133
 20
132.6089125963
 30
0.0
 10
90.2983572203
 20
132.6709015236
 30
0.0
  0
SPLINE
  5
239
100
AcDbEntity
  8
0
100
AcDbSpline
 62
7
  6
CONTINUOUS
 70
0
 71
3
 72
14
 73
10
 74
0
 42
0.0000001
 43
0.0000001
 44
0.0000000001
 40
0.0
 40
0.0
 40
0.0
 40
0.0
 40
0.1243700622
 40
0.2496054563
 40
0.4994770304
 40
0.6245551473
 40
0.7496361927
 40
0.8747862862
 40
1.0
 40
1.0
 40
1.0
 40
1.0
 10
70.1137759617
 20
124.5294543893
 30
0.0
 10
70.3338219818
 20
124.5998354601
 30
0.0
 10
70.7663375596
 20
124.7717024823
 30
0.0
 10
71.5789375732
 20
125.2225491289
 30
0.0
 10
72.3002318361
 20
125.8308419492
 30
0.0
 10
72.8610169791
 20
126.5753772282
 30
0.0
 10
73.1842311421
 20
127.1972936451
 30
0.0
 10
73.3891380039
 20
127.8680970647
 30
0.0
 10
73.4361065271
 20
128.3344730944
 30
0.0
 10
73.4361065271
 20
128.5670678337
 30
0.0
  0
SPLINE
  5
23A
100
AcDbEntity
  8
0
100
AcDbSpline
 62
7
  6
CONTINUOUS
 70
0
 71
3
 72
13
 73
9
 74
0
 42
0.0000001
 43
0.0000001
 44
0.0000000001
 40
0.0
 40
0.0
 40
0.0
 40
0.0
 40
0.1125833705
 40
0.2312878667
 40
0.3543774272
 40
0.4805626827
 40
0.7386418429
 40
1.0
 40
1.0
 40
1.0
 40
1.0
 10
104.6266144507
 20
115.0127019024
 30
0.0
 10
104.6266090716
 20
115.7031508016
 30
0.0
 10
104.6037054089
 20
117.1215624772
 30
0.0
 10
104.5366920245
 20
119.2938446831
 30
0.0
 10
104.456150284
 20
121.5491502254
 30
0.0
 10
104.3494673629
 20
124.6588027673
 30
0.0
 10
104.2472782144
 20
128.6171281406
 30
0.0
 10
104.2330143919
 20
131.8030099022
 30
0.0
 10
104.2432533761
 20
133.4058289434
 30
0.0
  0
SPLINE
  5
23B
100
AcDbEntity
  8
0
100
AcDbSpline
 62
7
  6
CONTINUOUS
 70
0
 71
3
 72
24
 73
20
 74
0
 42
0.0000001
 43
0.0000001
 44
0.0000000001
 40
0.0
 40
0.0
 40
0.0
 40
0.0
 40
0.058330874
 40
0.1173261756
 40
0.1773439488
 40
0.238572153
 40
0.2696931374
 40
0.3011163862
 40
0.3647076607
 40
0.42920957
 40
0.4943677394
 40
0.5598891999
 40
0.6254471446
 40
0.6906812435
 40
0.7552076436
 40
0.8186498713
 40
0.8806948968
 40
0.9411386067
 40
1.0
 40
1.0
 40
1.0
 40
1.0
 10
70.8051654864
 20
132.8170678337
 30
0.0
 10
70.5574533938
 20
132.8170678337
 30
0.0
 10
70.0575124314
 20
132.7611486935
 30
0.0
 10
69.3399759012
 20
132.5143944184
 30
0.0
 10
68.6804373937
 20
132.1150140547
 30
0.0
 10
68.2040273995
 20
131.6701014898
 30
0.0
 10
67.877041658
 20
131.2576476748
 30
0.0
 10
67.5867167666
 20
130.8065884464
 30
0.0
 10
67.3053830785
 20
130.1853102398
 30
0.0
 10
67.1139474564
 20
129.3823415833
 30
0.0
 10
67.0750157523
 20
128.5495735748
 30
0.0
 10
67.189568871
 20
127.7194638688
 30
0.0
 10
67.4515958014
 20
126.9232851037
 30
0.0
 10
67.8493373913
 20
126.1903445205
 30
0.0
 10
68.3660233715
 20
125.5472531562
 30
0.0
 10
68.9806150369
 20
125.0172760852
 30
0.0
 10
69.6692967283
 20
124.6208840475
 30
0.0
 10
70.4042990396
 20
124.3743700659
 30
0.0
 10
70.9124573772
 20
124.3170678337
 30
0.0
 10
71.1624224115
 20
124.3170678337
 30
0.0
  0
SPLINE
  5
23C
100
AcDbEntity
  8
0
100
AcDbSpline
 62
7
  6
CONTINUOUS
 70
0
 71
3
 72
24
 73
20
 74
0
 42
0.0000001
 43
0.0000001
 44
0.0000000001
 40
0.0
 40
0.0
 40
0.0
 40
0.0
 40
0.058330874
 40
0.1173261756
 40
0.1773439488
 40
0.238572153
 40
0.2696931374
 40
0.3011163862
 40
0.3647076607
 40
0.42920957
 40
0.4943677394
 40
0.5598891999
 40
0.6254471446
 40
0.6906812435
 40
0.7552076436
 40
0.8186498713
 40
0.8806948968
 40
0.9411386067
 40
1.0
 40
1.0
 40
1.0
 40
1.0
 10
81.0101460588
 20
132.8170678337
 30
0.0
 10
80.7624339662
 20
132.8170678337
 30
0.0
 10
80.2624930038
 20
132.7611486935
 30
0.0
 10
79.5449564736
 20
132.5143944184
 30
0.0
 10
78.8854179661
 20
132.1150140547
 30
0.0
 10
78.4090079719
 20
131.6701014898
 30
0.0
 10
78.0820222304
 20
131.2576476748
 30
0.0
 10
77.791697339
 20
130.8065884464
 30
0.0
 10
77.5103636509
 20
130.1853102398
 30
0.0
 10
77.3189280288
 20
129.3823415833
 30
0.0
 10
77.2799963247
 20
128.5495735748
 30
0.0
 10
77.3945494435
 20
127.7194638688
 30
0.0
 10
77.6565763738
 20
126.9232851037
 30
0.0
 10
78.0543179637
 20
126.1903445205
 30
0.0
 10
78.5710039439
 20
125.5472531562
 30
0.0
 10
79.1855956093
 20
125.0172760852
 30
0.0
 10
79.8742773007
 20
124.6208840475
 30
0.0
 10
80.609279612
 20
124.3743700659
 30
0.0
 10
81.1174379496
 20
124.3170678337
 30
0.0
 10
81.3674029839
 20
124.3170678337
 30
0.0
  0
SPLINE
  5
23D
100
AcDbEntity
  8
0
100
AcDbSpline
 62
7
  6
CONTINUOUS
 70
0
 71
3
 72
24
 73
20
 74
0
 42
0.0000001
 43
0.0000001
 44
0.0000000001
 40
0.0
 40
0.0
 40
0.0
 40
0.0
 40
0.058330874
 40
0.1173261756
 40
0.1773439488
 40
0.238572153
 40
0.2696931374
 40
0.3011163862
 40
0.3647076607
 40
0.42920957
 40
0.4943677394
 40
0.5598891999
 40
0.6254471446
 40
0.6906812435
 40
0.7552076436
 40
0.8186498713
 40
0.8806948968
 40
0.9411386067
 40
1.0
 40
1.0
 40
1.0
 40
1.0
 10
91.2151266312
 20
132.8170678337
 30
0.0
 10
90.9674145386
 20
132.8170678337
 30
0.0
 10
90.4674735762
 20
132.7611486935
 30
0.0
 10
89.749937046
 20
132.5143944184
 30
0.0
 10
89.0903985385
 20
132.1150140547
 30
0.0
 10
88.6139885443
 20
131.6701014898
 30
0.0
 10
88.2870028028
 20
131.2576476748
 30
0.0
 10
87.9966779114
 20
130.8065884464
 30
0.0
 10
87.7153442234
 20
130.1853102398
 30
0.0
 10
87.5239086012
 20
129.3823415833
 30
0.0
 10
87.4849768971
 20
128.5495735748
 30
0.0
 10
87.5995300159
 20
127.7194638688
 30
0.0
 10
87.8615569463
 20
126.9232851037
 30
0.0
 10
88.2592985361
 20
126.1903445205
 30
0.0
 10
88.7759845163
 20
125.5472531562
 30
0.0
 10
89.3905761817
 20
125.0172760852
 30
0.0
 10
90.0792578731
 20
124.6208840475
 30
0.0
 10
90.8142601844
 20
124.3743700659
 30
0.0
 10
91.322418522
 20
124.3170678337
 30
0.0
 10
91.5723835563
 20
124.3170678337
 30
0.0
  0
SPLINE
  5
23E
100
AcDbEntity
  8
0
100
AcDbSpline
 62
7
  6
CONTINUOUS
 70
0
 71
3
 72
13
 73
9
 74
0
 42
0.0000001
 43
0.0000001
 44
0.0000000001
 40
0.0
 40
0.0
 40
0.0
 40
0.0
 40
0.2630685499
 40
0.5223557368
 40
0.6486503882
 40
0.7713549893
 40
0.8890704443
 40
1.0
 40
1.0
 40
1.0
 40
1.0
 10
50.0298904704
 20
132.7399565728
 30
0.0
 10
50.0426643271
 20
131.1919437811
 30
0.0
 10
50.0299801403
 20
128.1176888011
 30
0.0
 10
49.9211866182
 20
124.301929983
 30
0.0
 10
49.8070754529
 20
121.313030909
 30
0.0
 10
49.7213585038
 20
119.1567385737
 30
0.0
 10
49.6505888588
 20
117.0903834786
 30
0.0
 10
49.626602581
 20
115.7449169406
 30
0.0
 10
49.6266083733
 20
115.0921356881
 30
0.0
  0
SPLINE
  5
23F
100
AcDbEntity
  8
0
100
AcDbSpline
 62
7
  6
CONTINUOUS
 70
0
 71
3
 72
14
 73
10
 74
0
 42
0.0000001
 43
0.0000001
 44
0.0000000001
 40
0.0
 40
0.0
 40
0.0
 40
0.0
 40
0.1222909934
 40
0.2470601943
 40
0.4976346469
 40
0.6232590469
 40
0.7488315241
 40
0.8744041661
 40
1.0
 40
1.0
 40
1.0
 40
1.0
 10
90.3968016293
 20
132.7257585423
 30
0.0
 10
90.6348844044
 20
132.6739751941
 30
0.0
 10
91.1079142088
 20
132.5289242061
 30
0.0
 10
92.0049784292
 20
132.1017721456
 30
0.0
 10
92.8093017842
 20
131.4812384034
 30
0.0
 10
93.4385229407
 20
130.6995521353
 30
0.0
 10
93.8028543984
 20
130.0381769371
 30
0.0
 10
94.0345848878
 20
129.319274033
 30
0.0
 10
94.0878186825
 20
128.8173014863
 30
0.0
 10
94.0878186825
 20
128.5670678337
 30
0.0
  0
SPLINE
  5
240
100
AcDbEntity
  8
0
100
AcDbSpline
 62
7
  6
CONTINUOUS
 70
0
 71
3
 72
14
 73
10
 74
0
 42
0.0000001
 43
0.0000001
 44
0.0000000001
 40
0.0
 40
0.0
 40
0.0
 40
0.0
 40
0.1254532051
 40
0.2509137862
 40
0.3763493105
 40
0.5018116205
 40
0.7521134424
 40
0.8770021539
 40
1.0
 40
1.0
 40
1.0
 40
1.0
 10
94.0878186825
 20
128.5670678337
 30
0.0
 10
94.0878186825
 20
128.3244866478
 30
0.0
 10
94.0378293203
 20
127.8378932592
 30
0.0
 10
93.8197321951
 20
127.1390799282
 30
0.0
 10
93.4757175246
 20
126.4931583525
 30
0.0
 10
92.8796261875
 20
125.7245680924
 30
0.0
 10
92.113792722
 20
125.1058668463
 30
0.0
 10
91.2545142824
 20
124.6662760828
 30
0.0
 10
90.7992806109
 20
124.5092732179
 30
0.0
 10
90.5690859369
 20
124.4494807249
 30
0.0
  0
SPLINE
  5
241
100
AcDbEntity
  8
0
100
AcDbSpline
 62
7
  6
CONTINUOUS
 70
0
 71
3
 72
14
 73
10
 74
0
 42
0.0000001
 43
0.0000001
 44
0.0000000001
 40
0.0
 40
0.0
 40
0.0
 40
0.0
 40
0.1222909934
 40
0.2470601943
 40
0.4976346469
 40
0.6232590469
 40
0.7488315241
 40
0.8744041661
 40
1.0
 40
1.0
 40
1.0
 40
1.0
 10
80.1918210569
 20
132.7257585423
 30
0.0
 10
80.429903832
 20
132.6739751941
 30
0.0
 10
80.9029336364
 20
132.5289242061
 30
0.0
 10
81.7999978568
 20
132.1017721456
 30
0.0
 10
82.6043212118
 20
131.4812384034
 30
0.0
 10
83.2335423683
 20
130.6995521353
 30
0.0
 10
83.597873826
 20
130.0381769371
 30
0.0
 10
83.8296043154
 20
129.319274033
 30
0.0
 10
83.8828381101
 20
128.8173014863
 30
0.0
 10
83.8828381101
 20
128.5670678337
 30
0.0
  0
SPLINE
  5
242
100
AcDbEntity
  8
0
100
AcDbSpline
 62
7
  6
CONTINUOUS
 70
0
 71
3
 72
14
 73
10
 74
0
 42
0.0000001
 43
0.0000001
 44
0.0000000001
 40
0.0
 40
0.0
 40
0.0
 40
0.0
 40
0.1254532051
 40
0.2509137862
 40
0.3763493105
 40
0.5018116205
 40
0.7521134424
 40
0.8770021539
 40
1.0
 40
1.0
 40
1.0
 40
1.0
 10
83.8828381101
 20
128.5670678337
 30
0.0
 10
83.8828381101
 20
128.3244866478
 30
0.0
 10
83.8328487479
 20
127.8378932592
 30
0.0
 10
83.6147516227
 20
127.1390799282
 30
0.0
 10
83.2707369522
 20
126.4931583525
 30
0.0
 10
82.6746456151
 20
125.7245680924
 30
0.0
 10
81.9088121496
 20
125.1058668462
 30
0.0
 10
81.04953371
 20
124.6662760828
 30
0.0
 10
80.5943000385
 20
124.5092732179
 30
0.0
 10
80.3641053645
 20
124.4494807249
 30
0.0
  0
SPLINE
  5
243
100
AcDbEntity
  8
0
100
AcDbSpline
 62
7
  6
CONTINUOUS
 70
0
 71
3
 72
14
 73
10
 74
0
 42
0.0000001
 43
0.0000001
 44
0.0000000001
 40
0.0
 40
0.0
 40
0.0
 40
0.0
 40
0.1254532051
 40
0.2509137862
 40
0.3763493105
 40
0.5018116205
 40
0.7521134424
 40
0.8770021539
 40
1.0
 40
1.0
 40
1.0
 40
1.0
 10
73.6778575376
 20
128.5670678337
 30
0.0
 10
73.6778575376
 20
128.3244866478
 30
0.0
 10
73.6278681755
 20
127.8378932592
 30
0.0
 10
73.4097710503
 20
127.1390799282
 30
0.0
 10
73.0657563798
 20
126.4931583525
 30
0.0
 10
72.4696650427
 20
125.7245680924
 30
0.0
 10
71.7038315772
 20
125.1058668462
 30
0.0
 10
70.8445531376
 20
124.6662760828
 30
0.0
 10
70.3893194661
 20
124.5092732179
 30
0.0
 10
70.1591247921
 20
124.4494807249
 30
0.0
  0
SPLINE
  5
244
100
AcDbEntity
  8
0
100
AcDbSpline
 62
7
  6
CONTINUOUS
 70
0
 71
3
 72
14
 73
10
 74
0
 42
0.0000001
 43
0.0000001
 44
0.0000000001
 40
0.0
 40
0.0
 40
0.0
 40
0.0
 40
0.1222909934
 40
0.2470601943
 40
0.4976346469
 40
0.6232590469
 40
0.7488315241
 40
0.8744041661
 40
1.0
 40
1.0
 40
1.0
 40
1.0
 10
69.9868404845
 20
132.7257585423
 30
0.0
 10
70.2249232596
 20
132.6739751941
 30
0.0
 10
70.697953064
 20
132.5289242061
 30
0.0
 10
71.5950172844
 20
132.1017721456
 30
0.0
 10
72.3993406394
 20
131.4812384034
 30
0.0
 10
73.0285617959
 20
130.6995521353
 30
0.0
 10
73.3928932536
 20
130.0381769371
 30
0.0
 10
73.624623743
 20
129.319274033
 30
0.0
 10
73.6778575376
 20
128.8173014863
 30
0.0
 10
73.6778575376
 20
128.5670678337
 30
0.0
  0
SPLINE
  5
245
100
AcDbEntity
  8
0
100
AcDbSpline
 62
7
  6
CONTINUOUS
 70
0
 71
3
 72
28
 73
24
 74
0
 42
0.0000001
 43
0.0000001
 44
0.0000000001
 40
0.0
 40
0.0
 40
0.0
 40
0.0
 40
0.0641436744
 40
0.0962666286
 40
0.1283286219
 40
0.1602594515
 40
0.1919909825
 40
0.2545924194
 40
0.285427721
 40
0.315942217
 40
0.3461815042
 40
0.3762233306
 40
0.4061640266
 40
0.4361004147
 40
0.496215254
 40
0.5570314307
 40
0.6186505012
 40
0.6810355033
 40
0.7440775738
 40
0.8076396376
 40
0.8715804243
 40
0.9357536603
 40
1.0
 40
1.0
 40
1.0
 40
1.0
 10
79.8974556512
 20
107.5601228774
 30
0.0
 10
79.0367800547
 20
107.5601998284
 30
0.0
 10
77.7450536194
 20
107.5623963313
 30
0.0
 10
76.0232820977
 20
107.5870696276
 30
0.0
 10
74.7341137994
 20
107.6249904271
 30
0.0
 10
73.4512556002
 20
107.6937710596
 30
0.0
 10
71.7639238594
 20
107.8474620227
 30
0.0
 10
70.103626843
 20
108.1386765655
 30
0.0
 10
68.5091428766
 20
108.6180319114
 30
0.0
 10
67.366763723
 20
109.076034082
 30
0.0
 10
66.283691424
 20
109.638330172
 30
0.0
 10
65.269971489
 20
110.3039653928
 30
0.0
 10
64.3328108305
 20
111.0671762516
 30
0.0
 10
63.1887557101
 20
112.203207481
 30
0.0
 10
61.9556905124
 20
113.821876392
 30
0.0
 10
60.7724026302
 20
115.9739412324
 30
0.0
 10
59.8329346571
 20
118.2737434053
 30
0.0
 10
59.101505845
 20
120.6775405539
 30
0.0
 10
58.5471143816
 20
123.1540782827
 30
0.0
 10
58.147742345
 20
125.6808728111
 30
0.0
 10
57.8872447771
 20
128.2408461546
 30
0.0
 10
57.7655773407
 20
130.8201594211
 30
0.0
 10
57.7692267556
 20
132.5440968973
 30
0.0
 10
57.7927538702
 20
133.4058289434
 30
0.0
  0
SPLINE
  5
246
100
AcDbEntity
  8
0
100
AcDbSpline
 62
7
  6
CONTINUOUS
 70
0
 71
3
 72
23
 73
19
 74
0
 42
0.0000001
 43
0.0000001
 44
0.0000000001
 40
0.0
 40
0.0
 40
0.0
 40
0.0
 40
0.0589585002
 40
0.1173555818
 40
0.1760132489
 40
0.2357628429
 40
0.2971937425
 40
0.3605531474
 40
0.4256998572
 40
0.4921635621
 40
0.5592268607
 40
0.626079769
 40
0.6919772698
 40
0.7564062605
 40
0.8191672539
 40
0.8803730041
 40
0.9404572017
 40
1.0
 40
1.0
 40
1.0
 40
1.0
 10
71.1624224115
 20
124.3170678337
 30
0.0
 10
71.4071920088
 20
124.3170678337
 30
0.0
 10
71.8963372093
 20
124.3711432248
 30
0.0
 10
72.5910687287
 20
124.6170599383
 30
0.0
 10
73.2145166504
 20
125.0163008925
 30
0.0
 10
73.7442293833
 20
125.5504366689
 30
0.0
 10
74.1638774666
 20
126.1973910502
 30
0.0
 10
74.4620225109
 20
126.9321265887
 30
0.0
 10
74.630908833
 20
127.7277871567
 30
0.0
 10
74.6657498511
 20
128.5555734853
 30
0.0
 10
74.5654290815
 20
129.38506554
 30
0.0
 10
74.3325845905
 20
130.1851825463
 30
0.0
 10
73.9736415033
 20
130.9254353881
 30
0.0
 10
73.4987980582
 20
131.5769232716
 30
0.0
 10
72.9230226402
 20
132.1137053631
 30
0.0
 10
72.2656931876
 20
132.5142582318
 30
0.0
 10
71.5507404479
 20
132.7613852306
 30
0.0
 10
71.0523608311
 20
132.8170678337
 30
0.0
 10
70.8051654864
 20
132.8170678337
 30
0.0
  0
SPLINE
  5
247
100
AcDbEntity
  8
0
100
AcDbSpline
 62
7
  6
CONTINUOUS
 70
0
 71
3
 72
23
 73
19
 74
0
 42
0.0000001
 43
0.0000001
 44
0.0000000001
 40
0.0
 40
0.0
 40
0.0
 40
0.0
 40
0.0589585002
 40
0.1173555818
 40
0.1760132489
 40
0.2357628429
 40
0.2971937425
 40
0.3605531474
 40
0.4256998572
 40
0.4921635621
 40
0.5592268607
 40
0.626079769
 40
0.6919772698
 40
0.7564062605
 40
0.8191672539
 40
0.8803730041
 40
0.9404572017
 40
1.0
 40
1.0
 40
1.0
 40
1.0
 10
81.3674029839
 20
124.3170678337
 30
0.0
 10
81.6121725812
 20
124.3170678337
 30
0.0
 10
82.1013177817
 20
124.3711432248
 30
0.0
 10
82.7960493011
 20
124.6170599383
 30
0.0
 10
83.4194972228
 20
125.0163008925
 30
0.0
 10
83.9492099557
 20
125.5504366689
 30
0.0
 10
84.368858039
 20
126.1973910502
 30
0.0
 10
84.6670030833
 20
126.9321265887
 30
0.0
 10
84.8358894054
 20
127.7277871567
 30
0.0
 10
84.8707304236
 20
128.5555734853
 30
0.0
 10
84.770409654
 20
129.38506554
 30
0.0
 10
84.537565163
 20
130.1851825463
 30
0.0
 10
84.1786220757
 20
130.9254353881
 30
0.0
 10
83.7037786306
 20
131.5769232716
 30
0.0
 10
83.1280032126
 20
132.1137053631
 30
0.0
 10
82.47067376
 20
132.5142582318
 30
0.0
 10
81.7557210204
 20
132.7613852306
 30
0.0
 10
81.2573414035
 20
132.8170678337
 30
0.0
 10
81.0101460588
 20
132.8170678337
 30
0.0
  0
SPLINE
  5
248
100
AcDbEntity
  8
0
100
AcDbSpline
 62
7
  6
CONTINUOUS
 70
0
 71
3
 72
23
 73
19
 74
0
 42
0.0000001
 43
0.0000001
 44
0.0000000001
 40
0.0
 40
0.0
 40
0.0
 40
0.0
 40
0.0709127517
 40
0.1374044383
 40
0.1993212282
 40
0.2565716439
 40
0.3092298799
 40
0.357799965
 40
0.4035585994
 40
0.4485950746
 40
0.4956227771
 40
0.5472946012
 40
0.6054924397
 40
0.6710710278
 40
0.7440098629
 40
0.823723848
 40
0.9093580066
 40
1.0
 40
1.0
 40
1.0
 40
1.0
 10
97.9198395074
 20
107.560122618
 30
0.0
 10
98.2127020037
 20
107.5601625385
 30
0.0
 10
98.7801701568
 20
107.5611646048
 30
0.0
 10
99.6033227116
 20
107.5694743384
 30
0.0
 10
100.3698426127
 20
107.5913740304
 30
0.0
 10
101.0782369053
 20
107.6371402795
 30
0.0
 10
101.7280132145
 20
107.7218710646
 30
0.0
 10
102.318873971
 20
107.8703034783
 30
0.0
 10
102.8468710818
 20
108.1091335296
 30
0.0
 10
103.3054689549
 20
108.4548755295
 30
0.0
 10
103.6866082549
 20
108.9164755943
 30
0.0
 10
103.9896963212
 20
109.4932568845
 30
0.0
 10
104.2217601148
 20
110.1819612116
 30
0.0
 10
104.3918534684
 20
110.9776118073
 30
0.0
 10
104.509072522
 20
111.8718898608
 30
0.0
 10
104.5823281436
 20
112.8536068976
 30
0.0
 10
104.6201017791
 20
113.9103194411
 30
0.0
 10
104.6266173671
 20
114.6383596286
 30
0.0
 10
104.6266144507
 20
115.0127019024
 30
0.0
  0
SPLINE
  5
249
100
AcDbEntity
  8
0
100
AcDbSpline
 62
7
  6
CONTINUOUS
 70
0
 71
3
 72
9
 73
5
 74
0
 42
0.0000001
 43
0.0000001
 44
0.0000000001
 40
0.0
 40
0.0
 40
0.0
 40
0.0
 40
0.4909730692
 40
1.0
 40
1.0
 40
1.0
 40
1.0
 10
67.5347511957
 20
127.0149396338
 30
0.0
 10
67.5931499692
 20
127.2642056754
 30
0.0
 10
67.6798525022
 20
127.7797964196
 30
0.0
 10
67.7082145378
 20
128.301638155
 30
0.0
 10
67.7082145378
 20
128.5670678337
 30
0.0
  0
SPLINE
  5
24A
100
AcDbEntity
  8
0
100
AcDbSpline
 62
7
  6
CONTINUOUS
 70
0
 71
3
 72
9
 73
5
 74
0
 42
0.0000001
 43
0.0000001
 44
0.0000000001
 40
0.0
 40
0.0
 40
0.0
 40
0.0
 40
0.4909730692
 40
1.0
 40
1.0
 40
1.0
 40
1.0
 10
77.7397317681
 20
127.0149396338
 30
0.0
 10
77.7981305416
 20
127.2642056754
 30
0.0
 10
77.8848330746
 20
127.7797964196
 30
0.0
 10
77.9131951102
 20
128.301638155
 30
0.0
 10
77.9131951102
 20
128.5670678337
 30
0.0
  0
SPLINE
  5
24B
100
AcDbEntity
  8
0
100
AcDbSpline
 62
7
  6
CONTINUOUS
 70
0
 71
3
 72
23
 73
19
 74
0
 42
0.0000001
 43
0.0000001
 44
0.0000000001
 40
0.0
 40
0.0
 40
0.0
 40
0.0
 40
0.0589585002
 40
0.1173555818
 40
0.1760132489
 40
0.2357628429
 40
0.2971937425
 40
0.3605531474
 40
0.4256998572
 40
0.4921635621
 40
0.5592268607
 40
0.626079769
 40
0.6919772698
 40
0.7564062605
 40
0.8191672539
 40
0.8803730041
 40
0.9404572017
 40
1.0
 40
1.0
 40
1.0
 40
1.0
 10
91.5723835563
 20
124.3170678337
 30
0.0
 10
91.8171531536
 20
124.3170678337
 30
0.0
 10
92.3062983541
 20
124.3711432248
 30
0.0
 10
93.0010298735
 20
124.6170599383
 30
0.0
 10
93.6244777952
 20
125.0163008925
 30
0.0
 10
94.1541905281
 20
125.5504366689
 30
0.0
 10
94.5738386114
 20
126.1973910502
 30
0.0
 10
94.8719836557
 20
126.9321265887
 30
0.0
 10
95.0408699778
 20
127.7277871567
 30
0.0
 10
95.075710996
 20
128.5555734853
 30
0.0
 10
94.9753902264
 20
129.38506554
 30
0.0
 10
94.7425457354
 20
130.1851825463
 30
0.0
 10
94.3836026481
 20
130.9254353881
 30
0.0
 10
93.908759203
 20
131.5769232716
 30
0.0
 10
93.3329837851
 20
132.1137053631
 30
0.0
 10
92.6756543324
 20
132.5142582318
 30
0.0
 10
91.9607015928
 20
132.7613852306
 30
0.0
 10
91.4623219759
 20
132.8170678337
 30
0.0
 10
91.2151266312
 20
132.8170678337
 30
0.0
  0
SPLINE
  5
24C
100
AcDbEntity
  8
0
100
AcDbSpline
 62
7
  6
CONTINUOUS
 70
0
 71
3
 72
9
 73
5
 74
0
 42
0.0000001
 43
0.0000001
 44
0.0000000001
 40
0.0
 40
0.0
 40
0.0
 40
0.0
 40
0.4909730692
 40
1.0
 40
1.0
 40
1.0
 40
1.0
 10
87.9447123405
 20
127.0149396338
 30
0.0
 10
88.003111114
 20
127.2642056754
 30
0.0
 10
88.089813647
 20
127.7797964196
 30
0.0
 10
88.1181756826
 20
128.301638155
 30
0.0
 10
88.1181756826
 20
128.5670678337
 30
0.0
  0
SPLINE
  5
24D
100
AcDbEntity
  8
0
100
AcDbSpline
 62
7
  6
CONTINUOUS
 70
0
 71
3
 72
9
 73
5
 74
0
 42
0.0000001
 43
0.0000001
 44
0.0000000001
 40
0.0
 40
0.0
 40
0.0
 40
0.0
 40
0.5119365318
 40
1.0
 40
1.0
 40
1.0
 40
1.0
 10
67.7082145378
 20
128.5670678337
 30
0.0
 10
67.7082145378
 20
128.8754349062
 30
0.0
 10
67.6702669059
 20
129.4784067183
 30
0.0
 10
67.5533854329
 20
130.0716467998
 30
0.0
 10
67.4743732882
 20
130.3548171681
 30
0.0
  0
SPLINE
  5
24E
100
AcDbEntity
  8
0
100
AcDbSpline
 62
7
  6
CONTINUOUS
 70
0
 71
3
 72
9
 73
5
 74
0
 42
0.0000001
 43
0.0000001
 44
0.0000000001
 40
0.0
 40
0.0
 40
0.0
 40
0.0
 40
0.5119365318
 40
1.0
 40
1.0
 40
1.0
 40
1.0
 10
88.1181756826
 20
128.5670678337
 30
0.0
 10
88.1181756826
 20
128.8754349062
 30
0.0
 10
88.0802280507
 20
129.4784067183
 30
0.0
 10
87.9633465777
 20
130.0716467998
 30
0.0
 10
87.884334433
 20
130.3548171681
 30
0.0
  0
SPLINE
  5
24F
100
AcDbEntity
  8
0
100
AcDbSpline
 62
7
  6
CONTINUOUS
 70
0
 71
3
 72
9
 73
5
 74
0
 42
0.0000001
 43
0.0000001
 44
0.0000000001
 40
0.0
 40
0.0
 40
0.0
 40
0.0
 40
0.5119365318
 40
1.0
 40
1.0
 40
1.0
 40
1.0
 10
77.9131951102
 20
128.5670678337
 30
0.0
 10
77.9131951102
 20
128.8754349062
 30
0.0
 10
77.8752474783
 20
129.4784067183
 30
0.0
 10
77.7583660053
 20
130.0716467998
 30
0.0
 10
77.6793538606
 20
130.3548171681
 30
0.0
  0
ELLIPSE
  5
250
100
AcDbEntity
  8
0
100
AcDbEllipse
 62
7
  6
CONTINUOUS
 10
77.1266107464
 20
-47.955822377
 30
0.0
 11
-12.6992855656
 21
596.6611140042
 31
0.0
 40
0.0408811188
 41
1.2567459045
 42
1.2622500069
  0
ELLIPSE
  5
251
100
AcDbEntity
  8
0
100
AcDbEllipse
 62
7
  6
CONTINUOUS
 10
77.1266107464
 20
-97.6043183786
 30
0.0
 11
12.6913939723
 21
752.6249452855
 31
0.0
 40
0.0324149246
 41
-1.2582743831
 42
-1.2548364025
  0
ELLIPSE
  5
252
100
AcDbEntity
  8
0
100
AcDbEllipse
 62
7
  6
CONTINUOUS
 10
77.1266107464
 20
-97.6043183786
 30
0.0
 11
12.6913939723
 21
752.6249452855
 31
0.0
 40
0.0324149246
 41
1.2559296177
 42
1.2593675984
  0
ENDSEC
  0
SECTION
  2
OBJECTS
  0
DICTIONARY
  5
C
100
AcDbDictionary
280
0
281
1
  3
ACAD_GROUP
350
D
  3
ACAD_MLINESTYLE
350
17
  3
ACAD_LAYOUT
350
1A
  3
ACAD_PLOTSETTINGS
350
19
  3
ACAD_PLOTSTYLENAME
350
E
  0
DICTIONARY
  5
D
102
{ACAD_REACTORS
330
C
102
}
100
AcDbDictionary
280
0
281
1
  0
ACDBDICTIONARYWDFLT
  5
E
102
{ACAD_REACTORS
330
C
102
}
100
AcDbDictionary
281
1
  3
Normal
350
F
100
AcDbDictionaryWithDefault
340
F
  0
DICTIONARY
  5
17
102
{ACAD_REACTORS
330
C
102
}
100
AcDbDictionary
280
0
281
1
  3
Standard
350
18
  0
DICTIONARY
  5
19
102
{ACAD_REACTORS
330
C
102
}
100
AcDbDictionary
281
1
  0
DICTIONARY
  5
1A
102
{ACAD_REACTORS
330
C
102
}
100
AcDbDictionary
281
1
  3
Model
350
253
  3
Layout1
350
254
  0
ACDBPLACEHOLDER
  5
F
102
{ACAD_REACTORS
330
E
102
}
  0
MLINESTYLE
  5
18
102
{ACAD_REACTORS
330
17
102
}
100
AcDbMlineStyle
  2
STANDARD
 70
0
  3

 62
256
 51
90.0
 52
90.0
 71
2
 49
0.5
 62
256
  6
BYLAYER
 49
-0.5
 62
256
  6
BYLAYER
  0
LAYOUT
  5
253
102
{ACAD_REACTORS
330
1A
102
}
100
AcDbPlotSettings
  1

  2
none_device
  4

  6

 40
0.0
 41
0.0
 42
0.0
 43
0.0
 44
210.0
 45
297.0
 46
0.0
 47
0.0
 48
0.0
 49
0.0
140
0.0
141
0.0
142
1.0
143
1.0
 70
1024
 72
1
 73
0
 74
0
  7

 75
0
147
1.0
148
0.0
149
0.0
100
AcDbLayout
  1
Model
 70
0
 71
0
 10
0.0
 20
0.0
 11
210.0
 21
297.0
 12
0.0
 22
0.0
 32
0.0
 14
0.0
 24
0.0
 34
0.0
 15
0.0
 25
0.0
 35
0.0
146
0.0
 13
0.0
 23
0.0
 33
0.0
 16
1.0
 26
0.0
 36
0.0
 17
0.0
 27
1.0
 37
0.0
 76
0
330
210
345
0
346
0
  0
LAYOUT
  5
254
102
{ACAD_REACTORS
330
1A
102
}
100
AcDbPlotSettings
  1

  2
none_device
  4

  6

 40
0.0
 41
0.0
 42
0.0
 43
0.0
 44
210.0
 45
297.0
 46
0.0
 47
0.0
 48
0.0
 49
0.0
140
0.0
141
0.0
142
1.0
143
1.0
 70
0
 72
1
 73
0
 74
0
  7

 75
0
147
1.0
148
0.0
149
0.0
100
AcDbLayout
  1
Layout1
 70
0
 71
1
 10
0.0
 20
0.0
 11
210.0
 21
297.0
 12
0.0
 22
0.0
 32
0.0
 14
0.0
 24
0.0
 34
0.0
 15
0.0
 25
0.0
 35
0.0
146
0.0
 13
0.0
 23
0.0
 33
0.0
 16
1.0
 26
0.0
 36
0.0
 17
0.0
 27
1.0
 37
0.0
 76
0
330
211
345
0
346
0
  0
ENDSEC
  0
EOF
