999
DXF file: C:\Users\sesa63760\Dev\_Creo\CAD\MCADUE0002560_3D-CAD\drw0001_4.dxf
999
Pro/ENGINEER 2019471 by Parametric Technology Corporation
  0
SECTION
  2
HEADER
  9
$ACADVER
  1
AC1024
  9
$DWGCODEPAGE
  3
ANSI_1252
  9
$EXTMAX
 10
248.9986067572
 20
352.1551724138
 30
0.0
  9
$EXTMIN
 10
0.0
 20
0.0
 30
0.0
  9
$LIMMIN
 10
0.0
 20
0.0
  9
$LIMMAX
 10
248.9986067572
 20
352.1551724138
  9
$VIEWCTR
 10
124.4993033786
 20
176.0775862069
  9
$VIEWSIZE
 40
352.1551724138
  9
$CLAYER
  8
0
  9
$LTSCALE
 40
22.9553001277
  9
$CELTYPE
  6
BYLAYER
  9
$DIMSCALE
 40
1.0
  9
$DIMASZ
 40
2.9642691281
  9
$DIMEXO
 40
1.0
  9
$DIMDLI
 40
15.8600255428
  9
$DIMEXE
 40
1.0
  9
$DIMCEN
 40
3.7563218391
  9
$DIMLFAC
 40
1.0
  9
$DIMBLK
  1
_FILLED
  9
$DIMALT
 70
0
  9
$DIMALTF
 40
0.0393700787
  9
$DIMTXT
 40
4.1499767793
  9
$DIMTOL
 70
1
  9
$DIMLIM
 70
0
  9
$DIMTFAC
 40
1.0
  9
$DIMTP
 40
0.01
  9
$DIMTM
 40
0.01
  9
$DIMGAP
 40
0.625
  9
$DIMDSEP
 70
46
  9
$AUNITS
 70
0
  9
$PDMODE
 70
3
  9
$PDSIZE
 40
0.3125
  9
$HANDSEED
  5
2CE
  9
$TILEMODE
 70
1
  9
$MEASUREMENT
 70
1
  9
$INSUNITS
 70
4
  0
ENDSEC
  0
SECTION
  2
CLASSES
  0
CLASS
  1
ACDBDICTIONARYWDFLT
  2
AcDbDictionaryWithDefault
  3
AutoCAD 2000
 90
0
 91
1
280
0
281
0
  0
CLASS
  1
ACDBPLACEHOLDER
  2
AcDbPlaceHolder
  3
AutoCAD 2000
 90
0
 91
1
280
0
281
0
  0
CLASS
  1
LAYOUT
  2
AcDbLayout
  3
AutoCAD 2000
 90
0
 91
0
280
0
281
0
  0
ENDSEC
  0
SECTION
  2
TABLES
  0
TABLE
  2
VPORT
  5
8
100
AcDbSymbolTable
 70
2
  0
VPORT
  5
1F4
100
AcDbSymbolTableRecord
100
AcDbViewportTableRecord
  2
*ACTIVE
 70
0
 10
0.0
 20
0.0
 11
1.0
 21
1.0
 12
124.4993033786
 22
176.0775862069
 13
0.0
 23
0.0
 14
1.0
 24
1.0
 15
0.0
 25
0.0
 16
0.0
 26
0.0
 36
1.0
 17
0.0
 27
0.0
 37
0.0
 40
352.1551724138
 41
0.7070707071
 42
50.0
 43
0.0
 44
0.0
 50
0.0
 51
0.0
 71
0
 72
100
 73
1
 74
1
 75
0
 76
0
 77
0
 78
0
  0
ENDTAB
  0
TABLE
  2
LTYPE
  5
5
100
AcDbSymbolTable
 70
6
  0
LTYPE
  5
14
100
AcDbSymbolTableRecord
100
AcDbLinetypeTableRecord
  2
BYBLOCK
 70
0
  3

 72
65
 73
0
 40
0.0
  0
LTYPE
  5
15
100
AcDbSymbolTableRecord
100
AcDbLinetypeTableRecord
  2
BYLAYER
 70
0
  3

 72
65
 73
0
 40
0.0
  0
LTYPE
  5
16
100
AcDbSymbolTableRecord
100
AcDbLinetypeTableRecord
  2
CONTINUOUS
 70
64
  3
Solid line
 72
65
 73
0
 40
0.0
  0
LTYPE
  5
1F5
100
AcDbSymbolTableRecord
100
AcDbLinetypeTableRecord
  2
CENTER
 70
64
  3
____ _ ____ _ ____ _ ____ _ ____ _ ____ _ ____
 72
65
 73
4
 40
0.6
 49
0.375
 74
0
 49
-0.075
 74
0
 49
0.075
 74
0
 49
-0.075
 74
0
  0
LTYPE
  5
1F6
100
AcDbSymbolTableRecord
100
AcDbLinetypeTableRecord
  2
HIDDEN
 70
64
  3
- - - - - - - - - - - - - - - - - - - -
 72
65
 73
2
 40
0.2
 49
0.1
 74
0
 49
-0.1
 74
0
  0
LTYPE
  5
1F7
100
AcDbSymbolTableRecord
100
AcDbLinetypeTableRecord
  2
PHANTOM
 70
64
  3
_____ _ _ _____ _ _ _____ _ _ _____
 72
65
 73
6
 40
0.8
 49
0.45
 74
0
 49
-0.05
 74
0
 49
0.1
 74
0
 49
-0.05
 74
0
 49
0.1
 74
0
 49
-0.05
 74
0
  0
LTYPE
  5
1F8
100
AcDbSymbolTableRecord
100
AcDbLinetypeTableRecord
  2
DOT
 70
64
  3
. . . . . . . . . . . . . . . . . . . .
 72
65
 73
2
 40
0.2
 49
0.1
 74
0
 49
-0.1
 74
0
  0
LTYPE
  5
1F9
100
AcDbSymbolTableRecord
100
AcDbLinetypeTableRecord
  2
DASHED
 70
64
  3
- - - - - - - - - - - - - - - - - - - -
 72
65
 73
2
 40
0.2
 49
0.1
 74
0
 49
-0.1
 74
0
  0
ENDTAB
  0
TABLE
  2
LAYER
  5
2
100
AcDbSymbolTable
 70
36
  0
LAYER
  5
10
100
AcDbSymbolTableRecord
100
AcDbLayerTableRecord
  2
0
 70
0
 62
7
  6
CONTINUOUS
370
-3
390
F
  0
LAYER
  5
1FA
100
AcDbSymbolTableRecord
100
AcDbLayerTableRecord
  2
DEFAULT_1
 70
0
 62
7
  6
CENTER
370
-3
390
F
  0
LAYER
  5
1FB
100
AcDbSymbolTableRecord
100
AcDbLayerTableRecord
  2
DEFAULT_2
 70
0
 62
8
  6
HIDDEN
370
-3
390
F
  0
LAYER
  5
1FC
100
AcDbSymbolTableRecord
100
AcDbLayerTableRecord
  2
DEFAULT_3
 70
0
 62
7
  6
PHANTOM
370
-3
390
F
  0
LAYER
  5
1FD
100
AcDbSymbolTableRecord
100
AcDbLayerTableRecord
  2
00_COMPONENTS
 70
0
 62
7
  6
CONTINUOUS
370
-3
390
F
  0
LAYER
  5
1FE
100
AcDbSymbolTableRecord
100
AcDbLayerTableRecord
  2
01_1_DEFAULT_DATUMS
 70
0
 62
7
  6
CONTINUOUS
370
-3
390
F
  0
LAYER
  5
1FF
100
AcDbSymbolTableRecord
100
AcDbLayerTableRecord
  2
01_PLANES
 70
0
 62
7
  6
CONTINUOUS
370
-3
390
F
  0
LAYER
  5
200
100
AcDbSymbolTableRecord
100
AcDbLayerTableRecord
  2
02_COORD_SYS
 70
0
 62
7
  6
CONTINUOUS
370
-3
390
F
  0
LAYER
  5
201
100
AcDbSymbolTableRecord
100
AcDbLayerTableRecord
  2
03_AXES
 70
0
 62
7
  6
CONTINUOUS
370
-3
390
F
  0
LAYER
  5
202
100
AcDbSymbolTableRecord
100
AcDbLayerTableRecord
  2
04_POINTS
 70
0
 62
7
  6
CONTINUOUS
370
-3
390
F
  0
LAYER
  5
203
100
AcDbSymbolTableRecord
100
AcDbLayerTableRecord
  2
05_CURVES
 70
0
 62
7
  6
CONTINUOUS
370
-3
390
F
  0
LAYER
  5
204
100
AcDbSymbolTableRecord
100
AcDbLayerTableRecord
  2
06_SURFS
 70
0
 62
7
  6
CONTINUOUS
370
-3
390
F
  0
LAYER
  5
205
100
AcDbSymbolTableRecord
100
AcDbLayerTableRecord
  2
07_COSMETICS
 70
0
 62
7
  6
CONTINUOUS
370
-3
390
F
  0
LAYER
  5
206
100
AcDbSymbolTableRecord
100
AcDbLayerTableRecord
  2
10_NOTES
 70
0
 62
7
  6
CONTINUOUS
370
-3
390
F
  0
LAYER
  5
207
100
AcDbSymbolTableRecord
100
AcDbLayerTableRecord
  2
11_NOTES_PUB
 70
0
 62
7
  6
CONTINUOUS
370
-3
390
F
  0
LAYER
  5
208
100
AcDbSymbolTableRecord
100
AcDbLayerTableRecord
  2
13_REF_GTOL
 70
0
 62
7
  6
CONTINUOUS
370
-3
390
F
  0
LAYER
  5
209
100
AcDbSymbolTableRecord
100
AcDbLayerTableRecord
  2
16_MISC
 70
0
 62
7
  6
CONTINUOUS
370
-3
390
F
  0
LAYER
  5
20A
100
AcDbSymbolTableRecord
100
AcDbLayerTableRecord
  2
17_NO_PRINT
 70
0
 62
7
  6
CONTINUOUS
370
-3
390
F
  0
LAYER
  5
20B
100
AcDbSymbolTableRecord
100
AcDbLayerTableRecord
  2
18_DATUM_CAMS_JOINTS
 70
0
 62
7
  6
CONTINUOUS
370
-3
390
F
  0
LAYER
  5
20C
100
AcDbSymbolTableRecord
100
AcDbLayerTableRecord
  2
19_DATUM_FUNCTIONAL
 70
0
 62
7
  6
CONTINUOUS
370
-3
390
F
  0
LAYER
  5
20D
100
AcDbSymbolTableRecord
100
AcDbLayerTableRecord
  2
20_DATUM_KINEMATIC_SCHEME
 70
0
 62
7
  6
CONTINUOUS
370
-3
390
F
  0
ENDTAB
  0
TABLE
  2
STYLE
  5
3
100
AcDbSymbolTable
 70
1
  0
STYLE
  5
11
100
AcDbSymbolTableRecord
100
AcDbTextStyleTableRecord
  2
STANDARD
 70
0
 40
0.0
 41
0.8
 50
0.0
 71
0
 42
0.2
  3
txt
  4

  0
STYLE
  5
20E
100
AcDbSymbolTableRecord
100
AcDbTextStyleTableRecord
  2
TEXTSTYLE_1
 70
0
 40
0.0
 41
0.8
 50
0.0
 71
0
 42
0.2
  3
gdt
  4

  0
ENDTAB
  0
TABLE
  2
VIEW
  5
6
100
AcDbSymbolTable
 70
0
  0
ENDTAB
  0
TABLE
  2
UCS
  5
7
100
AcDbSymbolTable
 70
0
  0
ENDTAB
  0
TABLE
  2
APPID
  5
9
100
AcDbSymbolTable
 70
1
  0
APPID
  5
20F
100
AcDbSymbolTableRecord
100
AcDbRegAppTableRecord
  2
ACAD
 70
0
  0
ENDTAB
  0
TABLE
  2
BLOCK_RECORD
  5
1
100
AcDbSymbolTable
 70
0
  0
BLOCK_RECORD
  5
210
100
AcDbSymbolTableRecord
100
AcDbBlockTableRecord
  2
*Model_Space
  0
BLOCK_RECORD
  5
211
100
AcDbSymbolTableRecord
100
AcDbBlockTableRecord
  2
*Paper_Space
  0
BLOCK_RECORD
  5
212
100
AcDbSymbolTableRecord
100
AcDbBlockTableRecord
  2
_FILLED
  0
ENDTAB
  0
TABLE
  2
DIMSTYLE
  5
A
100
AcDbSymbolTable
 70
1
100
AcDbDimStyleTable
 71
0
  0
DIMSTYLE
105
213
100
AcDbSymbolTableRecord
100
AcDbDimStyleTableRecord
  2
STANDARD
 70
0
  3

  4

 40
1.0
 41
2.9642691281
 42
1.0
 43
0.38
 44
1.0
 45
0.0
 46
0.0
 47
0.01
 48
0.01
140
4.1499767793
141
0.09
142
0.0
143
25.4
144
1.0
145
0.0
146
1.0
147
0.625
 71
1
 72
0
 73
0
 74
0
 75
0
 76
0
 77
1
 78
8
 79
2
170
0
171
1
172
0
173
0
174
0
175
0
176
0
177
0
178
0
270
2
179
2
271
2
272
2
273
2
274
2
275
0
280
0
281
0
282
0
283
1
284
8
285
0
286
0
287
3
288
0
340
11
278
46
341
212
342
212
343
212
344
212
  0
ENDTAB
  0
ENDSEC
  0
SECTION
  2
BLOCKS
  0
BLOCK
  5
20
100
AcDbEntity
  8
0
100
AcDbBlockBegin
  2
*Model_Space
 70
0
 10
0.0
 20
0.0
 30
0.0
  3
*Model_Space
  1

  0
ENDBLK
  5
21
100
AcDbEntity
  8
0
100
AcDbBlockEnd
  0
BLOCK
  5
1C
100
AcDbEntity
  8
0
100
AcDbBlockBegin
  2
*Paper_Space
 70
0
 10
0.0
 20
0.0
 30
0.0
  3
*Paper_Space
  1

  0
ENDBLK
  5
1D
100
AcDbEntity
  8
0
100
AcDbBlockEnd
  0
BLOCK
  5
214
100
AcDbEntity
  8
0
100
AcDbBlockBegin
  2
_FILLED
 70
64
 10
0.0
 20
0.0
  3
_FILLED
  1

  0
SOLID
  5
215
100
AcDbEntity
  8
0
  6
BYBLOCK
 62
0
100
AcDbTrace
 10
0.0
 20
0.0
 11
-1.0
 21
0.25
 12
-1.0
 22
-0.25
 13
-1.0
 23
-0.25
  0
ENDBLK
  5
216
100
AcDbEntity
  8
0
  6
BYBLOCK
 62
0
100
AcDbBlockEnd
  0
ENDSEC
  0
SECTION
  2
ENTITIES
  0
LINE
  5
217
100
AcDbEntity
  8
0
100
AcDbLine
 62
7
  6
CONTINUOUS
 10
27.7320619993
 20
216.0228598319
 11
27.7320619993
 21
115.5228598319
  0
LINE
  5
218
100
AcDbEntity
  8
0
100
AcDbLine
 62
7
  6
CONTINUOUS
 10
28.7320619993
 20
216.0228598319
 11
28.7320619993
 21
115.5228598319
  0
LINE
  5
219
100
AcDbEntity
  8
0
100
AcDbLine
 62
7
  6
CONTINUOUS
 10
28.7320619993
 20
221.5228598319
 11
28.7320619993
 21
228.9040576784
  0
LINE
  5
21A
100
AcDbEntity
  8
0
100
AcDbLine
 62
7
  6
CONTINUOUS
 10
29.7320619993
 20
221.5228598319
 11
29.7320619993
 21
228.9040576784
  0
LINE
  5
21B
100
AcDbEntity
  8
0
100
AcDbLine
 62
7
  6
CONTINUOUS
 10
29.7320619993
 20
230.636108486
 11
34.2679603842
 21
233.2549106395
  0
LINE
  5
21C
100
AcDbEntity
  8
0
100
AcDbLine
 62
7
  6
CONTINUOUS
 10
33.2679603842
 20
231.5228598319
 11
30.2320619993
 21
229.7700830822
  0
LINE
  5
21D
100
AcDbEntity
  8
0
100
AcDbLine
 62
7
  6
CONTINUOUS
 10
37.7099239127
 20
219.1965080096
 11
37.5129690426
 21
219.0228619518
  0
LINE
  5
21E
100
AcDbEntity
  8
0
100
AcDbLine
 62
7
  6
CONTINUOUS
 10
46.9122677489
 20
236.4692239604
 11
46.9124095796
 21
236.4645274728
  0
LINE
  5
21F
100
AcDbEntity
  8
0
100
AcDbLine
 62
7
  6
CONTINUOUS
 10
46.9120864678
 20
236.4771389478
 11
46.9122677489
 21
236.4692239604
  0
LINE
  5
220
100
AcDbEntity
  8
0
100
AcDbLine
 62
7
  6
CONTINUOUS
 10
47.2170619993
 20
235.2462684096
 11
47.2170619993
 21
236.4737044158
  0
LINE
  5
221
100
AcDbEntity
  8
0
100
AcDbLine
 62
7
  6
CONTINUOUS
 10
48.2470619993
 20
235.2462684096
 11
48.2470619993
 21
236.4737044158
  0
LINE
  5
222
100
AcDbEntity
  8
0
100
AcDbLine
 62
7
  6
CONTINUOUS
 10
48.5518562497
 20
236.4692239604
 11
48.5520375308
 21
236.4771389478
  0
LINE
  5
223
100
AcDbEntity
  8
0
100
AcDbLine
 62
7
  6
CONTINUOUS
 10
48.5518562497
 20
236.4692239604
 11
48.551714419
 21
236.4645274728
  0
LINE
  5
224
100
AcDbEntity
  8
0
100
AcDbLine
 62
7
  6
CONTINUOUS
 10
42.219397834
 20
235.2361978765
 11
38.5037316711
 21
234.0102716254
  0
LINE
  5
225
100
AcDbEntity
  8
0
100
AcDbLine
 62
7
  6
CONTINUOUS
 10
36.7251161597
 20
219.1965080096
 11
36.3149175668
 21
221.5228598319
  0
LINE
  5
226
100
AcDbEntity
  8
0
100
AcDbLine
 62
7
  6
CONTINUOUS
 10
37.2997253198
 20
221.5228598319
 11
37.7099239127
 21
219.1965080096
  0
LINE
  5
227
100
AcDbEntity
  8
0
100
AcDbLine
 62
7
  6
CONTINUOUS
 10
51.2320619993
 20
230.5228598319
 11
51.2320619993
 21
222.5228598319
  0
LINE
  5
228
100
AcDbEntity
  8
0
100
AcDbLine
 62
7
  6
CONTINUOUS
 10
53.7320619993
 20
230.5228598319
 11
53.7320619993
 21
222.5228598319
  0
LINE
  5
229
100
AcDbEntity
  8
0
100
AcDbLine
 62
7
  6
CONTINUOUS
 10
56.2320619993
 20
230.5228598319
 11
56.2320619993
 21
222.5228598319
  0
LINE
  5
22A
100
AcDbEntity
  8
0
100
AcDbLine
 62
7
  6
CONTINUOUS
 10
29.7320619993
 20
113.5228598319
 11
225.7320619993
 21
113.5228598319
  0
LINE
  5
22B
100
AcDbEntity
  8
0
100
AcDbLine
 62
7
  6
CONTINUOUS
 10
227.7320619993
 20
115.5228598319
 11
27.7320619993
 21
115.5228598319
  0
LINE
  5
22C
100
AcDbEntity
  8
0
100
AcDbLine
 62
7
  6
CONTINUOUS
 10
31.7679603842
 20
230.6568344281
 11
31.2679603842
 21
231.5228598319
  0
LINE
  5
22D
100
AcDbEntity
  8
0
100
AcDbLine
 62
7
  6
CONTINUOUS
 10
34.4553376563
 20
232.930363684
 11
34.2679603842
 21
233.2549106395
  0
LINE
  5
22E
100
AcDbEntity
  8
0
100
AcDbLine
 62
7
  6
CONTINUOUS
 10
202.219397834
 20
235.2361978765
 11
198.5037316711
 21
234.0102716254
  0
LINE
  5
22F
100
AcDbEntity
  8
0
100
AcDbLine
 62
7
  6
CONTINUOUS
 10
53.2447261646
 20
235.2361978765
 11
56.9603923275
 21
234.0102716254
  0
LINE
  5
230
100
AcDbEntity
  8
0
100
AcDbLine
 62
7
  6
CONTINUOUS
 10
202.2820619993
 20
235.2462684096
 11
202.219397834
 21
235.2361978765
  0
LINE
  5
231
100
AcDbEntity
  8
0
100
AcDbLine
 62
7
  6
CONTINUOUS
 10
27.7320619993
 20
216.0228598319
 11
227.7320619993
 21
216.0228598319
  0
LINE
  5
232
100
AcDbEntity
  8
0
100
AcDbLine
 62
7
  6
CONTINUOUS
 10
225.7320619993
 20
218.0228598319
 11
29.7320619993
 21
218.0228598319
  0
LINE
  5
233
100
AcDbEntity
  8
0
100
AcDbLine
 62
7
  6
CONTINUOUS
 10
217.7542000859
 20
219.1965080096
 11
37.7099239127
 21
219.1965080096
  0
LINE
  5
234
100
AcDbEntity
  8
0
100
AcDbLine
 62
7
  6
CONTINUOUS
 10
28.7320619993
 20
221.5228598319
 11
226.7320619993
 21
221.5228598319
  0
LINE
  5
235
100
AcDbEntity
  8
0
100
AcDbLine
 62
7
  6
CONTINUOUS
 10
51.2320619993
 20
222.5228598319
 11
56.2320619993
 21
222.5228598319
  0
LINE
  5
236
100
AcDbEntity
  8
0
100
AcDbLine
 62
7
  6
CONTINUOUS
 10
53.1820619993
 20
235.2462684096
 11
53.2447261646
 21
235.2361978765
  0
LWPOLYLINE
  5
237
100
AcDbEntity
  8
0
100
AcDbPolyline
 62
7
  6
CONTINUOUS
 90
3
 70
0
 10
50.3404781121
 20
236.2359364745
 10
50.3267213728
 20
236.2384984783
 10
50.3006187383
 20
236.2406858691
  0
LINE
  5
238
100
AcDbEntity
  8
0
100
AcDbLine
 62
7
  6
CONTINUOUS
 10
221.0087863423
 20
232.930363684
 11
221.1961636144
 21
233.2549106395
  0
LINE
  5
239
100
AcDbEntity
  8
0
100
AcDbLine
 62
7
  6
CONTINUOUS
 10
224.1961636144
 20
231.5228598319
 11
223.6961636144
 21
230.6568344281
  0
LWPOLYLINE
  5
23A
100
AcDbEntity
  8
0
100
AcDbPolyline
 62
7
  6
CONTINUOUS
 90
3
 70
0
 10
205.1635052603
 20
236.2406858691
 10
205.1374028589
 20
236.2384985133
 10
205.1236458865
 20
236.2359364745
  0
LINE
  5
23B
100
AcDbEntity
  8
0
100
AcDbLine
 62
7
  6
CONTINUOUS
 10
51.2320619993
 20
230.5228598319
 11
56.2320619993
 21
230.5228598319
  0
LINE
  5
23C
100
AcDbEntity
  8
0
100
AcDbLine
 62
7
  6
CONTINUOUS
 10
37.7099239127
 20
219.3701561873
 11
36.7251161597
 21
219.1965080096
  0
LINE
  5
23D
100
AcDbEntity
  8
0
100
AcDbLine
 62
7
  6
CONTINUOUS
 10
212.8673142723
 20
235.3683972679
 11
212.8676271796
 21
235.3684105455
  0
LINE
  5
23E
100
AcDbEntity
  8
0
100
AcDbLine
 62
7
  6
CONTINUOUS
 10
45.2024150385
 20
236.241377367
 11
45.1722865686
 21
236.2408422
  0
LINE
  5
23F
100
AcDbEntity
  8
0
100
AcDbLine
 62
7
  6
CONTINUOUS
 10
45.1722865686
 20
236.2408422
 11
45.1635064707
 21
236.2406858986
  0
LINE
  5
240
100
AcDbEntity
  8
0
100
AcDbLine
 62
7
  6
CONTINUOUS
 10
45.1721788484
 20
236.2408405123
 11
45.1635064707
 21
236.2406858986
  0
LINE
  5
241
100
AcDbEntity
  8
0
100
AcDbLine
 62
7
  6
CONTINUOUS
 10
205.1236527675
 20
236.2359383513
 11
205.1795459802
 21
236.2369298749
  0
LINE
  5
242
100
AcDbEntity
  8
0
100
AcDbLine
 62
7
  6
CONTINUOUS
 10
205.2024148554
 20
236.2413773513
 11
205.1635064707
 21
236.2406858986
  0
LINE
  5
243
100
AcDbEntity
  8
0
100
AcDbLine
 62
7
  6
CONTINUOUS
 10
205.1236713082
 20
236.2359421762
 11
205.1635769279
 21
236.2366465444
  0
LINE
  5
244
100
AcDbEntity
  8
0
100
AcDbLine
 62
7
  6
CONTINUOUS
 10
45.1236727792
 20
236.2359425037
 11
45.1635780893
 21
236.2366462494
  0
LINE
  5
245
100
AcDbEntity
  8
0
100
AcDbLine
 62
7
  6
CONTINUOUS
 10
45.1236546249
 20
236.2359387736
 11
45.1582268337
 21
236.2365509328
  0
LINE
  5
246
100
AcDbEntity
  8
0
100
AcDbLine
 62
7
  6
CONTINUOUS
 10
45.1635780893
 20
236.2366462494
 11
45.1795433218
 21
236.2369292957
  0
LINE
  5
247
100
AcDbEntity
  8
0
100
AcDbLine
 62
7
  6
CONTINUOUS
 10
45.1582268337
 20
236.2365509328
 11
45.1795433218
 21
236.2369292957
  0
LINE
  5
248
100
AcDbEntity
  8
0
100
AcDbLine
 62
7
  6
CONTINUOUS
 10
33.2679603842
 20
231.5228598319
 11
222.1961636144
 21
231.5228598319
  0
LINE
  5
249
100
AcDbEntity
  8
0
100
AcDbLine
 62
7
  6
CONTINUOUS
 10
220.1961636144
 20
233.5228598319
 11
35.2679603842
 21
233.5228598319
  0
LINE
  5
24A
100
AcDbEntity
  8
0
100
AcDbLine
 62
7
  6
CONTINUOUS
 10
216.9603923275
 20
234.0102716254
 11
198.5037316711
 21
234.0102716254
  0
LINE
  5
24B
100
AcDbEntity
  8
0
100
AcDbLine
 62
7
  6
CONTINUOUS
 10
56.9603923275
 20
234.0102716254
 11
38.5037316711
 21
234.0102716254
  0
LINE
  5
24C
100
AcDbEntity
  8
0
100
AcDbLine
 62
7
  6
CONTINUOUS
 10
42.219397834
 20
235.2361978765
 11
53.2445429901
 21
235.2361978765
  0
LINE
  5
24D
100
AcDbEntity
  8
0
100
AcDbLine
 62
7
  6
CONTINUOUS
 10
202.219397834
 20
235.2361978765
 11
213.2445429901
 21
235.2361978765
  0
LINE
  5
24E
100
AcDbEntity
  8
0
100
AcDbLine
 62
7
  6
CONTINUOUS
 10
213.1820619993
 20
235.2462684096
 11
202.2820619993
 21
235.2462684096
  0
LINE
  5
24F
100
AcDbEntity
  8
0
100
AcDbLine
 62
7
  6
CONTINUOUS
 10
53.1820619993
 20
235.2462684096
 11
42.2820619993
 21
235.2462684096
  0
LINE
  5
250
100
AcDbEntity
  8
0
100
AcDbLine
 62
7
  6
CONTINUOUS
 10
42.5964968191
 20
235.3684105455
 11
47.2170619993
 21
235.3683972679
  0
LINE
  5
251
100
AcDbEntity
  8
0
100
AcDbLine
 62
7
  6
CONTINUOUS
 10
208.2470619993
 20
235.3683972679
 11
212.8673142723
 21
235.3683972679
  0
LINE
  5
252
100
AcDbEntity
  8
0
100
AcDbLine
 62
7
  6
CONTINUOUS
 10
48.2470619993
 20
235.3683972679
 11
52.867591373
 21
235.3684275004
  0
LINE
  5
253
100
AcDbEntity
  8
0
100
AcDbLine
 62
7
  6
CONTINUOUS
 10
202.5965326256
 20
235.3684275004
 11
207.2170619993
 21
235.3683972679
  0
LINE
  5
254
100
AcDbEntity
  8
0
100
AcDbLine
 62
7
  6
CONTINUOUS
 10
50.2845755246
 20
236.2369304184
 11
50.3404526881
 21
236.2359421766
  0
LINE
  5
255
100
AcDbEntity
  8
0
100
AcDbLine
 62
7
  6
CONTINUOUS
 10
50.3058994762
 20
236.2365517317
 11
50.3404712298
 21
236.2359383516
  0
LINE
  5
256
100
AcDbEntity
  8
0
100
AcDbLine
 62
7
  6
CONTINUOUS
 10
50.3006187383
 20
236.2406858691
 11
50.276906198
 21
236.2411074807
  0
LINE
  5
257
100
AcDbEntity
  8
0
100
AcDbLine
 62
7
  6
CONTINUOUS
 10
50.276906273
 20
236.2411074794
 11
50.26614578
 21
236.2412986475
  0
LINE
  5
258
100
AcDbEntity
  8
0
100
AcDbLine
 62
7
  6
CONTINUOUS
 10
50.276906273
 20
236.2411074794
 11
50.2656967384
 21
236.2413064746
  0
LINE
  5
259
100
AcDbEntity
  8
0
100
AcDbLine
 62
7
  6
CONTINUOUS
 10
210.3059107775
 20
236.2365510974
 11
210.3404512201
 21
236.2359425036
  0
LINE
  5
25A
100
AcDbEntity
  8
0
100
AcDbLine
 62
7
  6
CONTINUOUS
 10
210.2845779975
 20
236.2369298795
 11
210.3342527653
 21
236.2360489118
  0
LINE
  5
25B
100
AcDbEntity
  8
0
100
AcDbLine
 62
7
  6
CONTINUOUS
 10
210.2845779975
 20
236.2369298795
 11
210.3059107775
 21
236.2365510974
  0
LINE
  5
25C
100
AcDbEntity
  8
0
100
AcDbLine
 62
7
  6
CONTINUOUS
 10
210.2918352953
 20
236.2408424546
 11
210.2661341359
 21
236.2412986916
  0
LINE
  5
25D
100
AcDbEntity
  8
0
100
AcDbLine
 62
7
  6
CONTINUOUS
 10
210.2767957716
 20
236.2411094336
 11
210.2657044698
 21
236.2413064843
  0
LINE
  5
25E
100
AcDbEntity
  8
0
100
AcDbLine
 62
7
  6
CONTINUOUS
 10
210.3006175279
 20
236.2406858986
 11
210.2767957716
 21
236.2411094336
  0
LINE
  5
25F
100
AcDbEntity
  8
0
100
AcDbLine
 62
7
  6
CONTINUOUS
 10
210.3006187383
 20
236.2406858691
 11
210.2918352953
 21
236.2408424546
  0
LINE
  5
260
100
AcDbEntity
  8
0
100
AcDbLine
 62
7
  6
CONTINUOUS
 10
218.7390078389
 20
219.1965080096
 11
217.7542000859
 21
219.3701561873
  0
LWPOLYLINE
  5
261
100
AcDbEntity
  8
0
100
AcDbPolyline
 62
7
  6
CONTINUOUS
 90
3
 70
0
 10
45.1635064707
 20
236.2406858986
 10
45.1374050597
 20
236.2384988339
 10
45.1236460269
 20
236.2359364858
  0
LINE
  5
262
100
AcDbEntity
  8
0
100
AcDbLine
 62
7
  6
CONTINUOUS
 10
210.3267189793
 20
236.2384988278
 11
210.3006175279
 21
236.2406858986
  0
LINE
  5
263
100
AcDbEntity
  8
0
100
AcDbLine
 62
7
  6
CONTINUOUS
 10
208.551714419
 20
236.4645274728
 11
208.5518562497
 21
236.4692239604
  0
LINE
  5
264
100
AcDbEntity
  8
0
100
AcDbLine
 62
7
  6
CONTINUOUS
 10
42.2820619993
 20
235.2462684096
 11
42.219397834
 21
235.2361978765
  0
LINE
  5
265
100
AcDbEntity
  8
0
100
AcDbLine
 62
7
  6
CONTINUOUS
 10
213.1820619993
 20
235.2462684096
 11
213.2447261646
 21
235.2361978765
  0
LINE
  5
266
100
AcDbEntity
  8
0
100
AcDbLine
 62
7
  6
CONTINUOUS
 10
210.3404781121
 20
236.2359364745
 11
210.3267203342
 21
236.2384985755
  0
LINE
  5
267
100
AcDbEntity
  8
0
100
AcDbLine
 62
7
  6
CONTINUOUS
 10
206.9122677489
 20
236.4692239604
 11
206.9124095796
 21
236.4645274728
  0
LINE
  5
268
100
AcDbEntity
  8
0
100
AcDbLine
 62
7
  6
CONTINUOUS
 10
206.9120864678
 20
236.4771389478
 11
206.9122677489
 21
236.4692239604
  0
LINE
  5
269
100
AcDbEntity
  8
0
100
AcDbLine
 62
7
  6
CONTINUOUS
 10
207.2170619993
 20
235.2462684096
 11
207.2170619993
 21
236.4737044158
  0
LINE
  5
26A
100
AcDbEntity
  8
0
100
AcDbLine
 62
7
  6
CONTINUOUS
 10
208.2470619993
 20
235.2462684096
 11
208.2470619993
 21
236.4737044158
  0
LINE
  5
26B
100
AcDbEntity
  8
0
100
AcDbLine
 62
7
  6
CONTINUOUS
 10
208.5518562497
 20
236.4692239604
 11
208.5520375308
 21
236.4771389478
  0
LINE
  5
26C
100
AcDbEntity
  8
0
100
AcDbLine
 62
7
  6
CONTINUOUS
 10
217.7542000859
 20
219.1965080096
 11
218.1643986788
 21
221.5228598319
  0
LINE
  5
26D
100
AcDbEntity
  8
0
100
AcDbLine
 62
7
  6
CONTINUOUS
 10
219.1492064318
 20
221.5228598319
 11
218.7390078389
 21
219.1965080096
  0
LINE
  5
26E
100
AcDbEntity
  8
0
100
AcDbLine
 62
7
  6
CONTINUOUS
 10
213.2447261646
 20
235.2361978765
 11
216.9603923275
 21
234.0102716254
  0
LINE
  5
26F
100
AcDbEntity
  8
0
100
AcDbLine
 62
7
  6
CONTINUOUS
 10
217.9511549564
 20
219.0228619522
 11
217.7542000859
 21
219.1965080096
  0
LINE
  5
270
100
AcDbEntity
  8
0
100
AcDbLine
 62
7
  6
CONTINUOUS
 10
225.7320619993
 20
228.9040576784
 11
225.7320619993
 21
221.5228598319
  0
LINE
  5
271
100
AcDbEntity
  8
0
100
AcDbLine
 62
7
  6
CONTINUOUS
 10
226.7320619993
 20
228.9040576784
 11
226.7320619993
 21
221.5228598319
  0
LINE
  5
272
100
AcDbEntity
  8
0
100
AcDbLine
 62
7
  6
CONTINUOUS
 10
226.7320619993
 20
216.0228598319
 11
226.7320619993
 21
115.5228598319
  0
LINE
  5
273
100
AcDbEntity
  8
0
100
AcDbLine
 62
7
  6
CONTINUOUS
 10
227.7320619993
 20
216.0228598319
 11
227.7320619993
 21
115.5228598319
  0
LINE
  5
274
100
AcDbEntity
  8
0
100
AcDbLine
 62
7
  6
CONTINUOUS
 10
225.2320619993
 20
229.7700830822
 11
222.1961636144
 21
231.5228598319
  0
LINE
  5
275
100
AcDbEntity
  8
0
100
AcDbLine
 62
7
  6
CONTINUOUS
 10
221.1961636144
 20
233.2549106395
 11
225.7320619993
 21
230.636108486
  0
ARC
  5
276
100
AcDbEntity
  8
0
100
AcDbCircle
 62
7
  6
CONTINUOUS
 10
29.7320619993
 20
115.5228598319
 40
2.0
100
AcDbArc
 50
180.0
 51
270.0
  0
ARC
  5
277
100
AcDbEntity
  8
0
100
AcDbCircle
 62
7
  6
CONTINUOUS
 10
29.7320619993
 20
216.0228598319
 40
2.0
100
AcDbArc
 50
90.0
 51
180.0
  0
CIRCLE
  5
278
100
AcDbEntity
  8
0
100
AcDbCircle
 62
7
  6
CONTINUOUS
 10
47.7320619993
 20
206.0228598319
 40
1.5358390455
  0
CIRCLE
  5
279
100
AcDbEntity
  8
0
100
AcDbCircle
 62
7
  6
CONTINUOUS
 10
47.7320619993
 20
206.0228598319
 40
0.5359024189
  0
CIRCLE
  5
27A
100
AcDbEntity
  8
0
100
AcDbCircle
 62
7
  6
CONTINUOUS
 10
47.7320619993
 20
206.0228598319
 40
0.25
  0
ARC
  5
27B
100
AcDbEntity
  8
0
100
AcDbCircle
 62
7
  6
CONTINUOUS
 10
47.7320619993
 20
224.522859832
 40
12.0
100
AcDbArc
 50
64.6614470673
 51
77.4455095654
  0
ARC
  5
27C
100
AcDbEntity
  8
0
100
AcDbCircle
 62
7
  6
CONTINUOUS
 10
47.7320619993
 20
224.522859832
 40
12.0
100
AcDbArc
 50
102.5544897665
 51
115.3370816239
  0
ARC
  5
27D
100
AcDbEntity
  8
0
100
AcDbCircle
 62
7
  6
CONTINUOUS
 10
47.7318289636
 20
224.500188121
 40
11.994603169
100
AcDbArc
 50
86.258338052
 51
86.8911545401
  0
ARC
  5
27E
100
AcDbEntity
  8
0
100
AcDbCircle
 62
7
  6
CONTINUOUS
 10
47.732295035
 20
224.5001881209
 40
11.9946031691
100
AcDbArc
 50
93.1088454599
 51
93.741661948
  0
ARC
  5
27F
100
AcDbEntity
  8
0
100
AcDbCircle
 62
7
  6
CONTINUOUS
 10
47.7320619993
 20
224.522859832
 40
11.9889438651
100
AcDbArc
 50
77.7073158304
 51
85.4310054916
  0
ARC
  5
280
100
AcDbEntity
  8
0
100
AcDbCircle
 62
7
  6
CONTINUOUS
 10
47.7320619993
 20
224.522859832
 40
11.9889438651
100
AcDbArc
 50
94.5689945084
 51
102.2927073563
  0
ARC
  5
281
100
AcDbEntity
  8
0
100
AcDbCircle
 62
7
  6
CONTINUOUS
 10
47.9481238394
 20
228.3232831414
 40
8.2069297011
100
AcDbArc
 50
97.4453828781
 51
98.3670464157
  0
ARC
  5
282
100
AcDbEntity
  8
0
100
AcDbCircle
 62
7
  6
CONTINUOUS
 10
47.523075814
 20
228.3742340429
 40
8.1554915148
100
AcDbArc
 50
81.6300469703
 51
82.5575237359
  0
ARC
  5
283
100
AcDbEntity
  8
0
100
AcDbCircle
 62
7
  6
CONTINUOUS
 10
47.9210435535
 20
228.5257918699
 40
8.0026192888
100
AcDbArc
 50
97.2404098669
 51
97.4410106649
  0
ARC
  5
284
100
AcDbEntity
  8
0
100
AcDbCircle
 62
7
  6
CONTINUOUS
 10
47.5430804473
 20
228.5257918866
 40
8.0026192719
100
AcDbArc
 50
82.5589893347
 51
82.7595901331
  0
ARC
  5
285
100
AcDbEntity
  8
0
100
AcDbCircle
 62
7
  6
CONTINUOUS
 10
47.9157426056
 20
228.567583352
 40
7.9604929555
100
AcDbArc
 50
96.9713593494
 51
97.2404705013
  0
ARC
  5
286
100
AcDbEntity
  8
0
100
AcDbCircle
 62
7
  6
CONTINUOUS
 10
47.5483813943
 20
228.5675833621
 40
7.9604929454
100
AcDbArc
 50
82.7595294986
 51
83.0286406508
  0
ARC
  5
287
100
AcDbEntity
  8
0
100
AcDbCircle
 62
7
  6
CONTINUOUS
 10
46.9967968588
 20
230.4640434327
 40
6.0136961899
100
AcDbArc
 50
87.9009437743
 51
89.190176836
  0
ARC
  5
288
100
AcDbEntity
  8
0
100
AcDbCircle
 62
7
  6
CONTINUOUS
 10
46.9970051344
 20
230.4806483497
 40
5.9970918513
100
AcDbArc
 50
90.8113338807
 51
92.1021110745
  0
ARC
  5
289
100
AcDbEntity
  8
0
100
AcDbCircle
 62
7
  6
CONTINUOUS
 10
47.5527668518
 20
232.132963024
 40
4.3833090251
100
AcDbArc
 50
98.4022732583
 51
100.5009541055
  0
ARC
  5
28A
100
AcDbEntity
  8
0
100
AcDbCircle
 62
7
  6
CONTINUOUS
 10
47.9190937063
 20
232.1794359412
 40
4.3362045254
100
AcDbArc
 50
79.487645539
 51
81.6091270972
  0
ARC
  5
28B
100
AcDbEntity
  8
0
100
AcDbCircle
 62
7
  6
CONTINUOUS
 10
30.7320619993
 20
228.9040576784
 40
2.0
100
AcDbArc
 50
120.0
 51
180.0
  0
ARC
  5
28C
100
AcDbEntity
  8
0
100
AcDbCircle
 62
7
  6
CONTINUOUS
 10
35.2679603842
 20
231.5228598319
 40
2.0
100
AcDbArc
 50
90.0
 51
120.0
  0
ARC
  5
28D
100
AcDbEntity
  8
0
100
AcDbCircle
 62
7
  6
CONTINUOUS
 10
35.7403084067
 20
219.0228598319
 40
1.0
100
AcDbArc
 50
270.0
 51
10.0
  0
ARC
  5
28E
100
AcDbEntity
  8
0
100
AcDbCircle
 62
7
  6
CONTINUOUS
 10
38.5820619993
 20
233.7728598319
 40
0.25
100
AcDbArc
 50
108.2595026829
 51
270.0
  0
ARC
  5
28F
100
AcDbEntity
  8
0
100
AcDbCircle
 62
7
  6
CONTINUOUS
 10
42.6820619993
 20
235.1876383107
 40
0.2
100
AcDbArc
 50
115.3385529328
 51
162.2781045452
  0
ARC
  5
290
100
AcDbEntity
  8
0
100
AcDbCircle
 62
7
  6
CONTINUOUS
 10
72.2901459102
 20
199.5754264325
 40
39.8449985306
100
AcDbArc
 50
150.2793953054
 51
150.4281656634
  0
ARC
  5
291
100
AcDbEntity
  8
0
100
AcDbCircle
 62
7
  6
CONTINUOUS
 10
56.8820619993
 20
233.7728598319
 40
0.25
100
AcDbArc
 50
270.0
 51
71.7404973171
  0
ARC
  5
292
100
AcDbEntity
  8
0
100
AcDbCircle
 62
7
  6
CONTINUOUS
 10
52.7820619993
 20
235.1876383107
 40
0.2
100
AcDbArc
 50
17.7218954548
 51
64.6614470672
  0
ARC
  5
293
100
AcDbEntity
  8
0
100
AcDbCircle
 62
7
  6
CONTINUOUS
 10
225.7320619993
 20
115.5228598319
 40
2.0
100
AcDbArc
 50
270.0
 51
360.0
  0
ARC
  5
294
100
AcDbEntity
  8
0
100
AcDbCircle
 62
7
  6
CONTINUOUS
 10
183.1739892641
 20
199.5754328257
 40
39.8449856555
100
AcDbArc
 50
29.5718342723
 51
29.7206046777
  0
ARC
  5
295
100
AcDbEntity
  8
0
100
AcDbCircle
 62
7
  6
CONTINUOUS
 10
198.5820619993
 20
233.7728598319
 40
0.25
100
AcDbArc
 50
108.2595026829
 51
270.0
  0
ARC
  5
296
100
AcDbEntity
  8
0
100
AcDbCircle
 62
7
  6
CONTINUOUS
 10
202.6820619993
 20
235.1876383107
 40
0.2
100
AcDbArc
 50
115.3385529328
 51
162.2781045452
  0
ARC
  5
297
100
AcDbEntity
  8
0
100
AcDbCircle
 62
7
  6
CONTINUOUS
 10
225.7320619993
 20
216.0228598319
 40
2.0
100
AcDbArc
 50
0.0
 51
90.0
  0
CIRCLE
  5
298
100
AcDbEntity
  8
0
100
AcDbCircle
 62
7
  6
CONTINUOUS
 10
207.7320619993
 20
206.0228598319
 40
1.5358372021
  0
CIRCLE
  5
299
100
AcDbEntity
  8
0
100
AcDbCircle
 62
7
  6
CONTINUOUS
 10
207.7320619993
 20
206.0228598319
 40
0.5359024649
  0
CIRCLE
  5
29A
100
AcDbEntity
  8
0
100
AcDbCircle
 62
7
  6
CONTINUOUS
 10
207.7320619993
 20
206.0228598319
 40
0.25
  0
ARC
  5
29B
100
AcDbEntity
  8
0
100
AcDbCircle
 62
7
  6
CONTINUOUS
 10
207.7320619993
 20
224.522859832
 40
12.0
100
AcDbArc
 50
102.5544904346
 51
115.3385529327
  0
ARC
  5
29C
100
AcDbEntity
  8
0
100
AcDbCircle
 62
7
  6
CONTINUOUS
 10
207.7320619993
 20
224.522859832
 40
12.0
100
AcDbArc
 50
64.6629183761
 51
77.4455102335
  0
ARC
  5
29D
100
AcDbEntity
  8
0
100
AcDbCircle
 62
7
  6
CONTINUOUS
 10
207.732295035
 20
224.5001881209
 40
11.9946031691
100
AcDbArc
 50
93.1088454599
 51
93.741661948
  0
ARC
  5
29E
100
AcDbEntity
  8
0
100
AcDbCircle
 62
7
  6
CONTINUOUS
 10
207.7318289636
 20
224.500188121
 40
11.994603169
100
AcDbArc
 50
86.258338052
 51
86.8911545401
  0
ARC
  5
29F
100
AcDbEntity
  8
0
100
AcDbCircle
 62
7
  6
CONTINUOUS
 10
207.7320619993
 20
224.522859832
 40
11.9889438651
100
AcDbArc
 50
94.5689945084
 51
102.2927127515
  0
ARC
  5
2A0
100
AcDbEntity
  8
0
100
AcDbCircle
 62
7
  6
CONTINUOUS
 10
207.7320619993
 20
224.522859832
 40
11.9889438651
100
AcDbArc
 50
77.7072923811
 51
85.4310054916
  0
ARC
  5
2A1
100
AcDbEntity
  8
0
100
AcDbCircle
 62
7
  6
CONTINUOUS
 10
207.9481238394
 20
228.3232831417
 40
8.2069297007
100
AcDbArc
 50
97.4453828781
 51
98.3670464157
  0
ARC
  5
2A2
100
AcDbEntity
  8
0
100
AcDbCircle
 62
7
  6
CONTINUOUS
 10
207.5230758141
 20
228.3742340437
 40
8.155491514
100
AcDbArc
 50
81.6300469703
 51
82.557523736
  0
ARC
  5
2A3
100
AcDbEntity
  8
0
100
AcDbCircle
 62
7
  6
CONTINUOUS
 10
207.5430804472
 20
228.5257918864
 40
8.0026192721
100
AcDbArc
 50
82.5589893347
 51
82.7595901332
  0
ARC
  5
2A4
100
AcDbEntity
  8
0
100
AcDbCircle
 62
7
  6
CONTINUOUS
 10
207.921043547
 20
228.5257919201
 40
8.0026192381
100
AcDbArc
 50
97.2404098662
 51
97.4410106655
  0
ARC
  5
2A5
100
AcDbEntity
  8
0
100
AcDbCircle
 62
7
  6
CONTINUOUS
 10
207.5483813943
 20
228.5675833625
 40
7.9604929449
100
AcDbArc
 50
82.7595294985
 51
83.0286406508
  0
ARC
  5
2A6
100
AcDbEntity
  8
0
100
AcDbCircle
 62
7
  6
CONTINUOUS
 10
207.9157426043
 20
228.5675833625
 40
7.9604929449
100
AcDbArc
 50
96.9713593494
 51
97.2404705016
  0
ARC
  5
2A7
100
AcDbEntity
  8
0
100
AcDbCircle
 62
7
  6
CONTINUOUS
 10
206.9967968588
 20
230.4640434327
 40
6.0136961899
100
AcDbArc
 50
87.9009437743
 51
89.190176836
  0
ARC
  5
2A8
100
AcDbEntity
  8
0
100
AcDbCircle
 62
7
  6
CONTINUOUS
 10
208.4673271398
 20
230.4640434327
 40
6.0136961899
100
AcDbArc
 50
90.809823164
 51
92.0990562257
  0
ARC
  5
2A9
100
AcDbEntity
  8
0
100
AcDbCircle
 62
7
  6
CONTINUOUS
 10
206.9970051344
 20
230.4806483497
 40
5.9970918513
100
AcDbArc
 50
90.8113338807
 51
92.1021110745
  0
ARC
  5
2AA
100
AcDbEntity
  8
0
100
AcDbCircle
 62
7
  6
CONTINUOUS
 10
208.4671188643
 20
230.4806483497
 40
5.9970918513
100
AcDbArc
 50
87.8978889255
 51
89.1886661193
  0
ARC
  5
2AB
100
AcDbEntity
  8
0
100
AcDbCircle
 62
7
  6
CONTINUOUS
 10
207.5527668517
 20
232.1329630245
 40
4.3833090246
100
AcDbArc
 50
98.4022732582
 51
100.5009541056
  0
ARC
  5
2AC
100
AcDbEntity
  8
0
100
AcDbCircle
 62
7
  6
CONTINUOUS
 10
207.9190937063
 20
232.1794359414
 40
4.3362045252
100
AcDbArc
 50
79.4876455389
 51
81.6091270973
  0
ARC
  5
2AD
100
AcDbEntity
  8
0
100
AcDbCircle
 62
7
  6
CONTINUOUS
 10
224.7320619993
 20
228.9040576784
 40
2.0
100
AcDbArc
 50
0.0
 51
60.0
  0
ARC
  5
2AE
100
AcDbEntity
  8
0
100
AcDbCircle
 62
7
  6
CONTINUOUS
 10
220.1961636144
 20
231.5228598319
 40
2.0
100
AcDbArc
 50
60.0
 51
90.0
  0
ARC
  5
2AF
100
AcDbEntity
  8
0
100
AcDbCircle
 62
7
  6
CONTINUOUS
 10
219.7238155919
 20
219.0228598319
 40
1.0
100
AcDbArc
 50
169.9999999981
 51
270.0
  0
ARC
  5
2B0
100
AcDbEntity
  8
0
100
AcDbCircle
 62
7
  6
CONTINUOUS
 10
216.8820619993
 20
233.7728598319
 40
0.25
100
AcDbArc
 50
270.0
 51
71.7404973171
  0
ARC
  5
2B1
100
AcDbEntity
  8
0
100
AcDbCircle
 62
7
  6
CONTINUOUS
 10
212.7820619993
 20
235.1876383107
 40
0.2
100
AcDbArc
 50
17.7218954548
 51
64.6614470672
  0
SPLINE
  5
2B2
100
AcDbEntity
  8
0
100
AcDbSpline
 62
7
  6
CONTINUOUS
 70
0
 71
3
 72
9
 73
5
 74
0
 42
0.0000001
 43
0.0000001
 44
0.0000000001
 40
0.0
 40
0.0
 40
0.0
 40
0.0
 40
0.4995228506
 40
1.0
 40
1.0
 40
1.0
 40
1.0
 10
207.149419417
 20
236.4758022617
 30
0.0
 10
207.1606893186
 20
236.4759024581
 30
0.0
 10
207.1832651588
 20
236.4757476761
 30
0.0
 10
207.2057776929
 20
236.4741178669
 30
0.0
 10
207.2170619993
 20
236.4737044158
 30
0.0
  0
SPLINE
  5
2B3
100
AcDbEntity
  8
0
100
AcDbSpline
 62
7
  6
CONTINUOUS
 70
0
 71
3
 72
9
 73
5
 74
0
 42
0.0000001
 43
0.0000001
 44
0.0000000001
 40
0.0
 40
0.0
 40
0.0
 40
0.0
 40
0.499906476
 40
1.0
 40
1.0
 40
1.0
 40
1.0
 10
206.777028632
 20
236.4737044158
 30
0.0
 10
206.7882784874
 20
236.4741175393
 30
0.0
 10
206.8107476806
 20
236.4757497186
 30
0.0
 10
206.8332804729
 20
236.4759023579
 30
0.0
 10
206.8445416792
 20
236.4758023268
 30
0.0
  0
SPLINE
  5
2B4
100
AcDbEntity
  8
0
100
AcDbSpline
 62
7
  6
CONTINUOUS
 70
0
 71
3
 72
11
 73
7
 74
0
 42
0.0000001
 43
0.0000001
 44
0.0000000001
 40
0.0
 40
0.0
 40
0.0
 40
0.0
 40
0.2500693701
 40
0.4374478423
 40
0.624740844
 40
1.0
 40
1.0
 40
1.0
 40
1.0
 10
48.3823319034
 20
236.4771389478
 30
0.0
 10
48.3710519753
 20
236.4769796531
 30
0.0
 10
48.3513391795
 20
236.4759097396
 30
0.0
 10
48.3231541879
 20
236.4755978895
 30
0.0
 10
48.2893161879
 20
236.4762955985
 30
0.0
 10
48.2639792238
 20
236.4743242542
 30
0.0
 10
48.2470619993
 20
236.4737044158
 30
0.0
  0
SPLINE
  5
2B5
100
AcDbEntity
  8
0
100
AcDbSpline
 62
7
  6
CONTINUOUS
 70
0
 71
3
 72
11
 73
7
 74
0
 42
0.0000001
 43
0.0000001
 44
0.0000000001
 40
0.0
 40
0.0
 40
0.0
 40
0.0
 40
0.2499221925
 40
0.4374008601
 40
0.6250533337
 40
1.0
 40
1.0
 40
1.0
 40
1.0
 10
48.6870953666
 20
236.4737044158
 30
0.0
 10
48.6758460797
 20
236.4741175184
 30
0.0
 10
48.6561879041
 20
236.4755210058
 30
0.0
 10
48.6280296633
 20
236.4760306213
 30
0.0
 10
48.5942427738
 20
236.4752847147
 30
0.0
 10
48.5689239926
 20
236.4768995317
 30
0.0
 10
48.5520375308
 20
236.4771389478
 30
0.0
  0
SPLINE
  5
2B6
100
AcDbEntity
  8
0
100
AcDbSpline
 62
7
  6
CONTINUOUS
 70
0
 71
3
 72
9
 73
5
 74
0
 42
0.0000001
 43
0.0000001
 44
0.0000000001
 40
0.0
 40
0.0
 40
0.0
 40
0.0
 40
0.5
 40
1.0
 40
1.0
 40
1.0
 40
1.0
 10
30.2320619993
 20
229.7700830822
 30
0.0
 10
30.0713783968
 20
229.6704037136
 30
0.0
 10
29.8273614609
 20
229.4263867778
 30
0.0
 10
29.7380450634
 20
229.0930534444
 30
0.0
 10
29.7320619993
 20
228.9040576784
 30
0.0
  0
SPLINE
  5
2B7
100
AcDbEntity
  8
0
100
AcDbSpline
 62
7
  6
CONTINUOUS
 70
0
 71
3
 72
9
 73
5
 74
0
 42
0.0000001
 43
0.0000001
 44
0.0000000001
 40
0.0
 40
0.0
 40
0.0
 40
0.0
 40
0.5
 40
1.0
 40
1.0
 40
1.0
 40
1.0
 10
225.7320619993
 20
228.9040576784
 30
0.0
 10
225.7260789352
 20
229.0930534444
 30
0.0
 10
225.6367625377
 20
229.4263867778
 30
0.0
 10
225.3927456018
 20
229.6704037136
 30
0.0
 10
225.2320619993
 20
229.7700830822
 30
0.0
  0
SPLINE
  5
2B8
100
AcDbEntity
  8
0
100
AcDbSpline
 62
7
  6
CONTINUOUS
 70
0
 71
3
 72
9
 73
5
 74
0
 42
0.0000001
 43
0.0000001
 44
0.0000000001
 40
0.0
 40
0.0
 40
0.0
 40
0.0
 40
0.564855922
 40
1.0
 40
1.0
 40
1.0
 40
1.0
 10
220.6290795131
 20
233.2549106395
 30
0.0
 10
220.5665101658
 20
233.3305863856
 30
0.0
 10
220.4447412255
 20
233.4582972354
 30
0.0
 10
220.2718073799
 20
233.5228598319
 30
0.0
 10
220.1961636144
 20
233.5228598319
 30
0.0
  0
SPLINE
  5
2B9
100
AcDbEntity
  8
0
100
AcDbSpline
 62
7
  6
CONTINUOUS
 70
0
 71
3
 72
9
 73
5
 74
0
 42
0.0000001
 43
0.0000001
 44
0.0000000001
 40
0.0
 40
0.0
 40
0.0
 40
0.0
 40
0.435144078
 40
1.0
 40
1.0
 40
1.0
 40
1.0
 10
35.2679603842
 20
233.5228598319
 30
0.0
 10
35.1923166187
 20
233.5228598319
 30
0.0
 10
35.0193827731
 20
233.4582972354
 30
0.0
 10
34.8976138328
 20
233.3305863856
 30
0.0
 10
34.8350444855
 20
233.2549106395
 30
0.0
  0
SPLINE
  5
2BA
100
AcDbEntity
  8
0
100
AcDbSpline
 62
7
  6
CONTINUOUS
 70
0
 71
3
 72
9
 73
5
 74
0
 42
0.0000001
 43
0.0000001
 44
0.0000000001
 40
0.0
 40
0.0
 40
0.0
 40
0.0
 40
0.2389402563
 40
1.0
 40
1.0
 40
1.0
 40
1.0
 10
34.8350444855
 20
233.2549106395
 30
0.0
 10
34.8073468322
 20
233.2364017958
 30
0.0
 10
34.6931820204
 20
233.1563152922
 30
0.0
 10
34.5856839442
 20
233.066984095
 30
0.0
 10
34.5069599372
 20
232.9958434471
 30
0.0
  0
SPLINE
  5
2BB
100
AcDbEntity
  8
0
100
AcDbSpline
 62
7
  6
CONTINUOUS
 70
0
 71
3
 72
9
 73
5
 74
0
 42
0.0000001
 43
0.0000001
 44
0.0000000001
 40
0.0
 40
0.0
 40
0.0
 40
0.0
 40
0.2440895151
 40
1.0
 40
1.0
 40
1.0
 40
1.0
 10
34.5069599372
 20
232.9958434471
 30
0.0
 10
34.4896398076
 20
232.9801917382
 30
0.0
 10
34.4192805449
 20
232.9154070802
 30
0.0
 10
34.3512065819
 20
232.8481588826
 30
0.0
 10
34.3008521418
 20
232.7962848834
 30
0.0
  0
SPLINE
  5
2BC
100
AcDbEntity
  8
0
100
AcDbSpline
 62
7
  6
CONTINUOUS
 70
0
 71
3
 72
9
 73
5
 74
0
 42
0.0000001
 43
0.0000001
 44
0.0000000001
 40
0.0
 40
0.0
 40
0.0
 40
0.0
 40
0.4811233172
 40
1.0
 40
1.0
 40
1.0
 40
1.0
 10
34.3008521418
 20
232.7962848834
 30
0.0
 10
34.1176098909
 20
232.6075128834
 30
0.0
 10
33.7653552267
 20
232.1877962383
 30
0.0
 10
33.4379386312
 20
231.7500343708
 30
0.0
 10
33.2679603842
 20
231.5228598319
 30
0.0
  0
SPLINE
  5
2BD
100
AcDbEntity
  8
0
100
AcDbSpline
 62
7
  6
CONTINUOUS
 70
0
 71
3
 72
9
 73
5
 74
0
 42
0.0000001
 43
0.0000001
 44
0.0000000001
 40
0.0
 40
0.0
 40
0.0
 40
0.0
 40
0.5188766828
 40
1.0
 40
1.0
 40
1.0
 40
1.0
 10
222.1961636144
 20
231.5228598319
 30
0.0
 10
222.0261853674
 20
231.7500343708
 30
0.0
 10
221.6987687719
 20
232.1877962383
 30
0.0
 10
221.3465141077
 20
232.6075128834
 30
0.0
 10
221.1632718568
 20
232.7962848834
 30
0.0
  0
SPLINE
  5
2BE
100
AcDbEntity
  8
0
100
AcDbSpline
 62
7
  6
CONTINUOUS
 70
0
 71
3
 72
9
 73
5
 74
0
 42
0.0000001
 43
0.0000001
 44
0.0000000001
 40
0.0
 40
0.0
 40
0.0
 40
0.0
 40
0.2558502635
 40
1.0
 40
1.0
 40
1.0
 40
1.0
 10
221.1632718568
 20
232.7962848834
 30
0.0
 10
221.1462286972
 20
232.8138423589
 30
0.0
 10
221.0791259668
 20
232.8819877475
 30
0.0
 10
221.009967133
 20
232.948126812
 30
0.0
 10
220.9571640614
 20
232.9958434471
 30
0.0
  0
SPLINE
  5
2BF
100
AcDbEntity
  8
0
100
AcDbSpline
 62
7
  6
CONTINUOUS
 70
0
 71
3
 72
9
 73
5
 74
0
 42
0.0000001
 43
0.0000001
 44
0.0000000001
 40
0.0
 40
0.0
 40
0.0
 40
0.0
 40
0.2611464323
 40
1.0
 40
1.0
 40
1.0
 40
1.0
 10
220.9571640614
 20
232.9958434471
 30
0.0
 10
220.9301526435
 20
233.0202528979
 30
0.0
 10
220.825375329
 20
233.1121946252
 30
0.0
 10
220.7147215265
 20
233.1976807138
 30
0.0
 10
220.6290795131
 20
233.2549106395
 30
0.0
  0
SPLINE
  5
2C0
100
AcDbEntity
  8
0
100
AcDbSpline
 62
7
  6
CONTINUOUS
 70
0
 71
3
 72
9
 73
5
 74
0
 42
0.0000001
 43
0.0000001
 44
0.0000000001
 40
0.0
 40
0.0
 40
0.0
 40
0.0
 40
0.752866618
 40
1.0
 40
1.0
 40
1.0
 40
1.0
 10
37.5129751149
 20
219.0228551723
 30
0.0
 10
37.4164767368
 20
218.9373378626
 30
0.0
 10
37.2883080518
 20
218.8237187572
 30
0.0
 10
37.1576119348
 20
218.7130300101
 30
0.0
 10
37.1251069306
 20
218.6859223847
 30
0.0
  0
SPLINE
  5
2C1
100
AcDbEntity
  8
0
100
AcDbSpline
 62
7
  6
CONTINUOUS
 70
0
 71
3
 72
11
 73
7
 74
0
 42
0.0000001
 43
0.0000001
 44
0.0000000001
 40
0.0
 40
0.0
 40
0.0
 40
0.0
 40
0.2799168089
 40
0.5391944699
 40
0.7769263902
 40
1.0
 40
1.0
 40
1.0
 40
1.0
 10
37.1251069306
 20
218.6859223847
 30
0.0
 10
37.0129401978
 20
218.5923806717
 30
0.0
 10
36.7922293557
 20
218.4174608077
 30
0.0
 10
36.4482698971
 20
218.2004925648
 30
0.0
 10
36.0980664094
 20
218.0573192648
 30
0.0
 10
35.8567020284
 20
218.0228598319
 30
0.0
 10
35.7403084067
 20
218.0228598319
 30
0.0
  0
SPLINE
  5
2C2
100
AcDbEntity
  8
0
100
AcDbSpline
 62
7
  6
CONTINUOUS
 70
0
 71
3
 72
11
 73
7
 74
0
 42
0.0000001
 43
0.0000001
 44
0.0000000001
 40
0.0
 40
0.0
 40
0.0
 40
0.0
 40
0.2230736194
 40
0.4608055243
 40
0.720083176
 40
1.0
 40
1.0
 40
1.0
 40
1.0
 10
219.7238155919
 20
218.0228598319
 30
0.0
 10
219.607422055
 20
218.0228598319
 30
0.0
 10
219.3660578585
 20
218.0573191843
 30
0.0
 10
219.0158546272
 20
218.2004923215
 30
0.0
 10
218.6718953752
 20
218.4174602907
 30
0.0
 10
218.4511846654
 20
218.5923799797
 30
0.0
 10
218.3390179983
 20
218.685921608
 30
0.0
  0
SPLINE
  5
2C3
100
AcDbEntity
  8
0
100
AcDbSpline
 62
7
  6
CONTINUOUS
 70
0
 71
3
 72
9
 73
5
 74
0
 42
0.0000001
 43
0.0000001
 44
0.0000000001
 40
0.0
 40
0.0
 40
0.0
 40
0.0
 40
0.2471333689
 40
1.0
 40
1.0
 40
1.0
 40
1.0
 10
218.3390179983
 20
218.685921608
 30
0.0
 10
218.3065129149
 20
218.7130292908
 30
0.0
 10
218.1758164781
 20
218.8237182856
 30
0.0
 10
218.0476474914
 20
218.9373376598
 30
0.0
 10
217.9511488839
 20
219.0228551725
 30
0.0
  0
SPLINE
  5
2C4
100
AcDbEntity
  8
0
100
AcDbSpline
 62
7
  6
CONTINUOUS
 70
0
 71
3
 72
9
 73
5
 74
0
 42
0.0000001
 43
0.0000001
 44
0.0000000001
 40
0.0
 40
0.0
 40
0.0
 40
0.0
 40
0.2641809754
 40
1.0
 40
1.0
 40
1.0
 40
1.0
 10
226.7320619993
 20
216.0228598319
 30
0.0
 10
226.6988924928
 20
216.1270649099
 30
0.0
 10
226.5731256293
 20
216.5213756024
 30
0.0
 10
226.4435995528
 20
216.9150009269
 30
0.0
 10
226.3320610436
 20
217.198433645
 30
0.0
  0
SPLINE
  5
2C5
100
AcDbEntity
  8
0
100
AcDbSpline
 62
7
  6
CONTINUOUS
 70
0
 71
3
 72
10
 73
6
 74
0
 42
0.0000001
 43
0.0000001
 44
0.0000000001
 40
0.0
 40
0.0
 40
0.0
 40
0.0
 40
0.3589947278
 40
0.6462600819
 40
1.0
 40
1.0
 40
1.0
 40
1.0
 10
226.3320610436
 20
217.198433645
 30
0.0
 10
226.2861173622
 20
217.3151820451
 30
0.0
 10
226.1956389537
 20
217.5263253822
 30
0.0
 10
226.0378874032
 20
217.8223534284
 30
0.0
 10
225.8556887084
 20
218.0228598319
 30
0.0
 10
225.7320619993
 20
218.0228598319
 30
0.0
  0
SPLINE
  5
2C6
100
AcDbEntity
  8
0
100
AcDbSpline
 62
7
  6
CONTINUOUS
 70
0
 71
3
 72
10
 73
6
 74
0
 42
0.0000001
 43
0.0000001
 44
0.0000000001
 40
0.0
 40
0.0
 40
0.0
 40
0.0
 40
0.3537398202
 40
0.641005224
 40
1.0
 40
1.0
 40
1.0
 40
1.0
 10
29.7320619993
 20
218.0228598319
 30
0.0
 10
29.608435055
 20
218.0228598319
 30
0.0
 10
29.4262361208
 20
217.822352772
 30
0.0
 10
29.268484392
 20
217.5263240404
 30
0.0
 10
29.1780058527
 20
217.3151801667
 30
0.0
 10
29.1320621037
 20
217.1984314813
 30
0.0
  0
SPLINE
  5
2C7
100
AcDbEntity
  8
0
100
AcDbSpline
 62
7
  6
CONTINUOUS
 70
0
 71
3
 72
9
 73
5
 74
0
 42
0.0000001
 43
0.0000001
 44
0.0000000001
 40
0.0
 40
0.0
 40
0.0
 40
0.0
 40
0.2299534375
 40
1.0
 40
1.0
 40
1.0
 40
1.0
 10
29.1320621037
 20
217.1984314813
 30
0.0
 10
29.0972024871
 20
217.1098489322
 30
0.0
 10
28.9534325195
 20
216.7215479961
 30
0.0
 10
28.8287524754
 20
216.3266219213
 30
0.0
 10
28.7320619993
 20
216.0228598319
 30
0.0
  0
SPLINE
  5
2C8
100
AcDbEntity
  8
0
100
AcDbSpline
 62
7
  6
CONTINUOUS
 70
0
 71
3
 72
9
 73
5
 74
0
 42
0.0000001
 43
0.0000001
 44
0.0000000001
 40
0.0
 40
0.0
 40
0.0
 40
0.0
 40
0.2641809754
 40
1.0
 40
1.0
 40
1.0
 40
1.0
 10
28.7320619993
 20
115.5228598319
 30
0.0
 10
28.7652315058
 20
115.418654754
 30
0.0
 10
28.8909983693
 20
115.0243440614
 30
0.0
 10
29.0205244458
 20
114.6307187369
 30
0.0
 10
29.132062955
 20
114.3472860188
 30
0.0
  0
SPLINE
  5
2C9
100
AcDbEntity
  8
0
100
AcDbSpline
 62
7
  6
CONTINUOUS
 70
0
 71
3
 72
10
 73
6
 74
0
 42
0.0000001
 43
0.0000001
 44
0.0000000001
 40
0.0
 40
0.0
 40
0.0
 40
0.0
 40
0.3589947278
 40
0.6462600819
 40
1.0
 40
1.0
 40
1.0
 40
1.0
 10
29.132062955
 20
114.3472860188
 30
0.0
 10
29.1780066364
 20
114.2305376188
 30
0.0
 10
29.2684850449
 20
114.0193942816
 30
0.0
 10
29.4262365954
 20
113.7233662354
 30
0.0
 10
29.6084352902
 20
113.5228598319
 30
0.0
 10
29.7320619993
 20
113.5228598319
 30
0.0
  0
SPLINE
  5
2CA
100
AcDbEntity
  8
0
100
AcDbSpline
 62
7
  6
CONTINUOUS
 70
0
 71
3
 72
10
 73
6
 74
0
 42
0.0000001
 43
0.0000001
 44
0.0000000001
 40
0.0
 40
0.0
 40
0.0
 40
0.0
 40
0.3537398202
 40
0.641005224
 40
1.0
 40
1.0
 40
1.0
 40
1.0
 10
225.7320619993
 20
113.5228598319
 30
0.0
 10
225.8556889436
 20
113.5228598319
 30
0.0
 10
226.0378878778
 20
113.7233668919
 30
0.0
 10
226.1956396066
 20
114.0193956234
 30
0.0
 10
226.2861181459
 20
114.2305394972
 30
0.0
 10
226.332061895
 20
114.3472881826
 30
0.0
  0
SPLINE
  5
2CB
100
AcDbEntity
  8
0
100
AcDbSpline
 62
7
  6
CONTINUOUS
 70
0
 71
3
 72
9
 73
5
 74
0
 42
0.0000001
 43
0.0000001
 44
0.0000000001
 40
0.0
 40
0.0
 40
0.0
 40
0.0
 40
0.2299534375
 40
1.0
 40
1.0
 40
1.0
 40
1.0
 10
226.332061895
 20
114.3472881826
 30
0.0
 10
226.3669215115
 20
114.4358707316
 30
0.0
 10
226.5106914791
 20
114.8241716678
 30
0.0
 10
226.6353715232
 20
115.2190977426
 30
0.0
 10
226.7320619993
 20
115.5228598319
 30
0.0
  0
ENDSEC
  0
SECTION
  2
OBJECTS
  0
DICTIONARY
  5
C
100
AcDbDictionary
280
0
281
1
  3
ACAD_GROUP
350
D
  3
ACAD_MLINESTYLE
350
17
  3
ACAD_LAYOUT
350
1A
  3
ACAD_PLOTSETTINGS
350
19
  3
ACAD_PLOTSTYLENAME
350
E
  0
DICTIONARY
  5
D
102
{ACAD_REACTORS
330
C
102
}
100
AcDbDictionary
280
0
281
1
  0
ACDBDICTIONARYWDFLT
  5
E
102
{ACAD_REACTORS
330
C
102
}
100
AcDbDictionary
281
1
  3
Normal
350
F
100
AcDbDictionaryWithDefault
340
F
  0
DICTIONARY
  5
17
102
{ACAD_REACTORS
330
C
102
}
100
AcDbDictionary
280
0
281
1
  3
Standard
350
18
  0
DICTIONARY
  5
19
102
{ACAD_REACTORS
330
C
102
}
100
AcDbDictionary
281
1
  0
DICTIONARY
  5
1A
102
{ACAD_REACTORS
330
C
102
}
100
AcDbDictionary
281
1
  3
Model
350
2CC
  3
Layout1
350
2CD
  0
ACDBPLACEHOLDER
  5
F
102
{ACAD_REACTORS
330
E
102
}
  0
MLINESTYLE
  5
18
102
{ACAD_REACTORS
330
17
102
}
100
AcDbMlineStyle
  2
STANDARD
 70
0
  3

 62
256
 51
90.0
 52
90.0
 71
2
 49
0.5
 62
256
  6
BYLAYER
 49
-0.5
 62
256
  6
BYLAYER
  0
LAYOUT
  5
2CC
102
{ACAD_REACTORS
330
1A
102
}
100
AcDbPlotSettings
  1

  2
none_device
  4

  6

 40
0.0
 41
0.0
 42
0.0
 43
0.0
 44
210.0
 45
297.0
 46
0.0
 47
0.0
 48
0.0
 49
0.0
140
0.0
141
0.0
142
1.0
143
1.0
 70
1024
 72
1
 73
0
 74
0
  7

 75
0
147
1.0
148
0.0
149
0.0
100
AcDbLayout
  1
Model
 70
0
 71
0
 10
0.0
 20
0.0
 11
210.0
 21
297.0
 12
0.0
 22
0.0
 32
0.0
 14
0.0
 24
0.0
 34
0.0
 15
0.0
 25
0.0
 35
0.0
146
0.0
 13
0.0
 23
0.0
 33
0.0
 16
1.0
 26
0.0
 36
0.0
 17
0.0
 27
1.0
 37
0.0
 76
0
330
210
345
0
346
0
  0
LAYOUT
  5
2CD
102
{ACAD_REACTORS
330
1A
102
}
100
AcDbPlotSettings
  1

  2
none_device
  4

  6

 40
0.0
 41
0.0
 42
0.0
 43
0.0
 44
210.0
 45
297.0
 46
0.0
 47
0.0
 48
0.0
 49
0.0
140
0.0
141
0.0
142
1.0
143
1.0
 70
0
 72
1
 73
0
 74
0
  7

 75
0
147
1.0
148
0.0
149
0.0
100
AcDbLayout
  1
Layout1
 70
0
 71
1
 10
0.0
 20
0.0
 11
210.0
 21
297.0
 12
0.0
 22
0.0
 32
0.0
 14
0.0
 24
0.0
 34
0.0
 15
0.0
 25
0.0
 35
0.0
146
0.0
 13
0.0
 23
0.0
 33
0.0
 16
1.0
 26
0.0
 36
0.0
 17
0.0
 27
1.0
 37
0.0
 76
0
330
211
345
0
346
0
  0
ENDSEC
  0
EOF
