999
DXF file: C:\Users\sesa63760\Dev\_Creo\CAD\MCADID0003857_3D-CAD\drw0001_3.dxf
999
Pro/ENGINEER 2019471 by Parametric Technology Corporation
  0
SECTION
  2
HEADER
  9
$ACADVER
  1
AC1024
  9
$DWGCODEPAGE
  3
ANSI_1252
  9
$EXTMAX
 10
53.5816132338
 20
75.7797101449
 30
0.0
  9
$EXTMIN
 10
0.0
 20
0.0
 30
0.0
  9
$LIMMIN
 10
0.0
 20
0.0
  9
$LIMMAX
 10
53.5816132338
 20
75.7797101449
  9
$VIEWCTR
 10
26.7908066169
 20
37.8898550725
  9
$VIEWSIZE
 40
75.7797101449
  9
$CLAYER
  8
0
  9
$LTSCALE
 40
4.9397144391
  9
$CELTYPE
  6
BYLAYER
  9
$DIMSCALE
 40
1.0
  9
$DIMASZ
 40
0.637876348
  9
$DIMEXO
 40
1.0
  9
$DIMDLI
 40
3.4128936125
  9
$DIMEXE
 40
1.0
  9
$DIMCEN
 40
0.8083169082
  9
$DIMLFAC
 40
1.0
  9
$DIMBLK
  1
_FILLED
  9
$DIMALT
 70
0
  9
$DIMALTF
 40
0.0393700787
  9
$DIMTXT
 40
0.8930268872
  9
$DIMTOL
 70
1
  9
$DIMLIM
 70
0
  9
$DIMTFAC
 40
1.0
  9
$DIMTP
 40
0.01
  9
$DIMTM
 40
0.01
  9
$DIMGAP
 40
0.625
  9
$DIMDSEP
 70
46
  9
$AUNITS
 70
0
  9
$PDMODE
 70
3
  9
$PDSIZE
 40
0.3125
  9
$HANDSEED
  5
30A
  9
$TILEMODE
 70
1
  9
$MEASUREMENT
 70
1
  9
$INSUNITS
 70
4
  0
ENDSEC
  0
SECTION
  2
CLASSES
  0
CLASS
  1
ACDBDICTIONARYWDFLT
  2
AcDbDictionaryWithDefault
  3
AutoCAD 2000
 90
0
 91
1
280
0
281
0
  0
CLASS
  1
ACDBPLACEHOLDER
  2
AcDbPlaceHolder
  3
AutoCAD 2000
 90
0
 91
1
280
0
281
0
  0
CLASS
  1
LAYOUT
  2
AcDbLayout
  3
AutoCAD 2000
 90
0
 91
0
280
0
281
0
  0
ENDSEC
  0
SECTION
  2
TABLES
  0
TABLE
  2
VPORT
  5
8
100
AcDbSymbolTable
 70
2
  0
VPORT
  5
1F4
100
AcDbSymbolTableRecord
100
AcDbViewportTableRecord
  2
*ACTIVE
 70
0
 10
0.0
 20
0.0
 11
1.0
 21
1.0
 12
26.7908066169
 22
37.8898550725
 13
0.0
 23
0.0
 14
1.0
 24
1.0
 15
0.0
 25
0.0
 16
0.0
 26
0.0
 36
1.0
 17
0.0
 27
0.0
 37
0.0
 40
75.7797101449
 41
0.7070707071
 42
50.0
 43
0.0
 44
0.0
 50
0.0
 51
0.0
 71
0
 72
100
 73
1
 74
1
 75
0
 76
0
 77
0
 78
0
  0
ENDTAB
  0
TABLE
  2
LTYPE
  5
5
100
AcDbSymbolTable
 70
6
  0
LTYPE
  5
14
100
AcDbSymbolTableRecord
100
AcDbLinetypeTableRecord
  2
BYBLOCK
 70
0
  3

 72
65
 73
0
 40
0.0
  0
LTYPE
  5
15
100
AcDbSymbolTableRecord
100
AcDbLinetypeTableRecord
  2
BYLAYER
 70
0
  3

 72
65
 73
0
 40
0.0
  0
LTYPE
  5
16
100
AcDbSymbolTableRecord
100
AcDbLinetypeTableRecord
  2
CONTINUOUS
 70
64
  3
Solid line
 72
65
 73
0
 40
0.0
  0
LTYPE
  5
1F5
100
AcDbSymbolTableRecord
100
AcDbLinetypeTableRecord
  2
CENTER
 70
64
  3
____ _ ____ _ ____ _ ____ _ ____ _ ____ _ ____
 72
65
 73
4
 40
0.6
 49
0.375
 74
0
 49
-0.075
 74
0
 49
0.075
 74
0
 49
-0.075
 74
0
  0
LTYPE
  5
1F6
100
AcDbSymbolTableRecord
100
AcDbLinetypeTableRecord
  2
HIDDEN
 70
64
  3
- - - - - - - - - - - - - - - - - - - -
 72
65
 73
2
 40
0.2
 49
0.1
 74
0
 49
-0.1
 74
0
  0
LTYPE
  5
1F7
100
AcDbSymbolTableRecord
100
AcDbLinetypeTableRecord
  2
PHANTOM
 70
64
  3
_____ _ _ _____ _ _ _____ _ _ _____
 72
65
 73
6
 40
0.8
 49
0.45
 74
0
 49
-0.05
 74
0
 49
0.1
 74
0
 49
-0.05
 74
0
 49
0.1
 74
0
 49
-0.05
 74
0
  0
LTYPE
  5
1F8
100
AcDbSymbolTableRecord
100
AcDbLinetypeTableRecord
  2
DOT
 70
64
  3
. . . . . . . . . . . . . . . . . . . .
 72
65
 73
2
 40
0.2
 49
0.1
 74
0
 49
-0.1
 74
0
  0
LTYPE
  5
1F9
100
AcDbSymbolTableRecord
100
AcDbLinetypeTableRecord
  2
DASHED
 70
64
  3
- - - - - - - - - - - - - - - - - - - -
 72
65
 73
2
 40
0.2
 49
0.1
 74
0
 49
-0.1
 74
0
  0
ENDTAB
  0
TABLE
  2
LAYER
  5
2
100
AcDbSymbolTable
 70
36
  0
LAYER
  5
10
100
AcDbSymbolTableRecord
100
AcDbLayerTableRecord
  2
0
 70
0
 62
7
  6
CONTINUOUS
370
-3
390
F
  0
LAYER
  5
1FA
100
AcDbSymbolTableRecord
100
AcDbLayerTableRecord
  2
DEFAULT_1
 70
0
 62
7
  6
CENTER
370
-3
390
F
  0
LAYER
  5
1FB
100
AcDbSymbolTableRecord
100
AcDbLayerTableRecord
  2
DEFAULT_2
 70
0
 62
7
  6
HIDDEN
370
-3
390
F
  0
LAYER
  5
1FC
100
AcDbSymbolTableRecord
100
AcDbLayerTableRecord
  2
DEFAULT_3
 70
0
 62
7
  6
PHANTOM
370
-3
390
F
  0
LAYER
  5
1FD
100
AcDbSymbolTableRecord
100
AcDbLayerTableRecord
  2
00_COMPONENTS
 70
0
 62
7
  6
CONTINUOUS
370
-3
390
F
  0
LAYER
  5
1FE
100
AcDbSymbolTableRecord
100
AcDbLayerTableRecord
  2
01_1_DEFAULT_DATUMS
 70
0
 62
7
  6
CONTINUOUS
370
-3
390
F
  0
LAYER
  5
1FF
100
AcDbSymbolTableRecord
100
AcDbLayerTableRecord
  2
01_PLANES
 70
0
 62
7
  6
CONTINUOUS
370
-3
390
F
  0
LAYER
  5
200
100
AcDbSymbolTableRecord
100
AcDbLayerTableRecord
  2
02_COORD_SYS
 70
0
 62
7
  6
CONTINUOUS
370
-3
390
F
  0
LAYER
  5
201
100
AcDbSymbolTableRecord
100
AcDbLayerTableRecord
  2
03_AXES
 70
0
 62
7
  6
CONTINUOUS
370
-3
390
F
  0
LAYER
  5
202
100
AcDbSymbolTableRecord
100
AcDbLayerTableRecord
  2
04_POINTS
 70
0
 62
7
  6
CONTINUOUS
370
-3
390
F
  0
LAYER
  5
203
100
AcDbSymbolTableRecord
100
AcDbLayerTableRecord
  2
05_CURVES
 70
0
 62
7
  6
CONTINUOUS
370
-3
390
F
  0
LAYER
  5
204
100
AcDbSymbolTableRecord
100
AcDbLayerTableRecord
  2
06_SURFS
 70
0
 62
7
  6
CONTINUOUS
370
-3
390
F
  0
LAYER
  5
205
100
AcDbSymbolTableRecord
100
AcDbLayerTableRecord
  2
07_COSMETICS
 70
0
 62
7
  6
CONTINUOUS
370
-3
390
F
  0
LAYER
  5
206
100
AcDbSymbolTableRecord
100
AcDbLayerTableRecord
  2
10_NOTES
 70
0
 62
7
  6
CONTINUOUS
370
-3
390
F
  0
LAYER
  5
207
100
AcDbSymbolTableRecord
100
AcDbLayerTableRecord
  2
11_NOTES_PUB
 70
0
 62
7
  6
CONTINUOUS
370
-3
390
F
  0
LAYER
  5
208
100
AcDbSymbolTableRecord
100
AcDbLayerTableRecord
  2
13_REF_GTOL
 70
0
 62
7
  6
CONTINUOUS
370
-3
390
F
  0
LAYER
  5
209
100
AcDbSymbolTableRecord
100
AcDbLayerTableRecord
  2
16_MISC
 70
0
 62
7
  6
CONTINUOUS
370
-3
390
F
  0
LAYER
  5
20A
100
AcDbSymbolTableRecord
100
AcDbLayerTableRecord
  2
17_NO_PRINT
 70
0
 62
7
  6
CONTINUOUS
370
-3
390
F
  0
LAYER
  5
20B
100
AcDbSymbolTableRecord
100
AcDbLayerTableRecord
  2
18_DATUM_CAMS_JOINTS
 70
0
 62
7
  6
CONTINUOUS
370
-3
390
F
  0
LAYER
  5
20C
100
AcDbSymbolTableRecord
100
AcDbLayerTableRecord
  2
19_DATUM_FUNCTIONAL
 70
0
 62
7
  6
CONTINUOUS
370
-3
390
F
  0
LAYER
  5
20D
100
AcDbSymbolTableRecord
100
AcDbLayerTableRecord
  2
20_DATUM_KINEMATIC_SCHEME
 70
0
 62
7
  6
CONTINUOUS
370
-3
390
F
  0
ENDTAB
  0
TABLE
  2
STYLE
  5
3
100
AcDbSymbolTable
 70
1
  0
STYLE
  5
11
100
AcDbSymbolTableRecord
100
AcDbTextStyleTableRecord
  2
STANDARD
 70
0
 40
0.0
 41
1.0
 50
0.0
 71
0
 42
0.2
  3
ARIAL.TTF
  4

  0
STYLE
  5
20E
100
AcDbSymbolTableRecord
100
AcDbTextStyleTableRecord
  2
TEXTSTYLE_1
 70
0
 40
0.0
 41
0.8
 50
0.0
 71
0
 42
0.2
  3
gdt
  4

  0
ENDTAB
  0
TABLE
  2
VIEW
  5
6
100
AcDbSymbolTable
 70
0
  0
ENDTAB
  0
TABLE
  2
UCS
  5
7
100
AcDbSymbolTable
 70
0
  0
ENDTAB
  0
TABLE
  2
APPID
  5
9
100
AcDbSymbolTable
 70
1
  0
APPID
  5
20F
100
AcDbSymbolTableRecord
100
AcDbRegAppTableRecord
  2
ACAD
 70
0
  0
ENDTAB
  0
TABLE
  2
BLOCK_RECORD
  5
1
100
AcDbSymbolTable
 70
0
  0
BLOCK_RECORD
  5
210
100
AcDbSymbolTableRecord
100
AcDbBlockTableRecord
  2
*Model_Space
  0
BLOCK_RECORD
  5
211
100
AcDbSymbolTableRecord
100
AcDbBlockTableRecord
  2
*Paper_Space
  0
BLOCK_RECORD
  5
212
100
AcDbSymbolTableRecord
100
AcDbBlockTableRecord
  2
_FILLED
  0
ENDTAB
  0
TABLE
  2
DIMSTYLE
  5
A
100
AcDbSymbolTable
 70
1
100
AcDbDimStyleTable
 71
0
  0
DIMSTYLE
105
213
100
AcDbSymbolTableRecord
100
AcDbDimStyleTableRecord
  2
STANDARD
 70
0
  3

  4

 40
1.0
 41
0.637876348
 42
1.0
 43
0.38
 44
1.0
 45
0.0
 46
0.0
 47
0.01
 48
0.01
140
0.8930268872
141
0.09
142
0.0
143
25.4
144
1.0
145
0.0
146
1.0
147
0.625
 71
1
 72
0
 73
0
 74
0
 75
0
 76
0
 77
1
 78
8
 79
2
170
0
171
1
172
0
173
0
174
0
175
0
176
0
177
0
178
0
270
2
179
2
271
2
272
2
273
2
274
2
275
0
280
0
281
0
282
0
283
1
284
8
285
0
286
0
287
3
288
0
340
11
278
46
341
212
342
212
343
212
344
212
  0
ENDTAB
  0
ENDSEC
  0
SECTION
  2
BLOCKS
  0
BLOCK
  5
20
100
AcDbEntity
  8
0
100
AcDbBlockBegin
  2
*Model_Space
 70
0
 10
0.0
 20
0.0
 30
0.0
  3
*Model_Space
  1

  0
ENDBLK
  5
21
100
AcDbEntity
  8
0
100
AcDbBlockEnd
  0
BLOCK
  5
1C
100
AcDbEntity
  8
0
100
AcDbBlockBegin
  2
*Paper_Space
 70
0
 10
0.0
 20
0.0
 30
0.0
  3
*Paper_Space
  1

  0
ENDBLK
  5
1D
100
AcDbEntity
  8
0
100
AcDbBlockEnd
  0
BLOCK
  5
214
100
AcDbEntity
  8
0
100
AcDbBlockBegin
  2
_FILLED
 70
64
 10
0.0
 20
0.0
  3
_FILLED
  1

  0
SOLID
  5
215
100
AcDbEntity
  8
0
  6
BYBLOCK
 62
0
100
AcDbTrace
 10
0.0
 20
0.0
 11
-1.0
 21
0.25
 12
-1.0
 22
-0.25
 13
-1.0
 23
-0.25
  0
ENDBLK
  5
216
100
AcDbEntity
  8
0
  6
BYBLOCK
 62
0
100
AcDbBlockEnd
  0
ENDSEC
  0
SECTION
  2
ENTITIES
  0
LINE
  5
217
100
AcDbEntity
  8
0
100
AcDbLine
 62
7
  6
BYLAYER
 10
32.5828180662
 20
6.0753623188
 11
22.4828277632
 21
6.0753623188
  0
LINE
  5
218
100
AcDbEntity
  8
0
100
AcDbLine
 62
7
  6
BYLAYER
 10
32.7828277632
 20
6.2753623188
 11
28.2556693779
 21
6.2753623188
  0
LINE
  5
219
100
AcDbEntity
  8
0
100
AcDbLine
 62
7
  6
BYLAYER
 10
26.8099861485
 20
6.2753623188
 11
22.2828277632
 21
6.2753623188
  0
LINE
  5
21A
100
AcDbEntity
  8
0
100
AcDbLine
 62
7
  6
BYLAYER
 10
33.3327247058
 20
6.4753623188
 11
21.7328277632
 21
6.4753623188
  0
LINE
  5
21B
100
AcDbEntity
  8
0
100
AcDbLine
 62
7
  6
BYLAYER
 10
33.5328277632
 20
6.6753623188
 11
21.5328277632
 21
6.6753623188
  0
LINE
  5
21C
100
AcDbEntity
  8
0
100
AcDbLine
 62
7
  6
BYLAYER
 10
36.0328277632
 20
9.0753623188
 11
19.0328277632
 21
9.0753623188
  0
LINE
  5
21D
100
AcDbEntity
  8
0
100
AcDbLine
 62
7
  6
BYLAYER
 10
21.7328277632
 20
6.4753623188
 11
21.5328277632
 21
6.6753623188
  0
LINE
  5
21E
100
AcDbEntity
  8
0
100
AcDbLine
 62
7
  6
BYLAYER
 10
19.0328277632
 20
12.0753623188
 11
36.0328277632
 21
12.0753623188
  0
LINE
  5
21F
100
AcDbEntity
  8
0
100
AcDbLine
 62
7
  6
BYLAYER
 10
20.4176930876
 20
12.7753623188
 11
21.1918080536
 21
12.7753623188
  0
LINE
  5
220
100
AcDbEntity
  8
0
100
AcDbLine
 62
7
  6
BYLAYER
 10
21.2008297925
 20
12.7753623188
 11
21.4723093929
 21
12.7753623188
  0
LINE
  5
221
100
AcDbEntity
  8
0
100
AcDbLine
 62
7
  6
BYLAYER
 10
21.5176692344
 20
12.7753623188
 11
21.8016071236
 21
12.7753623188
  0
LINE
  5
222
100
AcDbEntity
  8
0
100
AcDbLine
 62
7
  6
BYLAYER
 10
22.293685367
 20
12.7753623188
 11
22.5956123407
 21
12.7753623188
  0
LINE
  5
223
100
AcDbEntity
  8
0
100
AcDbLine
 62
7
  6
BYLAYER
 10
23.2380963523
 20
12.7753623188
 11
23.5483037237
 21
12.7753623188
  0
LINE
  5
224
100
AcDbEntity
  8
0
100
AcDbLine
 62
7
  6
BYLAYER
 10
24.3205435389
 20
12.7753623188
 11
24.6290609879
 21
12.7753623188
  0
LINE
  5
225
100
AcDbEntity
  8
0
100
AcDbLine
 62
7
  6
BYLAYER
 10
25.5062361835
 20
12.7753623188
 11
25.8031477054
 21
12.7753623188
  0
LINE
  5
226
100
AcDbEntity
  8
0
100
AcDbLine
 62
7
  6
BYLAYER
 10
26.757065149
 20
12.7753623188
 11
27.0328277632
 21
12.7753623188
  0
LINE
  5
227
100
AcDbEntity
  8
0
100
AcDbLine
 62
7
  6
BYLAYER
 10
28.0328277632
 20
12.7753623188
 11
28.3085903774
 21
12.7753623188
  0
LINE
  5
228
100
AcDbEntity
  8
0
100
AcDbLine
 62
7
  6
BYLAYER
 10
29.262507821
 20
12.7753623188
 11
29.5594193429
 21
12.7753623188
  0
LINE
  5
229
100
AcDbEntity
  8
0
100
AcDbLine
 62
7
  6
BYLAYER
 10
30.4365945385
 20
12.7753623188
 11
30.7451119875
 21
12.7753623188
  0
LINE
  5
22A
100
AcDbEntity
  8
0
100
AcDbLine
 62
7
  6
BYLAYER
 10
31.5173518027
 20
12.7753623188
 11
31.8275591741
 21
12.7753623188
  0
LINE
  5
22B
100
AcDbEntity
  8
0
100
AcDbLine
 62
7
  6
BYLAYER
 10
32.4700431857
 20
12.7753623188
 11
32.7719701594
 21
12.7753623188
  0
LINE
  5
22C
100
AcDbEntity
  8
0
100
AcDbLine
 62
7
  6
BYLAYER
 10
33.2640484028
 20
12.7753623188
 11
33.5479907973
 21
12.7753623188
  0
LINE
  5
22D
100
AcDbEntity
  8
0
100
AcDbLine
 62
7
  6
BYLAYER
 10
33.5933458016
 20
12.7753623188
 11
33.8648257339
 21
12.7753623188
  0
LINE
  5
22E
100
AcDbEntity
  8
0
100
AcDbLine
 62
7
  6
BYLAYER
 10
33.8738474728
 20
12.7753623188
 11
34.6479624388
 21
12.7753623188
  0
LINE
  5
22F
100
AcDbEntity
  8
0
100
AcDbLine
 62
7
  6
BYLAYER
 10
34.6479624388
 20
15.3753623188
 11
33.8738474728
 21
15.3753623188
  0
LINE
  5
230
100
AcDbEntity
  8
0
100
AcDbLine
 62
7
  6
BYLAYER
 10
33.8648257339
 20
15.3753623188
 11
33.5933458016
 21
15.3753623188
  0
LINE
  5
231
100
AcDbEntity
  8
0
100
AcDbLine
 62
7
  6
BYLAYER
 10
33.5479907973
 20
15.3753623188
 11
33.2640484028
 21
15.3753623188
  0
LINE
  5
232
100
AcDbEntity
  8
0
100
AcDbLine
 62
7
  6
BYLAYER
 10
32.7719701594
 20
15.3753623188
 11
32.4700431857
 21
15.3753623188
  0
LINE
  5
233
100
AcDbEntity
  8
0
100
AcDbLine
 62
7
  6
BYLAYER
 10
31.8275591741
 20
15.3753623188
 11
31.5173518027
 21
15.3753623188
  0
LINE
  5
234
100
AcDbEntity
  8
0
100
AcDbLine
 62
7
  6
BYLAYER
 10
30.7451119875
 20
15.3753623188
 11
30.4365945385
 21
15.3753623188
  0
LINE
  5
235
100
AcDbEntity
  8
0
100
AcDbLine
 62
7
  6
BYLAYER
 10
29.5594193429
 20
15.3753623188
 11
29.262507821
 21
15.3753623188
  0
LINE
  5
236
100
AcDbEntity
  8
0
100
AcDbLine
 62
7
  6
BYLAYER
 10
28.3085903774
 20
15.3753623188
 11
28.0328277632
 21
15.3753623188
  0
LINE
  5
237
100
AcDbEntity
  8
0
100
AcDbLine
 62
7
  6
BYLAYER
 10
27.0328277632
 20
15.3753623188
 11
26.757065149
 21
15.3753623188
  0
LINE
  5
238
100
AcDbEntity
  8
0
100
AcDbLine
 62
7
  6
BYLAYER
 10
25.8031477054
 20
15.3753623188
 11
25.5062361835
 21
15.3753623188
  0
LINE
  5
239
100
AcDbEntity
  8
0
100
AcDbLine
 62
7
  6
BYLAYER
 10
24.6290609879
 20
15.3753623188
 11
24.3205435389
 21
15.3753623188
  0
LINE
  5
23A
100
AcDbEntity
  8
0
100
AcDbLine
 62
7
  6
BYLAYER
 10
23.5483037237
 20
15.3753623188
 11
23.2380963523
 21
15.3753623188
  0
LINE
  5
23B
100
AcDbEntity
  8
0
100
AcDbLine
 62
7
  6
BYLAYER
 10
22.5956123407
 20
15.3753623188
 11
22.293685367
 21
15.3753623188
  0
LINE
  5
23C
100
AcDbEntity
  8
0
100
AcDbLine
 62
7
  6
BYLAYER
 10
21.8016071236
 20
15.3753623188
 11
21.5176692344
 21
15.3753623188
  0
LINE
  5
23D
100
AcDbEntity
  8
0
100
AcDbLine
 62
7
  6
BYLAYER
 10
21.4723093929
 20
15.3753623188
 11
21.2008297925
 21
15.3753623188
  0
LINE
  5
23E
100
AcDbEntity
  8
0
100
AcDbLine
 62
7
  6
BYLAYER
 10
21.1918080536
 20
15.3753623188
 11
20.4176930876
 21
15.3753623188
  0
LINE
  5
23F
100
AcDbEntity
  8
0
100
AcDbLine
 62
7
  6
BYLAYER
 10
36.0328277632
 20
16.0753623188
 11
19.0328277632
 21
16.0753623188
  0
LINE
  5
240
100
AcDbEntity
  8
0
100
AcDbLine
 62
7
  6
BYLAYER
 10
19.0328277632
 20
19.0753623188
 11
36.0328277632
 21
19.0753623188
  0
LINE
  5
241
100
AcDbEntity
  8
0
100
AcDbLine
 62
7
  6
BYLAYER
 10
27.0328277632
 20
12.7753623188
 11
27.5328277632
 21
12.2753623188
  0
LINE
  5
242
100
AcDbEntity
  8
0
100
AcDbLine
 62
7
  6
BYLAYER
 10
28.0328277632
 20
15.3753623188
 11
27.5328277632
 21
15.8753623188
  0
LINE
  5
243
100
AcDbEntity
  8
0
100
AcDbLine
 62
7
  6
BYLAYER
 10
20.3675548721
 20
15.5538936493
 11
20.2278277632
 21
16.0753623188
  0
LINE
  5
244
100
AcDbEntity
  8
0
100
AcDbLine
 62
7
  6
BYLAYER
 10
22.5328277632
 20
48.0753623188
 11
21.5328277632
 21
47.0753623188
  0
LINE
  5
245
100
AcDbEntity
  8
0
100
AcDbLine
 62
7
  6
BYLAYER
 10
19.0328277632
 20
12.0753623188
 11
19.0328277632
 21
9.0753623188
  0
LINE
  5
246
100
AcDbEntity
  8
0
100
AcDbLine
 62
7
  6
BYLAYER
 10
19.0328277632
 20
16.0753623188
 11
19.0328277632
 21
19.0753623188
  0
LINE
  5
247
100
AcDbEntity
  8
0
100
AcDbLine
 62
7
  6
BYLAYER
 10
19.4658404651
 20
11.4548547033
 11
19.4658404651
 21
9.6958700304
  0
LINE
  5
248
100
AcDbEntity
  8
0
100
AcDbLine
 62
7
  6
BYLAYER
 10
19.4658404651
 20
16.6958699343
 11
19.4658404651
 21
18.4548546842
  0
LINE
  5
249
100
AcDbEntity
  8
0
100
AcDbLine
 62
7
  6
BYLAYER
 10
21.5328277632
 20
6.6753623188
 11
21.5328277632
 21
9.0753623188
  0
LINE
  5
24A
100
AcDbEntity
  8
0
100
AcDbLine
 62
7
  6
BYLAYER
 10
21.5328277632
 20
12.7753623188
 11
21.5328277632
 21
15.3753623188
  0
LINE
  5
24B
100
AcDbEntity
  8
0
100
AcDbLine
 62
7
  6
BYLAYER
 10
21.5328277632
 20
19.0753623188
 11
21.5328277632
 21
47.0753623188
  0
LINE
  5
24C
100
AcDbEntity
  8
0
100
AcDbLine
 62
7
  6
BYLAYER
 10
22.2828277632
 20
6.2753623188
 11
22.2828277632
 21
6.4753623188
  0
LINE
  5
24D
100
AcDbEntity
  8
0
100
AcDbLine
 62
7
  6
BYLAYER
 10
22.5328277632
 20
48.0753623188
 11
22.5328277632
 21
55.7753623188
  0
LINE
  5
24E
100
AcDbEntity
  8
0
100
AcDbLine
 62
7
  6
BYLAYER
 10
22.5328277632
 20
55.8753623188
 11
22.5328277632
 21
57.8753623188
  0
LINE
  5
24F
100
AcDbEntity
  8
0
100
AcDbLine
 62
7
  6
BYLAYER
 10
22.5828277632
 20
55.7753623188
 11
22.5828277632
 21
55.8753623188
  0
LINE
  5
250
100
AcDbEntity
  8
0
100
AcDbLine
 62
7
  6
BYLAYER
 10
24.3599433752
 20
59.88582951
 11
24.2650608102
 21
58.0753623188
  0
LINE
  5
251
100
AcDbEntity
  8
0
100
AcDbLine
 62
7
  6
BYLAYER
 10
24.7650608102
 20
70.0753623188
 11
24.7650608102
 21
60.0753623188
  0
LINE
  5
252
100
AcDbEntity
  8
0
100
AcDbLine
 62
7
  6
BYLAYER
 10
26.7650608102
 20
70.0753623188
 11
26.7650608102
 21
60.0753623188
  0
LINE
  5
253
100
AcDbEntity
  8
0
100
AcDbLine
 62
7
  6
BYLAYER
 10
26.8099861485
 20
6.2753623188
 11
26.8099861485
 21
6.4753623188
  0
LINE
  5
254
100
AcDbEntity
  8
0
100
AcDbLine
 62
7
  6
BYLAYER
 10
27.0998150613
 20
11.4548547069
 11
27.0998150613
 21
9.6958699502
  0
LINE
  5
255
100
AcDbEntity
  8
0
100
AcDbLine
 62
7
  6
BYLAYER
 10
27.0998150613
 20
16.6958699308
 11
27.0998150613
 21
18.4548546093
  0
LINE
  5
256
100
AcDbEntity
  8
0
100
AcDbLine
 62
7
  6
BYLAYER
 10
27.7926353843
 20
11.4007597837
 11
27.7926353843
 21
9.749964854
  0
LINE
  5
257
100
AcDbEntity
  8
0
100
AcDbLine
 62
7
  6
BYLAYER
 10
27.7926353843
 20
16.749964854
 11
27.7926353843
 21
18.4007597919
  0
LINE
  5
258
100
AcDbEntity
  8
0
100
AcDbLine
 62
7
  6
BYLAYER
 10
20.3675548721
 20
12.5968309884
 11
20.2278277632
 21
12.0753623188
  0
LINE
  5
259
100
AcDbEntity
  8
0
100
AcDbLine
 62
7
  6
BYLAYER
 10
27.1701782453
 20
59.88582951
 11
27.2650608102
 21
58.0753623188
  0
LINE
  5
25A
100
AcDbEntity
  8
0
100
AcDbLine
 62
7
  6
BYLAYER
 10
28.2556693779
 20
6.4753623188
 11
28.2556693779
 21
6.2753623188
  0
LINE
  5
25B
100
AcDbEntity
  8
0
100
AcDbLine
 62
7
  6
BYLAYER
 10
34.6981006543
 20
12.5968309884
 11
34.8378277632
 21
12.0753623188
  0
LINE
  5
25C
100
AcDbEntity
  8
0
100
AcDbLine
 62
7
  6
BYLAYER
 10
32.4828277632
 20
55.7753623188
 11
32.4828277632
 21
55.8753623188
  0
LINE
  5
25D
100
AcDbEntity
  8
0
100
AcDbLine
 62
7
  6
BYLAYER
 10
32.5328277632
 20
48.0753623188
 11
32.5328277632
 21
55.7753623188
  0
LINE
  5
25E
100
AcDbEntity
  8
0
100
AcDbLine
 62
7
  6
BYLAYER
 10
32.5328277632
 20
55.8753623188
 11
32.5328277632
 21
57.8753623188
  0
LINE
  5
25F
100
AcDbEntity
  8
0
100
AcDbLine
 62
7
  6
BYLAYER
 10
32.7828277632
 20
6.2753623188
 11
32.7828277632
 21
6.4753623188
  0
LINE
  5
260
100
AcDbEntity
  8
0
100
AcDbLine
 62
7
  6
BYLAYER
 10
33.5328277632
 20
6.6753623188
 11
33.5328277632
 21
9.0753623188
  0
LINE
  5
261
100
AcDbEntity
  8
0
100
AcDbLine
 62
7
  6
BYLAYER
 10
33.5328277632
 20
12.7753623188
 11
33.5328277632
 21
15.3753623188
  0
LINE
  5
262
100
AcDbEntity
  8
0
100
AcDbLine
 62
7
  6
BYLAYER
 10
33.5328277632
 20
19.0753623188
 11
33.5328277632
 21
47.0753623188
  0
LINE
  5
263
100
AcDbEntity
  8
0
100
AcDbLine
 62
7
  6
BYLAYER
 10
35.7730201421
 20
11.4007597847
 11
35.7730201421
 21
9.7499648447
  0
LINE
  5
264
100
AcDbEntity
  8
0
100
AcDbLine
 62
7
  6
BYLAYER
 10
35.7730201421
 20
16.7499648529
 11
35.7730201421
 21
18.4007597847
  0
LINE
  5
265
100
AcDbEntity
  8
0
100
AcDbLine
 62
7
  6
BYLAYER
 10
36.0328277632
 20
9.0753623188
 11
36.0328277632
 21
12.0753623188
  0
LINE
  5
266
100
AcDbEntity
  8
0
100
AcDbLine
 62
7
  6
BYLAYER
 10
36.0328277632
 20
16.0753623188
 11
36.0328277632
 21
19.0753623188
  0
LINE
  5
267
100
AcDbEntity
  8
0
100
AcDbLine
 62
7
  6
BYLAYER
 10
21.5328277632
 20
47.0753623188
 11
33.5328277632
 21
47.0753623188
  0
LINE
  5
268
100
AcDbEntity
  8
0
100
AcDbLine
 62
7
  6
BYLAYER
 10
32.5328277632
 20
48.0753623188
 11
22.5328277632
 21
48.0753623188
  0
LINE
  5
269
100
AcDbEntity
  8
0
100
AcDbLine
 62
7
  6
BYLAYER
 10
32.5328277632
 20
48.0753623188
 11
33.5328277632
 21
47.0753623188
  0
LINE
  5
26A
100
AcDbEntity
  8
0
100
AcDbLine
 62
7
  6
BYLAYER
 10
34.6981006543
 20
15.5538936493
 11
34.8378277632
 21
16.0753623188
  0
LINE
  5
26B
100
AcDbEntity
  8
0
100
AcDbLine
 62
7
  6
BYLAYER
 10
27.0328277632
 20
15.3753623188
 11
27.5328277632
 21
15.8753623188
  0
LINE
  5
26C
100
AcDbEntity
  8
0
100
AcDbLine
 62
7
  6
BYLAYER
 10
22.5330026305
 20
55.7753623188
 11
32.5326528959
 21
55.7753623188
  0
LINE
  5
26D
100
AcDbEntity
  8
0
100
AcDbLine
 62
7
  6
BYLAYER
 10
32.5326009994
 20
55.8753623188
 11
22.5328277632
 21
55.8753623188
  0
LINE
  5
26E
100
AcDbEntity
  8
0
100
AcDbLine
 62
7
  6
BYLAYER
 10
28.0328277632
 20
12.7753623188
 11
27.5328277632
 21
12.2753623188
  0
LINE
  5
26F
100
AcDbEntity
  8
0
100
AcDbLine
 62
7
  6
BYLAYER
 10
22.5328277632
 20
57.8753623188
 11
32.5328277632
 21
57.8753623188
  0
LINE
  5
270
100
AcDbEntity
  8
0
100
AcDbLine
 62
7
  6
BYLAYER
 10
22.7328277632
 20
58.0753623188
 11
32.3326535341
 21
58.0753623188
  0
LINE
  5
271
100
AcDbEntity
  8
0
100
AcDbLine
 62
7
  6
BYLAYER
 10
24.3599433752
 20
59.88582951
 11
27.1701782453
 21
59.88582951
  0
LINE
  5
272
100
AcDbEntity
  8
0
100
AcDbLine
 62
7
  6
BYLAYER
 10
24.5596692821
 20
60.0753623188
 11
26.9704523212
 21
60.0753623188
  0
LINE
  5
273
100
AcDbEntity
  8
0
100
AcDbLine
 62
7
  6
BYLAYER
 10
33.3328277632
 20
6.4753623188
 11
33.5328277632
 21
6.6753623188
  0
LINE
  5
274
100
AcDbEntity
  8
0
100
AcDbLine
 62
7
  6
BYLAYER
 10
24.7650608102
 20
70.0753623188
 11
26.7650608102
 21
70.0753623188
  0
ARC
  5
275
100
AcDbEntity
  8
0
100
AcDbCircle
 62
7
  6
BYLAYER
 10
26.1403307519
 20
-5.2974263968
 40
16.7797357642
100
AcDbArc
 50
84.3489130182
 51
86.7219743795
  0
ARC
  5
276
100
AcDbEntity
  8
0
100
AcDbCircle
 62
7
  6
BYLAYER
 10
26.1403307516
 20
33.4481510345
 40
16.7797357643
100
AcDbArc
 50
273.2780256213
 51
275.6510869827
  0
ARC
  5
277
100
AcDbEntity
  8
0
100
AcDbCircle
 62
7
  6
BYLAYER
 10
26.1403322688
 20
1.7025844948
 40
16.7797247843
100
AcDbArc
 50
84.3489145133
 51
86.7219774203
  0
ARC
  5
278
100
AcDbEntity
  8
0
100
AcDbCircle
 62
7
  6
BYLAYER
 10
26.1403322701
 20
26.4481401291
 40
16.7797247705
100
AcDbArc
 50
273.2780225779
 51
275.6510854869
  0
ARC
  5
279
100
AcDbEntity
  8
0
100
AcDbCircle
 62
7
  6
BYLAYER
 10
27.2278464118
 20
10.5952122978
 40
7.733768549
100
AcDbArc
 50
14.9997863275
 51
16.3736405792
  0
ARC
  5
27A
100
AcDbEntity
  8
0
100
AcDbCircle
 62
7
  6
BYLAYER
 10
27.8378091144
 20
17.5555123398
 40
7.7337685488
100
AcDbArc
 50
194.9997863275
 51
196.3736405793
  0
ARC
  5
27B
100
AcDbEntity
  8
0
100
AcDbCircle
 62
7
  6
BYLAYER
 10
27.8323325833
 20
10.5967503111
 40
7.7280805594
100
AcDbArc
 50
163.6258538073
 51
165.000719286
  0
ARC
  5
27C
100
AcDbEntity
  8
0
100
AcDbCircle
 62
7
  6
BYLAYER
 10
27.2333229433
 20
17.5539743265
 40
7.7280805591
100
AcDbArc
 50
343.6258538072
 51
345.000719286
  0
ARC
  5
27D
100
AcDbEntity
  8
0
100
AcDbCircle
 62
7
  6
BYLAYER
 10
20.076111909
 20
4.8097126737
 40
6.6731060106
100
AcDbArc
 50
95.2471671025
 51
98.994613594
  0
ARC
  5
27E
100
AcDbEntity
  8
0
100
AcDbCircle
 62
7
  6
BYLAYER
 10
20.0748084168
 20
23.3305779171
 40
6.6625964896
100
AcDbArc
 50
261.0024297496
 51
264.7557895435
  0
ARC
  5
27F
100
AcDbEntity
  8
0
100
AcDbCircle
 62
7
  6
BYLAYER
 10
20.0713155879
 20
11.8481023718
 40
6.6344386531
100
AcDbArc
 50
95.2362390414
 51
99.0055345239
  0
ARC
  5
280
100
AcDbEntity
  8
0
100
AcDbCircle
 62
7
  6
BYLAYER
 10
20.069657365
 20
16.2893487149
 40
6.6210691754
100
AcDbArc
 50
260.9906585622
 51
264.767567883
  0
ARC
  5
281
100
AcDbEntity
  8
0
100
AcDbCircle
 62
7
  6
BYLAYER
 10
36.4141422541
 20
8.9725229864
 40
2.5114480905
100
AcDbArc
 50
98.7330232906
 51
104.7901686828
  0
ARC
  5
282
100
AcDbEntity
  8
0
100
AcDbCircle
 62
7
  6
BYLAYER
 10
36.4133384128
 20
19.1743409554
 40
2.5075101145
100
AcDbArc
 50
255.2050705857
 51
261.2717374493
  0
ARC
  5
283
100
AcDbEntity
  8
0
100
AcDbCircle
 62
7
  6
BYLAYER
 10
36.4076360965
 20
16.0037695783
 40
2.4795764757
100
AcDbArc
 50
98.6940522843
 51
104.8291279894
  0
ARC
  5
284
100
AcDbEntity
  8
0
100
AcDbCircle
 62
7
  6
BYLAYER
 10
36.4066136286
 20
12.1420443372
 40
2.47456764
100
AcDbArc
 50
255.164656967
 51
261.3121627508
  0
ARC
  5
285
100
AcDbEntity
  8
0
100
AcDbCircle
 62
7
  6
BYLAYER
 10
32.5828277632
 20
6.2753623188
 40
0.2
100
AcDbArc
 50
270.0
 51
360.0
  0
ARC
  5
286
100
AcDbEntity
  8
0
100
AcDbCircle
 62
7
  6
BYLAYER
 10
22.4828277632
 20
6.2753623188
 40
0.2
100
AcDbArc
 50
180.0
 51
270.0
  0
ARC
  5
287
100
AcDbEntity
  8
0
100
AcDbCircle
 62
7
  6
BYLAYER
 10
26.9704523383
 20
59.8753623188
 40
0.2
100
AcDbArc
 50
2.9999999861
 51
90.0000000002
  0
ARC
  5
288
100
AcDbEntity
  8
0
100
AcDbCircle
 62
7
  6
BYLAYER
 10
24.5596692821
 20
59.8753623188
 40
0.2
100
AcDbArc
 50
90.0
 51
177.0000000139
  0
ARC
  5
289
100
AcDbEntity
  8
0
100
AcDbCircle
 62
7
  6
BYLAYER
 10
22.7328277632
 20
57.8753623188
 40
0.2
100
AcDbArc
 50
90.0
 51
180.0
  0
ARC
  5
28A
100
AcDbEntity
  8
0
100
AcDbCircle
 62
7
  6
BYLAYER
 10
32.3328277632
 20
57.8753623188
 40
0.2
100
AcDbArc
 50
0.0
 51
90.0
  0
SPLINE
  5
28B
100
AcDbEntity
  8
0
100
AcDbSpline
 62
7
  6
BYLAYER
 70
0
 71
3
 72
42
 73
38
 74
0
 42
0.0000001
 43
0.0000001
 44
0.0000000001
 40
0.0
 40
0.0
 40
0.0
 40
0.0
 40
0.0078308663
 40
0.0156957327
 40
0.0235253168
 40
0.031344184
 40
0.0391593469
 40
0.0469729328
 40
0.0625958372
 40
0.0938311717
 40
0.1250725786
 40
0.1563155759
 40
0.1875592519
 40
0.2188031535
 40
0.2500472046
 40
0.3125334043
 40
0.3750204298
 40
0.437507953
 40
0.4999955697
 40
0.5624832199
 40
0.6249706639
 40
0.68745778
 40
0.7499439941
 40
0.781188048
 40
0.8124319797
 40
0.8436755792
 40
0.8749186193
 40
0.9061599688
 40
0.9217822853
 40
0.9374059856
 40
0.953027398
 40
0.9608415113
 40
0.9686576979
 40
0.976475427
 40
0.9843043782
 40
0.9921692339
 40
1.0
 40
1.0
 40
1.0
 40
1.0
 10
26.8099861485
 20
6.2753623188
 30
0.0
 10
26.8099861485
 20
6.271414337
 30
0.0
 10
26.8118860757
 20
6.2634749366
 30
0.0
 10
26.8182451425
 20
6.2533126773
 30
0.0
 10
26.8267211263
 20
6.2449335148
 30
0.0
 10
26.8361116543
 20
6.2377130076
 30
0.0
 10
26.8461298647
 20
6.2314116949
 30
0.0
 10
26.8600042174
 20
6.2239282012
 30
0.0
 10
26.8852559759
 20
6.2127883203
 30
0.0
 10
26.9227131653
 20
6.2004310479
 30
0.0
 10
26.9685512599
 20
6.1888876458
 30
0.0
 10
27.0148945664
 20
6.1795828856
 30
0.0
 10
27.0615338523
 20
6.1719367559
 30
0.0
 10
27.1083646459
 20
6.1655782743
 30
0.0
 10
27.1709799888
 20
6.1585333585
 30
0.0
 10
27.2494724799
 20
6.1518777946
 30
0.0
 10
27.3438502762
 20
6.1467027061
 30
0.0
 10
27.4383210286
 20
6.1437198309
 30
0.0
 10
27.5328333895
 20
6.1427556756
 30
0.0
 10
27.6273457363
 20
6.1437076298
 30
0.0
 10
27.7218170224
 20
6.1466945751
 30
0.0
 10
27.8161906945
 20
6.1519302956
 30
0.0
 10
27.8946887403
 20
6.1585205841
 30
0.0
 10
27.9573021209
 20
6.1655849798
 30
0.0
 10
28.0041339343
 20
6.1719346179
 30
0.0
 10
28.0507712492
 20
6.1795963168
 30
0.0
 10
28.0971173228
 20
6.1888719576
 30
0.0
 10
28.1353203727
 20
6.198532099
 30
0.0
 10
28.1654116071
 20
6.2078854107
 30
0.0
 10
28.1876541721
 20
6.215883699
 30
0.0
 10
28.2057048502
 20
6.2238359884
 30
0.0
 10
28.219534696
 20
6.2314014892
 30
0.0
 10
28.2295403494
 20
6.2377203734
 30
0.0
 10
28.2389357239
 20
6.2449336787
 30
0.0
 10
28.2474103932
 20
6.2533133812
 30
0.0
 10
28.253769484
 20
6.2634749744
 30
0.0
 10
28.2556693779
 20
6.2714143875
 30
0.0
 10
28.2556693779
 20
6.2753623188
 30
0.0
  0
SPLINE
  5
28C
100
AcDbEntity
  8
0
100
AcDbSpline
 62
7
  6
BYLAYER
 70
0
 71
3
 72
11
 73
7
 74
0
 42
0.0000001
 43
0.0000001
 44
0.0000000001
 40
0.0
 40
0.0
 40
0.0
 40
0.0
 40
0.2512101947
 40
0.5014743658
 40
0.7509613101
 40
1.0
 40
1.0
 40
1.0
 40
1.0
 10
19.4658404651
 20
11.4548547033
 30
0.0
 10
19.776510034
 20
11.5501935846
 30
0.0
 10
20.4020005613
 20
11.7238634179
 30
0.0
 10
21.3538221508
 20
11.9221844995
 30
0.0
 10
22.3154267563
 20
12.0469244537
 30
0.0
 10
22.9606674965
 20
12.0753623188
 30
0.0
 10
23.2828277622
 20
12.0753623188
 30
0.0
  0
SPLINE
  5
28D
100
AcDbEntity
  8
0
100
AcDbSpline
 62
7
  6
BYLAYER
 70
0
 71
3
 72
11
 73
7
 74
0
 42
0.0000001
 43
0.0000001
 44
0.0000000001
 40
0.0
 40
0.0
 40
0.0
 40
0.0
 40
0.2490354588
 40
0.4985183712
 40
0.7487843768
 40
1.0
 40
1.0
 40
1.0
 40
1.0
 10
23.2828277504
 20
9.0753623188
 30
0.0
 10
22.9606719392
 20
9.0753623192
 30
0.0
 10
22.3154446104
 20
9.103842264
 30
0.0
 10
21.353837246
 20
9.228505796
 30
0.0
 10
20.402030224
 20
9.4269154123
 30
0.0
 10
19.7765164843
 20
9.6005291759
 30
0.0
 10
19.4658404651
 20
9.6958700304
 30
0.0
  0
SPLINE
  5
28E
100
AcDbEntity
  8
0
100
AcDbSpline
 62
7
  6
BYLAYER
 70
0
 71
3
 72
11
 73
7
 74
0
 42
0.0000001
 43
0.0000001
 44
0.0000000001
 40
0.0
 40
0.0
 40
0.0
 40
0.0
 40
0.2512966373
 40
0.501588327
 40
0.7510379634
 40
1.0
 40
1.0
 40
1.0
 40
1.0
 10
35.7730201421
 20
9.7499648529
 30
0.0
 10
35.448721281
 20
9.6469355684
 30
0.0
 10
34.7956205372
 20
9.4588247772
 30
0.0
 10
33.8009500065
 20
9.2428556519
 30
0.0
 10
32.7952052083
 20
9.1065497968
 30
0.0
 10
32.1199382009
 20
9.0753623189
 30
0.0
 10
31.7828277649
 20
9.0753623188
 30
0.0
  0
SPLINE
  5
28F
100
AcDbEntity
  8
0
100
AcDbSpline
 62
7
  6
BYLAYER
 70
0
 71
3
 72
11
 73
7
 74
0
 42
0.0000001
 43
0.0000001
 44
0.0000000001
 40
0.0
 40
0.0
 40
0.0
 40
0.0
 40
0.2489622325
 40
0.498411681
 40
0.74870358
 40
1.0
 40
1.0
 40
1.0
 40
1.0
 10
31.7828276893
 20
12.0753623188
 30
0.0
 10
32.1199381876
 20
12.0753623211
 30
0.0
 10
32.7952027802
 20
12.0441462434
 30
0.0
 10
33.8009521984
 20
11.907877739
 30
0.0
 10
34.7956147048
 20
11.6918739185
 30
0.0
 10
35.4487217572
 20
11.5037889204
 30
0.0
 10
35.7730201421
 20
11.4007597847
 30
0.0
  0
SPLINE
  5
290
100
AcDbEntity
  8
0
100
AcDbSpline
 62
7
  6
BYLAYER
 70
0
 71
3
 72
11
 73
7
 74
0
 42
0.0000001
 43
0.0000001
 44
0.0000000001
 40
0.0
 40
0.0
 40
0.0
 40
0.0
 40
0.2512099323
 40
0.5014743965
 40
0.7509612104
 40
1.0
 40
1.0
 40
1.0
 40
1.0
 10
27.0998150613
 20
9.6958700261
 30
0.0
 10
26.7891460084
 20
9.6005313095
 30
0.0
 10
26.1636477537
 20
9.4268939641
 30
0.0
 10
25.2118366514
 20
9.2285238152
 30
0.0
 10
24.2502258769
 20
9.1038325856
 30
0.0
 10
23.6049879445
 20
9.0753623185
 30
0.0
 10
23.2828277504
 20
9.0753623188
 30
0.0
  0
SPLINE
  5
291
100
AcDbEntity
  8
0
100
AcDbSpline
 62
7
  6
BYLAYER
 70
0
 71
3
 72
11
 73
7
 74
0
 42
0.0000001
 43
0.0000001
 44
0.0000000001
 40
0.0
 40
0.0
 40
0.0
 40
0.0
 40
0.2489622325
 40
0.4984116811
 40
0.74870358
 40
1.0
 40
1.0
 40
1.0
 40
1.0
 10
31.7828277649
 20
9.0753623188
 30
0.0
 10
31.4457172726
 20
9.0753623188
 30
0.0
 10
30.7704526926
 20
9.106578406
 30
0.0
 10
29.7647032927
 20
9.2428469079
 30
0.0
 10
28.7700408037
 20
9.4588507239
 30
0.0
 10
28.1169337641
 20
9.6469357223
 30
0.0
 10
27.7926353843
 20
9.749964854
 30
0.0
  0
SPLINE
  5
292
100
AcDbEntity
  8
0
100
AcDbSpline
 62
7
  6
BYLAYER
 70
0
 71
3
 72
11
 73
7
 74
0
 42
0.0000001
 43
0.0000001
 44
0.0000000001
 40
0.0
 40
0.0
 40
0.0
 40
0.0
 40
0.2490354585
 40
0.4985183698
 40
0.7487843769
 40
1.0
 40
1.0
 40
1.0
 40
1.0
 10
23.2828277622
 20
12.0753623188
 30
0.0
 10
23.6049835745
 20
12.0753623189
 30
0.0
 10
24.250210902
 20
12.0468824648
 30
0.0
 10
25.2118183111
 20
11.922219157
 30
0.0
 10
26.1636252752
 20
11.7238092319
 30
0.0
 10
26.7891390425
 20
11.5501955675
 30
0.0
 10
27.0998150613
 20
11.4548547069
 30
0.0
  0
SPLINE
  5
293
100
AcDbEntity
  8
0
100
AcDbSpline
 62
7
  6
BYLAYER
 70
0
 71
3
 72
11
 73
7
 74
0
 42
0.0000001
 43
0.0000001
 44
0.0000000001
 40
0.0
 40
0.0
 40
0.0
 40
0.0
 40
0.2512966373
 40
0.501588327
 40
0.7510379633
 40
1.0
 40
1.0
 40
1.0
 40
1.0
 10
27.7926353843
 20
11.4007597837
 30
0.0
 10
28.1169342389
 20
11.5037890685
 30
0.0
 10
28.770034972
 20
11.6918998523
 30
0.0
 10
29.7647054837
 20
11.9078689803
 30
0.0
 10
30.7704502652
 20
12.0441748198
 30
0.0
 10
31.4457172593
 20
12.0753623166
 30
0.0
 10
31.7828276893
 20
12.0753623188
 30
0.0
  0
SPLINE
  5
294
100
AcDbEntity
  8
0
100
AcDbSpline
 62
7
  6
BYLAYER
 70
0
 71
3
 72
11
 73
7
 74
0
 42
0.0000001
 43
0.0000001
 44
0.0000000001
 40
0.0
 40
0.0
 40
0.0
 40
0.0
 40
0.2512964433
 40
0.5015883548
 40
0.7510378005
 40
1.0
 40
1.0
 40
1.0
 40
1.0
 10
35.7730201421
 20
16.7499648529
 30
0.0
 10
35.4487217271
 20
16.6469357078
 30
0.0
 10
34.7956146381
 20
16.458850659
 30
0.0
 10
33.800952075
 20
16.2428468804
 30
0.0
 10
32.7952026866
 20
16.1065784022
 30
0.0
 10
32.1199381429
 20
16.0753623166
 30
0.0
 10
31.7828276893
 20
16.0753623188
 30
0.0
  0
SPLINE
  5
295
100
AcDbEntity
  8
0
100
AcDbSpline
 62
7
  6
BYLAYER
 70
0
 71
3
 72
11
 73
7
 74
0
 42
0.0000001
 43
0.0000001
 44
0.0000000001
 40
0.0
 40
0.0
 40
0.0
 40
0.0
 40
0.2490353298
 40
0.4985183921
 40
0.7487841884
 40
1.0
 40
1.0
 40
1.0
 40
1.0
 10
23.2828277622
 20
16.0753623188
 30
0.0
 10
22.9606719496
 20
16.0753623189
 30
0.0
 10
22.3154425794
 20
16.1038187258
 30
0.0
 10
21.3538393381
 20
16.2285154254
 30
0.0
 10
20.4020245536
 20
16.4268898786
 30
0.0
 10
19.7765168778
 20
16.6005289528
 30
0.0
 10
19.4658404651
 20
16.6958699343
 30
0.0
  0
SPLINE
  5
296
100
AcDbEntity
  8
0
100
AcDbSpline
 62
7
  6
BYLAYER
 70
0
 71
3
 72
11
 73
7
 74
0
 42
0.0000001
 43
0.0000001
 44
0.0000000001
 40
0.0
 40
0.0
 40
0.0
 40
0.0
 40
0.2489620696
 40
0.498411709
 40
0.7487033859
 40
1.0
 40
1.0
 40
1.0
 40
1.0
 10
31.7828276893
 20
16.0753623188
 30
0.0
 10
31.4457172147
 20
16.0753623211
 30
0.0
 10
30.77045017
 20
16.1065497918
 30
0.0
 10
29.7647053618
 20
16.2428556841
 30
0.0
 10
28.7700349054
 20
16.4588248452
 30
0.0
 10
28.1169342089
 20
16.6469355787
 30
0.0
 10
27.7926353843
 20
16.749964854
 30
0.0
  0
SPLINE
  5
297
100
AcDbEntity
  8
0
100
AcDbSpline
 62
7
  6
BYLAYER
 70
0
 71
3
 72
11
 73
7
 74
0
 42
0.0000001
 43
0.0000001
 44
0.0000000001
 40
0.0
 40
0.0
 40
0.0
 40
0.0
 40
0.2512099322
 40
0.501474398
 40
0.7509612109
 40
1.0
 40
1.0
 40
1.0
 40
1.0
 10
27.0998150613
 20
16.6958699308
 30
0.0
 10
26.7891460108
 20
16.6005312086
 30
0.0
 10
26.1636477417
 20
16.4268939268
 30
0.0
 10
25.2118366908
 20
16.2285235275
 30
0.0
 10
24.2502258826
 20
16.1038324962
 30
0.0
 10
23.6049879552
 20
16.0753623188
 30
0.0
 10
23.2828277622
 20
16.0753623188
 30
0.0
  0
SPLINE
  5
298
100
AcDbEntity
  8
0
100
AcDbSpline
 62
7
  6
BYLAYER
 70
0
 71
3
 72
11
 73
7
 74
0
 42
0.0000001
 43
0.0000001
 44
0.0000000001
 40
0.0
 40
0.0
 40
0.0
 40
0.0
 40
0.2512964433
 40
0.5015883548
 40
0.7510378005
 40
1.0
 40
1.0
 40
1.0
 40
1.0
 10
27.7926353843
 20
18.4007597836
 30
0.0
 10
28.1169337941
 20
18.5037889249
 30
0.0
 10
28.7700408703
 20
18.6918739739
 30
0.0
 10
29.7647034161
 20
18.907877748
 30
0.0
 10
30.7704527862
 20
19.0441462238
 30
0.0
 10
31.4457173173
 20
19.0753623189
 30
0.0
 10
31.7828277649
 20
19.0753623188
 30
0.0
  0
SPLINE
  5
299
100
AcDbEntity
  8
0
100
AcDbSpline
 62
7
  6
BYLAYER
 70
0
 71
3
 72
11
 73
7
 74
0
 42
0.0000001
 43
0.0000001
 44
0.0000000001
 40
0.0
 40
0.0
 40
0.0
 40
0.0
 40
0.2489620696
 40
0.498411709
 40
0.7487033859
 40
1.0
 40
1.0
 40
1.0
 40
1.0
 10
31.7828277649
 20
19.0753623188
 30
0.0
 10
32.1199382455
 20
19.0753623188
 30
0.0
 10
32.7952053035
 20
19.044174867
 30
0.0
 10
33.8009501285
 20
18.9078689591
 30
0.0
 10
34.7956206038
 20
18.6918998006
 30
0.0
 10
35.448721311
 20
18.5037890598
 30
0.0
 10
35.7730201421
 20
18.4007597847
 30
0.0
  0
SPLINE
  5
29A
100
AcDbEntity
  8
0
100
AcDbSpline
 62
7
  6
BYLAYER
 70
0
 71
3
 72
11
 73
7
 74
0
 42
0.0000001
 43
0.0000001
 44
0.0000000001
 40
0.0
 40
0.0
 40
0.0
 40
0.0
 40
0.2490354588
 40
0.4985183711
 40
0.7487843767
 40
1.0
 40
1.0
 40
1.0
 40
1.0
 10
23.2828277504
 20
19.0753623188
 30
0.0
 10
23.6049835637
 20
19.0753623192
 30
0.0
 10
24.2502108974
 20
19.0468823854
 30
0.0
 10
25.2118182681
 20
18.9222188484
 30
0.0
 10
26.1636252968
 20
18.7238092323
 30
0.0
 10
26.7891390399
 20
18.5501954644
 30
0.0
 10
27.0998150613
 20
18.4548546093
 30
0.0
  0
SPLINE
  5
29B
100
AcDbEntity
  8
0
100
AcDbSpline
 62
7
  6
BYLAYER
 70
0
 71
3
 72
11
 73
7
 74
0
 42
0.0000001
 43
0.0000001
 44
0.0000000001
 40
0.0
 40
0.0
 40
0.0
 40
0.0
 40
0.2512099323
 40
0.5014743965
 40
0.7509612104
 40
1.0
 40
1.0
 40
1.0
 40
1.0
 10
19.4658404651
 20
18.4548546096
 30
0.0
 10
19.7765095159
 20
18.5501933256
 30
0.0
 10
20.4020077669
 20
18.7238306674
 30
0.0
 10
21.3538188628
 20
18.922200815
 30
0.0
 10
22.3154296309
 20
19.0468920411
 30
0.0
 10
22.9606675584
 20
19.0753623185
 30
0.0
 10
23.2828277504
 20
19.0753623188
 30
0.0
  0
ELLIPSE
  5
29C
100
AcDbEntity
  8
0
100
AcDbEllipse
 62
7
  6
BYLAYER
 10
30.3266237516
 20
15.1147890631
 30
0.0
 11
7.7573850227
 21
7.7740525866
 31
0.0
 40
0.0839177005
 41
-1.8538601877
 42
-1.7918182479
  0
ELLIPSE
  5
29D
100
AcDbEntity
  8
0
100
AcDbEllipse
 62
7
  6
BYLAYER
 10
29.3298201718
 20
10.1820605145
 30
0.0
 11
-7.470293638
 21
7.5529249294
 31
0.0
 40
0.2672411313
 41
-1.5579404161
 42
-1.4908333218
  0
ELLIPSE
  5
29E
100
AcDbEntity
  8
0
100
AcDbEllipse
 62
7
  6
BYLAYER
 10
29.1092336218
 20
10.1820605145
 30
0.0
 11
-7.2064935757
 21
7.3567354787
 31
0.0
 40
0.3647826662
 41
-1.6427250864
 42
-1.575617992
  0
ELLIPSE
  5
29F
100
AcDbEntity
  8
0
100
AcDbEllipse
 62
7
  6
BYLAYER
 10
28.8379800904
 20
10.1820605145
 30
0.0
 11
-6.8677005641
 21
7.1136561923
 31
0.0
 40
0.4702084876
 41
-1.7256672628
 42
-1.6585601684
  0
ELLIPSE
  5
2A0
100
AcDbEntity
  8
0
100
AcDbEllipse
 62
7
  6
BYLAYER
 10
28.5247778894
 20
10.1820605145
 30
0.0
 11
-6.4469290971
 21
6.8367675082
 31
0.0
 40
0.5863744367
 41
-1.8046293045
 42
-1.7375222101
  0
ELLIPSE
  5
2A1
100
AcDbEntity
  8
0
100
AcDbEllipse
 62
7
  6
BYLAYER
 10
28.4102588815
 20
15.1147890631
 30
0.0
 11
5.5603216015
 21
6.7418945421
 31
0.0
 40
0.7059151333
 41
-1.3646347901
 42
-1.3481344438
  0
ELLIPSE
  5
2A2
100
AcDbEntity
  8
0
100
AcDbEllipse
 62
7
  6
BYLAYER
 10
28.8783431167
 20
15.1147890631
 30
0.0
 11
6.2207204371
 21
6.9314322382
 31
0.0
 40
0.5754627739
 41
-1.4279046902
 42
-1.3986340393
  0
ELLIPSE
  5
2A3
100
AcDbEntity
  8
0
100
AcDbEllipse
 62
7
  6
BYLAYER
 10
29.3031813814
 20
15.1147890631
 30
0.0
 11
6.7146357267
 21
7.16481324
 31
0.0
 40
0.4596347163
 41
-1.5068661289
 42
-1.4686259906
  0
ELLIPSE
  5
2A4
100
AcDbEntity
  8
0
100
AcDbEllipse
 62
7
  6
BYLAYER
 10
29.6711190241
 20
15.1147890631
 30
0.0
 11
7.1058203012
 21
7.381520977
 31
0.0
 40
0.3552643066
 41
-1.5911065342
 42
-1.5458353031
  0
ELLIPSE
  5
2A5
100
AcDbEntity
  8
0
100
AcDbEllipse
 62
7
  6
BYLAYER
 10
29.9703302264
 20
15.1147890631
 30
0.0
 11
7.4088078751
 21
7.5607173369
 31
0.0
 40
0.2594609937
 41
-1.6776849317
 42
-1.626388433
  0
ELLIPSE
  5
2A6
100
AcDbEntity
  8
0
100
AcDbEllipse
 62
7
  6
BYLAYER
 10
30.1911980938
 20
15.1147890631
 30
0.0
 11
7.6262095315
 21
7.6931146799
 31
0.0
 40
0.1697398859
 41
-1.7654898472
 42
-1.7086589812
  0
ELLIPSE
  5
2A7
100
AcDbEntity
  8
0
100
AcDbEllipse
 62
7
  6
BYLAYER
 10
28.1796935951
 20
10.1820605145
 30
0.0
 11
-5.9102311345
 21
6.5637949743
 31
0.0
 40
0.7168244188
 41
-1.8727021736
 42
-1.8055950792
  0
ELLIPSE
  5
2A8
100
AcDbEntity
  8
0
100
AcDbEllipse
 62
7
  6
BYLAYER
 10
29.4926499072
 20
10.1820605145
 30
0.0
 11
-7.6597844687
 21
7.6961319809
 31
0.0
 40
0.1752375009
 41
-1.4722056017
 42
-1.4050985074
  0
ELLIPSE
  5
2A9
100
AcDbEntity
  8
0
100
AcDbEllipse
 62
7
  6
BYLAYER
 10
27.8138185007
 20
10.1820605145
 30
0.0
 11
-5.0121740174
 21
6.4983953379
 31
0.0
 40
0.865142649
 41
-1.8879592742
 42
-1.8208521798
  0
ELLIPSE
  5
2AA
100
AcDbEntity
  8
0
100
AcDbEllipse
 62
7
  6
BYLAYER
 10
25.47316618
 20
10.1820605145
 30
0.0
 11
7.7740897603
 21
7.7831380439
 31
0.0
 40
0.0867605666
 41
1.3188692188
 42
1.3859763132
  0
ELLIPSE
  5
2AB
100
AcDbEntity
  8
0
100
AcDbEllipse
 62
7
  6
BYLAYER
 10
27.2518370257
 20
10.1820605145
 30
0.0
 11
5.0121740174
 21
6.4983953379
 31
0.0
 40
0.865142649
 41
-4.4623331274
 42
-4.395226033
  0
ELLIPSE
  5
2AC
100
AcDbEntity
  8
0
100
AcDbEllipse
 62
7
  6
BYLAYER
 10
26.8859619313
 20
10.1820605145
 30
0.0
 11
5.9102311345
 21
6.5637949743
 31
0.0
 40
0.7168244188
 41
-4.4775902279
 42
-4.4104831336
  0
ELLIPSE
  5
2AD
100
AcDbEntity
  8
0
100
AcDbEllipse
 62
7
  6
BYLAYER
 10
26.540877637
 20
10.1820605145
 30
0.0
 11
6.4469290971
 21
6.8367675082
 31
0.0
 40
0.5863744367
 41
-4.545663097
 42
-4.4785560027
  0
ELLIPSE
  5
2AE
100
AcDbEntity
  8
0
100
AcDbEllipse
 62
7
  6
BYLAYER
 10
26.227675436
 20
10.1820605145
 30
0.0
 11
6.8677005641
 21
7.1136561923
 31
0.0
 40
0.4702084876
 41
-4.6246251388
 42
-4.5575180444
  0
ELLIPSE
  5
2AF
100
AcDbEntity
  8
0
100
AcDbEllipse
 62
7
  6
BYLAYER
 10
25.9564219046
 20
10.1820605145
 30
0.0
 11
7.2064935757
 21
7.3567354787
 31
0.0
 40
0.3647826662
 41
-4.7075673152
 42
-4.6404602208
  0
ELLIPSE
  5
2B0
100
AcDbEntity
  8
0
100
AcDbEllipse
 62
7
  6
BYLAYER
 10
25.7358353546
 20
10.1820605145
 30
0.0
 11
7.470293638
 21
7.5529249294
 31
0.0
 40
0.2672411313
 41
1.4908333218
 42
1.5579404161
  0
ELLIPSE
  5
2B1
100
AcDbEntity
  8
0
100
AcDbEllipse
 62
7
  6
BYLAYER
 10
25.5730056192
 20
10.1820605145
 30
0.0
 11
7.6597844687
 21
7.6961319809
 31
0.0
 40
0.1752375009
 41
1.4050985074
 42
1.4722056017
  0
ELLIPSE
  5
2B2
100
AcDbEntity
  8
0
100
AcDbEllipse
 62
7
  6
BYLAYER
 10
24.7390317748
 20
15.1147890631
 30
0.0
 11
-7.7573850227
 21
7.7740525866
 31
0.0
 40
0.0839177005
 41
-4.4913670593
 42
-4.4293249933
  0
ELLIPSE
  5
2B3
100
AcDbEntity
  8
0
100
AcDbEllipse
 62
7
  6
BYLAYER
 10
29.0970593857
 20
15.1147890631
 30
0.0
 11
6.4824495915
 21
7.0480159323
 31
0.0
 40
0.5159191069
 41
4.8469824297
 42
4.8508802398
  0
ELLIPSE
  5
2B4
100
AcDbEntity
  8
0
100
AcDbEllipse
 62
7
  6
BYLAYER
 10
29.5924893464
 20
10.1820605145
 30
0.0
 11
-7.7740897603
 21
7.7831380439
 31
0.0
 40
0.0867605666
 41
-1.3859763132
 42
-1.3188692188
  0
ELLIPSE
  5
2B5
100
AcDbEntity
  8
0
100
AcDbEllipse
 62
7
  6
BYLAYER
 10
24.8744574326
 20
15.1147890631
 30
0.0
 11
-7.6262095315
 21
7.6931146799
 31
0.0
 40
0.1697398859
 41
-4.574526326
 42
-4.5176952599
  0
ELLIPSE
  5
2B6
100
AcDbEntity
  8
0
100
AcDbEllipse
 62
7
  6
BYLAYER
 10
25.0953253
 20
15.1147890631
 30
0.0
 11
-7.4088078751
 21
7.5607173369
 31
0.0
 40
0.2594609937
 41
-4.6567968742
 42
-4.6055001152
  0
ELLIPSE
  5
2B7
100
AcDbEntity
  8
0
100
AcDbEllipse
 62
7
  6
BYLAYER
 10
25.3945365023
 20
15.1147890631
 30
0.0
 11
-7.1058203012
 21
7.381520977
 31
0.0
 40
0.3552643066
 41
1.5458353031
 42
1.5911072628
  0
ELLIPSE
  5
2B8
100
AcDbEntity
  8
0
100
AcDbEllipse
 62
7
  6
BYLAYER
 10
25.762474145
 20
15.1147890631
 30
0.0
 11
-6.7146357267
 21
7.16481324
 31
0.0
 40
0.4596347163
 41
1.4686259906
 42
1.5068661072
  0
ELLIPSE
  5
2B9
100
AcDbEntity
  8
0
100
AcDbEllipse
 62
7
  6
BYLAYER
 10
26.1873124097
 20
15.1147890631
 30
0.0
 11
-6.2207204371
 21
6.9314322382
 31
0.0
 40
0.5754627739
 41
1.3986340393
 42
1.4279046765
  0
ELLIPSE
  5
2BA
100
AcDbEntity
  8
0
100
AcDbEllipse
 62
7
  6
BYLAYER
 10
26.6553966449
 20
15.1147890631
 30
0.0
 11
-5.5603216015
 21
6.7418945421
 31
0.0
 40
0.7059151333
 41
1.3481344438
 42
1.3646347026
  0
ELLIPSE
  5
2BB
100
AcDbEntity
  8
0
100
AcDbEllipse
 62
7
  6
BYLAYER
 10
28.3555477711
 20
10.1820605145
 30
0.0
 11
-6.197937693
 21
6.695058716
 31
0.0
 40
0.6495644904
 41
-1.7743968164
 42
-1.7738246041
  0
ELLIPSE
  5
2BC
100
AcDbEntity
  8
0
100
AcDbEllipse
 62
7
  6
BYLAYER
 10
26.7101077553
 20
10.1820605145
 30
0.0
 11
6.197937693
 21
6.695058716
 31
0.0
 40
0.6495644904
 41
-4.5093607031
 42
-4.5087885306
  0
ELLIPSE
  5
2BD
100
AcDbEntity
  8
0
100
AcDbEllipse
 62
7
  6
BYLAYER
 10
25.9685961407
 20
15.1147890631
 30
0.0
 11
-6.4824495915
 21
7.0480159323
 31
0.0
 40
0.5159191069
 41
1.4323050674
 42
1.4362024368
  0
ELLIPSE
  5
2BE
100
AcDbEntity
  8
0
100
AcDbEllipse
 62
7
  6
BYLAYER
 10
25.7358353546
 20
10.1820605145
 30
0.0
 11
7.470293638
 21
7.5529249294
 31
0.0
 40
0.2672411313
 41
-1.04112473
 42
-0.9740176357
  0
ELLIPSE
  5
2BF
100
AcDbEntity
  8
0
100
AcDbEllipse
 62
7
  6
BYLAYER
 10
25.9564219046
 20
10.1820605145
 30
0.0
 11
7.2064935757
 21
7.3567354787
 31
0.0
 40
0.3647826662
 41
-0.9563400598
 42
-0.8892329654
  0
ELLIPSE
  5
2C0
100
AcDbEntity
  8
0
100
AcDbEllipse
 62
7
  6
BYLAYER
 10
28.6487935493
 20
15.1147890631
 30
0.0
 11
5.9202559579
 21
6.8236913888
 31
0.0
 40
0.6386759476
 41
-3.9018254343
 42
-3.8760036406
  0
ELLIPSE
  5
2C1
100
AcDbEntity
  8
0
100
AcDbEllipse
 62
7
  6
BYLAYER
 10
26.227675436
 20
10.1820605145
 30
0.0
 11
6.8677005641
 21
7.1136561923
 31
0.0
 40
0.4702084876
 41
-0.8733978834
 42
-0.806290789
  0
ELLIPSE
  5
2C2
100
AcDbEntity
  8
0
100
AcDbEllipse
 62
7
  6
BYLAYER
 10
28.8379800904
 20
10.1820605145
 30
0.0
 11
-6.8677005641
 21
7.1136561923
 31
0.0
 40
0.4702084876
 41
0.806290789
 42
0.8733978834
  0
ELLIPSE
  5
2C3
100
AcDbEntity
  8
0
100
AcDbEllipse
 62
7
  6
BYLAYER
 10
29.4926499072
 20
10.1820605145
 30
0.0
 11
-7.6597844687
 21
7.6961319809
 31
0.0
 40
0.1752375009
 41
1.0597524501
 42
1.1268595444
  0
ELLIPSE
  5
2C4
100
AcDbEntity
  8
0
100
AcDbEllipse
 62
7
  6
BYLAYER
 10
26.540877637
 20
10.1820605145
 30
0.0
 11
6.4469290971
 21
6.8367675082
 31
0.0
 40
0.5863744367
 41
-0.7944358416
 42
-0.7273287473
  0
ELLIPSE
  5
2C5
100
AcDbEntity
  8
0
100
AcDbEllipse
 62
7
  6
BYLAYER
 10
28.1646596542
 20
15.1147890631
 30
0.0
 11
5.0865149455
 21
6.7252967502
 31
0.0
 40
0.7772485561
 41
-3.8763841224
 42
-3.8669024066
  0
ELLIPSE
  5
2C6
100
AcDbEntity
  8
0
100
AcDbEllipse
 62
7
  6
BYLAYER
 10
29.5924893464
 20
10.1820605145
 30
0.0
 11
-7.7740897603
 21
7.7831380439
 31
0.0
 40
0.0867605666
 41
1.1459817386
 42
1.213088833
  0
ELLIPSE
  5
2C7
100
AcDbEntity
  8
0
100
AcDbEllipse
 62
7
  6
BYLAYER
 10
26.8859619313
 20
10.1820605145
 30
0.0
 11
5.9102311345
 21
6.5637949743
 31
0.0
 40
0.7168244188
 41
-0.7263629725
 42
-0.6592558782
  0
ELLIPSE
  5
2C8
100
AcDbEntity
  8
0
100
AcDbEllipse
 62
7
  6
BYLAYER
 10
27.2518370257
 20
10.1820605145
 30
0.0
 11
5.0121740174
 21
6.4983953379
 31
0.0
 40
0.865142649
 41
-0.711105872
 42
-0.6439987776
  0
ELLIPSE
  5
2C9
100
AcDbEntity
  8
0
100
AcDbEllipse
 62
7
  6
BYLAYER
 10
26.9009958722
 20
15.1147890631
 30
0.0
 11
-5.0865149455
 21
6.7252967502
 31
0.0
 40
0.7772485561
 41
3.8669025014
 42
3.8763841224
  0
ELLIPSE
  5
2CA
100
AcDbEntity
  8
0
100
AcDbEllipse
 62
7
  6
BYLAYER
 10
26.4168619771
 20
15.1147890631
 30
0.0
 11
-5.9202559579
 21
6.8236913888
 31
0.0
 40
0.6386759476
 41
-2.4071815473
 42
-2.3813598729
  0
ELLIPSE
  5
2CB
100
AcDbEntity
  8
0
100
AcDbEllipse
 62
7
  6
BYLAYER
 10
28.5247778894
 20
10.1820605145
 30
0.0
 11
-6.4469290971
 21
6.8367675082
 31
0.0
 40
0.5863744367
 41
0.7273287473
 42
0.7944358416
  0
ELLIPSE
  5
2CC
100
AcDbEntity
  8
0
100
AcDbEllipse
 62
7
  6
BYLAYER
 10
29.3298201718
 20
10.1820605145
 30
0.0
 11
-7.470293638
 21
7.5529249294
 31
0.0
 40
0.2672411313
 41
0.9740176357
 42
1.04112473
  0
ELLIPSE
  5
2CD
100
AcDbEntity
  8
0
100
AcDbEllipse
 62
7
  6
BYLAYER
 10
28.1796935951
 20
10.1820605145
 30
0.0
 11
-5.9102311345
 21
6.5637949743
 31
0.0
 40
0.7168244188
 41
0.6592558782
 42
0.7263629725
  0
ELLIPSE
  5
2CE
100
AcDbEntity
  8
0
100
AcDbEllipse
 62
7
  6
BYLAYER
 10
29.1092336218
 20
10.1820605145
 30
0.0
 11
-7.2064935757
 21
7.3567354787
 31
0.0
 40
0.3647826662
 41
0.8892329654
 42
0.9563400598
  0
ELLIPSE
  5
2CF
100
AcDbEntity
  8
0
100
AcDbEllipse
 62
7
  6
BYLAYER
 10
25.47316618
 20
10.1820605145
 30
0.0
 11
7.7740897603
 21
7.7831380439
 31
0.0
 40
0.0867605666
 41
-1.213088833
 42
-1.1459817386
  0
ELLIPSE
  5
2D0
100
AcDbEntity
  8
0
100
AcDbEllipse
 62
7
  6
BYLAYER
 10
27.8138185007
 20
10.1820605145
 30
0.0
 11
-5.0121740174
 21
6.4983953379
 31
0.0
 40
0.865142649
 41
0.6439987776
 42
0.711105872
  0
ELLIPSE
  5
2D1
100
AcDbEntity
  8
0
100
AcDbEllipse
 62
7
  6
BYLAYER
 10
25.5730056192
 20
10.1820605145
 30
0.0
 11
7.6597844687
 21
7.6961319809
 31
0.0
 40
0.1752375009
 41
-1.1268595444
 42
-1.0597524501
  0
ELLIPSE
  5
2D2
100
AcDbEntity
  8
0
100
AcDbEllipse
 62
7
  6
BYLAYER
 10
29.0970593857
 20
13.0359355745
 30
0.0
 11
-6.4824495915
 21
7.0480159323
 31
0.0
 40
0.5159191069
 41
-1.7092875862
 42
-1.7053902168
  0
ELLIPSE
  5
2D3
100
AcDbEntity
  8
0
100
AcDbEllipse
 62
7
  6
BYLAYER
 10
26.6553966449
 20
13.0359355745
 30
0.0
 11
5.5603216015
 21
6.7418945421
 31
0.0
 40
0.7059151333
 41
-4.5062274436
 42
-4.4897270973
  0
ELLIPSE
  5
2D4
100
AcDbEntity
  8
0
100
AcDbEllipse
 62
7
  6
BYLAYER
 10
26.1873124097
 20
13.0359355745
 30
0.0
 11
6.2207204371
 21
6.9314322382
 31
0.0
 40
0.5754627739
 41
-4.5694973438
 42
-4.5402266929
  0
ELLIPSE
  5
2D5
100
AcDbEntity
  8
0
100
AcDbEllipse
 62
7
  6
BYLAYER
 10
25.762474145
 20
13.0359355745
 30
0.0
 11
6.7146357267
 21
7.16481324
 31
0.0
 40
0.4596347163
 41
-4.6484587824
 42
-4.6102186442
  0
ELLIPSE
  5
2D6
100
AcDbEntity
  8
0
100
AcDbEllipse
 62
7
  6
BYLAYER
 10
25.3945365023
 20
13.0359355745
 30
0.0
 11
7.1058203012
 21
7.381520977
 31
0.0
 40
0.3552643066
 41
1.5504861194
 42
1.5957573505
  0
ELLIPSE
  5
2D7
100
AcDbEntity
  8
0
100
AcDbEllipse
 62
7
  6
BYLAYER
 10
25.0953253
 20
13.0359355745
 30
0.0
 11
7.4088078751
 21
7.5607173369
 31
0.0
 40
0.2594609937
 41
1.4639077219
 42
1.5152042206
  0
ELLIPSE
  5
2D8
100
AcDbEntity
  8
0
100
AcDbEllipse
 62
7
  6
BYLAYER
 10
24.8744574326
 20
13.0359355745
 30
0.0
 11
7.6262095315
 21
7.6931146799
 31
0.0
 40
0.1697398859
 41
1.3761028064
 42
1.4329336724
  0
ELLIPSE
  5
2D9
100
AcDbEntity
  8
0
100
AcDbEllipse
 62
7
  6
BYLAYER
 10
24.7390317748
 20
13.0359355745
 30
0.0
 11
7.7573850227
 21
7.7740525866
 31
0.0
 40
0.0839177005
 41
1.2877324659
 42
1.3497744057
  0
ELLIPSE
  5
2DA
100
AcDbEntity
  8
0
100
AcDbEllipse
 62
7
  6
BYLAYER
 10
30.3266237516
 20
13.0359355745
 30
0.0
 11
-7.7573850227
 21
7.7740525866
 31
0.0
 40
0.0839177005
 41
-1.3497744057
 42
-1.2877323397
  0
ELLIPSE
  5
2DB
100
AcDbEntity
  8
0
100
AcDbEllipse
 62
7
  6
BYLAYER
 10
30.1911980938
 20
13.0359355745
 30
0.0
 11
-7.6262095315
 21
7.6931146799
 31
0.0
 40
0.1697398859
 41
-1.4329336724
 42
-1.3761026063
  0
ELLIPSE
  5
2DC
100
AcDbEntity
  8
0
100
AcDbEllipse
 62
7
  6
BYLAYER
 10
27.8138185007
 20
17.9686641232
 30
0.0
 11
5.0121740174
 21
6.4983953379
 31
0.0
 40
0.865142649
 41
-1.3207404738
 42
-1.2536333794
  0
ELLIPSE
  5
2DD
100
AcDbEntity
  8
0
100
AcDbEllipse
 62
7
  6
BYLAYER
 10
28.1796935951
 20
17.9686641232
 30
0.0
 11
5.9102311345
 21
6.5637949743
 31
0.0
 40
0.7168244188
 41
-1.3359975743
 42
-1.26889048
  0
ELLIPSE
  5
2DE
100
AcDbEntity
  8
0
100
AcDbEllipse
 62
7
  6
BYLAYER
 10
28.5247778894
 20
17.9686641232
 30
0.0
 11
6.4469290971
 21
6.8367675082
 31
0.0
 40
0.5863744367
 41
-1.4040704434
 42
-1.3369633491
  0
ELLIPSE
  5
2DF
100
AcDbEntity
  8
0
100
AcDbEllipse
 62
7
  6
BYLAYER
 10
28.8379800904
 20
17.9686641232
 30
0.0
 11
6.8677005641
 21
7.1136561923
 31
0.0
 40
0.4702084876
 41
-1.4830324852
 42
-1.4159253908
  0
ELLIPSE
  5
2E0
100
AcDbEntity
  8
0
100
AcDbEllipse
 62
7
  6
BYLAYER
 10
29.1092336218
 20
17.9686641232
 30
0.0
 11
7.2064935757
 21
7.3567354787
 31
0.0
 40
0.3647826662
 41
-1.5659746616
 42
-1.4988675672
  0
ELLIPSE
  5
2E1
100
AcDbEntity
  8
0
100
AcDbEllipse
 62
7
  6
BYLAYER
 10
29.3298201718
 20
17.9686641232
 30
0.0
 11
7.470293638
 21
7.5529249294
 31
0.0
 40
0.2672411313
 41
-1.6507593318
 42
-1.5836522375
  0
ELLIPSE
  5
2E2
100
AcDbEntity
  8
0
100
AcDbEllipse
 62
7
  6
BYLAYER
 10
29.4926499072
 20
17.9686641232
 30
0.0
 11
7.6597844687
 21
7.6961319809
 31
0.0
 40
0.1752375009
 41
-1.7364941462
 42
-1.6693870519
  0
ELLIPSE
  5
2E3
100
AcDbEntity
  8
0
100
AcDbEllipse
 62
7
  6
BYLAYER
 10
29.5924893464
 20
17.9686641232
 30
0.0
 11
7.7740897603
 21
7.7831380439
 31
0.0
 40
0.0867605666
 41
-1.8227234348
 42
-1.7556163404
  0
ELLIPSE
  5
2E4
100
AcDbEntity
  8
0
100
AcDbEllipse
 62
7
  6
BYLAYER
 10
25.47316618
 20
17.9686641232
 30
0.0
 11
-7.7740897603
 21
7.7831380439
 31
0.0
 40
0.0867605666
 41
-4.5275689667
 42
-4.4604618724
  0
ELLIPSE
  5
2E5
100
AcDbEntity
  8
0
100
AcDbEllipse
 62
7
  6
BYLAYER
 10
25.5730056192
 20
17.9686641232
 30
0.0
 11
-7.6597844687
 21
7.6961319809
 31
0.0
 40
0.1752375009
 41
-4.6137982553
 42
-4.546691161
  0
ELLIPSE
  5
2E6
100
AcDbEntity
  8
0
100
AcDbEllipse
 62
7
  6
BYLAYER
 10
25.7358353546
 20
17.9686641232
 30
0.0
 11
-7.470293638
 21
7.5529249294
 31
0.0
 40
0.2672411313
 41
-4.6995330697
 42
-4.6324259754
  0
ELLIPSE
  5
2E7
100
AcDbEntity
  8
0
100
AcDbEllipse
 62
7
  6
BYLAYER
 10
29.9703302264
 20
13.0359355745
 30
0.0
 11
-7.4088078751
 21
7.5607173369
 31
0.0
 40
0.2594609937
 41
-1.5152042206
 42
-1.4639074616
  0
ELLIPSE
  5
2E8
100
AcDbEntity
  8
0
100
AcDbEllipse
 62
7
  6
BYLAYER
 10
25.9564219046
 20
17.9686641232
 30
0.0
 11
-7.2064935757
 21
7.3567354787
 31
0.0
 40
0.3647826662
 41
1.4988675672
 42
1.5659746616
  0
ELLIPSE
  5
2E9
100
AcDbEntity
  8
0
100
AcDbEllipse
 62
7
  6
BYLAYER
 10
29.6711190241
 20
13.0359355745
 30
0.0
 11
-7.1058203012
 21
7.381520977
 31
0.0
 40
0.3552643066
 41
-1.5957573505
 42
-1.5504853908
  0
ELLIPSE
  5
2EA
100
AcDbEntity
  8
0
100
AcDbEllipse
 62
7
  6
BYLAYER
 10
26.227675436
 20
17.9686641232
 30
0.0
 11
-6.8677005641
 21
7.1136561923
 31
0.0
 40
0.4702084876
 41
1.4159253908
 42
1.4830324852
  0
ELLIPSE
  5
2EB
100
AcDbEntity
  8
0
100
AcDbEllipse
 62
7
  6
BYLAYER
 10
29.3031813814
 20
13.0359355745
 30
0.0
 11
-6.7146357267
 21
7.16481324
 31
0.0
 40
0.4596347163
 41
-1.672966663
 42
-1.6347265464
  0
ELLIPSE
  5
2EC
100
AcDbEntity
  8
0
100
AcDbEllipse
 62
7
  6
BYLAYER
 10
26.540877637
 20
17.9686641232
 30
0.0
 11
-6.4469290971
 21
6.8367675082
 31
0.0
 40
0.5863744367
 41
1.3369633491
 42
1.4040704434
  0
ELLIPSE
  5
2ED
100
AcDbEntity
  8
0
100
AcDbEllipse
 62
7
  6
BYLAYER
 10
28.8783431167
 20
13.0359355745
 30
0.0
 11
-6.2207204371
 21
6.9314322382
 31
0.0
 40
0.5754627739
 41
-1.7429586143
 42
-1.7136879771
  0
ELLIPSE
  5
2EE
100
AcDbEntity
  8
0
100
AcDbEllipse
 62
7
  6
BYLAYER
 10
26.8859619313
 20
17.9686641232
 30
0.0
 11
-5.9102311345
 21
6.5637949743
 31
0.0
 40
0.7168244188
 41
1.26889048
 42
1.3359975743
  0
ELLIPSE
  5
2EF
100
AcDbEntity
  8
0
100
AcDbEllipse
 62
7
  6
BYLAYER
 10
28.4102588815
 20
13.0359355745
 30
0.0
 11
-5.5603216015
 21
6.7418945421
 31
0.0
 40
0.7059151333
 41
-1.7934582098
 42
-1.776957951
  0
ELLIPSE
  5
2F0
100
AcDbEntity
  8
0
100
AcDbEllipse
 62
7
  6
BYLAYER
 10
27.2518370257
 20
17.9686641232
 30
0.0
 11
-5.0121740174
 21
6.4983953379
 31
0.0
 40
0.865142649
 41
1.2536333794
 42
1.3207404738
  0
ELLIPSE
  5
2F1
100
AcDbEntity
  8
0
100
AcDbEllipse
 62
7
  6
BYLAYER
 10
28.3555477711
 20
17.9686641232
 30
0.0
 11
6.197937693
 21
6.695058716
 31
0.0
 40
0.6495644904
 41
-1.3677680495
 42
-1.367195877
  0
ELLIPSE
  5
2F2
100
AcDbEntity
  8
0
100
AcDbEllipse
 62
7
  6
BYLAYER
 10
25.9685961407
 20
13.0359355745
 30
0.0
 11
6.4824495915
 21
7.0480159323
 31
0.0
 40
0.5159191069
 41
1.7053897761
 42
1.7092875862
  0
ELLIPSE
  5
2F3
100
AcDbEntity
  8
0
100
AcDbEllipse
 62
7
  6
BYLAYER
 10
26.7101077553
 20
17.9686641232
 30
0.0
 11
-6.197937693
 21
6.695058716
 31
0.0
 40
0.6495644904
 41
1.3671958372
 42
1.3677680495
  0
ELLIPSE
  5
2F4
100
AcDbEntity
  8
0
100
AcDbEllipse
 62
7
  6
BYLAYER
 10
25.47316618
 20
17.9686641232
 30
0.0
 11
-7.7740897603
 21
7.7831380439
 31
0.0
 40
0.0867605666
 41
-1.995610915
 42
-1.9285038206
  0
ELLIPSE
  5
2F5
100
AcDbEntity
  8
0
100
AcDbEllipse
 62
7
  6
BYLAYER
 10
26.9009958722
 20
13.0359355745
 30
0.0
 11
5.0865149455
 21
6.7252967502
 31
0.0
 40
0.7772485561
 41
-0.7347914688
 42
-0.725309753
  0
ELLIPSE
  5
2F6
100
AcDbEntity
  8
0
100
AcDbEllipse
 62
7
  6
BYLAYER
 10
25.5730056192
 20
17.9686641232
 30
0.0
 11
-7.6597844687
 21
7.6961319809
 31
0.0
 40
0.1752375009
 41
-2.0818402035
 42
-2.0147331092
  0
ELLIPSE
  5
2F7
100
AcDbEntity
  8
0
100
AcDbEllipse
 62
7
  6
BYLAYER
 10
25.7358353546
 20
17.9686641232
 30
0.0
 11
-7.470293638
 21
7.5529249294
 31
0.0
 40
0.2672411313
 41
-2.1675750179
 42
-2.1004679236
  0
ELLIPSE
  5
2F8
100
AcDbEntity
  8
0
100
AcDbEllipse
 62
7
  6
BYLAYER
 10
26.4168619771
 20
13.0359355745
 30
0.0
 11
5.9202559579
 21
6.8236913888
 31
0.0
 40
0.6386759476
 41
-0.7602327807
 42
-0.734410987
  0
ELLIPSE
  5
2F9
100
AcDbEntity
  8
0
100
AcDbEllipse
 62
7
  6
BYLAYER
 10
29.5924893464
 20
17.9686641232
 30
0.0
 11
7.7740897603
 21
7.7831380439
 31
0.0
 40
0.0867605666
 41
-4.3546814866
 42
-4.2875743922
  0
ELLIPSE
  5
2FA
100
AcDbEntity
  8
0
100
AcDbEllipse
 62
7
  6
BYLAYER
 10
29.4926499072
 20
17.9686641232
 30
0.0
 11
7.6597844687
 21
7.6961319809
 31
0.0
 40
0.1752375009
 41
-4.268452198
 42
-4.2013451036
  0
ELLIPSE
  5
2FB
100
AcDbEntity
  8
0
100
AcDbEllipse
 62
7
  6
BYLAYER
 10
25.9564219046
 20
17.9686641232
 30
0.0
 11
-7.2064935757
 21
7.3567354787
 31
0.0
 40
0.3647826662
 41
-2.2523596882
 42
-2.1852525938
  0
ELLIPSE
  5
2FC
100
AcDbEntity
  8
0
100
AcDbEllipse
 62
7
  6
BYLAYER
 10
29.3298201718
 20
17.9686641232
 30
0.0
 11
7.470293638
 21
7.5529249294
 31
0.0
 40
0.2672411313
 41
-4.1827173836
 42
-4.1156102893
  0
ELLIPSE
  5
2FD
100
AcDbEntity
  8
0
100
AcDbEllipse
 62
7
  6
BYLAYER
 10
29.1092336218
 20
17.9686641232
 30
0.0
 11
7.2064935757
 21
7.3567354787
 31
0.0
 40
0.3647826662
 41
-4.0979327134
 42
-4.030825619
  0
ELLIPSE
  5
2FE
100
AcDbEntity
  8
0
100
AcDbEllipse
 62
7
  6
BYLAYER
 10
28.8379800904
 20
17.9686641232
 30
0.0
 11
6.8677005641
 21
7.1136561923
 31
0.0
 40
0.4702084876
 41
-4.014990537
 42
-3.9478834426
  0
ELLIPSE
  5
2FF
100
AcDbEntity
  8
0
100
AcDbEllipse
 62
7
  6
BYLAYER
 10
28.5247778894
 20
17.9686641232
 30
0.0
 11
6.4469290971
 21
6.8367675082
 31
0.0
 40
0.5863744367
 41
-3.9360284952
 42
-3.8689214009
  0
ELLIPSE
  5
300
100
AcDbEntity
  8
0
100
AcDbEllipse
 62
7
  6
BYLAYER
 10
28.1796935951
 20
17.9686641232
 30
0.0
 11
5.9102311345
 21
6.5637949743
 31
0.0
 40
0.7168244188
 41
-3.8679556261
 42
-3.8008485318
  0
ELLIPSE
  5
301
100
AcDbEntity
  8
0
100
AcDbEllipse
 62
7
  6
BYLAYER
 10
27.8138185007
 20
17.9686641232
 30
0.0
 11
5.0121740174
 21
6.4983953379
 31
0.0
 40
0.865142649
 41
-3.8526985256
 42
-3.7855914312
  0
ELLIPSE
  5
302
100
AcDbEntity
  8
0
100
AcDbEllipse
 62
7
  6
BYLAYER
 10
26.227675436
 20
17.9686641232
 30
0.0
 11
-6.8677005641
 21
7.1136561923
 31
0.0
 40
0.4702084876
 41
-2.3353018646
 42
-2.2681947702
  0
ELLIPSE
  5
303
100
AcDbEntity
  8
0
100
AcDbEllipse
 62
7
  6
BYLAYER
 10
28.6487935493
 20
13.0359355745
 30
0.0
 11
-5.9202559579
 21
6.8236913888
 31
0.0
 40
0.6386759476
 41
0.7344111063
 42
0.7602327807
  0
ELLIPSE
  5
304
100
AcDbEntity
  8
0
100
AcDbEllipse
 62
7
  6
BYLAYER
 10
28.1646596542
 20
13.0359355745
 30
0.0
 11
-5.0865149455
 21
6.7252967502
 31
0.0
 40
0.7772485561
 41
7.008495155
 42
7.017976776
  0
ELLIPSE
  5
305
100
AcDbEntity
  8
0
100
AcDbEllipse
 62
7
  6
BYLAYER
 10
26.540877637
 20
17.9686641232
 30
0.0
 11
-6.4469290971
 21
6.8367675082
 31
0.0
 40
0.5863744367
 41
-2.4142639063
 42
-2.3471568119
  0
ELLIPSE
  5
306
100
AcDbEntity
  8
0
100
AcDbEllipse
 62
7
  6
BYLAYER
 10
26.8859619313
 20
17.9686641232
 30
0.0
 11
-5.9102311345
 21
6.5637949743
 31
0.0
 40
0.7168244188
 41
-2.4823367754
 42
-2.4152296811
  0
ELLIPSE
  5
307
100
AcDbEntity
  8
0
100
AcDbEllipse
 62
7
  6
BYLAYER
 10
27.2518370257
 20
17.9686641232
 30
0.0
 11
-5.0121740174
 21
6.4983953379
 31
0.0
 40
0.865142649
 41
-2.497593876
 42
-2.4304867816
  0
ENDSEC
  0
SECTION
  2
OBJECTS
  0
DICTIONARY
  5
C
100
AcDbDictionary
280
0
281
1
  3
ACAD_GROUP
350
D
  3
ACAD_MLINESTYLE
350
17
  3
ACAD_LAYOUT
350
1A
  3
ACAD_PLOTSETTINGS
350
19
  3
ACAD_PLOTSTYLENAME
350
E
  0
DICTIONARY
  5
D
102
{ACAD_REACTORS
330
C
102
}
100
AcDbDictionary
280
0
281
1
  0
ACDBDICTIONARYWDFLT
  5
E
102
{ACAD_REACTORS
330
C
102
}
100
AcDbDictionary
281
1
  3
Normal
350
F
100
AcDbDictionaryWithDefault
340
F
  0
DICTIONARY
  5
17
102
{ACAD_REACTORS
330
C
102
}
100
AcDbDictionary
280
0
281
1
  3
Standard
350
18
  0
DICTIONARY
  5
19
102
{ACAD_REACTORS
330
C
102
}
100
AcDbDictionary
281
1
  0
DICTIONARY
  5
1A
102
{ACAD_REACTORS
330
C
102
}
100
AcDbDictionary
281
1
  3
Model
350
308
  3
Layout1
350
309
  0
ACDBPLACEHOLDER
  5
F
102
{ACAD_REACTORS
330
E
102
}
  0
MLINESTYLE
  5
18
102
{ACAD_REACTORS
330
17
102
}
100
AcDbMlineStyle
  2
STANDARD
 70
0
  3

 62
256
 51
90.0
 52
90.0
 71
2
 49
0.5
 62
256
  6
BYLAYER
 49
-0.5
 62
256
  6
BYLAYER
  0
LAYOUT
  5
308
102
{ACAD_REACTORS
330
1A
102
}
100
AcDbPlotSettings
  1

  2
none_device
  4

  6

 40
0.0
 41
0.0
 42
0.0
 43
0.0
 44
210.0
 45
297.0
 46
0.0
 47
0.0
 48
0.0
 49
0.0
140
0.0
141
0.0
142
1.0
143
1.0
 70
1024
 72
1
 73
0
 74
0
  7

 75
0
147
1.0
148
0.0
149
0.0
100
AcDbLayout
  1
Model
 70
0
 71
0
 10
0.0
 20
0.0
 11
210.0
 21
297.0
 12
0.0
 22
0.0
 32
0.0
 14
0.0
 24
0.0
 34
0.0
 15
0.0
 25
0.0
 35
0.0
146
0.0
 13
0.0
 23
0.0
 33
0.0
 16
1.0
 26
0.0
 36
0.0
 17
0.0
 27
1.0
 37
0.0
 76
0
330
210
345
0
346
0
  0
LAYOUT
  5
309
102
{ACAD_REACTORS
330
1A
102
}
100
AcDbPlotSettings
  1

  2
none_device
  4

  6

 40
0.0
 41
0.0
 42
0.0
 43
0.0
 44
210.0
 45
297.0
 46
0.0
 47
0.0
 48
0.0
 49
0.0
140
0.0
141
0.0
142
1.0
143
1.0
 70
0
 72
1
 73
0
 74
0
  7

 75
0
147
1.0
148
0.0
149
0.0
100
AcDbLayout
  1
Layout1
 70
0
 71
1
 10
0.0
 20
0.0
 11
210.0
 21
297.0
 12
0.0
 22
0.0
 32
0.0
 14
0.0
 24
0.0
 34
0.0
 15
0.0
 25
0.0
 35
0.0
146
0.0
 13
0.0
 23
0.0
 33
0.0
 16
1.0
 26
0.0
 36
0.0
 17
0.0
 27
1.0
 37
0.0
 76
0
330
211
345
0
346
0
  0
ENDSEC
  0
EOF
