999
DXF file: C:\Users\sesa63760\Dev\_Creo\CAD\MCADPD0005315_3D-CAD\drw0001_4.dxf
999
Pro/ENGINEER 2019471 by Parametric Technology Corporation
  0
SECTION
  2
HEADER
  9
$ACADVER
  1
AC1024
  9
$DWGCODEPAGE
  3
ANSI_1252
  9
$EXTMAX
 10
204.179163943
 20
288.7676747194
 30
0.0
  9
$EXTMIN
 10
0.0
 20
0.0
 30
0.0
  9
$LIMMIN
 10
0.0
 20
0.0
  9
$LIMMAX
 10
204.179163943
 20
288.7676747194
  9
$VIEWCTR
 10
102.0895819715
 20
144.3838373597
  9
$VIEWSIZE
 40
288.7676747194
  9
$CLAYER
  8
0
  9
$LTSCALE
 40
18.8233743521
  9
$CELTYPE
  6
BYLAYER
  9
$DIMSCALE
 40
1.0
  9
$DIMASZ
 40
2.4307043327
  9
$DIMEXO
 40
1.0
  9
$DIMDLI
 40
13.0052404614
  9
$DIMEXE
 40
1.0
  9
$DIMCEN
 40
3.0801885303
  9
$DIMLFAC
 40
1.0
  9
$DIMBLK
  1
_FILLED
  9
$DIMALT
 70
0
  9
$DIMALTF
 40
0.0393700787
  9
$DIMTXT
 40
3.4029860657
  9
$DIMTOL
 70
1
  9
$DIMLIM
 70
0
  9
$DIMTFAC
 40
1.0
  9
$DIMTP
 40
0.01
  9
$DIMTM
 40
0.01
  9
$DIMGAP
 40
0.625
  9
$DIMDSEP
 70
46
  9
$AUNITS
 70
0
  9
$PDMODE
 70
3
  9
$PDSIZE
 40
0.3125
  9
$HANDSEED
  5
284
  9
$TILEMODE
 70
1
  9
$MEASUREMENT
 70
1
  9
$INSUNITS
 70
4
  0
ENDSEC
  0
SECTION
  2
CLASSES
  0
CLASS
  1
ACDBDICTIONARYWDFLT
  2
AcDbDictionaryWithDefault
  3
AutoCAD 2000
 90
0
 91
1
280
0
281
0
  0
CLASS
  1
ACDBPLACEHOLDER
  2
AcDbPlaceHolder
  3
AutoCAD 2000
 90
0
 91
1
280
0
281
0
  0
CLASS
  1
LAYOUT
  2
AcDbLayout
  3
AutoCAD 2000
 90
0
 91
0
280
0
281
0
  0
ENDSEC
  0
SECTION
  2
TABLES
  0
TABLE
  2
VPORT
  5
8
100
AcDbSymbolTable
 70
2
  0
VPORT
  5
1F4
100
AcDbSymbolTableRecord
100
AcDbViewportTableRecord
  2
*ACTIVE
 70
0
 10
0.0
 20
0.0
 11
1.0
 21
1.0
 12
102.0895819715
 22
144.3838373597
 13
0.0
 23
0.0
 14
1.0
 24
1.0
 15
0.0
 25
0.0
 16
0.0
 26
0.0
 36
1.0
 17
0.0
 27
0.0
 37
0.0
 40
288.7676747194
 41
0.7070707071
 42
50.0
 43
0.0
 44
0.0
 50
0.0
 51
0.0
 71
0
 72
100
 73
1
 74
1
 75
0
 76
0
 77
0
 78
0
  0
ENDTAB
  0
TABLE
  2
LTYPE
  5
5
100
AcDbSymbolTable
 70
6
  0
LTYPE
  5
14
100
AcDbSymbolTableRecord
100
AcDbLinetypeTableRecord
  2
BYBLOCK
 70
0
  3

 72
65
 73
0
 40
0.0
  0
LTYPE
  5
15
100
AcDbSymbolTableRecord
100
AcDbLinetypeTableRecord
  2
BYLAYER
 70
0
  3

 72
65
 73
0
 40
0.0
  0
LTYPE
  5
16
100
AcDbSymbolTableRecord
100
AcDbLinetypeTableRecord
  2
CONTINUOUS
 70
64
  3
Solid line
 72
65
 73
0
 40
0.0
  0
LTYPE
  5
1F5
100
AcDbSymbolTableRecord
100
AcDbLinetypeTableRecord
  2
CENTER
 70
64
  3
____ _ ____ _ ____ _ ____ _ ____ _ ____ _ ____
 72
65
 73
4
 40
0.6
 49
0.375
 74
0
 49
-0.075
 74
0
 49
0.075
 74
0
 49
-0.075
 74
0
  0
LTYPE
  5
1F6
100
AcDbSymbolTableRecord
100
AcDbLinetypeTableRecord
  2
HIDDEN
 70
64
  3
- - - - - - - - - - - - - - - - - - - -
 72
65
 73
2
 40
0.2
 49
0.1
 74
0
 49
-0.1
 74
0
  0
LTYPE
  5
1F7
100
AcDbSymbolTableRecord
100
AcDbLinetypeTableRecord
  2
PHANTOM
 70
64
  3
_____ _ _ _____ _ _ _____ _ _ _____
 72
65
 73
6
 40
0.8
 49
0.45
 74
0
 49
-0.05
 74
0
 49
0.1
 74
0
 49
-0.05
 74
0
 49
0.1
 74
0
 49
-0.05
 74
0
  0
LTYPE
  5
1F8
100
AcDbSymbolTableRecord
100
AcDbLinetypeTableRecord
  2
DOT
 70
64
  3
. . . . . . . . . . . . . . . . . . . .
 72
65
 73
2
 40
0.2
 49
0.1
 74
0
 49
-0.1
 74
0
  0
LTYPE
  5
1F9
100
AcDbSymbolTableRecord
100
AcDbLinetypeTableRecord
  2
DASHED
 70
64
  3
- - - - - - - - - - - - - - - - - - - -
 72
65
 73
2
 40
0.2
 49
0.1
 74
0
 49
-0.1
 74
0
  0
ENDTAB
  0
TABLE
  2
LAYER
  5
2
100
AcDbSymbolTable
 70
36
  0
LAYER
  5
10
100
AcDbSymbolTableRecord
100
AcDbLayerTableRecord
  2
0
 70
0
 62
7
  6
CONTINUOUS
370
-3
390
F
  0
LAYER
  5
1FA
100
AcDbSymbolTableRecord
100
AcDbLayerTableRecord
  2
DEFAULT_1
 70
0
 62
7
  6
CENTER
370
-3
390
F
  0
LAYER
  5
1FB
100
AcDbSymbolTableRecord
100
AcDbLayerTableRecord
  2
DEFAULT_2
 70
0
 62
7
  6
HIDDEN
370
-3
390
F
  0
LAYER
  5
1FC
100
AcDbSymbolTableRecord
100
AcDbLayerTableRecord
  2
DEFAULT_3
 70
0
 62
7
  6
PHANTOM
370
-3
390
F
  0
LAYER
  5
1FD
100
AcDbSymbolTableRecord
100
AcDbLayerTableRecord
  2
00_COMPONENTS
 70
0
 62
7
  6
CONTINUOUS
370
-3
390
F
  0
LAYER
  5
1FE
100
AcDbSymbolTableRecord
100
AcDbLayerTableRecord
  2
01_1_DEFAULT_DATUMS
 70
0
 62
7
  6
CONTINUOUS
370
-3
390
F
  0
LAYER
  5
1FF
100
AcDbSymbolTableRecord
100
AcDbLayerTableRecord
  2
01_PLANES
 70
0
 62
7
  6
CONTINUOUS
370
-3
390
F
  0
LAYER
  5
200
100
AcDbSymbolTableRecord
100
AcDbLayerTableRecord
  2
02_COORD_SYS
 70
0
 62
7
  6
CONTINUOUS
370
-3
390
F
  0
LAYER
  5
201
100
AcDbSymbolTableRecord
100
AcDbLayerTableRecord
  2
03_AXES
 70
0
 62
7
  6
CONTINUOUS
370
-3
390
F
  0
LAYER
  5
202
100
AcDbSymbolTableRecord
100
AcDbLayerTableRecord
  2
04_POINTS
 70
0
 62
7
  6
CONTINUOUS
370
-3
390
F
  0
LAYER
  5
203
100
AcDbSymbolTableRecord
100
AcDbLayerTableRecord
  2
05_CURVES
 70
0
 62
7
  6
CONTINUOUS
370
-3
390
F
  0
LAYER
  5
204
100
AcDbSymbolTableRecord
100
AcDbLayerTableRecord
  2
06_SURFS
 70
0
 62
7
  6
CONTINUOUS
370
-3
390
F
  0
LAYER
  5
205
100
AcDbSymbolTableRecord
100
AcDbLayerTableRecord
  2
07_COSMETICS
 70
0
 62
7
  6
CONTINUOUS
370
-3
390
F
  0
LAYER
  5
206
100
AcDbSymbolTableRecord
100
AcDbLayerTableRecord
  2
10_NOTES
 70
0
 62
7
  6
CONTINUOUS
370
-3
390
F
  0
LAYER
  5
207
100
AcDbSymbolTableRecord
100
AcDbLayerTableRecord
  2
11_NOTES_PUB
 70
0
 62
7
  6
CONTINUOUS
370
-3
390
F
  0
LAYER
  5
208
100
AcDbSymbolTableRecord
100
AcDbLayerTableRecord
  2
13_REF_GTOL
 70
0
 62
7
  6
CONTINUOUS
370
-3
390
F
  0
LAYER
  5
209
100
AcDbSymbolTableRecord
100
AcDbLayerTableRecord
  2
16_MISC
 70
0
 62
7
  6
CONTINUOUS
370
-3
390
F
  0
LAYER
  5
20A
100
AcDbSymbolTableRecord
100
AcDbLayerTableRecord
  2
17_NO_PRINT
 70
0
 62
7
  6
CONTINUOUS
370
-3
390
F
  0
LAYER
  5
20B
100
AcDbSymbolTableRecord
100
AcDbLayerTableRecord
  2
18_DATUM_CAMS_JOINTS
 70
0
 62
7
  6
CONTINUOUS
370
-3
390
F
  0
LAYER
  5
20C
100
AcDbSymbolTableRecord
100
AcDbLayerTableRecord
  2
19_DATUM_FUNCTIONAL
 70
0
 62
7
  6
CONTINUOUS
370
-3
390
F
  0
LAYER
  5
20D
100
AcDbSymbolTableRecord
100
AcDbLayerTableRecord
  2
20_DATUM_KINEMATIC_SCHEME
 70
0
 62
7
  6
CONTINUOUS
370
-3
390
F
  0
ENDTAB
  0
TABLE
  2
STYLE
  5
3
100
AcDbSymbolTable
 70
1
  0
STYLE
  5
11
100
AcDbSymbolTableRecord
100
AcDbTextStyleTableRecord
  2
STANDARD
 70
0
 40
0.0
 41
1.0
 50
0.0
 71
0
 42
0.2
  3
ARIAL.TTF
  4

  0
STYLE
  5
20E
100
AcDbSymbolTableRecord
100
AcDbTextStyleTableRecord
  2
TEXTSTYLE_1
 70
0
 40
0.0
 41
0.8
 50
0.0
 71
0
 42
0.2
  3
gdt
  4

  0
ENDTAB
  0
TABLE
  2
VIEW
  5
6
100
AcDbSymbolTable
 70
0
  0
ENDTAB
  0
TABLE
  2
UCS
  5
7
100
AcDbSymbolTable
 70
0
  0
ENDTAB
  0
TABLE
  2
APPID
  5
9
100
AcDbSymbolTable
 70
1
  0
APPID
  5
20F
100
AcDbSymbolTableRecord
100
AcDbRegAppTableRecord
  2
ACAD
 70
0
  0
ENDTAB
  0
TABLE
  2
BLOCK_RECORD
  5
1
100
AcDbSymbolTable
 70
0
  0
BLOCK_RECORD
  5
210
100
AcDbSymbolTableRecord
100
AcDbBlockTableRecord
  2
*Model_Space
  0
BLOCK_RECORD
  5
211
100
AcDbSymbolTableRecord
100
AcDbBlockTableRecord
  2
*Paper_Space
  0
BLOCK_RECORD
  5
212
100
AcDbSymbolTableRecord
100
AcDbBlockTableRecord
  2
_FILLED
  0
ENDTAB
  0
TABLE
  2
DIMSTYLE
  5
A
100
AcDbSymbolTable
 70
1
100
AcDbDimStyleTable
 71
0
  0
DIMSTYLE
105
213
100
AcDbSymbolTableRecord
100
AcDbDimStyleTableRecord
  2
STANDARD
 70
0
  3

  4

 40
1.0
 41
2.4307043327
 42
1.0
 43
0.38
 44
1.0
 45
0.0
 46
0.0
 47
0.01
 48
0.01
140
3.4029860657
141
0.09
142
0.0
143
25.4
144
1.0
145
0.0
146
1.0
147
0.625
 71
1
 72
0
 73
0
 74
0
 75
0
 76
0
 77
1
 78
8
 79
2
170
0
171
1
172
0
173
0
174
0
175
0
176
0
177
0
178
0
270
2
179
2
271
2
272
2
273
2
274
2
275
0
280
0
281
0
282
0
283
1
284
8
285
0
286
0
287
3
288
0
340
11
278
46
341
212
342
212
343
212
344
212
  0
ENDTAB
  0
ENDSEC
  0
SECTION
  2
BLOCKS
  0
BLOCK
  5
20
100
AcDbEntity
  8
0
100
AcDbBlockBegin
  2
*Model_Space
 70
0
 10
0.0
 20
0.0
 30
0.0
  3
*Model_Space
  1

  0
ENDBLK
  5
21
100
AcDbEntity
  8
0
100
AcDbBlockEnd
  0
BLOCK
  5
1C
100
AcDbEntity
  8
0
100
AcDbBlockBegin
  2
*Paper_Space
 70
0
 10
0.0
 20
0.0
 30
0.0
  3
*Paper_Space
  1

  0
ENDBLK
  5
1D
100
AcDbEntity
  8
0
100
AcDbBlockEnd
  0
BLOCK
  5
214
100
AcDbEntity
  8
0
100
AcDbBlockBegin
  2
_FILLED
 70
64
 10
0.0
 20
0.0
  3
_FILLED
  1

  0
SOLID
  5
215
100
AcDbEntity
  8
0
  6
BYBLOCK
 62
0
100
AcDbTrace
 10
0.0
 20
0.0
 11
-1.0
 21
0.25
 12
-1.0
 22
-0.25
 13
-1.0
 23
-0.25
  0
ENDBLK
  5
216
100
AcDbEntity
  8
0
  6
BYBLOCK
 62
0
100
AcDbBlockEnd
  0
ENDSEC
  0
SECTION
  2
ENTITIES
  0
LINE
  5
217
100
AcDbEntity
  8
0
100
AcDbLine
 62
7
  6
BYLAYER
 10
22.7404452975
 20
141.901215344
 11
22.7404452975
 21
158.8165975005
  0
LINE
  5
218
100
AcDbEntity
  8
0
100
AcDbLine
 62
7
  6
BYLAYER
 10
25.7404452975
 20
77.801215344
 11
25.7404452975
 21
141.901215344
  0
LINE
  5
219
100
AcDbEntity
  8
0
100
AcDbLine
 62
7
  6
BYLAYER
 10
28.4554452975
 20
162.3982201616
 11
28.4554452975
 21
162.4680939322
  0
LINE
  5
21A
100
AcDbEntity
  8
0
100
AcDbLine
 62
7
  6
BYLAYER
 10
35.2604452975
 20
141.901215344
 11
35.26379924
 21
158.8165569946
  0
LINE
  5
21B
100
AcDbEntity
  8
0
100
AcDbLine
 62
7
  6
BYLAYER
 10
35.8404452975
 20
141.901215344
 11
35.8404452975
 21
77.801215344
  0
LINE
  5
21C
100
AcDbEntity
  8
0
100
AcDbLine
 62
7
  6
BYLAYER
 10
41.7476868023
 20
163.2757143513
 11
41.7476868023
 21
163.231508353
  0
LINE
  5
21D
100
AcDbEntity
  8
0
100
AcDbLine
 62
7
  6
BYLAYER
 10
42.4547935835
 20
163.4292571284
 11
42.4547935835
 21
163.4948319828
  0
LINE
  5
21E
100
AcDbEntity
  8
0
100
AcDbLine
 62
7
  6
BYLAYER
 10
25.7404452975
 20
77.801215344
 11
183.7404452975
 21
77.801215344
  0
LINE
  5
21F
100
AcDbEntity
  8
0
100
AcDbLine
 62
7
  6
BYLAYER
 10
44.4554452975
 20
164.2186494733
 11
44.4554452975
 21
164.301215344
  0
LINE
  5
220
100
AcDbEntity
  8
0
100
AcDbLine
 62
7
  6
BYLAYER
 10
74.7404452975
 20
164.301215344
 11
74.7404452975
 21
168.199215344
  0
LINE
  5
221
100
AcDbEntity
  8
0
100
AcDbLine
 62
7
  6
BYLAYER
 10
78.2404452975
 20
164.301215344
 11
78.2404452975
 21
169.199215344
  0
LINE
  5
222
100
AcDbEntity
  8
0
100
AcDbLine
 62
7
  6
BYLAYER
 10
82.2404452975
 20
206.699215344
 11
82.2404452975
 21
169.199215344
  0
LINE
  5
223
100
AcDbEntity
  8
0
100
AcDbLine
 62
7
  6
BYLAYER
 10
84.6347184579
 20
190.9804213875
 11
84.5328785565
 21
206.7812294196
  0
LINE
  5
224
100
AcDbEntity
  8
0
100
AcDbLine
 62
7
  6
BYLAYER
 10
90.8404452975
 20
206.699215344
 11
90.8404452975
 21
209.199215344
  0
LINE
  5
225
100
AcDbEntity
  8
0
100
AcDbLine
 62
7
  6
BYLAYER
 10
91.2404452975
 20
206.699215344
 11
91.2404452975
 21
209.199215344
  0
LINE
  5
226
100
AcDbEntity
  8
0
100
AcDbLine
 62
7
  6
BYLAYER
 10
22.7404452975
 20
141.901215344
 11
186.7404452975
 21
141.901215344
  0
LINE
  5
227
100
AcDbEntity
  8
0
100
AcDbLine
 62
7
  6
BYLAYER
 10
124.9480120386
 20
206.7812294236
 11
124.8461721371
 21
190.9804213859
  0
LINE
  5
228
100
AcDbEntity
  8
0
100
AcDbLine
 62
7
  6
BYLAYER
 10
174.2172874409
 20
158.8164767453
 11
35.26379924
 21
158.8165569946
  0
LINE
  5
229
100
AcDbEntity
  8
0
100
AcDbLine
 62
7
  6
BYLAYER
 10
35.5058779688
 20
164.301215344
 11
44.3862969808
 21
164.301215344
  0
LINE
  5
22A
100
AcDbEntity
  8
0
100
AcDbLine
 62
7
  6
BYLAYER
 10
44.4246879898
 20
164.301215344
 11
173.9750126263
 21
164.301215344
  0
LINE
  5
22B
100
AcDbEntity
  8
0
100
AcDbLine
 62
7
  6
BYLAYER
 10
127.2404452975
 20
206.699215344
 11
127.2404452975
 21
169.199215344
  0
LINE
  5
22C
100
AcDbEntity
  8
0
100
AcDbLine
 62
7
  6
BYLAYER
 10
131.2404452975
 20
164.301215344
 11
131.2404452975
 21
169.199215344
  0
LINE
  5
22D
100
AcDbEntity
  8
0
100
AcDbLine
 62
7
  6
BYLAYER
 10
134.7404452975
 20
168.199215344
 11
74.7404452975
 21
168.199215344
  0
LINE
  5
22E
100
AcDbEntity
  8
0
100
AcDbLine
 62
7
  6
BYLAYER
 10
75.7404452975
 20
169.199215344
 11
133.7404452975
 21
169.199215344
  0
LINE
  5
22F
100
AcDbEntity
  8
0
100
AcDbLine
 62
7
  6
BYLAYER
 10
134.7404452975
 20
164.301215344
 11
134.7404452975
 21
168.199215344
  0
LINE
  5
230
100
AcDbEntity
  8
0
100
AcDbLine
 62
7
  6
BYLAYER
 10
115.5230034907
 20
177.399215344
 11
93.9578871011
 21
177.399215344
  0
LINE
  5
231
100
AcDbEntity
  8
0
100
AcDbLine
 62
7
  6
BYLAYER
 10
114.5645538704
 20
179.399215344
 11
94.9163367253
 21
179.399215344
  0
LINE
  5
232
100
AcDbEntity
  8
0
100
AcDbLine
 62
7
  6
BYLAYER
 10
84.6347184579
 20
190.9804213875
 11
124.8461721371
 21
190.9804213859
  0
LINE
  5
233
100
AcDbEntity
  8
0
100
AcDbLine
 62
7
  6
BYLAYER
 10
165.0254452975
 20
164.2181232537
 11
165.0254452975
 21
164.301215344
  0
LINE
  5
234
100
AcDbEntity
  8
0
100
AcDbLine
 62
7
  6
BYLAYER
 10
90.8404452975
 20
206.7864640858
 11
84.5328785565
 21
206.7812294196
  0
LINE
  5
235
100
AcDbEntity
  8
0
100
AcDbLine
 62
7
  6
BYLAYER
 10
127.2404452975
 20
206.699215344
 11
126.9195540267
 21
206.699215344
  0
LINE
  5
236
100
AcDbEntity
  8
0
100
AcDbLine
 62
7
  6
BYLAYER
 10
82.5613365684
 20
206.699215344
 11
82.2404452975
 21
206.699215344
  0
LINE
  5
237
100
AcDbEntity
  8
0
100
AcDbLine
 62
7
  6
BYLAYER
 10
90.8404452975
 20
206.699215344
 11
91.2404452975
 21
206.699215344
  0
LINE
  5
238
100
AcDbEntity
  8
0
100
AcDbLine
 62
7
  6
BYLAYER
 10
124.9480120386
 20
206.7812294236
 11
91.2404452975
 21
206.7864640858
  0
LINE
  5
239
100
AcDbEntity
  8
0
100
AcDbLine
 62
7
  6
BYLAYER
 10
174.2204452975
 20
141.901215344
 11
174.2172874409
 21
158.8164767453
  0
LINE
  5
23A
100
AcDbEntity
  8
0
100
AcDbLine
 62
7
  6
BYLAYER
 10
173.6404452975
 20
77.801215344
 11
173.6404452975
 21
141.901215344
  0
LINE
  5
23B
100
AcDbEntity
  8
0
100
AcDbLine
 62
7
  6
BYLAYER
 10
84.7404919927
 20
209.199215344
 11
124.7403987169
 21
209.199215344
  0
LINE
  5
23C
100
AcDbEntity
  8
0
100
AcDbLine
 62
7
  6
BYLAYER
 10
178.3176868023
 20
163.2757143513
 11
178.3176868023
 21
162.4761041028
  0
LINE
  5
23D
100
AcDbEntity
  8
0
100
AcDbLine
 62
7
  6
BYLAYER
 10
179.0247935835
 20
162.4722982993
 11
179.0247935835
 21
163.2426526045
  0
LINE
  5
23E
100
AcDbEntity
  8
0
100
AcDbLine
 62
7
  6
BYLAYER
 10
183.7404452975
 20
141.901215344
 11
183.7404452975
 21
77.801215344
  0
LINE
  5
23F
100
AcDbEntity
  8
0
100
AcDbLine
 62
7
  6
BYLAYER
 10
186.7404452975
 20
141.901215344
 11
186.7404452975
 21
158.8165756408
  0
ARC
  5
240
100
AcDbEntity
  8
0
100
AcDbCircle
 62
7
  6
BYLAYER
 10
37.562585816
 20
141.9158199098
 40
22.4796791773
100
AcDbArc
 50
114.5651563373
 51
131.2512830173
  0
ARC
  5
241
100
AcDbEntity
  8
0
100
AcDbCircle
 62
7
  6
BYLAYER
 10
37.562585816
 20
141.9158199098
 40
22.4796791773
100
AcDbArc
 50
95.2494389934
 51
114.4254657005
  0
ARC
  5
242
100
AcDbEntity
  8
0
100
AcDbCircle
 62
7
  6
BYLAYER
 10
171.9183047791
 20
141.9158199098
 40
22.4796791773
100
AcDbArc
 50
48.7486985339
 51
65.434843507
  0
ARC
  5
243
100
AcDbEntity
  8
0
100
AcDbCircle
 62
7
  6
BYLAYER
 10
171.9183047791
 20
141.9158199098
 40
22.4796791773
100
AcDbArc
 50
65.5775509992
 51
84.7505610066
  0
ARC
  5
244
100
AcDbEntity
  8
0
100
AcDbCircle
 62
7
  6
BYLAYER
 10
173.02513467
 20
180.8195768212
 40
18.3074552776
100
AcDbArc
 50
269.1584167104
 51
271.0091211759
  0
ARC
  5
245
100
AcDbEntity
  8
0
100
AcDbCircle
 62
7
  6
BYLAYER
 10
124.3995213949
 20
206.7025108828
 40
2.5200347863
100
AcDbArc
 50
359.9250722592
 51
1.9091291884
  0
ARC
  5
246
100
AcDbEntity
  8
0
100
AcDbCircle
 62
7
  6
BYLAYER
 10
85.0813278474
 20
206.7025119523
 40
2.5199934365
100
AcDbArc
 50
178.090880663
 51
180.0749532868
  0
ARC
  5
247
100
AcDbEntity
  8
0
100
AcDbCircle
 62
7
  6
BYLAYER
 10
84.7404452975
 20
206.699215344
 40
2.5
100
AcDbArc
 50
90.0
 51
180.0
  0
ARC
  5
248
100
AcDbEntity
  8
0
100
AcDbCircle
 62
7
  6
BYLAYER
 10
124.7404452975
 20
206.699215344
 40
2.5
100
AcDbArc
 50
0.0
 51
90.0
  0
ARC
  5
249
100
AcDbEntity
  8
0
100
AcDbCircle
 62
7
  6
BYLAYER
 10
124.5214317883
 20
206.8872518692
 40
2.311963497
100
AcDbArc
 50
84.8314429583
 51
89.9920636757
  0
ARC
  5
24A
100
AcDbEntity
  8
0
100
AcDbCircle
 62
7
  6
BYLAYER
 10
84.9595255853
 20
206.8967608901
 40
2.3024544867
100
AcDbArc
 50
90.0096651616
 51
95.011002605
  0
ARC
  5
24B
100
AcDbEntity
  8
0
100
AcDbCircle
 62
7
  6
BYLAYER
 10
165.8499213884
 20
165.7969601719
 40
1.8041226299
100
AcDbArc
 50
238.4111547233
 51
239.4963709468
  0
ARC
  5
24C
100
AcDbEntity
  8
0
100
AcDbCircle
 62
7
  6
BYLAYER
 10
43.6417339853
 20
165.7802433598
 40
1.7842280699
100
AcDbArc
 50
300.5301694561
 51
301.6103154622
  0
ARC
  5
24D
100
AcDbEntity
  8
0
100
AcDbCircle
 62
7
  6
BYLAYER
 10
75.7404452975
 20
168.199215344
 40
1.0
100
AcDbArc
 50
90.0
 51
180.0
  0
ARC
  5
24E
100
AcDbEntity
  8
0
100
AcDbCircle
 62
7
  6
BYLAYER
 10
133.7404452975
 20
168.199215344
 40
1.0
100
AcDbArc
 50
0.0
 51
90.0
  0
ARC
  5
24F
100
AcDbEntity
  8
0
100
AcDbCircle
 62
7
  6
BYLAYER
 10
124.4949971831
 20
209.0718287667
 40
0.1339603887
100
AcDbArc
 50
52.0457288848
 51
56.3786607633
  0
SPLINE
  5
250
100
AcDbEntity
  8
0
100
AcDbSpline
 62
7
  6
BYLAYER
 70
0
 71
3
 72
9
 73
5
 74
0
 42
0.0000001
 43
0.0000001
 44
0.0000000001
 40
0.0
 40
0.0
 40
0.0
 40
0.0
 40
0.5328675002
 40
1.0
 40
1.0
 40
1.0
 40
1.0
 10
36.1306442355
 20
162.4038580159
 30
0.0
 10
37.172869583
 20
162.3853167639
 30
0.0
 10
39.1354582273
 20
162.5209570796
 30
0.0
 10
41.0495452979
 20
162.9554460256
 30
0.0
 10
41.9251461588
 20
163.2168914881
 30
0.0
  0
SPLINE
  5
251
100
AcDbEntity
  8
0
100
AcDbSpline
 62
7
  6
BYLAYER
 70
0
 71
3
 72
11
 73
7
 74
0
 42
0.0000001
 43
0.0000001
 44
0.0000000001
 40
0.0
 40
0.0
 40
0.0
 40
0.0
 40
0.3437439912
 40
0.6307613333
 40
0.8522726971
 40
1.0
 40
1.0
 40
1.0
 40
1.0
 10
41.9251461588
 20
163.2168914881
 30
0.0
 10
42.2348648104
 20
163.30937031
 30
0.0
 10
42.7991266781
 20
163.4929137634
 30
0.0
 10
43.5495719354
 20
163.7752325633
 30
0.0
 10
44.1161729738
 20
164.0196132797
 30
0.0
 10
44.4284825066
 20
164.1727641692
 30
0.0
 10
44.5481075511
 20
164.2433774696
 30
0.0
  0
SPLINE
  5
252
100
AcDbEntity
  8
0
100
AcDbSpline
 62
7
  6
BYLAYER
 70
0
 71
3
 72
9
 73
5
 74
0
 42
0.0000001
 43
0.0000001
 44
0.0000000001
 40
0.0
 40
0.0
 40
0.0
 40
0.0
 40
0.2759651064
 40
1.0
 40
1.0
 40
1.0
 40
1.0
 10
44.5769179322
 20
164.2607366008
 30
0.0
 10
44.5826844627
 20
164.2642887794
 30
0.0
 10
44.6034939047
 20
164.2772978945
 30
0.0
 10
44.6239641608
 20
164.2908676006
 30
0.0
 10
44.6384098229
 20
164.301215344
 30
0.0
  0
SPLINE
  5
253
100
AcDbEntity
  8
0
100
AcDbSpline
 62
7
  6
BYLAYER
 70
0
 71
3
 72
9
 73
5
 74
0
 42
0.0000001
 43
0.0000001
 44
0.0000000001
 40
0.0
 40
0.0
 40
0.0
 40
0.0
 40
0.2238030072
 40
1.0
 40
1.0
 40
1.0
 40
1.0
 10
164.8424807722
 20
164.301215344
 30
0.0
 10
164.8470116833
 20
164.2979697534
 30
0.0
 10
164.8674301101
 20
164.2837097048
 30
0.0
 10
164.8884240786
 20
164.2702882429
 30
0.0
 10
164.904885735
 20
164.2601563206
 30
0.0
  0
SPLINE
  5
254
100
AcDbEntity
  8
0
100
AcDbSpline
 62
7
  6
BYLAYER
 70
0
 71
3
 72
14
 73
10
 74
0
 42
0.0000001
 43
0.0000001
 44
0.0000000001
 40
0.0
 40
0.0
 40
0.0
 40
0.0
 40
0.0531157478
 40
0.1340768898
 40
0.2393548689
 40
0.3653481247
 40
0.5084922654
 40
0.6649594005
 40
1.0
 40
1.0
 40
1.0
 40
1.0
 10
164.9341614847
 20
164.2425335051
 30
0.0
 10
165.066698498
 20
164.1643806989
 30
0.0
 10
165.4170615424
 20
163.994945145
 30
0.0
 10
166.0555671302
 20
163.724845452
 30
0.0
 10
166.9056069368
 20
163.4143161353
 30
0.0
 10
167.9422279991
 20
163.0938085181
 30
0.0
 10
169.1401829605
 20
162.7986037623
 30
0.0
 10
170.9510658877
 20
162.4765330843
 30
0.0
 10
172.3798854374
 20
162.3865942025
 30
0.0
 10
173.3502624987
 20
162.4038571447
 30
0.0
  0
SPLINE
  5
255
100
AcDbEntity
  8
0
100
AcDbSpline
 62
7
  6
BYLAYER
 70
0
 71
3
 72
12
 73
8
 74
0
 42
0.0000001
 43
0.0000001
 44
0.0000000001
 40
0.0
 40
0.0
 40
0.0
 40
0.0
 40
0.3322563153
 40
0.6277655194
 40
0.8577882173
 40
0.9409390282
 40
1.0
 40
1.0
 40
1.0
 40
1.0
 10
36.1306436428
 20
162.4038578406
 30
0.0
 10
35.287349553
 20
162.4188601814
 30
0.0
 10
33.694125636
 20
162.4530021819
 30
0.0
 10
31.5168722728
 20
162.4835004089
 30
0.0
 10
29.9714546993
 20
162.4766319448
 30
0.0
 10
29.0270791781
 20
162.4440534524
 30
0.0
 10
28.666627303
 20
162.4218831887
 30
0.0
 10
28.5173525656
 20
162.4079308482
 30
0.0
  0
SPLINE
  5
256
100
AcDbEntity
  8
0
100
AcDbSpline
 62
7
  6
BYLAYER
 70
0
 71
3
 72
10
 73
6
 74
0
 42
0.0000001
 43
0.0000001
 44
0.0000000001
 40
0.0
 40
0.0
 40
0.0
 40
0.0
 40
0.6629139446
 40
0.8721842366
 40
1.0
 40
1.0
 40
1.0
 40
1.0
 10
28.5173525656
 20
162.4079308482
 30
0.0
 10
28.4503734931
 20
162.40167048
 30
0.0
 10
28.3620852374
 20
162.3926947414
 30
0.0
 10
28.2624154987
 20
162.3746552478
 30
0.0
 10
28.2289545498
 20
162.3662355232
 30
0.0
 10
28.2171583113
 20
162.3608428017
 30
0.0
  0
SPLINE
  5
257
100
AcDbEntity
  8
0
100
AcDbSpline
 62
7
  6
BYLAYER
 70
0
 71
3
 72
9
 73
5
 74
0
 42
0.0000001
 43
0.0000001
 44
0.0000000001
 40
0.0
 40
0.0
 40
0.0
 40
0.0
 40
0.2706931137
 40
1.0
 40
1.0
 40
1.0
 40
1.0
 10
173.3502445335
 20
162.4038577005
 30
0.0
 10
173.8009730722
 20
162.4118755789
 30
0.0
 10
175.4659801274
 20
162.4446304849
 30
0.0
 10
177.1311800719
 20
162.4772397546
 30
0.0
 10
178.3457335476
 20
162.4784768317
 30
0.0
  0
SPLINE
  5
258
100
AcDbEntity
  8
0
100
AcDbSpline
 62
7
  6
BYLAYER
 70
0
 71
3
 72
9
 73
5
 74
0
 42
0.0000001
 43
0.0000001
 44
0.0000000001
 40
0.0
 40
0.0
 40
0.0
 40
0.0
 40
0.6049830957
 40
1.0
 40
1.0
 40
1.0
 40
1.0
 10
178.3457335476
 20
162.4784768317
 30
0.0
 10
178.8575038515
 20
162.4789980927
 30
0.0
 10
179.7033196935
 20
162.4720559963
 30
0.0
 10
180.549262673
 20
162.4421638213
 30
0.0
 10
180.8823119238
 20
162.415004112
 30
0.0
  0
SPLINE
  5
259
100
AcDbEntity
  8
0
100
AcDbSpline
 62
7
  6
BYLAYER
 70
0
 71
3
 72
11
 73
7
 74
0
 42
0.0000001
 43
0.0000001
 44
0.0000000001
 40
0.0
 40
0.0
 40
0.0
 40
0.0
 40
0.3776347492
 40
0.6706119599
 40
0.878114479
 40
1.0
 40
1.0
 40
1.0
 40
1.0
 10
180.8823119238
 20
162.415004112
 30
0.0
 10
180.9307356888
 20
162.4110552204
 30
0.0
 10
181.0166238845
 20
162.4032181925
 30
0.0
 10
181.1289907568
 20
162.390137953
 30
0.0
 10
181.2077259046
 20
162.3768872907
 30
0.0
 10
181.2494714571
 20
162.3673612976
 30
0.0
 10
181.2637332261
 20
162.360842055
 30
0.0
  0
SPLINE
  5
25A
100
AcDbEntity
  8
0
100
AcDbSpline
 62
7
  6
BYLAYER
 70
0
 71
3
 72
9
 73
5
 74
0
 42
0.0000001
 43
0.0000001
 44
0.0000000001
 40
0.0
 40
0.0
 40
0.0
 40
0.0
 40
0.4065685023
 40
1.0
 40
1.0
 40
1.0
 40
1.0
 10
44.3862969808
 20
164.301215344
 30
0.0
 10
44.342185232
 20
164.2705906587
 30
0.0
 10
44.2271676068
 20
164.204993124
 30
0.0
 10
44.1090116231
 20
164.1460513485
 30
0.0
 10
44.0382560809
 20
164.1123274195
 30
0.0
  0
SPLINE
  5
25B
100
AcDbEntity
  8
0
100
AcDbSpline
 62
7
  6
BYLAYER
 70
0
 71
3
 72
9
 73
5
 74
0
 42
0.0000001
 43
0.0000001
 44
0.0000000001
 40
0.0
 40
0.0
 40
0.0
 40
0.0
 40
0.4207244107
 40
1.0
 40
1.0
 40
1.0
 40
1.0
 10
44.0382560809
 20
164.1123274195
 30
0.0
 10
43.8229993715
 20
164.0097304813
 30
0.0
 10
43.3000119714
 20
163.7899866463
 30
0.0
 10
42.7664894128
 20
163.5979802177
 30
0.0
 10
42.4547935835
 20
163.4948319828
 30
0.0
  0
SPLINE
  5
25C
100
AcDbEntity
  8
0
100
AcDbSpline
 62
7
  6
BYLAYER
 70
0
 71
3
 72
9
 73
5
 74
0
 42
0.0000001
 43
0.0000001
 44
0.0000000001
 40
0.0
 40
0.0
 40
0.0
 40
0.0
 40
0.4901088534
 40
1.0
 40
1.0
 40
1.0
 40
1.0
 10
184.1407552369
 20
160.7823956649
 30
0.0
 10
183.7039101056
 20
161.065400477
 30
0.0
 10
182.7522863087
 20
161.5543582422
 30
0.0
 10
181.7237639545
 20
161.847142435
 30
0.0
 10
181.1915969137
 20
161.9473211466
 30
0.0
  0
SPLINE
  5
25D
100
AcDbEntity
  8
0
100
AcDbSpline
 62
7
  6
BYLAYER
 70
0
 71
3
 72
9
 73
5
 74
0
 42
0.0000001
 43
0.0000001
 44
0.0000000001
 40
0.0
 40
0.0
 40
0.0
 40
0.0
 40
0.2418543818
 40
1.0
 40
1.0
 40
1.0
 40
1.0
 10
181.1915969137
 20
161.9473211466
 30
0.0
 10
180.9583322083
 20
161.9912324674
 30
0.0
 10
179.9868153127
 20
162.1348019744
 30
0.0
 10
178.9950237516
 20
162.1262600533
 30
0.0
 10
178.2550294009
 20
162.0485581022
 30
0.0
  0
SPLINE
  5
25E
100
AcDbEntity
  8
0
100
AcDbSpline
 62
7
  6
BYLAYER
 70
0
 71
3
 72
9
 73
5
 74
0
 42
0.0000001
 43
0.0000001
 44
0.0000000001
 40
0.0
 40
0.0
 40
0.0
 40
0.0
 40
0.2404350786
 40
1.0
 40
1.0
 40
1.0
 40
1.0
 10
178.2550294009
 20
162.0485581022
 30
0.0
 10
177.8857156226
 20
162.0097788858
 30
0.0
 10
176.3574107535
 20
161.77569258
 30
0.0
 10
174.8775025365
 20
161.2694161076
 30
0.0
 10
173.8102455281
 20
160.7824038943
 30
0.0
  0
SPLINE
  5
25F
100
AcDbEntity
  8
0
100
AcDbSpline
 62
7
  6
BYLAYER
 70
0
 71
3
 72
13
 73
9
 74
0
 42
0.0000001
 43
0.0000001
 44
0.0000000001
 40
0.0
 40
0.0
 40
0.0
 40
0.0
 40
0.0454329471
 40
0.1199173561
 40
0.2212775084
 40
0.3462899164
 40
0.6520110041
 40
1.0
 40
1.0
 40
1.0
 40
1.0
 10
82.5611153852
 20
206.6992152344
 30
0.0
 10
82.5903719251
 20
206.7053703713
 30
0.0
 10
82.6690205789
 20
206.7138840356
 30
0.0
 10
82.8140738651
 20
206.7254447773
 30
0.0
 10
83.0118188408
 20
206.7362631352
 30
0.0
 10
83.3616809875
 20
206.7499548678
 30
0.0
 10
83.8740516976
 20
206.7601750392
 30
0.0
 10
84.3039979355
 20
206.7740420772
 30
0.0
 10
84.5328784612
 20
206.781219389
 30
0.0
  0
SPLINE
  5
260
100
AcDbEntity
  8
0
100
AcDbSpline
 62
7
  6
BYLAYER
 70
0
 71
3
 72
12
 73
8
 74
0
 42
0.0000001
 43
0.0000001
 44
0.0000000001
 40
0.0
 40
0.0
 40
0.0
 40
0.0
 40
0.0478063449
 40
0.125322017
 40
0.3636525864
 40
0.6755965032
 40
1.0
 40
1.0
 40
1.0
 40
1.0
 10
82.6731841375
 20
190.9106219354
 30
0.0
 10
82.7039660001
 20
190.9162372589
 30
0.0
 10
82.785644267
 20
190.9249834033
 30
0.0
 10
83.0229252531
 20
190.9428486178
 30
0.0
 10
83.4336395601
 20
190.959418673
 30
0.0
 10
84.0059049363
 20
190.9738840426
 30
0.0
 10
84.4223973367
 20
190.9789472541
 30
0.0
 10
84.634718386
 20
190.9804209929
 30
0.0
  0
SPLINE
  5
261
100
AcDbEntity
  8
0
100
AcDbSpline
 62
7
  6
BYLAYER
 70
0
 71
3
 72
18
 73
14
 74
0
 42
0.0000001
 43
0.0000001
 44
0.0000000001
 40
0.0
 40
0.0
 40
0.0
 40
0.0
 40
0.1335071701
 40
0.1952923046
 40
0.2535722786
 40
0.3606337419
 40
0.41145616
 40
0.4624268133
 40
0.5715227117
 40
0.6325359395
 40
0.6984508706
 40
0.843419099
 40
1.0
 40
1.0
 40
1.0
 40
1.0
 10
93.9578871011
 20
177.399215344
 30
0.0
 10
93.0254308326
 20
177.3992131315
 30
0.0
 10
91.65986552
 20
177.4296384593
 30
0.0
 10
89.8974718987
 20
177.6232367311
 30
0.0
 10
88.3396555633
 20
177.9221157169
 30
0.0
 10
86.8976369591
 20
178.4437339566
 30
0.0
 10
85.6923132977
 20
179.2790126686
 30
0.0
 10
84.6516170022
 20
180.3334265914
 30
0.0
 10
83.9052599285
 20
181.7206982081
 30
0.0
 10
83.4082122361
 20
183.2928899653
 30
0.0
 10
83.0121283181
 20
185.1531876857
 30
0.0
 10
82.7486401211
 20
187.7112309117
 30
0.0
 10
82.6815369445
 20
189.8170437938
 30
0.0
 10
82.6731841321
 20
190.9106223922
 30
0.0
  0
SPLINE
  5
262
100
AcDbEntity
  8
0
100
AcDbSpline
 62
7
  6
BYLAYER
 70
0
 71
3
 72
14
 73
10
 74
0
 42
0.0000001
 43
0.0000001
 44
0.0000000001
 40
0.0
 40
0.0
 40
0.0
 40
0.0
 40
0.0743362041
 40
0.1612339513
 40
0.2671295069
 40
0.3930376795
 40
0.5365380273
 40
0.6908689344
 40
1.0
 40
1.0
 40
1.0
 40
1.0
 10
94.9163367267
 20
179.3992153441
 30
0.0
 10
94.8570807369
 20
179.3992153441
 30
0.0
 10
94.7276857427
 20
179.3727838817
 30
0.0
 10
94.5444883516
 20
179.2572978674
 30
0.0
 10
94.3748982843
 20
179.0648400186
 30
0.0
 10
94.224607382
 20
178.8044384336
 30
0.0
 10
94.1050244478
 20
178.4872652273
 30
0.0
 10
93.9893940674
 20
178.0166883321
 30
0.0
 10
93.9578871102
 20
177.6456345346
 30
0.0
 10
93.9578871102
 20
177.399215344
 30
0.0
  0
SPLINE
  5
263
100
AcDbEntity
  8
0
100
AcDbSpline
 62
7
  6
BYLAYER
 70
0
 71
3
 72
14
 73
10
 74
0
 42
0.0000001
 43
0.0000001
 44
0.0000000001
 40
0.0
 40
0.0
 40
0.0
 40
0.0
 40
0.3091311532
 40
0.4634620696
 40
0.6069624043
 40
0.7328705496
 40
0.8387660778
 40
0.9256638073
 40
1.0
 40
1.0
 40
1.0
 40
1.0
 10
115.5230090547
 20
177.399215344
 30
0.0
 10
115.5230090342
 20
177.6456346417
 30
0.0
 10
115.4915020048
 20
178.0166885732
 30
0.0
 10
115.375871447
 20
178.4872655703
 30
0.0
 10
115.2562883781
 20
178.8044387554
 30
0.0
 10
115.1059973539
 20
179.0648402615
 30
0.0
 10
114.9364071921
 20
179.257298002
 30
0.0
 10
114.753209756
 20
179.3727839137
 30
0.0
 10
114.6238147662
 20
179.3992153446
 30
0.0
 10
114.5645587766
 20
179.3992153441
 30
0.0
  0
SPLINE
  5
264
100
AcDbEntity
  8
0
100
AcDbSpline
 62
7
  6
BYLAYER
 70
0
 71
3
 72
19
 73
15
 74
0
 42
0.0000001
 43
0.0000001
 44
0.0000000001
 40
0.0
 40
0.0
 40
0.0
 40
0.0
 40
0.1564717296
 40
0.3013828691
 40
0.3672628853
 40
0.4282626903
 40
0.4847281459
 40
0.537651751
 40
0.5886052878
 40
0.6394077472
 40
0.7464092873
 40
0.8046779189
 40
0.8664536953
 40
1.0
 40
1.0
 40
1.0
 40
1.0
 10
126.8077064629
 20
190.9106223911
 30
0.0
 10
126.7993679377
 20
189.817428968
 30
0.0
 10
126.7322777996
 20
187.7121755874
 30
0.0
 10
126.4687687819
 20
185.15421774
 30
0.0
 10
126.0733525221
 20
183.2947136293
 30
0.0
 10
125.685657159
 20
182.0710428454
 30
0.0
 10
125.1829417088
 20
180.9874202682
 30
0.0
 10
124.55245806
 20
180.054630502
 30
0.0
 10
123.7898779291
 20
179.279875823
 30
0.0
 10
122.5850359555
 20
178.44416208
 30
0.0
 10
121.1432854986
 20
177.9220242157
 30
0.0
 10
119.5854297412
 20
177.623363574
 30
0.0
 10
117.8222938406
 20
177.4298297285
 30
0.0
 10
116.4560550345
 20
177.3992180481
 30
0.0
 10
115.5230034907
 20
177.399215344
 30
0.0
  0
SPLINE
  5
265
100
AcDbEntity
  8
0
100
AcDbSpline
 62
7
  6
BYLAYER
 70
0
 71
3
 72
18
 73
14
 74
0
 42
0.0000001
 43
0.0000001
 44
0.0000000001
 40
0.0
 40
0.0
 40
0.0
 40
0.0
 40
0.1383114847
 40
0.263017484
 40
0.3201360624
 40
0.3742615687
 40
0.4264375403
 40
0.4782346409
 40
0.5872283652
 40
0.64727558
 40
0.7114851289
 40
0.8509708789
 40
1.0
 40
1.0
 40
1.0
 40
1.0
 10
94.9163484116
 20
179.3992153439
 30
0.0
 10
94.0651433653
 20
179.3992168581
 30
0.0
 10
92.4463171457
 20
179.4327034964
 30
0.0
 10
90.482521988
 20
179.6826193922
 30
0.0
 10
89.0850605984
 20
180.0892635951
 30
0.0
 10
88.1623392701
 20
180.4990689859
 30
0.0
 10
87.3476918337
 20
181.0405665394
 30
0.0
 10
86.4028771506
 20
181.9599524045
 30
0.0
 10
85.7258074298
 20
183.1715257744
 30
0.0
 10
85.28149494
 20
184.5370816773
 30
0.0
 10
84.9324823932
 20
186.1249370459
 30
0.0
 10
84.701570124
 20
188.2879916627
 30
0.0
 10
84.6422006692
 20
190.0632877225
 30
0.0
 10
84.6347460794
 20
190.980421611
 30
0.0
  0
SPLINE
  5
266
100
AcDbEntity
  8
0
100
AcDbSpline
 62
7
  6
BYLAYER
 70
0
 71
3
 72
11
 73
7
 74
0
 42
0.0000001
 43
0.0000001
 44
0.0000000001
 40
0.0
 40
0.0
 40
0.0
 40
0.0
 40
0.2560589123
 40
0.5082232718
 40
0.7555208996
 40
1.0
 40
1.0
 40
1.0
 40
1.0
 10
82.5627331931
 20
206.7864636509
 30
0.0
 10
82.5725562861
 20
207.0885236275
 30
0.0
 10
82.6983135744
 20
207.6900060498
 30
0.0
 10
83.1820441227
 20
208.4609877059
 30
0.0
 10
83.8964771021
 20
209.0043119473
 30
0.0
 10
84.4709603497
 20
209.165247603
 30
0.0
 10
84.7584129964
 20
209.1904152647
 30
0.0
  0
SPLINE
  5
267
100
AcDbEntity
  8
0
100
AcDbSpline
 62
7
  6
BYLAYER
 70
0
 71
3
 72
18
 73
14
 74
0
 42
0.0000001
 43
0.0000001
 44
0.0000000001
 40
0.0
 40
0.0
 40
0.0
 40
0.0
 40
0.1488852634
 40
0.2883089377
 40
0.3525099457
 40
0.4125568059
 40
0.5215808876
 40
0.5733885475
 40
0.6255698943
 40
0.6797009724
 40
0.7368336742
 40
0.8616070824
 40
1.0
 40
1.0
 40
1.0
 40
1.0
 10
124.846184458
 20
190.9804212869
 30
0.0
 10
124.8387547025
 20
190.0641647109
 30
0.0
 10
124.7794168133
 20
188.2901194019
 30
0.0
 10
124.5488950712
 20
186.1283555608
 30
0.0
 10
124.2004936548
 20
184.5408033245
 30
0.0
 10
123.7566634785
 20
183.1749455761
 30
0.0
 10
123.0802700752
 20
181.9627319679
 30
0.0
 10
122.1359033489
 20
181.0424513508
 30
0.0
 10
121.3214488815
 20
180.5003900523
 30
0.0
 10
120.3987348708
 20
180.0901417535
 30
0.0
 10
119.000830906
 20
179.6830229875
 30
0.0
 10
117.03602621
 20
179.4328164918
 30
0.0
 10
115.4162725887
 20
179.3992214363
 30
0.0
 10
114.564559083
 20
179.399215344
 30
0.0
  0
SPLINE
  5
268
100
AcDbEntity
  8
0
100
AcDbSpline
 62
7
  6
BYLAYER
 70
0
 71
3
 72
28
 73
24
 74
0
 42
0.0000001
 43
0.0000001
 44
0.0000000001
 40
0.0
 40
0.0
 40
0.0
 40
0.0
 40
0.0002945031
 40
0.0011929113
 40
0.002693845
 40
0.0047958347
 40
0.0074974151
 40
0.0107971345
 40
0.019185252
 40
0.0299442179
 40
0.0430409813
 40
0.0584386027
 40
0.0761002407
 40
0.1180510799
 40
0.168483945
 40
0.2269289124
 40
0.2928190453
 40
0.3655318011
 40
0.4443540019
 40
0.5285302208
 40
0.617234116
 40
0.804859347
 40
1.0
 40
1.0
 40
1.0
 40
1.0
 10
22.7404458745
 20
158.8165975005
 30
0.0
 10
22.7397985588
 20
158.8155521988
 30
0.0
 10
22.7493935245
 20
158.8183314218
 30
0.0
 10
22.7561182898
 20
158.8164600876
 30
0.0
 10
22.7774606057
 20
158.8189149806
 30
0.0
 10
22.8026017555
 20
158.819709077
 30
0.0
 10
22.8368272854
 20
158.8217178582
 30
0.0
 10
22.896615345
 20
158.8246020438
 30
0.0
 10
22.9903663263
 20
158.8289801339
 30
0.0
 10
23.124808727
 20
158.8344100565
 30
0.0
 10
23.2886014147
 20
158.8403037917
 30
0.0
 10
23.481193157
 20
158.8463574209
 30
0.0
 10
23.7942366012
 20
158.854852322
 30
0.0
 10
24.2535648718
 20
158.8642436113
 30
0.0
 10
24.8831967437
 20
158.8727517154
 30
0.0
 10
25.6128081827
 20
158.8780750048
 30
0.0
 10
26.4354513586
 20
158.8798217062
 30
0.0
 10
27.3431645728
 20
158.8776650544
 30
0.0
 10
28.3272040383
 20
158.8719159979
 30
0.0
 10
29.3779814045
 20
158.8629346196
 30
0.0
 10
30.8829546392
 20
158.8477036092
 30
0.0
 10
32.8511395549
 20
158.826211315
 30
0.0
 10
34.4491197087
 20
158.816186797
 30
0.0
 10
35.2637992006
 20
158.8165399877
 30
0.0
  0
SPLINE
  5
269
100
AcDbEntity
  8
0
100
AcDbSpline
 62
7
  6
BYLAYER
 70
0
 71
3
 72
13
 73
9
 74
0
 42
0.0000001
 43
0.0000001
 44
0.0000000001
 40
0.0
 40
0.0
 40
0.0
 40
0.0
 40
0.353406912
 40
0.6580751032
 40
0.7808380414
 40
0.8795776061
 40
0.9523528443
 40
1.0
 40
1.0
 40
1.0
 40
1.0
 10
84.5329634655
 20
206.7812287778
 30
0.0
 10
84.5345677748
 20
207.070606639
 30
0.0
 10
84.5531308846
 20
207.6093761421
 30
0.0
 10
84.6158216225
 20
208.2467100995
 30
0.0
 10
84.6924215472
 20
208.6706823325
 30
0.0
 10
84.7531352437
 20
208.9047878287
 30
0.0
 10
84.817384528
 20
209.0715325901
 30
0.0
 10
84.8742061635
 20
209.1567586947
 30
0.0
 10
84.90579178
 20
209.1796614286
 30
0.0
  0
SPLINE
  5
26A
100
AcDbEntity
  8
0
100
AcDbSpline
 62
7
  6
BYLAYER
 70
0
 71
3
 72
8
 73
4
 74
0
 42
0.0000001
 43
0.0000001
 44
0.0000000001
 40
0.0
 40
0.0
 40
0.0
 40
0.0
 40
1.0
 40
1.0
 40
1.0
 40
1.0
 10
84.9136688814
 20
209.1849488166
 30
0.0
 10
84.9271786756
 20
209.1932918595
 30
0.0
 10
84.9432406197
 20
209.1989851055
 30
0.0
 10
84.9591172665
 20
209.1992152954
 30
0.0
  0
SPLINE
  5
26B
100
AcDbEntity
  8
0
100
AcDbSpline
 62
7
  6
BYLAYER
 70
0
 71
3
 72
9
 73
5
 74
0
 42
0.0000001
 43
0.0000001
 44
0.0000000001
 40
0.0
 40
0.0
 40
0.0
 40
0.0
 40
0.2224496318
 40
1.0
 40
1.0
 40
1.0
 40
1.0
 10
178.3176868023
 20
163.2757143513
 30
0.0
 10
177.9590228827
 20
163.1719317386
 30
0.0
 10
176.3342848116
 20
162.7505641084
 30
0.0
 10
174.6524589689
 20
162.5379153238
 30
0.0
 10
173.3475578196
 20
162.5149609538
 30
0.0
  0
SPLINE
  5
26C
100
AcDbEntity
  8
0
100
AcDbSpline
 62
7
  6
BYLAYER
 70
0
 71
3
 72
15
 73
11
 74
0
 42
0.0000001
 43
0.0000001
 44
0.0000000001
 40
0.0
 40
0.0
 40
0.0
 40
0.0
 40
0.3494784092
 40
0.5096655175
 40
0.6542055577
 40
0.7792186881
 40
0.8809123381
 40
0.9555732359
 40
0.9817257434
 40
1.0
 40
1.0
 40
1.0
 40
1.0
 10
172.7562371255
 20
162.5140964164
 30
0.0
 10
171.8326067258
 20
162.5276876202
 30
0.0
 10
170.4844544611
 20
162.6507463845
 30
0.0
 10
168.7879686011
 20
162.9889933013
 30
0.0
 10
167.688933868
 20
163.2786416132
 30
0.0
 10
166.7543477215
 20
163.5792086143
 30
0.0
 10
166.0088074037
 20
163.860209028
 30
0.0
 10
165.5168883824
 20
164.0724674392
 30
0.0
 10
165.2360971358
 20
164.214673039
 30
0.0
 10
165.13427095
 20
164.2736692604
 30
0.0
 10
165.0945936142
 20
164.301215344
 30
0.0
  0
SPLINE
  5
26D
100
AcDbEntity
  8
0
100
AcDbSpline
 62
7
  6
BYLAYER
 70
0
 71
3
 72
28
 73
24
 74
0
 42
0.0000001
 43
0.0000001
 44
0.0000000001
 40
0.0
 40
0.0
 40
0.0
 40
0.0
 40
0.0002938158
 40
0.0011908973
 40
0.0026904994
 40
0.0047916639
 40
0.0074927762
 40
0.0107920285
 40
0.0191767155
 40
0.0299243926
 40
0.0430091081
 40
0.0583989421
 40
0.0760571765
 40
0.1180035955
 40
0.168446512
 40
0.2269009686
 40
0.2928040893
 40
0.3655213504
 40
0.4443523402
 40
0.5285372336
 40
0.6172635958
 40
0.8048833574
 40
1.0
 40
1.0
 40
1.0
 40
1.0
 10
186.7404447033
 20
158.8165680028
 30
0.0
 10
186.7411001557
 20
158.8155311994
 30
0.0
 10
186.7314991144
 20
158.8183175267
 30
0.0
 10
186.7248076535
 20
158.8164740161
 30
0.0
 10
186.7034691302
 20
158.8189445632
 30
0.0
 10
186.6783452888
 20
158.819737826
 30
0.0
 10
186.6441244801
 20
158.821733338
 30
0.0
 10
186.5843553912
 20
158.8245899762
 30
0.0
 10
186.4906676462
 20
158.828945225
 30
0.0
 10
186.3563407465
 20
158.8344062913
 30
0.0
 10
186.1926808065
 20
158.8403102615
 30
0.0
 10
186.0001888367
 20
158.8463551267
 30
0.0
 10
185.6872146553
 20
158.854820898
 30
0.0
 10
185.227885745
 20
158.8642821023
 30
0.0
 10
184.5982003214
 20
158.8727947331
 30
0.0
 10
183.8684646552
 20
158.8781599222
 30
0.0
 10
183.0457213748
 20
158.8798690092
 30
0.0
 10
182.1379123825
 20
158.8777490876
 30
0.0
 10
181.1537965298
 20
158.8719644053
 30
0.0
 10
180.1028683442
 20
158.8630231949
 30
0.0
 10
178.5978113841
 20
158.8477595441
 30
0.0
 10
176.6296857478
 20
158.8263165791
 30
0.0
 10
175.0318541938
 20
158.8161571069
 30
0.0
 10
174.2172874752
 20
158.8164767453
 30
0.0
  0
SPLINE
  5
26E
100
AcDbEntity
  8
0
100
AcDbSpline
 62
7
  6
BYLAYER
 70
0
 71
3
 72
12
 73
8
 74
0
 42
0.0000001
 43
0.0000001
 44
0.0000000001
 40
0.0
 40
0.0
 40
0.0
 40
0.0
 40
0.0478063676
 40
0.1253220744
 40
0.3636527051
 40
0.6755966061
 40
1.0
 40
1.0
 40
1.0
 40
1.0
 10
126.8077064607
 20
190.9106223906
 30
0.0
 10
126.7769245827
 20
190.9162377118
 30
0.0
 10
126.6952462776
 20
190.92498385
 30
0.0
 10
126.4579652129
 20
190.9428490506
 30
0.0
 10
126.0472508536
 20
190.9594190886
 30
0.0
 10
125.4749855155
 20
190.973884441
 30
0.0
 10
125.0584931934
 20
190.9789476461
 30
0.0
 10
124.8461722118
 20
190.9804213831
 30
0.0
  0
SPLINE
  5
26F
100
AcDbEntity
  8
0
100
AcDbSpline
 62
7
  6
BYLAYER
 70
0
 71
3
 72
9
 73
5
 74
0
 42
0.0000001
 43
0.0000001
 44
0.0000000001
 40
0.0
 40
0.0
 40
0.0
 40
0.0
 40
0.4999990248
 40
1.0
 40
1.0
 40
1.0
 40
1.0
 10
82.5613365684
 20
206.699215344
 30
0.0
 10
82.5792248402
 20
204.067782992
 30
0.0
 10
82.6136638615
 20
198.8048985225
 30
0.0
 10
82.6537943586
 20
193.5420543745
 30
0.0
 10
82.6731841321
 20
190.9106223922
 30
0.0
  0
SPLINE
  5
270
100
AcDbEntity
  8
0
100
AcDbSpline
 62
7
  6
BYLAYER
 70
0
 71
3
 72
9
 73
5
 74
0
 42
0.0000001
 43
0.0000001
 44
0.0000000001
 40
0.0
 40
0.0
 40
0.0
 40
0.0
 40
0.5228273059
 40
1.0
 40
1.0
 40
1.0
 40
1.0
 10
35.2637959565
 20
158.8165597723
 30
0.0
 10
35.3245089165
 20
159.1612099282
 30
0.0
 10
35.4550574454
 20
159.8178304953
 30
0.0
 10
35.5976039603
 20
160.4718852853
 30
0.0
 10
35.6707483686
 20
160.7827949192
 30
0.0
  0
SPLINE
  5
271
100
AcDbEntity
  8
0
100
AcDbSpline
 62
7
  6
BYLAYER
 70
0
 71
3
 72
9
 73
5
 74
0
 42
0.0000001
 43
0.0000001
 44
0.0000000001
 40
0.0
 40
0.0
 40
0.0
 40
0.0
 40
0.5000009757
 40
1.0
 40
1.0
 40
1.0
 40
1.0
 10
126.8077064629
 20
190.9106223911
 30
0.0
 10
126.8270962353
 20
193.5420543763
 30
0.0
 10
126.8672435643
 20
198.8048984089
 30
0.0
 10
126.90164051
 20
204.0677831659
 30
0.0
 10
126.9195540267
 20
206.699215344
 30
0.0
  0
SPLINE
  5
272
100
AcDbEntity
  8
0
100
AcDbSpline
 62
7
  6
BYLAYER
 70
0
 71
3
 72
11
 73
7
 74
0
 42
0.0000001
 43
0.0000001
 44
0.0000000001
 40
0.0
 40
0.0
 40
0.0
 40
0.0
 40
0.2562382002
 40
0.5084831216
 40
0.7556993015
 40
1.0
 40
1.0
 40
1.0
 40
1.0
 10
126.9181573616
 20
206.786464392
 30
0.0
 10
126.9084003595
 20
207.0881286357
 30
0.0
 10
126.7826767601
 20
207.68859561
 30
0.0
 10
126.3009139266
 20
208.4588496228
 30
0.0
 10
125.588688594
 20
209.0015577507
 30
0.0
 10
125.0163006486
 20
209.16391825
 30
0.0
 10
124.729707429
 20
209.1898148909
 30
0.0
  0
SPLINE
  5
273
100
AcDbEntity
  8
0
100
AcDbSpline
 62
7
  6
BYLAYER
 70
0
 71
3
 72
9
 73
5
 74
0
 42
0.0000001
 43
0.0000001
 44
0.0000000001
 40
0.0
 40
0.0
 40
0.0
 40
0.0
 40
0.2734595198
 40
1.0
 40
1.0
 40
1.0
 40
1.0
 10
35.6707483686
 20
160.7827949192
 30
0.0
 10
35.7064307889
 20
160.9322201193
 30
0.0
 10
35.842106962
 20
161.477337454
 30
0.0
 10
35.9982346835
 20
162.0177694808
 30
0.0
 10
36.1306442355
 20
162.4038580159
 30
0.0
  0
SPLINE
  5
274
100
AcDbEntity
  8
0
100
AcDbSpline
 62
7
  6
BYLAYER
 70
0
 71
3
 72
13
 73
9
 74
0
 42
0.0000001
 43
0.0000001
 44
0.0000000001
 40
0.0
 40
0.0
 40
0.0
 40
0.0
 40
0.3377038873
 40
0.6539284712
 40
0.7833092783
 40
0.8856987539
 40
0.9576994708
 40
1.0
 40
1.0
 40
1.0
 40
1.0
 10
124.9522329192
 20
206.7865942966
 30
0.0
 10
125.1735374444
 20
206.7930900577
 30
0.0
 10
125.6021392636
 20
206.8031887167
 30
0.0
 10
126.1156915394
 20
206.8089939425
 30
0.0
 10
126.4749368771
 20
206.8071344192
 30
0.0
 10
126.6741151808
 20
206.8034623228
 30
0.0
 10
126.8159539822
 20
206.7970500383
 30
0.0
 10
126.8908348057
 20
206.7912164801
 30
0.0
 10
126.9181573029
 20
206.7864661462
 30
0.0
  0
SPLINE
  5
275
100
AcDbEntity
  8
0
100
AcDbSpline
 62
7
  6
BYLAYER
 70
0
 71
3
 72
9
 73
5
 74
0
 42
0.0000001
 43
0.0000001
 44
0.0000000001
 40
0.0
 40
0.0
 40
0.0
 40
0.0
 40
0.4915792267
 40
1.0
 40
1.0
 40
1.0
 40
1.0
 10
25.3407525318
 20
160.782795478
 30
0.0
 10
25.7788309231
 20
161.0665781518
 30
0.0
 10
26.7304959645
 20
161.555100742
 30
0.0
 10
27.7587992806
 20
161.8476469598
 30
0.0
 10
28.2893243869
 20
161.9475277674
 30
0.0
  0
SPLINE
  5
276
100
AcDbEntity
  8
0
100
AcDbSpline
 62
7
  6
BYLAYER
 70
0
 71
3
 72
11
 73
7
 74
0
 42
0.0000001
 43
0.0000001
 44
0.0000000001
 40
0.0
 40
0.0
 40
0.0
 40
0.0
 40
0.23308384
 40
0.4780716283
 40
0.7344397759
 40
1.0
 40
1.0
 40
1.0
 40
1.0
 10
28.2893243869
 20
161.9475277674
 30
0.0
 10
28.8683097685
 20
162.0565320857
 30
0.0
 10
30.0801654441
 20
162.1634152201
 30
0.0
 10
31.9373310149
 20
162.0014437182
 30
0.0
 10
33.8270575295
 20
161.5414409798
 30
0.0
 10
35.060065697
 20
161.0614511062
 30
0.0
 10
35.6707396609
 20
160.782795478
 30
0.0
  0
SPLINE
  5
277
100
AcDbEntity
  8
0
100
AcDbSpline
 62
7
  6
BYLAYER
 70
0
 71
3
 72
13
 73
9
 74
0
 42
0.0000001
 43
0.0000001
 44
0.0000000001
 40
0.0
 40
0.0
 40
0.0
 40
0.0
 40
0.0461716653
 40
0.1211622143
 40
0.2228073279
 40
0.3478698461
 40
0.6530422773
 40
1.0
 40
1.0
 40
1.0
 40
1.0
 10
126.9178787382
 20
206.69961061
 30
0.0
 10
126.8881366213
 20
206.705671428
 30
0.0
 10
126.8087617267
 20
206.7141990063
 30
0.0
 10
126.6628246265
 20
206.7256821422
 30
0.0
 10
126.4647246191
 20
206.7364693445
 30
0.0
 10
126.1153415369
 20
206.7501271193
 30
0.0
 10
125.6044740584
 20
206.7600776536
 30
0.0
 10
125.1759859237
 20
206.773911732
 30
0.0
 10
124.9480121339
 20
206.781219393
 30
0.0
  0
SPLINE
  5
278
100
AcDbEntity
  8
0
100
AcDbSpline
 62
7
  6
BYLAYER
 70
0
 71
3
 72
9
 73
5
 74
0
 42
0.0000001
 43
0.0000001
 44
0.0000000001
 40
0.0
 40
0.0
 40
0.0
 40
0.0
 40
0.4674001113
 40
1.0
 40
1.0
 40
1.0
 40
1.0
 10
41.7476868023
 20
163.2757143513
 30
0.0
 10
40.89709117
 20
163.0295868981
 30
0.0
 10
39.0405282764
 20
162.6227572148
 30
0.0
 10
37.1401536036
 20
162.4969932411
 30
0.0
 10
36.1313040305
 20
162.5150120806
 30
0.0
  0
SPLINE
  5
279
100
AcDbEntity
  8
0
100
AcDbSpline
 62
7
  6
BYLAYER
 70
0
 71
3
 72
9
 73
5
 74
0
 42
0.0000001
 43
0.0000001
 44
0.0000000001
 40
0.0
 40
0.0
 40
0.0
 40
0.0
 40
0.2750087276
 40
1.0
 40
1.0
 40
1.0
 40
1.0
 10
36.1313040305
 20
162.5150120806
 30
0.0
 10
35.6398654844
 20
162.523789556
 30
0.0
 10
33.8543959864
 20
162.6273919148
 30
0.0
 10
32.0873541518
 20
162.9887188203
 30
0.0
 10
30.8488120234
 20
163.3695192965
 30
0.0
  0
SPLINE
  5
27A
100
AcDbEntity
  8
0
100
AcDbSpline
 62
7
  6
BYLAYER
 70
0
 71
3
 72
9
 73
5
 74
0
 42
0.0000001
 43
0.0000001
 44
0.0000000001
 40
0.0
 40
0.0
 40
0.0
 40
0.0
 40
0.226409546
 40
1.0
 40
1.0
 40
1.0
 40
1.0
 10
173.3502624987
 20
162.4038571447
 30
0.0
 10
173.3915287462
 20
162.2835136209
 30
0.0
 10
173.565194513
 20
161.7490361272
 30
0.0
 10
173.7092574209
 20
161.2052780722
 30
0.0
 10
173.8102275249
 20
160.782478054
 30
0.0
  0
SPLINE
  5
27B
100
AcDbEntity
  8
0
100
AcDbSpline
 62
7
  6
BYLAYER
 70
0
 71
3
 72
9
 73
5
 74
0
 42
0.0000001
 43
0.0000001
 44
0.0000000001
 40
0.0
 40
0.0
 40
0.0
 40
0.0
 40
0.4771229898
 40
1.0
 40
1.0
 40
1.0
 40
1.0
 10
173.8102275249
 20
160.782478054
 30
0.0
 10
173.8827796428
 20
160.4715143484
 30
0.0
 10
174.0248710963
 20
159.8174779298
 30
0.0
 10
174.1560760386
 20
159.161101377
 30
0.0
 10
174.217284136
 20
158.8165597723
 30
0.0
  0
SPLINE
  5
27C
100
AcDbEntity
  8
0
100
AcDbSpline
 62
7
  6
BYLAYER
 70
0
 71
3
 72
9
 73
5
 74
0
 42
0.0000001
 43
0.0000001
 44
0.0000000001
 40
0.0
 40
0.0
 40
0.0
 40
0.0
 40
0.7290858104
 40
1.0
 40
1.0
 40
1.0
 40
1.0
 10
124.5217184153
 20
209.199215357
 30
0.0
 10
124.5339704487
 20
209.1991630573
 30
0.0
 10
124.5509242006
 20
209.1944334413
 30
0.0
 10
124.5653776577
 20
209.1858965717
 30
0.0
 10
124.5691712812
 20
209.1833796022
 30
0.0
  0
SPLINE
  5
27D
100
AcDbEntity
  8
0
100
AcDbSpline
 62
7
  6
BYLAYER
 70
0
 71
3
 72
13
 73
9
 74
0
 42
0.0000001
 43
0.0000001
 44
0.0000000001
 40
0.0
 40
0.0
 40
0.0
 40
0.0
 40
0.0488464702
 40
0.1222439459
 40
0.2206679143
 40
0.3430954097
 40
0.6476126266
 40
1.0
 40
1.0
 40
1.0
 40
1.0
 10
124.577387156
 20
209.1774567842
 30
0.0
 10
124.6089031522
 20
209.152924271
 30
0.0
 10
124.6647831396
 20
209.0658598852
 30
0.0
 10
124.7292303051
 20
208.8981126764
 30
0.0
 10
124.7896709688
 20
208.664350333
 30
0.0
 10
124.8656632477
 20
208.2415640022
 30
0.0
 10
124.927809591
 20
207.6063740032
 30
0.0
 10
124.9462684972
 20
207.0693493175
 30
0.0
 10
124.9478631202
 20
206.7812284186
 30
0.0
  0
SPLINE
  5
27E
100
AcDbEntity
  8
0
100
AcDbSpline
 62
7
  6
BYLAYER
 70
0
 71
3
 72
13
 73
9
 74
0
 42
0.0000001
 43
0.0000001
 44
0.0000000001
 40
0.0
 40
0.0
 40
0.0
 40
0.0
 40
0.0423025197
 40
0.114343609
 40
0.2168033983
 40
0.3462641004
 40
0.6625480565
 40
1.0
 40
1.0
 40
1.0
 40
1.0
 10
82.5627332556
 20
206.7864655459
 30
0.0
 10
82.5901192522
 20
206.7912268893
 30
0.0
 10
82.6651995048
 20
206.797066148
 30
0.0
 10
82.8074353928
 20
206.8034838603
 30
0.0
 10
83.0071928708
 20
206.8071495375
 30
0.0
 10
83.3673938715
 20
206.8089862654
 30
0.0
 10
83.8820409462
 20
206.8031336938
 30
0.0
 10
84.3114913825
 20
206.7929854812
 30
0.0
 10
84.5331337564
 20
206.7864621381
 30
0.0
  0
ELLIPSE
  5
27F
100
AcDbEntity
  8
0
100
AcDbEllipse
 62
7
  6
BYLAYER
 10
34.7411979982
 20
141.9158199098
 30
0.0
 11
0.0
 21
22.4796791773
 31
0.0
 40
1.0
 41
5.9662236648
 42
6.1915653129
  0
ELLIPSE
  5
280
100
AcDbEntity
  8
0
100
AcDbEllipse
 62
7
  6
BYLAYER
 10
171.3111979982
 20
141.9158199098
 30
0.0
 11
22.4796791773
 21
-0.0
 31
0.0
 40
1.0
 41
7.5370199916
 42
7.7623616397
  0
ELLIPSE
  5
281
100
AcDbEntity
  8
0
100
AcDbEllipse
 62
7
  6
BYLAYER
 10
36.1554115606
 20
141.9158199098
 30
0.0
 11
0.0
 21
22.4796791773
 31
0.0
 40
1.0
 41
5.9991561696
 42
6.1915653129
  0
ENDSEC
  0
SECTION
  2
OBJECTS
  0
DICTIONARY
  5
C
100
AcDbDictionary
280
0
281
1
  3
ACAD_GROUP
350
D
  3
ACAD_MLINESTYLE
350
17
  3
ACAD_LAYOUT
350
1A
  3
ACAD_PLOTSETTINGS
350
19
  3
ACAD_PLOTSTYLENAME
350
E
  0
DICTIONARY
  5
D
102
{ACAD_REACTORS
330
C
102
}
100
AcDbDictionary
280
0
281
1
  0
ACDBDICTIONARYWDFLT
  5
E
102
{ACAD_REACTORS
330
C
102
}
100
AcDbDictionary
281
1
  3
Normal
350
F
100
AcDbDictionaryWithDefault
340
F
  0
DICTIONARY
  5
17
102
{ACAD_REACTORS
330
C
102
}
100
AcDbDictionary
280
0
281
1
  3
Standard
350
18
  0
DICTIONARY
  5
19
102
{ACAD_REACTORS
330
C
102
}
100
AcDbDictionary
281
1
  0
DICTIONARY
  5
1A
102
{ACAD_REACTORS
330
C
102
}
100
AcDbDictionary
281
1
  3
Model
350
282
  3
Layout1
350
283
  0
ACDBPLACEHOLDER
  5
F
102
{ACAD_REACTORS
330
E
102
}
  0
MLINESTYLE
  5
18
102
{ACAD_REACTORS
330
17
102
}
100
AcDbMlineStyle
  2
STANDARD
 70
0
  3

 62
256
 51
90.0
 52
90.0
 71
2
 49
0.5
 62
256
  6
BYLAYER
 49
-0.5
 62
256
  6
BYLAYER
  0
LAYOUT
  5
282
102
{ACAD_REACTORS
330
1A
102
}
100
AcDbPlotSettings
  1

  2
none_device
  4

  6

 40
0.0
 41
0.0
 42
0.0
 43
0.0
 44
210.0
 45
297.0
 46
0.0
 47
0.0
 48
0.0
 49
0.0
140
0.0
141
0.0
142
1.0
143
1.0
 70
1024
 72
1
 73
0
 74
0
  7

 75
0
147
1.0
148
0.0
149
0.0
100
AcDbLayout
  1
Model
 70
0
 71
0
 10
0.0
 20
0.0
 11
210.0
 21
297.0
 12
0.0
 22
0.0
 32
0.0
 14
0.0
 24
0.0
 34
0.0
 15
0.0
 25
0.0
 35
0.0
146
0.0
 13
0.0
 23
0.0
 33
0.0
 16
1.0
 26
0.0
 36
0.0
 17
0.0
 27
1.0
 37
0.0
 76
0
330
210
345
0
346
0
  0
LAYOUT
  5
283
102
{ACAD_REACTORS
330
1A
102
}
100
AcDbPlotSettings
  1

  2
none_device
  4

  6

 40
0.0
 41
0.0
 42
0.0
 43
0.0
 44
210.0
 45
297.0
 46
0.0
 47
0.0
 48
0.0
 49
0.0
140
0.0
141
0.0
142
1.0
143
1.0
 70
0
 72
1
 73
0
 74
0
  7

 75
0
147
1.0
148
0.0
149
0.0
100
AcDbLayout
  1
Layout1
 70
0
 71
1
 10
0.0
 20
0.0
 11
210.0
 21
297.0
 12
0.0
 22
0.0
 32
0.0
 14
0.0
 24
0.0
 34
0.0
 15
0.0
 25
0.0
 35
0.0
146
0.0
 13
0.0
 23
0.0
 33
0.0
 16
1.0
 26
0.0
 36
0.0
 17
0.0
 27
1.0
 37
0.0
 76
0
330
211
345
0
346
0
  0
ENDSEC
  0
EOF
