999
DXF file: C:\Users\sesa63760\Dev\_Creo\CAD\MCADID0004352_3D-CAD\drw0001_7.dxf
999
Pro/ENGINEER 2019471 by Parametric Technology Corporation
  0
SECTION
  2
HEADER
  9
$ACADVER
  1
AC1024
  9
$DWGCODEPAGE
  3
ANSI_1252
  9
$EXTMAX
 10
49.0646184269
 20
69.391388918
 30
0.0
  9
$EXTMIN
 10
0.0
 20
0.0
 30
0.0
  9
$LIMMIN
 10
0.0
 20
0.0
  9
$LIMMAX
 10
49.0646184269
 20
69.391388918
  9
$VIEWCTR
 10
24.5323092134
 20
34.695694459
  9
$VIEWSIZE
 40
69.391388918
  9
$CLAYER
  8
0
  9
$LTSCALE
 40
4.5232905369
  9
$CELTYPE
  6
BYLAYER
  9
$DIMSCALE
 40
1.0
  9
$DIMASZ
 40
0.5841026003
  9
$DIMEXO
 40
1.0
  9
$DIMDLI
 40
3.1251825528
  9
$DIMEXE
 40
1.0
  9
$DIMCEN
 40
0.7401748151
  9
$DIMLFAC
 40
1.0
  9
$DIMBLK
  1
_FILLED
  9
$DIMALT
 70
0
  9
$DIMALTF
 40
0.0393700787
  9
$DIMTXT
 40
0.8177436404
  9
$DIMTOL
 70
1
  9
$DIMLIM
 70
0
  9
$DIMTFAC
 40
1.0
  9
$DIMTP
 40
0.01
  9
$DIMTM
 40
0.01
  9
$DIMGAP
 40
0.625
  9
$DIMDSEP
 70
46
  9
$AUNITS
 70
0
  9
$PDMODE
 70
3
  9
$PDSIZE
 40
0.3125
  9
$HANDSEED
  5
24F
  9
$TILEMODE
 70
1
  9
$MEASUREMENT
 70
1
  9
$INSUNITS
 70
4
  0
ENDSEC
  0
SECTION
  2
CLASSES
  0
CLASS
  1
ACDBDICTIONARYWDFLT
  2
AcDbDictionaryWithDefault
  3
AutoCAD 2000
 90
0
 91
1
280
0
281
0
  0
CLASS
  1
ACDBPLACEHOLDER
  2
AcDbPlaceHolder
  3
AutoCAD 2000
 90
0
 91
1
280
0
281
0
  0
CLASS
  1
LAYOUT
  2
AcDbLayout
  3
AutoCAD 2000
 90
0
 91
0
280
0
281
0
  0
ENDSEC
  0
SECTION
  2
TABLES
  0
TABLE
  2
VPORT
  5
8
100
AcDbSymbolTable
 70
2
  0
VPORT
  5
1F4
100
AcDbSymbolTableRecord
100
AcDbViewportTableRecord
  2
*ACTIVE
 70
0
 10
0.0
 20
0.0
 11
1.0
 21
1.0
 12
24.5323092134
 22
34.695694459
 13
0.0
 23
0.0
 14
1.0
 24
1.0
 15
0.0
 25
0.0
 16
0.0
 26
0.0
 36
1.0
 17
0.0
 27
0.0
 37
0.0
 40
69.391388918
 41
0.7070707071
 42
50.0
 43
0.0
 44
0.0
 50
0.0
 51
0.0
 71
0
 72
100
 73
1
 74
1
 75
0
 76
0
 77
0
 78
0
  0
ENDTAB
  0
TABLE
  2
LTYPE
  5
5
100
AcDbSymbolTable
 70
6
  0
LTYPE
  5
14
100
AcDbSymbolTableRecord
100
AcDbLinetypeTableRecord
  2
BYBLOCK
 70
0
  3

 72
65
 73
0
 40
0.0
  0
LTYPE
  5
15
100
AcDbSymbolTableRecord
100
AcDbLinetypeTableRecord
  2
BYLAYER
 70
0
  3

 72
65
 73
0
 40
0.0
  0
LTYPE
  5
16
100
AcDbSymbolTableRecord
100
AcDbLinetypeTableRecord
  2
CONTINUOUS
 70
64
  3
Solid line
 72
65
 73
0
 40
0.0
  0
LTYPE
  5
1F5
100
AcDbSymbolTableRecord
100
AcDbLinetypeTableRecord
  2
CENTER
 70
64
  3
____ _ ____ _ ____ _ ____ _ ____ _ ____ _ ____
 72
65
 73
4
 40
0.6
 49
0.375
 74
0
 49
-0.075
 74
0
 49
0.075
 74
0
 49
-0.075
 74
0
  0
LTYPE
  5
1F6
100
AcDbSymbolTableRecord
100
AcDbLinetypeTableRecord
  2
HIDDEN
 70
64
  3
- - - - - - - - - - - - - - - - - - - -
 72
65
 73
2
 40
0.2
 49
0.1
 74
0
 49
-0.1
 74
0
  0
LTYPE
  5
1F7
100
AcDbSymbolTableRecord
100
AcDbLinetypeTableRecord
  2
PHANTOM
 70
64
  3
_____ _ _ _____ _ _ _____ _ _ _____
 72
65
 73
6
 40
0.8
 49
0.45
 74
0
 49
-0.05
 74
0
 49
0.1
 74
0
 49
-0.05
 74
0
 49
0.1
 74
0
 49
-0.05
 74
0
  0
LTYPE
  5
1F8
100
AcDbSymbolTableRecord
100
AcDbLinetypeTableRecord
  2
DOT
 70
64
  3
. . . . . . . . . . . . . . . . . . . .
 72
65
 73
2
 40
0.2
 49
0.1
 74
0
 49
-0.1
 74
0
  0
LTYPE
  5
1F9
100
AcDbSymbolTableRecord
100
AcDbLinetypeTableRecord
  2
DASHED
 70
64
  3
- - - - - - - - - - - - - - - - - - - -
 72
65
 73
2
 40
0.2
 49
0.1
 74
0
 49
-0.1
 74
0
  0
ENDTAB
  0
TABLE
  2
LAYER
  5
2
100
AcDbSymbolTable
 70
36
  0
LAYER
  5
10
100
AcDbSymbolTableRecord
100
AcDbLayerTableRecord
  2
0
 70
0
 62
7
  6
CONTINUOUS
370
-3
390
F
  0
LAYER
  5
1FA
100
AcDbSymbolTableRecord
100
AcDbLayerTableRecord
  2
DEFAULT_1
 70
0
 62
7
  6
CENTER
370
-3
390
F
  0
LAYER
  5
1FB
100
AcDbSymbolTableRecord
100
AcDbLayerTableRecord
  2
DEFAULT_2
 70
0
 62
7
  6
HIDDEN
370
-3
390
F
  0
LAYER
  5
1FC
100
AcDbSymbolTableRecord
100
AcDbLayerTableRecord
  2
DEFAULT_3
 70
0
 62
7
  6
PHANTOM
370
-3
390
F
  0
LAYER
  5
1FD
100
AcDbSymbolTableRecord
100
AcDbLayerTableRecord
  2
00_COMPONENTS
 70
0
 62
7
  6
CONTINUOUS
370
-3
390
F
  0
LAYER
  5
1FE
100
AcDbSymbolTableRecord
100
AcDbLayerTableRecord
  2
01_1_DEFAULT_DATUMS
 70
0
 62
7
  6
CONTINUOUS
370
-3
390
F
  0
LAYER
  5
1FF
100
AcDbSymbolTableRecord
100
AcDbLayerTableRecord
  2
01_PLANES
 70
0
 62
7
  6
CONTINUOUS
370
-3
390
F
  0
LAYER
  5
200
100
AcDbSymbolTableRecord
100
AcDbLayerTableRecord
  2
02_COORD_SYS
 70
0
 62
7
  6
CONTINUOUS
370
-3
390
F
  0
LAYER
  5
201
100
AcDbSymbolTableRecord
100
AcDbLayerTableRecord
  2
03_AXES
 70
0
 62
7
  6
CONTINUOUS
370
-3
390
F
  0
LAYER
  5
202
100
AcDbSymbolTableRecord
100
AcDbLayerTableRecord
  2
04_POINTS
 70
0
 62
7
  6
CONTINUOUS
370
-3
390
F
  0
LAYER
  5
203
100
AcDbSymbolTableRecord
100
AcDbLayerTableRecord
  2
05_CURVES
 70
0
 62
7
  6
CONTINUOUS
370
-3
390
F
  0
LAYER
  5
204
100
AcDbSymbolTableRecord
100
AcDbLayerTableRecord
  2
06_SURFS
 70
0
 62
7
  6
CONTINUOUS
370
-3
390
F
  0
LAYER
  5
205
100
AcDbSymbolTableRecord
100
AcDbLayerTableRecord
  2
07_COSMETICS
 70
0
 62
7
  6
CONTINUOUS
370
-3
390
F
  0
LAYER
  5
206
100
AcDbSymbolTableRecord
100
AcDbLayerTableRecord
  2
10_NOTES
 70
0
 62
7
  6
CONTINUOUS
370
-3
390
F
  0
LAYER
  5
207
100
AcDbSymbolTableRecord
100
AcDbLayerTableRecord
  2
11_NOTES_PUB
 70
0
 62
7
  6
CONTINUOUS
370
-3
390
F
  0
LAYER
  5
208
100
AcDbSymbolTableRecord
100
AcDbLayerTableRecord
  2
13_REF_GTOL
 70
0
 62
7
  6
CONTINUOUS
370
-3
390
F
  0
LAYER
  5
209
100
AcDbSymbolTableRecord
100
AcDbLayerTableRecord
  2
16_MISC
 70
0
 62
7
  6
CONTINUOUS
370
-3
390
F
  0
LAYER
  5
20A
100
AcDbSymbolTableRecord
100
AcDbLayerTableRecord
  2
17_NO_PRINT
 70
0
 62
7
  6
CONTINUOUS
370
-3
390
F
  0
LAYER
  5
20B
100
AcDbSymbolTableRecord
100
AcDbLayerTableRecord
  2
18_DATUM_CAMS_JOINTS
 70
0
 62
7
  6
CONTINUOUS
370
-3
390
F
  0
LAYER
  5
20C
100
AcDbSymbolTableRecord
100
AcDbLayerTableRecord
  2
19_DATUM_FUNCTIONAL
 70
0
 62
7
  6
CONTINUOUS
370
-3
390
F
  0
LAYER
  5
20D
100
AcDbSymbolTableRecord
100
AcDbLayerTableRecord
  2
20_DATUM_KINEMATIC_SCHEME
 70
0
 62
7
  6
CONTINUOUS
370
-3
390
F
  0
ENDTAB
  0
TABLE
  2
STYLE
  5
3
100
AcDbSymbolTable
 70
1
  0
STYLE
  5
11
100
AcDbSymbolTableRecord
100
AcDbTextStyleTableRecord
  2
STANDARD
 70
0
 40
0.0
 41
1.0
 50
0.0
 71
0
 42
0.2
  3
ARIAL.TTF
  4

  0
STYLE
  5
20E
100
AcDbSymbolTableRecord
100
AcDbTextStyleTableRecord
  2
TEXTSTYLE_1
 70
0
 40
0.0
 41
0.8
 50
0.0
 71
0
 42
0.2
  3
gdt
  4

  0
ENDTAB
  0
TABLE
  2
VIEW
  5
6
100
AcDbSymbolTable
 70
0
  0
ENDTAB
  0
TABLE
  2
UCS
  5
7
100
AcDbSymbolTable
 70
0
  0
ENDTAB
  0
TABLE
  2
APPID
  5
9
100
AcDbSymbolTable
 70
1
  0
APPID
  5
20F
100
AcDbSymbolTableRecord
100
AcDbRegAppTableRecord
  2
ACAD
 70
0
  0
ENDTAB
  0
TABLE
  2
BLOCK_RECORD
  5
1
100
AcDbSymbolTable
 70
0
  0
BLOCK_RECORD
  5
210
100
AcDbSymbolTableRecord
100
AcDbBlockTableRecord
  2
*Model_Space
  0
BLOCK_RECORD
  5
211
100
AcDbSymbolTableRecord
100
AcDbBlockTableRecord
  2
*Paper_Space
  0
BLOCK_RECORD
  5
212
100
AcDbSymbolTableRecord
100
AcDbBlockTableRecord
  2
_FILLED
  0
ENDTAB
  0
TABLE
  2
DIMSTYLE
  5
A
100
AcDbSymbolTable
 70
1
100
AcDbDimStyleTable
 71
0
  0
DIMSTYLE
105
213
100
AcDbSymbolTableRecord
100
AcDbDimStyleTableRecord
  2
STANDARD
 70
0
  3

  4

 40
1.0
 41
0.5841026003
 42
1.0
 43
0.38
 44
1.0
 45
0.0
 46
0.0
 47
0.01
 48
0.01
140
0.8177436404
141
0.09
142
0.0
143
25.4
144
1.0
145
0.0
146
1.0
147
0.625
 71
1
 72
0
 73
0
 74
0
 75
0
 76
0
 77
1
 78
8
 79
2
170
0
171
1
172
0
173
0
174
0
175
0
176
0
177
0
178
0
270
2
179
2
271
2
272
2
273
2
274
2
275
0
280
0
281
0
282
0
283
1
284
8
285
0
286
0
287
3
288
0
340
11
278
46
341
212
342
212
343
212
344
212
  0
ENDTAB
  0
ENDSEC
  0
SECTION
  2
BLOCKS
  0
BLOCK
  5
20
100
AcDbEntity
  8
0
100
AcDbBlockBegin
  2
*Model_Space
 70
0
 10
0.0
 20
0.0
 30
0.0
  3
*Model_Space
  1

  0
ENDBLK
  5
21
100
AcDbEntity
  8
0
100
AcDbBlockEnd
  0
BLOCK
  5
1C
100
AcDbEntity
  8
0
100
AcDbBlockBegin
  2
*Paper_Space
 70
0
 10
0.0
 20
0.0
 30
0.0
  3
*Paper_Space
  1

  0
ENDBLK
  5
1D
100
AcDbEntity
  8
0
100
AcDbBlockEnd
  0
BLOCK
  5
214
100
AcDbEntity
  8
0
100
AcDbBlockBegin
  2
_FILLED
 70
64
 10
0.0
 20
0.0
  3
_FILLED
  1

  0
SOLID
  5
215
100
AcDbEntity
  8
0
  6
BYBLOCK
 62
0
100
AcDbTrace
 10
0.0
 20
0.0
 11
-1.0
 21
0.25
 12
-1.0
 22
-0.25
 13
-1.0
 23
-0.25
  0
ENDBLK
  5
216
100
AcDbEntity
  8
0
  6
BYBLOCK
 62
0
100
AcDbBlockEnd
  0
ENDSEC
  0
SECTION
  2
ENTITIES
  0
LINE
  5
217
100
AcDbEntity
  8
0
100
AcDbLine
 62
7
  6
BYLAYER
 10
5.2097376359
 20
35.6205466637
 11
5.2097376359
 21
34.1105797766
  0
LINE
  5
218
100
AcDbEntity
  8
0
100
AcDbLine
 62
7
  6
BYLAYER
 10
18.2097376359
 20
32.6156528845
 11
18.2097376359
 21
37.1154735557
  0
LINE
  5
219
100
AcDbEntity
  8
0
100
AcDbLine
 62
7
  6
BYLAYER
 10
18.9597376343
 20
31.8655632131
 11
18.9597376343
 21
37.8655632272
  0
LINE
  5
21A
100
AcDbEntity
  8
0
100
AcDbLine
 62
7
  6
BYLAYER
 10
18.2097376359
 20
37.1155632201
 11
18.9597376343
 21
37.8655632221
  0
LINE
  5
21B
100
AcDbEntity
  8
0
100
AcDbLine
 62
7
  6
BYLAYER
 10
18.2097376359
 20
32.6155632201
 11
18.9597376343
 21
31.8655632182
  0
LINE
  5
21C
100
AcDbEntity
  8
0
100
AcDbLine
 62
7
  6
BYLAYER
 10
38.2097376359
 20
30.8655632201
 11
40.2097376359
 21
30.8655632201
  0
LINE
  5
21D
100
AcDbEntity
  8
0
100
AcDbLine
 62
7
  6
BYLAYER
 10
18.9597376394
 20
31.8655632131
 11
22.9597376678
 21
31.8655632131
  0
LINE
  5
21E
100
AcDbEntity
  8
0
100
AcDbLine
 62
7
  6
BYLAYER
 10
25.4597376325
 20
31.8655632024
 11
32.6684876359
 21
31.8655632024
  0
LINE
  5
21F
100
AcDbEntity
  8
0
100
AcDbLine
 62
7
  6
BYLAYER
 10
33.2097376359
 20
31.8655632024
 11
38.2097376359
 21
31.8655632024
  0
LINE
  5
220
100
AcDbEntity
  8
0
100
AcDbLine
 62
7
  6
BYLAYER
 10
40.2097376359
 20
31.8655632024
 11
42.6685376359
 21
31.8655632024
  0
LINE
  5
221
100
AcDbEntity
  8
0
100
AcDbLine
 62
7
  6
BYLAYER
 10
42.6685376359
 20
31.8755632201
 11
42.6784876536
 21
31.8755632201
  0
LINE
  5
222
100
AcDbEntity
  8
0
100
AcDbLine
 62
7
  6
BYLAYER
 10
22.9597376678
 20
37.8655632272
 11
22.9597376678
 21
31.8655632131
  0
LINE
  5
223
100
AcDbEntity
  8
0
100
AcDbLine
 62
7
  6
BYLAYER
 10
23.70973767
 20
32.615563204
 11
25.4597376141
 21
32.615563204
  0
LINE
  5
224
100
AcDbEntity
  8
0
100
AcDbLine
 62
7
  6
BYLAYER
 10
23.70973767
 20
32.615563204
 11
23.70973767
 21
37.1155632363
  0
LINE
  5
225
100
AcDbEntity
  8
0
100
AcDbLine
 62
7
  6
BYLAYER
 10
6.2678373155
 20
33.7655632201
 11
18.2097376359
 21
33.7655632201
  0
LINE
  5
226
100
AcDbEntity
  8
0
100
AcDbLine
 62
7
  6
BYLAYER
 10
39.852472046
 20
34.8655632201
 11
38.5670032258
 21
34.8655632201
  0
LINE
  5
227
100
AcDbEntity
  8
0
100
AcDbLine
 62
7
  6
BYLAYER
 10
25.4597376325
 20
31.8655688909
 11
25.4597376325
 21
37.8655575493
  0
LINE
  5
228
100
AcDbEntity
  8
0
100
AcDbLine
 62
7
  6
BYLAYER
 10
23.7097376677
 20
32.615563204
 11
22.9597376729
 21
31.8655632131
  0
LINE
  5
229
100
AcDbEntity
  8
0
100
AcDbLine
 62
7
  6
BYLAYER
 10
18.2097376359
 20
35.9655632201
 11
6.2678373156
 21
35.9655632201
  0
LINE
  5
22A
100
AcDbEntity
  8
0
100
AcDbLine
 62
7
  6
BYLAYER
 10
23.7097376677
 20
37.1155632363
 11
22.9597376729
 21
37.8655632272
  0
LINE
  5
22B
100
AcDbEntity
  8
0
100
AcDbLine
 62
7
  6
BYLAYER
 10
23.70973767
 20
37.1155632363
 11
25.4597376141
 21
37.1155632363
  0
LINE
  5
22C
100
AcDbEntity
  8
0
100
AcDbLine
 62
7
  6
BYLAYER
 10
42.6784876536
 20
37.8555632201
 11
42.6685376359
 21
37.8555632201
  0
LINE
  5
22D
100
AcDbEntity
  8
0
100
AcDbLine
 62
7
  6
BYLAYER
 10
18.9597376394
 20
37.8655632272
 11
22.9597376678
 21
37.8655632272
  0
LINE
  5
22E
100
AcDbEntity
  8
0
100
AcDbLine
 62
7
  6
BYLAYER
 10
25.4597376325
 20
37.8655632378
 11
32.6684876359
 21
37.8655632378
  0
LINE
  5
22F
100
AcDbEntity
  8
0
100
AcDbLine
 62
7
  6
BYLAYER
 10
33.2097376359
 20
37.8655632378
 11
38.2097376359
 21
37.8655632378
  0
LINE
  5
230
100
AcDbEntity
  8
0
100
AcDbLine
 62
7
  6
BYLAYER
 10
40.2097376359
 20
37.8655632378
 11
42.6684876359
 21
37.8655632378
  0
LINE
  5
231
100
AcDbEntity
  8
0
100
AcDbLine
 62
7
  6
BYLAYER
 10
40.2097376359
 20
38.8655632201
 11
38.2097376359
 21
38.8655632201
  0
LINE
  5
232
100
AcDbEntity
  8
0
100
AcDbLine
 62
7
  6
BYLAYER
 10
32.6684876359
 20
37.8655632378
 11
32.6684876359
 21
31.8655632024
  0
LINE
  5
233
100
AcDbEntity
  8
0
100
AcDbLine
 62
7
  6
BYLAYER
 10
33.2097376359
 20
32.4068132024
 11
32.6684876359
 21
31.8655632024
  0
LINE
  5
234
100
AcDbEntity
  8
0
100
AcDbLine
 62
7
  6
BYLAYER
 10
33.2097376359
 20
37.3243132378
 11
32.6684876359
 21
37.8655632378
  0
LINE
  5
235
100
AcDbEntity
  8
0
100
AcDbLine
 62
7
  6
BYLAYER
 10
33.2097376359
 20
31.8655688909
 11
33.2097376359
 21
37.8655575493
  0
LINE
  5
236
100
AcDbEntity
  8
0
100
AcDbLine
 62
7
  6
BYLAYER
 10
38.2097376359
 20
30.8655632201
 11
38.2097376359
 21
38.8655632201
  0
LINE
  5
237
100
AcDbEntity
  8
0
100
AcDbLine
 62
7
  6
BYLAYER
 10
40.2097376359
 20
38.8655632201
 11
40.2097376359
 21
30.8655632201
  0
LINE
  5
238
100
AcDbEntity
  8
0
100
AcDbLine
 62
7
  6
BYLAYER
 10
43.2097376359
 20
32.4068132024
 11
42.6784876536
 21
31.8755632201
  0
LINE
  5
239
100
AcDbEntity
  8
0
100
AcDbLine
 62
7
  6
BYLAYER
 10
43.2097376359
 20
37.3243132378
 11
42.6784876536
 21
37.8555632201
  0
LINE
  5
23A
100
AcDbEntity
  8
0
100
AcDbLine
 62
7
  6
BYLAYER
 10
42.6685376359
 20
37.8655575493
 11
42.6685376359
 21
31.8656188908
  0
LINE
  5
23B
100
AcDbEntity
  8
0
100
AcDbLine
 62
7
  6
BYLAYER
 10
42.6784876536
 20
37.8555632201
 11
42.6784876536
 21
31.8755632201
  0
LINE
  5
23C
100
AcDbEntity
  8
0
100
AcDbLine
 62
7
  6
BYLAYER
 10
43.2097376359
 20
37.3243132378
 11
43.2097376359
 21
32.4068132024
  0
LINE
  5
23D
100
AcDbEntity
  8
0
100
AcDbLine
 62
7
  6
BYLAYER
 10
44.0247495521
 20
35.0666197355
 11
44.0247495521
 21
34.6645067047
  0
ARC
  5
23E
100
AcDbEntity
  8
0
100
AcDbCircle
 62
7
  6
BYLAYER
 10
40.490185051
 20
35.0666197355
 40
3.5345645011
100
AcDbArc
 50
0.0
 51
39.6984714946
  0
ARC
  5
23F
100
AcDbEntity
  8
0
100
AcDbCircle
 62
7
  6
BYLAYER
 10
40.490185051
 20
34.6645067047
 40
3.5345645011
100
AcDbArc
 50
320.3015285054
 51
360.0
  0
SPLINE
  5
240
100
AcDbEntity
  8
0
100
AcDbSpline
 62
7
  6
BYLAYER
 70
0
 71
3
 72
13
 73
9
 74
0
 42
0.0000001
 43
0.0000001
 44
0.0000000001
 40
0.0
 40
0.0
 40
0.0
 40
0.0
 40
0.2513855782
 40
0.5016831749
 40
0.6264930183
 40
0.7511112818
 40
0.8755962448
 40
1.0
 40
1.0
 40
1.0
 40
1.0
 10
39.852472046
 20
38.8655632201
 30
0.0
 10
39.906539142
 20
38.7033619321
 30
0.0
 10
40.0056949467
 20
38.3766337215
 30
0.0
 10
40.101195178
 20
37.9609181366
 30
0.0
 10
40.1567346889
 20
37.6255128972
 30
0.0
 10
40.1871228381
 20
37.3729322386
 30
0.0
 10
40.2056063467
 20
37.1194799956
 30
0.0
 10
40.2097376359
 20
36.9501740929
 30
0.0
 10
40.2097376359
 20
36.8655632201
 30
0.0
  0
SPLINE
  5
241
100
AcDbEntity
  8
0
100
AcDbSpline
 62
7
  6
BYLAYER
 70
0
 71
3
 72
13
 73
9
 74
0
 42
0.0000001
 43
0.0000001
 44
0.0000000001
 40
0.0
 40
0.0
 40
0.0
 40
0.0
 40
0.1244037923
 40
0.2488888388
 40
0.3735071292
 40
0.4983169576
 40
0.7486145012
 40
1.0
 40
1.0
 40
1.0
 40
1.0
 10
40.2097376359
 20
32.8655632201
 30
0.0
 10
40.2097376359
 20
32.780952322
 30
0.0
 10
40.2056062588
 20
32.6116463411
 30
0.0
 10
40.1871228802
 20
32.3581939849
 30
0.0
 10
40.1567344513
 20
32.1056132951
 30
0.0
 10
40.101195294
 20
31.7702080305
 30
0.0
 10
40.0056950418
 20
31.3544925349
 30
0.0
 10
39.906539125
 20
31.0277644572
 30
0.0
 10
39.852472046
 20
30.8655632201
 30
0.0
  0
SPLINE
  5
242
100
AcDbEntity
  8
0
100
AcDbSpline
 62
7
  6
BYLAYER
 70
0
 71
3
 72
13
 73
9
 74
0
 42
0.0000001
 43
0.0000001
 44
0.0000000001
 40
0.0
 40
0.0
 40
0.0
 40
0.0
 40
0.1244037923
 40
0.2488888388
 40
0.3735071292
 40
0.4983169576
 40
0.7486145012
 40
1.0
 40
1.0
 40
1.0
 40
1.0
 10
38.2097376359
 20
36.8655632201
 30
0.0
 10
38.2097376359
 20
36.9501741183
 30
0.0
 10
38.213869013
 20
37.1194800992
 30
0.0
 10
38.2323523916
 20
37.3729324553
 30
0.0
 10
38.2627408205
 20
37.6255131451
 30
0.0
 10
38.3182799778
 20
37.9609184097
 30
0.0
 10
38.41378023
 20
38.3766339053
 30
0.0
 10
38.5129361468
 20
38.7033619831
 30
0.0
 10
38.5670032258
 20
38.8655632201
 30
0.0
  0
SPLINE
  5
243
100
AcDbEntity
  8
0
100
AcDbSpline
 62
7
  6
BYLAYER
 70
0
 71
3
 72
13
 73
9
 74
0
 42
0.0000001
 43
0.0000001
 44
0.0000000001
 40
0.0
 40
0.0
 40
0.0
 40
0.0
 40
0.2513855782
 40
0.5016831749
 40
0.6264930183
 40
0.7511112818
 40
0.8755962448
 40
1.0
 40
1.0
 40
1.0
 40
1.0
 10
38.5670032258
 20
34.8655632201
 30
0.0
 10
38.5129361298
 20
35.0277645081
 30
0.0
 10
38.4137803251
 20
35.3544927187
 30
0.0
 10
38.3182800938
 20
35.7702083036
 30
0.0
 10
38.2627405829
 20
36.105613543
 30
0.0
 10
38.2323524337
 20
36.3581942016
 30
0.0
 10
38.2138689251
 20
36.6116464446
 30
0.0
 10
38.2097376359
 20
36.7809523474
 30
0.0
 10
38.2097376359
 20
36.8655632201
 30
0.0
  0
SPLINE
  5
244
100
AcDbEntity
  8
0
100
AcDbSpline
 62
7
  6
BYLAYER
 70
0
 71
3
 72
13
 73
9
 74
0
 42
0.0000001
 43
0.0000001
 44
0.0000000001
 40
0.0
 40
0.0
 40
0.0
 40
0.0
 40
0.1244037923
 40
0.2488888388
 40
0.3735071292
 40
0.4983169576
 40
0.7486145012
 40
1.0
 40
1.0
 40
1.0
 40
1.0
 10
38.2097376359
 20
32.8655632201
 30
0.0
 10
38.2097376359
 20
32.9501741183
 30
0.0
 10
38.213869013
 20
33.1194800992
 30
0.0
 10
38.2323523916
 20
33.3729324553
 30
0.0
 10
38.2627408205
 20
33.6255131451
 30
0.0
 10
38.3182799778
 20
33.9609184097
 30
0.0
 10
38.41378023
 20
34.3766339053
 30
0.0
 10
38.5129361468
 20
34.7033619831
 30
0.0
 10
38.5670032258
 20
34.8655632201
 30
0.0
  0
SPLINE
  5
245
100
AcDbEntity
  8
0
100
AcDbSpline
 62
7
  6
BYLAYER
 70
0
 71
3
 72
13
 73
9
 74
0
 42
0.0000001
 43
0.0000001
 44
0.0000000001
 40
0.0
 40
0.0
 40
0.0
 40
0.0
 40
0.2513855782
 40
0.5016831749
 40
0.6264930183
 40
0.7511112818
 40
0.8755962448
 40
1.0
 40
1.0
 40
1.0
 40
1.0
 10
39.852472046
 20
34.8655632201
 30
0.0
 10
39.906539142
 20
34.7033619321
 30
0.0
 10
40.0056949467
 20
34.3766337215
 30
0.0
 10
40.101195178
 20
33.9609181366
 30
0.0
 10
40.1567346889
 20
33.6255128972
 30
0.0
 10
40.1871228381
 20
33.3729322386
 30
0.0
 10
40.2056063467
 20
33.1194799956
 30
0.0
 10
40.2097376359
 20
32.9501740929
 30
0.0
 10
40.2097376359
 20
32.8655632201
 30
0.0
  0
SPLINE
  5
246
100
AcDbEntity
  8
0
100
AcDbSpline
 62
7
  6
BYLAYER
 70
0
 71
3
 72
13
 73
9
 74
0
 42
0.0000001
 43
0.0000001
 44
0.0000000001
 40
0.0
 40
0.0
 40
0.0
 40
0.0
 40
0.1244037923
 40
0.2488888388
 40
0.3735071292
 40
0.4983169576
 40
0.7486145012
 40
1.0
 40
1.0
 40
1.0
 40
1.0
 10
40.2097376359
 20
36.8655632201
 30
0.0
 10
40.2097376359
 20
36.780952322
 30
0.0
 10
40.2056062588
 20
36.6116463411
 30
0.0
 10
40.1871228802
 20
36.3581939849
 30
0.0
 10
40.1567344513
 20
36.1056132951
 30
0.0
 10
40.101195294
 20
35.7702080305
 30
0.0
 10
40.0056950418
 20
35.3544925349
 30
0.0
 10
39.906539125
 20
35.0277644572
 30
0.0
 10
39.852472046
 20
34.8655632201
 30
0.0
  0
SPLINE
  5
247
100
AcDbEntity
  8
0
100
AcDbSpline
 62
7
  6
BYLAYER
 70
0
 71
3
 72
13
 73
9
 74
0
 42
0.0000001
 43
0.0000001
 44
0.0000000001
 40
0.0
 40
0.0
 40
0.0
 40
0.0
 40
0.2513855782
 40
0.5016831749
 40
0.6264930183
 40
0.7511112818
 40
0.8755962448
 40
1.0
 40
1.0
 40
1.0
 40
1.0
 10
38.5670032258
 20
30.8655632201
 30
0.0
 10
38.5129361298
 20
31.0277645081
 30
0.0
 10
38.4137803251
 20
31.3544927187
 30
0.0
 10
38.3182800938
 20
31.7702083036
 30
0.0
 10
38.2627405829
 20
32.105613543
 30
0.0
 10
38.2323524337
 20
32.3581942016
 30
0.0
 10
38.2138689251
 20
32.6116464446
 30
0.0
 10
38.2097376359
 20
32.7809523474
 30
0.0
 10
38.2097376359
 20
32.8655632201
 30
0.0
  0
SPLINE
  5
248
100
AcDbEntity
  8
0
100
AcDbSpline
 62
7
  6
BYLAYER
 70
0
 71
3
 72
18
 73
14
 74
0
 42
0.0000001
 43
0.0000001
 44
0.0000000001
 40
0.0
 40
0.0
 40
0.0
 40
0.0
 40
0.1632222941
 40
0.3223564076
 40
0.4742003575
 40
0.6158937582
 40
0.7440410473
 40
0.8016965799
 40
0.8542235631
 40
0.9009164337
 40
0.9410989351
 40
0.974188015
 40
1.0
 40
1.0
 40
1.0
 40
1.0
 10
5.2097376359
 20
34.1105797766
 30
0.0
 10
5.2707976821
 20
34.1105797766
 30
0.0
 10
5.3916107154
 20
34.0996504993
 30
0.0
 10
5.56410621
 20
34.0562241354
 30
0.0
 10
5.7230814019
 20
33.9972976978
 30
0.0
 10
5.8671638236
 20
33.9329484692
 30
0.0
 10
5.9774471345
 20
33.879585031
 30
0.0
 10
6.0577980843
 20
33.8409500477
 30
0.0
 10
6.1109983698
 20
33.8161663848
 30
0.0
 10
6.1588402927
 20
33.7953960678
 30
0.0
 10
6.2007931538
 20
33.7793700121
 30
0.0
 10
6.2363736754
 20
33.7688493977
 30
0.0
 10
6.2583743804
 20
33.765730809
 30
0.0
 10
6.2680304204
 20
33.765730809
 30
0.0
  0
SPLINE
  5
249
100
AcDbEntity
  8
0
100
AcDbSpline
 62
7
  6
BYLAYER
 70
0
 71
3
 72
18
 73
14
 74
0
 42
0.0000001
 43
0.0000001
 44
0.0000000001
 40
0.0
 40
0.0
 40
0.0
 40
0.0
 40
0.025811983
 40
0.058901062
 40
0.0990835599
 40
0.1457764271
 40
0.1983034069
 40
0.2559589362
 40
0.3841062197
 40
0.5257996283
 40
0.6776435569
 40
0.8367776853
 40
1.0
 40
1.0
 40
1.0
 40
1.0
 10
6.2680304206
 20
35.9653956313
 30
0.0
 10
6.2583743814
 20
35.9653956313
 30
0.0
 10
6.2363736755
 20
35.9622770555
 30
0.0
 10
6.2007931615
 20
35.9517564203
 30
0.0
 10
6.158840299
 20
35.9357303794
 30
0.0
 10
6.1109983808
 20
35.9149600598
 30
0.0
 10
6.0577980989
 20
35.8901763986
 30
0.0
 10
5.9774471522
 20
35.8515414193
 30
0.0
 10
5.8671638426
 20
35.7981779791
 30
0.0
 10
5.7230814271
 20
35.7338287539
 30
0.0
 10
5.564106236
 20
35.674902312
 30
0.0
 10
5.3916107359
 20
35.6314759494
 30
0.0
 10
5.2707976898
 20
35.6205466637
 30
0.0
 10
5.2097376359
 20
35.6205466637
 30
0.0
  0
SPLINE
  5
24A
100
AcDbEntity
  8
0
100
AcDbSpline
 62
7
  6
BYLAYER
 70
0
 71
3
 72
29
 73
25
 74
0
 42
0.0000001
 43
0.0000001
 44
0.0000000001
 40
0.0
 40
0.0
 40
0.0
 40
0.0
 40
0.0128643755
 40
0.0293983871
 40
0.0494975305
 40
0.0728455679
 40
0.0991114786
 40
0.127942572
 40
0.1920221274
 40
0.2628752211
 40
0.3388053988
 40
0.4183807549
 40
0.499999954
 40
0.5816190193
 40
0.66119442
 40
0.7371246555
 40
0.8079778573
 40
0.8720574242
 40
0.9008885134
 40
0.9271544217
 40
0.9505024608
 40
0.9706016113
 40
0.9871356235
 40
1.0
 40
1.0
 40
1.0
 40
1.0
 10
6.3097376359
 20
33.8074145106
 30
0.0
 10
6.3097376359
 20
33.8170383779
 30
0.0
 10
6.3063896888
 20
33.8389723765
 30
0.0
 10
6.295911717
 20
33.8745047503
 30
0.0
 10
6.2799221984
 20
33.9164742813
 30
0.0
 10
6.259122458
 20
33.9643047703
 30
0.0
 10
6.234349909
 20
34.0175097493
 30
0.0
 10
6.1957126946
 20
34.0978586052
 30
0.0
 10
6.1423494138
 20
34.2081399262
 30
0.0
 10
6.0780036208
 20
34.3522244166
 30
0.0
 10
6.0190784517
 20
34.5111892688
 30
0.0
 10
5.975645892
 20
34.6837199584
 30
0.0
 10
5.9591956808
 20
34.8655630151
 30
0.0
 10
5.9756458643
 20
35.0474061021
 30
0.0
 10
6.0190783357
 20
35.21993679
 30
0.0
 10
6.0780035162
 20
35.3789018077
 30
0.0
 10
6.1423493678
 20
35.5229864178
 30
0.0
 10
6.1957126873
 20
35.6332678158
 30
0.0
 10
6.2343499008
 20
35.7136166763
 30
0.0
 10
6.2591224498
 20
35.7668216512
 30
0.0
 10
6.279922195
 20
35.8146521436
 30
0.0
 10
6.2959117084
 20
35.8566216837
 30
0.0
 10
6.3063896909
 20
35.8921540613
 30
0.0
 10
6.3097376359
 20
35.9140880616
 30
0.0
 10
6.3097376359
 20
35.9237119297
 30
0.0
  0
SPLINE
  5
24B
100
AcDbEntity
  8
0
100
AcDbSpline
 62
7
  6
BYLAYER
 70
0
 71
3
 72
12
 73
8
 74
0
 42
0.0000001
 43
0.0000001
 44
0.0000000001
 40
0.0
 40
0.0
 40
0.0
 40
0.0
 40
0.2759625571
 40
0.3928643599
 40
0.5018387351
 40
0.7256816613
 40
1.0
 40
1.0
 40
1.0
 40
1.0
 10
6.3097376359
 20
35.9237139678
 30
0.0
 10
6.3097376359
 20
35.9299314162
 30
0.0
 10
6.3088640608
 20
35.93894701
 30
0.0
 10
6.304367652
 20
35.9494183178
 30
0.0
 10
6.2981002808
 20
35.9575399406
 30
0.0
 10
6.2855725127
 20
35.9643118447
 30
0.0
 10
6.2742108248
 20
35.9653956313
 30
0.0
 10
6.2680304206
 20
35.9653956313
 30
0.0
  0
SPLINE
  5
24C
100
AcDbEntity
  8
0
100
AcDbSpline
 62
7
  6
BYLAYER
 70
0
 71
3
 72
12
 73
8
 74
0
 42
0.0000001
 43
0.0000001
 44
0.0000000001
 40
0.0
 40
0.0
 40
0.0
 40
0.0
 40
0.2743183416
 40
0.4981612462
 40
0.6071356396
 40
0.7240374768
 40
1.0
 40
1.0
 40
1.0
 40
1.0
 10
6.2680304204
 20
33.765730809
 30
0.0
 10
6.2742108246
 20
33.765730809
 30
0.0
 10
6.2855725111
 20
33.7668145983
 30
0.0
 10
6.2981002813
 20
33.7735864984
 30
0.0
 10
6.304367652
 20
33.7817081227
 30
0.0
 10
6.3088640591
 20
33.7921794315
 30
0.0
 10
6.3097376359
 20
33.8011950248
 30
0.0
 10
6.3097376359
 20
33.8074124724
 30
0.0
  0
ENDSEC
  0
SECTION
  2
OBJECTS
  0
DICTIONARY
  5
C
100
AcDbDictionary
280
0
281
1
  3
ACAD_GROUP
350
D
  3
ACAD_MLINESTYLE
350
17
  3
ACAD_LAYOUT
350
1A
  3
ACAD_PLOTSETTINGS
350
19
  3
ACAD_PLOTSTYLENAME
350
E
  0
DICTIONARY
  5
D
102
{ACAD_REACTORS
330
C
102
}
100
AcDbDictionary
280
0
281
1
  0
ACDBDICTIONARYWDFLT
  5
E
102
{ACAD_REACTORS
330
C
102
}
100
AcDbDictionary
281
1
  3
Normal
350
F
100
AcDbDictionaryWithDefault
340
F
  0
DICTIONARY
  5
17
102
{ACAD_REACTORS
330
C
102
}
100
AcDbDictionary
280
0
281
1
  3
Standard
350
18
  0
DICTIONARY
  5
19
102
{ACAD_REACTORS
330
C
102
}
100
AcDbDictionary
281
1
  0
DICTIONARY
  5
1A
102
{ACAD_REACTORS
330
C
102
}
100
AcDbDictionary
281
1
  3
Model
350
24D
  3
Layout1
350
24E
  0
ACDBPLACEHOLDER
  5
F
102
{ACAD_REACTORS
330
E
102
}
  0
MLINESTYLE
  5
18
102
{ACAD_REACTORS
330
17
102
}
100
AcDbMlineStyle
  2
STANDARD
 70
0
  3

 62
256
 51
90.0
 52
90.0
 71
2
 49
0.5
 62
256
  6
BYLAYER
 49
-0.5
 62
256
  6
BYLAYER
  0
LAYOUT
  5
24D
102
{ACAD_REACTORS
330
1A
102
}
100
AcDbPlotSettings
  1

  2
none_device
  4

  6

 40
0.0
 41
0.0
 42
0.0
 43
0.0
 44
210.0
 45
297.0
 46
0.0
 47
0.0
 48
0.0
 49
0.0
140
0.0
141
0.0
142
1.0
143
1.0
 70
1024
 72
1
 73
0
 74
0
  7

 75
0
147
1.0
148
0.0
149
0.0
100
AcDbLayout
  1
Model
 70
0
 71
0
 10
0.0
 20
0.0
 11
210.0
 21
297.0
 12
0.0
 22
0.0
 32
0.0
 14
0.0
 24
0.0
 34
0.0
 15
0.0
 25
0.0
 35
0.0
146
0.0
 13
0.0
 23
0.0
 33
0.0
 16
1.0
 26
0.0
 36
0.0
 17
0.0
 27
1.0
 37
0.0
 76
0
330
210
345
0
346
0
  0
LAYOUT
  5
24E
102
{ACAD_REACTORS
330
1A
102
}
100
AcDbPlotSettings
  1

  2
none_device
  4

  6

 40
0.0
 41
0.0
 42
0.0
 43
0.0
 44
210.0
 45
297.0
 46
0.0
 47
0.0
 48
0.0
 49
0.0
140
0.0
141
0.0
142
1.0
143
1.0
 70
0
 72
1
 73
0
 74
0
  7

 75
0
147
1.0
148
0.0
149
0.0
100
AcDbLayout
  1
Layout1
 70
0
 71
1
 10
0.0
 20
0.0
 11
210.0
 21
297.0
 12
0.0
 22
0.0
 32
0.0
 14
0.0
 24
0.0
 34
0.0
 15
0.0
 25
0.0
 35
0.0
146
0.0
 13
0.0
 23
0.0
 33
0.0
 16
1.0
 26
0.0
 36
0.0
 17
0.0
 27
1.0
 37
0.0
 76
0
330
211
345
0
346
0
  0
ENDSEC
  0
EOF
