999
DXF file: C:\Users\sesa63760\Dev\_Creo\CAD\MCADID0005771_3D-CAD\mcadid0005771_3d-simplified_4.dxf
999
Pro/ENGINEER 2019471 by Parametric Technology Corporation
  0
SECTION
  2
HEADER
  9
$ACADVER
  1
AC1024
  9
$DWGCODEPAGE
  3
ANSI_1252
  9
$EXTMAX
 10
41.0183280706
 20
58.0116354142
 30
0.0
  9
$EXTMIN
 10
0.0
 20
0.0
 30
0.0
  9
$LIMMIN
 10
0.0
 20
0.0
  9
$LIMMAX
 10
41.0183280706
 20
58.0116354142
  9
$VIEWCTR
 10
20.5091640353
 20
29.0058177071
  9
$VIEWSIZE
 40
58.0116354142
  9
$CLAYER
  8
0
  9
$LTSCALE
 40
3.7814991974
  9
$CELTYPE
  6
BYLAYER
  9
$DIMSCALE
 40
1.0
  9
$DIMASZ
 40
0.4883134294
  9
$DIMEXO
 40
1.0
  9
$DIMDLI
 40
2.6126721727
  9
$DIMEXE
 40
1.0
  9
$DIMCEN
 40
0.6187907778
  9
$DIMLFAC
 40
1.0
  9
$DIMBLK
  1
_FILLED
  9
$DIMALT
 70
0
  9
$DIMALTF
 40
0.0393700787
  9
$DIMTXT
 40
0.6836388012
  9
$DIMTOL
 70
1
  9
$DIMLIM
 70
0
  9
$DIMTFAC
 40
1.0
  9
$DIMTP
 40
0.01
  9
$DIMTM
 40
0.01
  9
$DIMGAP
 40
0.625
  9
$DIMDSEP
 70
46
  9
$AUNITS
 70
0
  9
$PDMODE
 70
3
  9
$PDSIZE
 40
0.3125
  9
$HANDSEED
  5
394
  9
$TILEMODE
 70
1
  9
$MEASUREMENT
 70
1
  9
$INSUNITS
 70
4
  0
ENDSEC
  0
SECTION
  2
CLASSES
  0
CLASS
  1
ACDBDICTIONARYWDFLT
  2
AcDbDictionaryWithDefault
  3
AutoCAD 2000
 90
0
 91
1
280
0
281
0
  0
CLASS
  1
ACDBPLACEHOLDER
  2
AcDbPlaceHolder
  3
AutoCAD 2000
 90
0
 91
1
280
0
281
0
  0
CLASS
  1
LAYOUT
  2
AcDbLayout
  3
AutoCAD 2000
 90
0
 91
0
280
0
281
0
  0
ENDSEC
  0
SECTION
  2
TABLES
  0
TABLE
  2
VPORT
  5
8
100
AcDbSymbolTable
 70
2
  0
VPORT
  5
1F4
100
AcDbSymbolTableRecord
100
AcDbViewportTableRecord
  2
*ACTIVE
 70
0
 10
0.0
 20
0.0
 11
1.0
 21
1.0
 12
20.5091640353
 22
29.0058177071
 13
0.0
 23
0.0
 14
1.0
 24
1.0
 15
0.0
 25
0.0
 16
0.0
 26
0.0
 36
1.0
 17
0.0
 27
0.0
 37
0.0
 40
58.0116354142
 41
0.7070707071
 42
50.0
 43
0.0
 44
0.0
 50
0.0
 51
0.0
 71
0
 72
100
 73
1
 74
1
 75
0
 76
0
 77
0
 78
0
  0
ENDTAB
  0
TABLE
  2
LTYPE
  5
5
100
AcDbSymbolTable
 70
6
  0
LTYPE
  5
14
100
AcDbSymbolTableRecord
100
AcDbLinetypeTableRecord
  2
BYBLOCK
 70
0
  3

 72
65
 73
0
 40
0.0
  0
LTYPE
  5
15
100
AcDbSymbolTableRecord
100
AcDbLinetypeTableRecord
  2
BYLAYER
 70
0
  3

 72
65
 73
0
 40
0.0
  0
LTYPE
  5
16
100
AcDbSymbolTableRecord
100
AcDbLinetypeTableRecord
  2
CONTINUOUS
 70
64
  3
Solid line
 72
65
 73
0
 40
0.0
  0
LTYPE
  5
1F5
100
AcDbSymbolTableRecord
100
AcDbLinetypeTableRecord
  2
CENTER
 70
64
  3
____ _ ____ _ ____ _ ____ _ ____ _ ____ _ ____
 72
65
 73
4
 40
0.6
 49
0.375
 74
0
 49
-0.075
 74
0
 49
0.075
 74
0
 49
-0.075
 74
0
  0
LTYPE
  5
1F6
100
AcDbSymbolTableRecord
100
AcDbLinetypeTableRecord
  2
HIDDEN
 70
64
  3
- - - - - - - - - - - - - - - - - - - -
 72
65
 73
2
 40
0.2
 49
0.1
 74
0
 49
-0.1
 74
0
  0
LTYPE
  5
1F7
100
AcDbSymbolTableRecord
100
AcDbLinetypeTableRecord
  2
PHANTOM
 70
64
  3
_____ _ _ _____ _ _ _____ _ _ _____
 72
65
 73
6
 40
0.8
 49
0.45
 74
0
 49
-0.05
 74
0
 49
0.1
 74
0
 49
-0.05
 74
0
 49
0.1
 74
0
 49
-0.05
 74
0
  0
LTYPE
  5
1F8
100
AcDbSymbolTableRecord
100
AcDbLinetypeTableRecord
  2
DOT
 70
64
  3
. . . . . . . . . . . . . . . . . . . .
 72
65
 73
2
 40
0.2
 49
0.1
 74
0
 49
-0.1
 74
0
  0
LTYPE
  5
1F9
100
AcDbSymbolTableRecord
100
AcDbLinetypeTableRecord
  2
DASHED
 70
64
  3
- - - - - - - - - - - - - - - - - - - -
 72
65
 73
2
 40
0.2
 49
0.1
 74
0
 49
-0.1
 74
0
  0
ENDTAB
  0
TABLE
  2
LAYER
  5
2
100
AcDbSymbolTable
 70
36
  0
LAYER
  5
10
100
AcDbSymbolTableRecord
100
AcDbLayerTableRecord
  2
0
 70
0
 62
7
  6
CONTINUOUS
370
-3
390
F
  0
LAYER
  5
1FA
100
AcDbSymbolTableRecord
100
AcDbLayerTableRecord
  2
DEFAULT_1
 70
0
 62
7
  6
CENTER
370
-3
390
F
  0
LAYER
  5
1FB
100
AcDbSymbolTableRecord
100
AcDbLayerTableRecord
  2
DEFAULT_2
 70
0
 62
7
  6
HIDDEN
370
-3
390
F
  0
LAYER
  5
1FC
100
AcDbSymbolTableRecord
100
AcDbLayerTableRecord
  2
DEFAULT_3
 70
0
 62
7
  6
PHANTOM
370
-3
390
F
  0
LAYER
  5
1FD
100
AcDbSymbolTableRecord
100
AcDbLayerTableRecord
  2
00_COMPONENTS
 70
0
 62
7
  6
CONTINUOUS
370
-3
390
F
  0
LAYER
  5
1FE
100
AcDbSymbolTableRecord
100
AcDbLayerTableRecord
  2
01_1_DEFAULT_DATUMS
 70
0
 62
7
  6
CONTINUOUS
370
-3
390
F
  0
LAYER
  5
1FF
100
AcDbSymbolTableRecord
100
AcDbLayerTableRecord
  2
01_PLANES
 70
0
 62
7
  6
CONTINUOUS
370
-3
390
F
  0
LAYER
  5
200
100
AcDbSymbolTableRecord
100
AcDbLayerTableRecord
  2
02_COORD_SYS
 70
0
 62
7
  6
CONTINUOUS
370
-3
390
F
  0
LAYER
  5
201
100
AcDbSymbolTableRecord
100
AcDbLayerTableRecord
  2
03_AXES
 70
0
 62
7
  6
CONTINUOUS
370
-3
390
F
  0
LAYER
  5
202
100
AcDbSymbolTableRecord
100
AcDbLayerTableRecord
  2
04_POINTS
 70
0
 62
7
  6
CONTINUOUS
370
-3
390
F
  0
LAYER
  5
203
100
AcDbSymbolTableRecord
100
AcDbLayerTableRecord
  2
05_CURVES
 70
0
 62
7
  6
CONTINUOUS
370
-3
390
F
  0
LAYER
  5
204
100
AcDbSymbolTableRecord
100
AcDbLayerTableRecord
  2
06_SURFS
 70
0
 62
7
  6
CONTINUOUS
370
-3
390
F
  0
LAYER
  5
205
100
AcDbSymbolTableRecord
100
AcDbLayerTableRecord
  2
07_COSMETICS
 70
0
 62
7
  6
CONTINUOUS
370
-3
390
F
  0
LAYER
  5
206
100
AcDbSymbolTableRecord
100
AcDbLayerTableRecord
  2
10_NOTES
 70
0
 62
7
  6
CONTINUOUS
370
-3
390
F
  0
LAYER
  5
207
100
AcDbSymbolTableRecord
100
AcDbLayerTableRecord
  2
11_NOTES_PUB
 70
0
 62
7
  6
CONTINUOUS
370
-3
390
F
  0
LAYER
  5
208
100
AcDbSymbolTableRecord
100
AcDbLayerTableRecord
  2
13_REF_GTOL
 70
0
 62
7
  6
CONTINUOUS
370
-3
390
F
  0
LAYER
  5
209
100
AcDbSymbolTableRecord
100
AcDbLayerTableRecord
  2
16_MISC
 70
0
 62
7
  6
CONTINUOUS
370
-3
390
F
  0
LAYER
  5
20A
100
AcDbSymbolTableRecord
100
AcDbLayerTableRecord
  2
17_NO_PRINT
 70
0
 62
7
  6
CONTINUOUS
370
-3
390
F
  0
LAYER
  5
20B
100
AcDbSymbolTableRecord
100
AcDbLayerTableRecord
  2
18_DATUM_CAMS_JOINTS
 70
0
 62
7
  6
CONTINUOUS
370
-3
390
F
  0
LAYER
  5
20C
100
AcDbSymbolTableRecord
100
AcDbLayerTableRecord
  2
19_DATUM_FUNCTIONAL
 70
0
 62
7
  6
CONTINUOUS
370
-3
390
F
  0
LAYER
  5
20D
100
AcDbSymbolTableRecord
100
AcDbLayerTableRecord
  2
20_DATUM_KINEMATIC_SCHEME
 70
0
 62
7
  6
CONTINUOUS
370
-3
390
F
  0
ENDTAB
  0
TABLE
  2
STYLE
  5
3
100
AcDbSymbolTable
 70
1
  0
STYLE
  5
11
100
AcDbSymbolTableRecord
100
AcDbTextStyleTableRecord
  2
STANDARD
 70
0
 40
0.0
 41
1.0
 50
0.0
 71
0
 42
0.2
  3
ARIAL.TTF
  4

  0
STYLE
  5
20E
100
AcDbSymbolTableRecord
100
AcDbTextStyleTableRecord
  2
TEXTSTYLE_1
 70
0
 40
0.0
 41
0.8
 50
0.0
 71
0
 42
0.2
  3
gdt
  4

  0
ENDTAB
  0
TABLE
  2
VIEW
  5
6
100
AcDbSymbolTable
 70
0
  0
ENDTAB
  0
TABLE
  2
UCS
  5
7
100
AcDbSymbolTable
 70
0
  0
ENDTAB
  0
TABLE
  2
APPID
  5
9
100
AcDbSymbolTable
 70
1
  0
APPID
  5
20F
100
AcDbSymbolTableRecord
100
AcDbRegAppTableRecord
  2
ACAD
 70
0
  0
ENDTAB
  0
TABLE
  2
BLOCK_RECORD
  5
1
100
AcDbSymbolTable
 70
0
  0
BLOCK_RECORD
  5
210
100
AcDbSymbolTableRecord
100
AcDbBlockTableRecord
  2
*Model_Space
  0
BLOCK_RECORD
  5
211
100
AcDbSymbolTableRecord
100
AcDbBlockTableRecord
  2
*Paper_Space
  0
BLOCK_RECORD
  5
212
100
AcDbSymbolTableRecord
100
AcDbBlockTableRecord
  2
_FILLED
  0
ENDTAB
  0
TABLE
  2
DIMSTYLE
  5
A
100
AcDbSymbolTable
 70
1
100
AcDbDimStyleTable
 71
0
  0
DIMSTYLE
105
213
100
AcDbSymbolTableRecord
100
AcDbDimStyleTableRecord
  2
STANDARD
 70
0
  3

  4

 40
1.0
 41
0.4883134294
 42
1.0
 43
0.38
 44
1.0
 45
0.0
 46
0.0
 47
0.01
 48
0.01
140
0.6836388012
141
0.09
142
0.0
143
25.4
144
1.0
145
0.0
146
1.0
147
0.625
 71
1
 72
0
 73
0
 74
0
 75
0
 76
0
 77
1
 78
8
 79
2
170
0
171
1
172
0
173
0
174
0
175
0
176
0
177
0
178
0
270
2
179
2
271
2
272
2
273
2
274
2
275
0
280
0
281
0
282
0
283
1
284
8
285
0
286
0
287
3
288
0
340
11
278
46
341
212
342
212
343
212
344
212
  0
ENDTAB
  0
ENDSEC
  0
SECTION
  2
BLOCKS
  0
BLOCK
  5
20
100
AcDbEntity
  8
0
100
AcDbBlockBegin
  2
*Model_Space
 70
0
 10
0.0
 20
0.0
 30
0.0
  3
*Model_Space
  1

  0
ENDBLK
  5
21
100
AcDbEntity
  8
0
100
AcDbBlockEnd
  0
BLOCK
  5
1C
100
AcDbEntity
  8
0
100
AcDbBlockBegin
  2
*Paper_Space
 70
0
 10
0.0
 20
0.0
 30
0.0
  3
*Paper_Space
  1

  0
ENDBLK
  5
1D
100
AcDbEntity
  8
0
100
AcDbBlockEnd
  0
BLOCK
  5
214
100
AcDbEntity
  8
0
100
AcDbBlockBegin
  2
_FILLED
 70
64
 10
0.0
 20
0.0
  3
_FILLED
  1

  0
SOLID
  5
215
100
AcDbEntity
  8
0
  6
BYBLOCK
 62
0
100
AcDbTrace
 10
0.0
 20
0.0
 11
-1.0
 21
0.25
 12
-1.0
 22
-0.25
 13
-1.0
 23
-0.25
  0
ENDBLK
  5
216
100
AcDbEntity
  8
0
  6
BYBLOCK
 62
0
100
AcDbBlockEnd
  0
ENDSEC
  0
SECTION
  2
ENTITIES
  0
LINE
  5
217
100
AcDbEntity
  8
0
100
AcDbLine
 62
7
  6
BYLAYER
 10
34.565047258
 20
6.8427726696
 11
25.5417065881
 21
5.0162477768
  0
LINE
  5
218
100
AcDbEntity
  8
0
100
AcDbLine
 62
7
  6
BYLAYER
 10
27.7732566449
 20
5.5283035712
 11
14.291706413
 21
5.5283035712
  0
LINE
  5
219
100
AcDbEntity
  8
0
100
AcDbLine
 62
7
  6
BYLAYER
 10
16.5417065881
 20
5.0162477768
 11
7.5183659181
 21
6.8427726696
  0
LINE
  5
21A
100
AcDbEntity
  8
0
100
AcDbLine
 62
7
  6
BYLAYER
 10
25.291706819
 20
8.0383034669
 11
16.7917064004
 21
8.0383034669
  0
LINE
  5
21B
100
AcDbEntity
  8
0
100
AcDbLine
 62
7
  6
BYLAYER
 10
18.851673847
 20
8.7612291918
 11
14.3917067088
 21
10.8283033715
  0
LINE
  5
21C
100
AcDbEntity
  8
0
100
AcDbLine
 62
7
  6
BYLAYER
 10
20.041706576
 20
10.6283035235
 11
22.041706598
 21
10.6283035235
  0
LINE
  5
21D
100
AcDbEntity
  8
0
100
AcDbLine
 62
7
  6
BYLAYER
 10
27.6917064674
 20
10.8283033715
 11
29.6917067952
 21
10.8283033715
  0
LINE
  5
21E
100
AcDbEntity
  8
0
100
AcDbLine
 62
7
  6
BYLAYER
 10
12.5416843817
 20
42.1674948746
 11
9.2095997296
 21
38.8354102225
  0
LINE
  5
21F
100
AcDbEntity
  8
0
100
AcDbLine
 62
7
  6
BYLAYER
 10
12.3917063809
 20
11.8283035354
 11
14.3917067088
 21
11.8283035354
  0
LINE
  5
220
100
AcDbEntity
  8
0
100
AcDbLine
 62
7
  6
BYLAYER
 10
35.9417065881
 20
12.328302686
 11
35.7917066679
 21
12.328302686
  0
LINE
  5
221
100
AcDbEntity
  8
0
100
AcDbLine
 62
7
  6
BYLAYER
 10
35.7917066679
 20
12.328302686
 11
29.6917067952
 21
12.328302686
  0
LINE
  5
222
100
AcDbEntity
  8
0
100
AcDbLine
 62
7
  6
BYLAYER
 10
6.1417065881
 20
12.328302686
 11
6.2917065083
 21
12.328302686
  0
LINE
  5
223
100
AcDbEntity
  8
0
100
AcDbLine
 62
7
  6
BYLAYER
 10
6.2917065083
 20
12.328302686
 11
12.3917063809
 21
12.328302686
  0
LINE
  5
224
100
AcDbEntity
  8
0
100
AcDbLine
 62
7
  6
BYLAYER
 10
6.1417065881
 20
12.8283023463
 11
7.5417065881
 21
12.8283023463
  0
LINE
  5
225
100
AcDbEntity
  8
0
100
AcDbLine
 62
7
  6
BYLAYER
 10
14.5417065881
 20
12.8283023463
 11
17.7417065881
 21
12.8283023463
  0
LINE
  5
226
100
AcDbEntity
  8
0
100
AcDbLine
 62
7
  6
BYLAYER
 10
24.5417065881
 20
12.8283023463
 11
27.5417065881
 21
12.8283023463
  0
LINE
  5
227
100
AcDbEntity
  8
0
100
AcDbLine
 62
7
  6
BYLAYER
 10
34.5417065881
 20
12.8283023463
 11
35.9417065881
 21
12.8283023463
  0
LINE
  5
228
100
AcDbEntity
  8
0
100
AcDbLine
 62
7
  6
BYLAYER
 10
34.5417065881
 20
12.8338435613
 11
27.5417065881
 21
12.8338435613
  0
LINE
  5
229
100
AcDbEntity
  8
0
100
AcDbLine
 62
7
  6
BYLAYER
 10
24.7417065881
 20
12.8338435613
 11
17.5417065881
 21
12.8338439159
  0
LINE
  5
22A
100
AcDbEntity
  8
0
100
AcDbLine
 62
7
  6
BYLAYER
 10
14.5417065881
 20
12.8338439159
 11
7.5417065881
 21
12.8338439159
  0
LINE
  5
22B
100
AcDbEntity
  8
0
100
AcDbLine
 62
7
  6
BYLAYER
 10
21.3525999422
 20
12.9185975457
 11
20.7308132347
 21
12.9185975457
  0
LINE
  5
22C
100
AcDbEntity
  8
0
100
AcDbLine
 62
7
  6
BYLAYER
 10
6.1417065881
 20
13.4083030374
 11
35.9417065881
 21
13.4083030374
  0
LINE
  5
22D
100
AcDbEntity
  8
0
100
AcDbLine
 62
7
  6
BYLAYER
 10
27.5417065881
 20
13.6816932726
 11
34.5417065881
 21
13.6816932726
  0
LINE
  5
22E
100
AcDbEntity
  8
0
100
AcDbLine
 62
7
  6
BYLAYER
 10
7.5417065881
 20
13.6816934442
 11
14.5417065881
 21
13.6816934442
  0
LINE
  5
22F
100
AcDbEntity
  8
0
100
AcDbLine
 62
7
  6
BYLAYER
 10
17.5417065881
 20
13.6816934442
 11
24.7417065881
 21
13.6816932726
  0
LINE
  5
230
100
AcDbEntity
  8
0
100
AcDbLine
 62
7
  6
BYLAYER
 10
6.4665929612
 20
49.2526841527
 11
6.4328296758
 21
50.6140976922
  0
LINE
  5
231
100
AcDbEntity
  8
0
100
AcDbLine
 62
7
  6
BYLAYER
 10
7.5183659181
 20
6.8427726696
 11
6.4665929612
 21
49.2526841527
  0
LINE
  5
232
100
AcDbEntity
  8
0
100
AcDbLine
 62
7
  6
BYLAYER
 10
6.1417065881
 20
45.3783036719
 11
6.1417065881
 21
12.328302686
  0
LINE
  5
233
100
AcDbEntity
  8
0
100
AcDbLine
 62
7
  6
BYLAYER
 10
6.291706536
 20
47.9418516931
 11
6.2917065062
 21
9.7147536902
  0
LINE
  5
234
100
AcDbEntity
  8
0
100
AcDbLine
 62
7
  6
BYLAYER
 10
6.3570940873
 20
48.747830236
 11
6.3570940892
 21
8.9087763828
  0
LINE
  5
235
100
AcDbEntity
  8
0
100
AcDbLine
 62
7
  6
BYLAYER
 10
6.3767064474
 20
48.8585284485
 11
6.3767064474
 21
51.7283031063
  0
LINE
  5
236
100
AcDbEntity
  8
0
100
AcDbLine
 62
7
  6
BYLAYER
 10
6.3767064474
 20
15.8283032553
 11
6.3767064474
 21
48.8585284485
  0
LINE
  5
237
100
AcDbEntity
  8
0
100
AcDbLine
 62
7
  6
BYLAYER
 10
6.6570827296
 20
7.8385179403
 11
6.6570826007
 21
49.8180887249
  0
LINE
  5
238
100
AcDbEntity
  8
0
100
AcDbLine
 62
7
  6
BYLAYER
 10
7.5417065881
 20
17.8252812655
 11
7.5417065881
 21
12.8283023463
  0
LINE
  5
239
100
AcDbEntity
  8
0
100
AcDbLine
 62
7
  6
BYLAYER
 10
7.6417065881
 20
44.8283038662
 11
7.6417065881
 21
41.1283027069
  0
LINE
  5
23A
100
AcDbEntity
  8
0
100
AcDbLine
 62
7
  6
BYLAYER
 10
7.8384647253
 20
47.9886692683
 11
7.838464704
 21
9.6679380109
  0
LINE
  5
23B
100
AcDbEntity
  8
0
100
AcDbLine
 62
7
  6
BYLAYER
 10
6.1417065881
 20
14.3283035845
 11
35.9417065881
 21
14.3283036269
  0
LINE
  5
23C
100
AcDbEntity
  8
0
100
AcDbLine
 62
7
  6
BYLAYER
 10
34.5417065881
 20
14.3737846556
 11
27.5417065881
 21
14.3737846556
  0
LINE
  5
23D
100
AcDbEntity
  8
0
100
AcDbLine
 62
7
  6
BYLAYER
 10
24.7417065881
 20
14.3737846556
 11
17.5417065881
 21
14.3737846556
  0
LINE
  5
23E
100
AcDbEntity
  8
0
100
AcDbLine
 62
7
  6
BYLAYER
 10
14.5417065881
 20
14.3737846556
 11
7.5417065881
 21
14.3737846556
  0
LINE
  5
23F
100
AcDbEntity
  8
0
100
AcDbLine
 62
7
  6
BYLAYER
 10
7.5417065881
 20
15.0141791185
 11
14.5417065881
 21
15.0141791185
  0
LINE
  5
240
100
AcDbEntity
  8
0
100
AcDbLine
 62
7
  6
BYLAYER
 10
17.5417065881
 20
15.0141791185
 11
24.7417065881
 21
15.0141791185
  0
LINE
  5
241
100
AcDbEntity
  8
0
100
AcDbLine
 62
7
  6
BYLAYER
 10
27.5417065881
 20
15.0141791185
 11
34.5417065881
 21
15.0141791185
  0
LINE
  5
242
100
AcDbEntity
  8
0
100
AcDbLine
 62
7
  6
BYLAYER
 10
7.5417065881
 20
15.0740081624
 11
14.5417065881
 21
15.0740081624
  0
LINE
  5
243
100
AcDbEntity
  8
0
100
AcDbLine
 62
7
  6
BYLAYER
 10
17.5417065881
 20
15.0740081624
 11
24.7417065881
 21
15.0740081624
  0
LINE
  5
244
100
AcDbEntity
  8
0
100
AcDbLine
 62
7
  6
BYLAYER
 10
27.5417065881
 20
15.0740081624
 11
34.5417065881
 21
15.0740081624
  0
LINE
  5
245
100
AcDbEntity
  8
0
100
AcDbLine
 62
7
  6
BYLAYER
 10
7.5417065881
 20
15.1087381126
 11
14.5417065881
 21
15.1087381126
  0
LINE
  5
246
100
AcDbEntity
  8
0
100
AcDbLine
 62
7
  6
BYLAYER
 10
17.5417065881
 20
15.1087381126
 11
24.7417065881
 21
15.1087381126
  0
LINE
  5
247
100
AcDbEntity
  8
0
100
AcDbLine
 62
7
  6
BYLAYER
 10
27.5417065881
 20
15.1087381126
 11
34.5417065881
 21
15.1087381126
  0
LINE
  5
248
100
AcDbEntity
  8
0
100
AcDbLine
 62
7
  6
BYLAYER
 10
7.5417065881
 20
15.5517812998
 11
14.5417065881
 21
15.5517812998
  0
LINE
  5
249
100
AcDbEntity
  8
0
100
AcDbLine
 62
7
  6
BYLAYER
 10
17.5417065881
 20
15.5517812998
 11
24.7417065881
 21
15.5517812998
  0
LINE
  5
24A
100
AcDbEntity
  8
0
100
AcDbLine
 62
7
  6
BYLAYER
 10
27.5417065881
 20
15.5517812998
 11
34.5417065881
 21
15.5517812998
  0
LINE
  5
24B
100
AcDbEntity
  8
0
100
AcDbLine
 62
7
  6
BYLAYER
 10
7.5417065881
 20
15.560223739
 11
14.5417065881
 21
15.560223739
  0
LINE
  5
24C
100
AcDbEntity
  8
0
100
AcDbLine
 62
7
  6
BYLAYER
 10
17.5417065881
 20
15.560223739
 11
24.7417065881
 21
15.560223739
  0
LINE
  5
24D
100
AcDbEntity
  8
0
100
AcDbLine
 62
7
  6
BYLAYER
 10
27.5417065881
 20
15.560223739
 11
34.5417065881
 21
15.560223739
  0
LINE
  5
24E
100
AcDbEntity
  8
0
100
AcDbLine
 62
7
  6
BYLAYER
 10
7.5417065881
 20
15.6029192911
 11
14.5417065881
 21
15.6029192911
  0
LINE
  5
24F
100
AcDbEntity
  8
0
100
AcDbLine
 62
7
  6
BYLAYER
 10
17.5417065881
 20
15.6029192911
 11
24.7417065881
 21
15.6029192911
  0
LINE
  5
250
100
AcDbEntity
  8
0
100
AcDbLine
 62
7
  6
BYLAYER
 10
27.5417065881
 20
15.6029192911
 11
34.5417065881
 21
15.6029192911
  0
LINE
  5
251
100
AcDbEntity
  8
0
100
AcDbLine
 62
7
  6
BYLAYER
 10
8.3705922574
 20
32.5183421476
 11
8.3706140957
 21
32.4501019757
  0
LINE
  5
252
100
AcDbEntity
  8
0
100
AcDbLine
 62
7
  6
BYLAYER
 10
8.3706140957
 20
32.4501019757
 11
8.3729534727
 21
25.1400207276
  0
LINE
  5
253
100
AcDbEntity
  8
0
100
AcDbLine
 62
7
  6
BYLAYER
 10
8.0417063934
 20
51.7141137163
 11
8.0417063777
 21
51.828303151
  0
LINE
  5
254
100
AcDbEntity
  8
0
100
AcDbLine
 62
7
  6
BYLAYER
 10
8.0417066122
 20
50.1283027307
 11
8.0417063934
 21
51.7141137163
  0
LINE
  5
255
100
AcDbEntity
  8
0
100
AcDbLine
 62
7
  6
BYLAYER
 10
8.3417053445
 20
25.1033034745
 11
8.3416962636
 21
32.4499341169
  0
LINE
  5
256
100
AcDbEntity
  8
0
100
AcDbLine
 62
7
  6
BYLAYER
 10
8.3470041044
 20
47.9380257503
 11
8.3470041044
 21
32.7665665265
  0
LINE
  5
257
100
AcDbEntity
  8
0
100
AcDbLine
 62
7
  6
BYLAYER
 10
8.3470041044
 20
24.8900405205
 11
8.3470041044
 21
9.7185812966
  0
LINE
  5
258
100
AcDbEntity
  8
0
100
AcDbLine
 62
7
  6
BYLAYER
 10
8.3825317722
 20
32.506509426
 11
8.3825317764
 21
25.1501214373
  0
LINE
  5
259
100
AcDbEntity
  8
0
100
AcDbLine
 62
7
  6
BYLAYER
 10
8.6417065881
 20
44.8283038662
 11
8.6417065881
 21
41.1283027085
  0
LINE
  5
25A
100
AcDbEntity
  8
0
100
AcDbLine
 62
7
  6
BYLAYER
 10
8.7517065881
 20
20.2734035235
 11
8.7517065881
 21
19.3840984609
  0
LINE
  5
25B
100
AcDbEntity
  8
0
100
AcDbLine
 62
7
  6
BYLAYER
 10
8.7517065881
 20
38.0499035235
 11
8.7517065881
 21
38.9184901658
  0
LINE
  5
25C
100
AcDbEntity
  8
0
100
AcDbLine
 62
7
  6
BYLAYER
 10
8.8767068572
 20
51.7283031063
 11
8.8767068572
 21
38.1162069383
  0
LINE
  5
25D
100
AcDbEntity
  8
0
100
AcDbLine
 62
7
  6
BYLAYER
 10
8.8767066304
 20
19.3383006885
 11
8.8767067899
 21
21.6383035306
  0
LINE
  5
25E
100
AcDbEntity
  8
0
100
AcDbLine
 62
7
  6
BYLAYER
 10
8.9167062306
 20
21.6383035867
 11
8.9167064981
 21
38.1282995627
  0
LINE
  5
25F
100
AcDbEntity
  8
0
100
AcDbLine
 62
7
  6
BYLAYER
 10
8.8767068572
 20
38.1162069383
 11
8.9167065723
 21
38.1283035187
  0
LINE
  5
260
100
AcDbEntity
  8
0
100
AcDbLine
 62
7
  6
BYLAYER
 10
17.7417065881
 20
15.7167470535
 11
24.7417065881
 21
15.7167470535
  0
LINE
  5
261
100
AcDbEntity
  8
0
100
AcDbLine
 62
7
  6
BYLAYER
 10
34.5417065881
 20
15.7513138036
 11
27.5417065881
 21
15.7513138036
  0
LINE
  5
262
100
AcDbEntity
  8
0
100
AcDbLine
 62
7
  6
BYLAYER
 10
24.7417065881
 20
15.7513138036
 11
17.5417065881
 21
15.7513138036
  0
LINE
  5
263
100
AcDbEntity
  8
0
100
AcDbLine
 62
7
  6
BYLAYER
 10
14.5417065881
 20
15.7513138036
 11
7.5417065881
 21
15.7513138036
  0
LINE
  5
264
100
AcDbEntity
  8
0
100
AcDbLine
 62
7
  6
BYLAYER
 10
35.7067065899
 20
15.8283038054
 11
27.7926480962
 21
15.8283032182
  0
LINE
  5
265
100
AcDbEntity
  8
0
100
AcDbLine
 62
7
  6
BYLAYER
 10
14.291706413
 20
15.8283032553
 11
6.3767064474
 21
15.8283032553
  0
LINE
  5
266
100
AcDbEntity
  8
0
100
AcDbLine
 62
7
  6
BYLAYER
 10
24.7417065881
 20
15.9484381034
 11
17.7417065881
 21
15.9484381034
  0
LINE
  5
267
100
AcDbEntity
  8
0
100
AcDbLine
 62
7
  6
BYLAYER
 10
7.5417065881
 20
16.3480695517
 11
14.5417065881
 21
16.3480695517
  0
LINE
  5
268
100
AcDbEntity
  8
0
100
AcDbLine
 62
7
  6
BYLAYER
 10
17.5417065881
 20
16.3480695517
 11
24.7417065881
 21
16.3480695517
  0
LINE
  5
269
100
AcDbEntity
  8
0
100
AcDbLine
 62
7
  6
BYLAYER
 10
27.5417065881
 20
16.3480695517
 11
34.5417065881
 21
16.3480695517
  0
LINE
  5
26A
100
AcDbEntity
  8
0
100
AcDbLine
 62
7
  6
BYLAYER
 10
7.5417065881
 20
16.3907655792
 11
14.5417065881
 21
16.3907655792
  0
LINE
  5
26B
100
AcDbEntity
  8
0
100
AcDbLine
 62
7
  6
BYLAYER
 10
17.5417065881
 20
16.3907655792
 11
24.7417065881
 21
16.3907655792
  0
LINE
  5
26C
100
AcDbEntity
  8
0
100
AcDbLine
 62
7
  6
BYLAYER
 10
27.5417065881
 20
16.3907655792
 11
34.5417065881
 21
16.3907655792
  0
LINE
  5
26D
100
AcDbEntity
  8
0
100
AcDbLine
 62
7
  6
BYLAYER
 10
35.9417065881
 20
16.7930022184
 11
34.9417065881
 21
16.7930022184
  0
LINE
  5
26E
100
AcDbEntity
  8
0
100
AcDbLine
 62
7
  6
BYLAYER
 10
16.3417065881
 20
16.7930022184
 11
17.3417065881
 21
16.7930022184
  0
LINE
  5
26F
100
AcDbEntity
  8
0
100
AcDbLine
 62
7
  6
BYLAYER
 10
25.1417065881
 20
16.7930022184
 11
27.1417065881
 21
16.7930022184
  0
LINE
  5
270
100
AcDbEntity
  8
0
100
AcDbLine
 62
7
  6
BYLAYER
 10
34.5417065881
 20
16.9797521267
 11
27.5417065881
 21
16.9797521267
  0
LINE
  5
271
100
AcDbEntity
  8
0
100
AcDbLine
 62
7
  6
BYLAYER
 10
24.7417065881
 20
16.9797521265
 11
17.5417065881
 21
16.9797521267
  0
LINE
  5
272
100
AcDbEntity
  8
0
100
AcDbLine
 62
7
  6
BYLAYER
 10
14.5417065881
 20
16.9797521267
 11
7.5417065881
 21
16.9797521267
  0
LINE
  5
273
100
AcDbEntity
  8
0
100
AcDbLine
 62
7
  6
BYLAYER
 10
17.3417065881
 20
17.0283026622
 11
25.1417065881
 21
17.0283026622
  0
LINE
  5
274
100
AcDbEntity
  8
0
100
AcDbLine
 62
7
  6
BYLAYER
 10
27.1417065881
 20
17.0283026622
 11
34.9417065881
 21
17.0283026622
  0
LINE
  5
275
100
AcDbEntity
  8
0
100
AcDbLine
 62
7
  6
BYLAYER
 10
6.1417065881
 20
17.1162241699
 11
35.9417065881
 21
17.1162241699
  0
LINE
  5
276
100
AcDbEntity
  8
0
100
AcDbLine
 62
7
  6
BYLAYER
 10
7.5417065881
 20
17.1768339531
 11
14.5417065881
 21
17.1768339531
  0
LINE
  5
277
100
AcDbEntity
  8
0
100
AcDbLine
 62
7
  6
BYLAYER
 10
17.5417065881
 20
17.1768339531
 11
24.7417065881
 21
17.1768339531
  0
LINE
  5
278
100
AcDbEntity
  8
0
100
AcDbLine
 62
7
  6
BYLAYER
 10
27.5417065881
 20
17.1768339531
 11
34.5417065881
 21
17.1768339531
  0
LINE
  5
279
100
AcDbEntity
  8
0
100
AcDbLine
 62
7
  6
BYLAYER
 10
7.5417065881
 20
17.2028811829
 11
14.5417065881
 21
17.2028811829
  0
LINE
  5
27A
100
AcDbEntity
  8
0
100
AcDbLine
 62
7
  6
BYLAYER
 10
17.5417065881
 20
17.2028811829
 11
24.7417065881
 21
17.2028811829
  0
LINE
  5
27B
100
AcDbEntity
  8
0
100
AcDbLine
 62
7
  6
BYLAYER
 10
27.5417065881
 20
17.2028811829
 11
34.5417065881
 21
17.2028811829
  0
LINE
  5
27C
100
AcDbEntity
  8
0
100
AcDbLine
 62
7
  6
BYLAYER
 10
7.5417065881
 20
17.2693665692
 11
14.5417065881
 21
17.2693665692
  0
LINE
  5
27D
100
AcDbEntity
  8
0
100
AcDbLine
 62
7
  6
BYLAYER
 10
17.5417065881
 20
17.2693665692
 11
24.7417065881
 21
17.2693665692
  0
LINE
  5
27E
100
AcDbEntity
  8
0
100
AcDbLine
 62
7
  6
BYLAYER
 10
27.5417065881
 20
17.2693665692
 11
34.5417065881
 21
17.2693665692
  0
LINE
  5
27F
100
AcDbEntity
  8
0
100
AcDbLine
 62
7
  6
BYLAYER
 10
7.5417065881
 20
17.3418000521
 11
14.5417065881
 21
17.3418000521
  0
LINE
  5
280
100
AcDbEntity
  8
0
100
AcDbLine
 62
7
  6
BYLAYER
 10
17.5417065881
 20
17.3418000521
 11
24.7417065881
 21
17.3418000521
  0
LINE
  5
281
100
AcDbEntity
  8
0
100
AcDbLine
 62
7
  6
BYLAYER
 10
27.5417065881
 20
17.3418000521
 11
34.5417065881
 21
17.3418000521
  0
LINE
  5
282
100
AcDbEntity
  8
0
100
AcDbLine
 62
7
  6
BYLAYER
 10
24.0242823746
 20
17.4383033313
 11
18.0591291576
 21
17.4383033313
  0
LINE
  5
283
100
AcDbEntity
  8
0
100
AcDbLine
 62
7
  6
BYLAYER
 10
7.5417065881
 20
17.5155680807
 11
14.5417065881
 21
17.5155680807
  0
LINE
  5
284
100
AcDbEntity
  8
0
100
AcDbLine
 62
7
  6
BYLAYER
 10
17.5417065881
 20
17.5155680807
 11
24.7417065881
 21
17.5155680807
  0
LINE
  5
285
100
AcDbEntity
  8
0
100
AcDbLine
 62
7
  6
BYLAYER
 10
27.5417065881
 20
17.5155680807
 11
34.5417065881
 21
17.5155680807
  0
LINE
  5
286
100
AcDbEntity
  8
0
100
AcDbLine
 62
7
  6
BYLAYER
 10
7.5417065881
 20
17.5504181714
 11
14.5417065881
 21
17.5504181714
  0
LINE
  5
287
100
AcDbEntity
  8
0
100
AcDbLine
 62
7
  6
BYLAYER
 10
17.5417065881
 20
17.5504181714
 11
24.7417065881
 21
17.5504181714
  0
LINE
  5
288
100
AcDbEntity
  8
0
100
AcDbLine
 62
7
  6
BYLAYER
 10
27.5417065881
 20
17.5504181714
 11
34.5417065881
 21
17.5504181714
  0
LINE
  5
289
100
AcDbEntity
  8
0
100
AcDbLine
 62
7
  6
BYLAYER
 10
18.8231892662
 20
8.809046107
 11
18.670607698
 21
9.071983085
  0
LINE
  5
28A
100
AcDbEntity
  8
0
100
AcDbLine
 62
7
  6
BYLAYER
 10
7.5417065881
 20
17.6372425811
 11
14.5417065881
 21
17.6372425811
  0
LINE
  5
28B
100
AcDbEntity
  8
0
100
AcDbLine
 62
7
  6
BYLAYER
 10
17.5417065881
 20
17.6372425811
 11
24.7417065881
 21
17.6372425811
  0
LINE
  5
28C
100
AcDbEntity
  8
0
100
AcDbLine
 62
7
  6
BYLAYER
 10
27.5417065881
 20
17.6372425811
 11
34.5417065881
 21
17.6372425811
  0
LINE
  5
28D
100
AcDbEntity
  8
0
100
AcDbLine
 62
7
  6
BYLAYER
 10
7.5417065881
 20
17.7225597604
 11
14.5417065881
 21
17.7225597604
  0
LINE
  5
28E
100
AcDbEntity
  8
0
100
AcDbLine
 62
7
  6
BYLAYER
 10
17.5417065881
 20
17.7225597604
 11
24.7417065881
 21
17.7225597604
  0
LINE
  5
28F
100
AcDbEntity
  8
0
100
AcDbLine
 62
7
  6
BYLAYER
 10
27.5417065881
 20
17.7225597604
 11
34.5417065881
 21
17.7225597604
  0
LINE
  5
290
100
AcDbEntity
  8
0
100
AcDbLine
 62
7
  6
BYLAYER
 10
7.5417065881
 20
17.8252812655
 11
14.5417065881
 21
17.8252812655
  0
LINE
  5
291
100
AcDbEntity
  8
0
100
AcDbLine
 62
7
  6
BYLAYER
 10
17.5417065881
 20
17.8252812655
 11
24.7417065881
 21
17.8252812655
  0
LINE
  5
292
100
AcDbEntity
  8
0
100
AcDbLine
 62
7
  6
BYLAYER
 10
27.5417065881
 20
17.8252812655
 11
34.5417065881
 21
17.8252812655
  0
LINE
  5
293
100
AcDbEntity
  8
0
100
AcDbLine
 62
7
  6
BYLAYER
 10
32.2067076229
 20
18.3383035471
 11
29.0917047995
 21
18.3383036415
  0
LINE
  5
294
100
AcDbEntity
  8
0
100
AcDbLine
 62
7
  6
BYLAYER
 10
12.9917045045
 20
18.3383035471
 11
9.8767085057
 21
18.3383036415
  0
LINE
  5
295
100
AcDbEntity
  8
0
100
AcDbLine
 62
7
  6
BYLAYER
 10
6.1417065881
 20
18.3679056798
 11
6.291706513
 21
18.3679056798
  0
LINE
  5
296
100
AcDbEntity
  8
0
100
AcDbLine
 62
7
  6
BYLAYER
 10
6.291706513
 20
18.3679056798
 11
9.6351950083
 21
18.3679056798
  0
LINE
  5
297
100
AcDbEntity
  8
0
100
AcDbLine
 62
7
  6
BYLAYER
 10
32.4482185444
 20
18.3679056798
 11
35.7917066632
 21
18.3679056798
  0
LINE
  5
298
100
AcDbEntity
  8
0
100
AcDbLine
 62
7
  6
BYLAYER
 10
35.7917066632
 20
18.3679056798
 11
35.9417065881
 21
18.3679056798
  0
LINE
  5
299
100
AcDbEntity
  8
0
100
AcDbLine
 62
7
  6
BYLAYER
 10
12.3917063809
 20
12.328302686
 11
12.3917063809
 21
11.8283035354
  0
LINE
  5
29A
100
AcDbEntity
  8
0
100
AcDbLine
 62
7
  6
BYLAYER
 10
12.5417068452
 20
45.3782928515
 11
12.5417060196
 21
42.1673576866
  0
LINE
  5
29B
100
AcDbEntity
  8
0
100
AcDbLine
 62
7
  6
BYLAYER
 10
13.3317065881
 20
20.2734035235
 11
13.3317065881
 21
19.3840984609
  0
LINE
  5
29C
100
AcDbEntity
  8
0
100
AcDbLine
 62
7
  6
BYLAYER
 10
13.3317065881
 20
38.0499035235
 11
13.3317065881
 21
38.9184901658
  0
LINE
  5
29D
100
AcDbEntity
  8
0
100
AcDbLine
 62
7
  6
BYLAYER
 10
22.0417066002
 20
20.6283035235
 11
20.0417065781
 21
20.6283035235
  0
LINE
  5
29E
100
AcDbEntity
  8
0
100
AcDbLine
 62
7
  6
BYLAYER
 10
9.7167070707
 20
20.8383031435
 11
12.5041421614
 21
20.8383031435
  0
LINE
  5
29F
100
AcDbEntity
  8
0
100
AcDbLine
 62
7
  6
BYLAYER
 10
29.5792710147
 20
20.8383031435
 11
32.366706442
 21
20.8383031435
  0
LINE
  5
2A0
100
AcDbEntity
  8
0
100
AcDbLine
 62
7
  6
BYLAYER
 10
16.3417065881
 20
21.1716824838
 11
17.3417065881
 21
21.1716824838
  0
LINE
  5
2A1
100
AcDbEntity
  8
0
100
AcDbLine
 62
7
  6
BYLAYER
 10
34.9417065881
 20
21.1716824838
 11
35.9417065881
 21
21.1716824838
  0
LINE
  5
2A2
100
AcDbEntity
  8
0
100
AcDbLine
 62
7
  6
BYLAYER
 10
27.1417065881
 20
21.1716853263
 11
25.1417065881
 21
21.1716853263
  0
LINE
  5
2A3
100
AcDbEntity
  8
0
100
AcDbLine
 62
7
  6
BYLAYER
 10
14.041706372
 20
51.828303151
 11
14.041706372
 21
49.1348149572
  0
LINE
  5
2A4
100
AcDbEntity
  8
0
100
AcDbLine
 62
7
  6
BYLAYER
 10
14.291706413
 20
15.8283032553
 11
14.291706413
 21
5.5283035712
  0
LINE
  5
2A5
100
AcDbEntity
  8
0
100
AcDbLine
 62
7
  6
BYLAYER
 10
14.3417065881
 20
44.8283038662
 11
14.3417065881
 21
41.1283027088
  0
LINE
  5
2A6
100
AcDbEntity
  8
0
100
AcDbLine
 62
7
  6
BYLAYER
 10
14.3917067088
 20
11.8283035354
 11
14.3917067088
 21
10.8283033715
  0
LINE
  5
2A7
100
AcDbEntity
  8
0
100
AcDbLine
 62
7
  6
BYLAYER
 10
14.5417065881
 20
12.8283023463
 11
14.5417065881
 21
17.8252812655
  0
LINE
  5
2A8
100
AcDbEntity
  8
0
100
AcDbLine
 62
7
  6
BYLAYER
 10
15.4417065881
 20
44.8283038662
 11
15.4417065881
 21
41.1283027088
  0
LINE
  5
2A9
100
AcDbEntity
  8
0
100
AcDbLine
 62
7
  6
BYLAYER
 10
8.3825317764
 20
25.1501214373
 11
8.3728902305
 21
25.1400207276
  0
LINE
  5
2AA
100
AcDbEntity
  8
0
100
AcDbLine
 62
7
  6
BYLAYER
 10
33.1667086663
 20
21.6383151953
 11
33.2067063862
 21
21.6383265914
  0
LINE
  5
2AB
100
AcDbEntity
  8
0
100
AcDbLine
 62
7
  6
BYLAYER
 10
8.8767067899
 20
21.6383035235
 11
8.9167064253
 21
21.6383035235
  0
LINE
  5
2AC
100
AcDbEntity
  8
0
100
AcDbLine
 62
7
  6
BYLAYER
 10
25.1417065881
 20
21.9596959831
 11
27.1417065881
 21
21.9596959831
  0
LINE
  5
2AD
100
AcDbEntity
  8
0
100
AcDbLine
 62
7
  6
BYLAYER
 10
35.9417065881
 20
21.9596979491
 11
34.9417065881
 21
21.9596979491
  0
LINE
  5
2AE
100
AcDbEntity
  8
0
100
AcDbLine
 62
7
  6
BYLAYER
 10
17.3417065881
 20
21.9596983861
 11
16.3417065881
 21
21.9596983861
  0
LINE
  5
2AF
100
AcDbEntity
  8
0
100
AcDbLine
 62
7
  6
BYLAYER
 10
11.9745546332
 20
49.8655153779
 11
12.5386002349
 21
45.3782358573
  0
LINE
  5
2B0
100
AcDbEntity
  8
0
100
AcDbLine
 62
7
  6
BYLAYER
 10
16.3417065881
 20
44.8283038662
 11
16.3417065881
 21
12.8283023463
  0
LINE
  5
2B1
100
AcDbEntity
  8
0
100
AcDbLine
 62
7
  6
BYLAYER
 10
16.7917065588
 20
14.538306195
 11
16.7917063379
 21
8.0383034669
  0
LINE
  5
2B2
100
AcDbEntity
  8
0
100
AcDbLine
 62
7
  6
BYLAYER
 10
17.3417065881
 20
24.6283044702
 11
17.3417065881
 21
16.7930022184
  0
LINE
  5
2B3
100
AcDbEntity
  8
0
100
AcDbLine
 62
7
  6
BYLAYER
 10
17.4417065881
 20
44.8283038662
 11
17.4417065881
 21
41.1283025642
  0
LINE
  5
2B4
100
AcDbEntity
  8
0
100
AcDbLine
 62
7
  6
BYLAYER
 10
34.9417065881
 20
24.6283046133
 11
35.9417065881
 21
24.6283046571
  0
LINE
  5
2B5
100
AcDbEntity
  8
0
100
AcDbLine
 62
7
  6
BYLAYER
 10
16.3417065881
 20
24.6283047542
 11
17.3417065881
 21
24.6283047079
  0
LINE
  5
2B6
100
AcDbEntity
  8
0
100
AcDbLine
 62
7
  6
BYLAYER
 10
25.1417065881
 20
24.628304581
 11
27.1417065881
 21
24.628304581
  0
LINE
  5
2B7
100
AcDbEntity
  8
0
100
AcDbLine
 62
7
  6
BYLAYER
 10
9.3097187086
 20
25.1399739357
 11
8.3729534727
 21
25.139997561
  0
LINE
  5
2B8
100
AcDbEntity
  8
0
100
AcDbLine
 62
7
  6
BYLAYER
 10
33.7105147132
 20
25.1399739461
 11
32.7736947438
 21
25.1399739316
  0
LINE
  5
2B9
100
AcDbEntity
  8
0
100
AcDbLine
 62
7
  6
BYLAYER
 10
19.2454644931
 20
10.3296963644
 11
19.2345872
 21
10.4951973918
  0
LINE
  5
2BA
100
AcDbEntity
  8
0
100
AcDbLine
 62
7
  6
BYLAYER
 10
19.1914531838
 20
11.1514933948
 11
19.0408919814
 21
13.4423237885
  0
LINE
  5
2BB
100
AcDbEntity
  8
0
100
AcDbLine
 62
7
  6
BYLAYER
 10
17.5417065881
 20
17.8252812655
 11
17.5417065881
 21
12.8283023463
  0
LINE
  5
2BC
100
AcDbEntity
  8
0
100
AcDbLine
 62
7
  6
BYLAYER
 10
17.7417065881
 20
17.8252812655
 11
17.7417065881
 21
12.8283023463
  0
LINE
  5
2BD
100
AcDbEntity
  8
0
100
AcDbLine
 62
7
  6
BYLAYER
 10
18.4417065881
 20
44.8283038662
 11
18.4417065881
 21
41.1283025258
  0
LINE
  5
2BE
100
AcDbEntity
  8
0
100
AcDbLine
 62
7
  6
BYLAYER
 10
18.9517065881
 20
20.2734035235
 11
18.9517065881
 21
19.3840984762
  0
LINE
  5
2BF
100
AcDbEntity
  8
0
100
AcDbLine
 62
7
  6
BYLAYER
 10
18.9517065881
 20
38.0499035235
 11
18.9517065881
 21
38.9184901506
  0
LINE
  5
2C0
100
AcDbEntity
  8
0
100
AcDbLine
 62
7
  6
BYLAYER
 10
28.1917063684
 20
47.3283033767
 11
27.1917063854
 21
45.5962523894
  0
LINE
  5
2C1
100
AcDbEntity
  8
0
100
AcDbLine
 62
7
  6
BYLAYER
 10
20.0417065881
 20
10.6283034881
 11
20.0417065881
 21
20.6283035488
  0
LINE
  5
2C2
100
AcDbEntity
  8
0
100
AcDbLine
 62
7
  6
BYLAYER
 10
20.2324177577
 20
25.3522888524
 11
20.2323643638
 21
32.3043183193
  0
LINE
  5
2C3
100
AcDbEntity
  8
0
100
AcDbLine
 62
7
  6
BYLAYER
 10
19.0425114573
 20
13.7993741814
 11
19.0375120538
 21
13.6258656685
  0
LINE
  5
2C4
100
AcDbEntity
  8
0
100
AcDbLine
 62
7
  6
BYLAYER
 10
6.1417065881
 20
28.5294333718
 11
6.2917065209
 21
28.5294333718
  0
LINE
  5
2C5
100
AcDbEntity
  8
0
100
AcDbLine
 62
7
  6
BYLAYER
 10
6.2917065209
 20
28.5294333718
 11
6.3767064474
 21
28.5294333718
  0
LINE
  5
2C6
100
AcDbEntity
  8
0
100
AcDbLine
 62
7
  6
BYLAYER
 10
35.7067066418
 20
28.5294333718
 11
35.7917066552
 21
28.5294333718
  0
LINE
  5
2C7
100
AcDbEntity
  8
0
100
AcDbLine
 62
7
  6
BYLAYER
 10
35.7917066552
 20
28.5294333718
 11
35.9417065881
 21
28.5294333718
  0
LINE
  5
2C8
100
AcDbEntity
  8
0
100
AcDbLine
 62
7
  6
BYLAYER
 10
33.1667067073
 20
28.8283030961
 11
35.7067066207
 21
28.828303103
  0
LINE
  5
2C9
100
AcDbEntity
  8
0
100
AcDbLine
 62
7
  6
BYLAYER
 10
6.3767064474
 20
28.8283031063
 11
8.9167063668
 21
28.8283031063
  0
LINE
  5
2CA
100
AcDbEntity
  8
0
100
AcDbLine
 62
7
  6
BYLAYER
 10
23.0409017188
 20
13.7993741814
 11
23.0459011224
 21
13.6258656685
  0
LINE
  5
2CB
100
AcDbEntity
  8
0
100
AcDbLine
 62
7
  6
BYLAYER
 10
22.0417065881
 20
10.6283034982
 11
22.0417065881
 21
20.6283035589
  0
LINE
  5
2CC
100
AcDbEntity
  8
0
100
AcDbLine
 62
7
  6
BYLAYER
 10
21.8509948096
 20
32.3043181937
 11
21.8510476796
 21
25.3522887304
  0
LINE
  5
2CD
100
AcDbEntity
  8
0
100
AcDbLine
 62
7
  6
BYLAYER
 10
33.206706319
 20
39.8275685204
 11
33.1667065886
 21
39.7898475925
  0
LINE
  5
2CE
100
AcDbEntity
  8
0
100
AcDbLine
 62
7
  6
BYLAYER
 10
23.5317065881
 20
20.2734035235
 11
23.5317065881
 21
19.3840984762
  0
LINE
  5
2CF
100
AcDbEntity
  8
0
100
AcDbLine
 62
7
  6
BYLAYER
 10
23.5317065881
 20
38.0499035235
 11
23.5317065881
 21
38.9184901506
  0
LINE
  5
2D0
100
AcDbEntity
  8
0
100
AcDbLine
 62
7
  6
BYLAYER
 10
24.1417065881
 20
44.8283038662
 11
24.1417065881
 21
41.1283025191
  0
LINE
  5
2D1
100
AcDbEntity
  8
0
100
AcDbLine
 62
7
  6
BYLAYER
 10
24.5417065881
 20
12.8283023463
 11
24.5417065881
 21
17.8252812655
  0
LINE
  5
2D2
100
AcDbEntity
  8
0
100
AcDbLine
 62
7
  6
BYLAYER
 10
24.7417065881
 20
12.8283023463
 11
24.7417065881
 21
17.8252812655
  0
LINE
  5
2D3
100
AcDbEntity
  8
0
100
AcDbLine
 62
7
  6
BYLAYER
 10
25.1417065881
 20
16.7930022184
 11
25.1417065881
 21
24.6283043997
  0
LINE
  5
2D4
100
AcDbEntity
  8
0
100
AcDbLine
 62
7
  6
BYLAYER
 10
22.837948683
 20
10.3296963644
 11
22.8488259761
 21
10.4951973918
  0
LINE
  5
2D5
100
AcDbEntity
  8
0
100
AcDbLine
 62
7
  6
BYLAYER
 10
22.8919599923
 20
11.1514933948
 11
23.0425211947
 21
13.4423237885
  0
LINE
  5
2D6
100
AcDbEntity
  8
0
100
AcDbLine
 62
7
  6
BYLAYER
 10
14.1472982163
 20
47.6595147354
 11
15.4643651825
 21
45.3782911033
  0
LINE
  5
2D7
100
AcDbEntity
  8
0
100
AcDbLine
 62
7
  6
BYLAYER
 10
25.2417065881
 20
44.8283038662
 11
25.2417065881
 21
41.1283025187
  0
LINE
  5
2D8
100
AcDbEntity
  8
0
100
AcDbLine
 62
7
  6
BYLAYER
 10
25.291706819
 20
14.5383038924
 11
25.291706819
 21
8.0383034669
  0
LINE
  5
2D9
100
AcDbEntity
  8
0
100
AcDbLine
 62
7
  6
BYLAYER
 10
27.1417065881
 20
24.6283043997
 11
27.1417065881
 21
16.7930022184
  0
LINE
  5
2DA
100
AcDbEntity
  8
0
100
AcDbLine
 62
7
  6
BYLAYER
 10
27.1917063854
 20
45.3783035983
 11
27.1917063854
 21
45.5962523894
  0
LINE
  5
2DB
100
AcDbEntity
  8
0
100
AcDbLine
 62
7
  6
BYLAYER
 10
27.2417065881
 20
44.8283038662
 11
27.2417065881
 21
41.1283025187
  0
LINE
  5
2DC
100
AcDbEntity
  8
0
100
AcDbLine
 62
7
  6
BYLAYER
 10
27.5417065881
 20
17.8252812655
 11
27.5417065881
 21
12.8283023463
  0
LINE
  5
2DD
100
AcDbEntity
  8
0
100
AcDbLine
 62
7
  6
BYLAYER
 10
28.2417065881
 20
44.8283038662
 11
28.2417065881
 21
41.1283025191
  0
LINE
  5
2DE
100
AcDbEntity
  8
0
100
AcDbLine
 62
7
  6
BYLAYER
 10
28.7517065881
 20
20.2734035235
 11
28.7517065881
 21
19.3840984762
  0
LINE
  5
2DF
100
AcDbEntity
  8
0
100
AcDbLine
 62
7
  6
BYLAYER
 10
28.7517065881
 20
38.0499035235
 11
28.7517065881
 21
38.9184901506
  0
LINE
  5
2E0
100
AcDbEntity
  8
0
100
AcDbLine
 62
7
  6
BYLAYER
 10
27.7926480961
 20
15.8283033596
 11
27.7732566449
 21
5.5283035712
  0
LINE
  5
2E1
100
AcDbEntity
  8
0
100
AcDbLine
 62
7
  6
BYLAYER
 10
33.7104855936
 20
32.5165302531
 11
33.7008816269
 21
32.5065095066
  0
LINE
  5
2E2
100
AcDbEntity
  8
0
100
AcDbLine
 62
7
  6
BYLAYER
 10
33.7008816467
 20
25.1501214174
 11
33.7105147132
 21
25.1399739461
  0
LINE
  5
2E3
100
AcDbEntity
  8
0
100
AcDbLine
 62
7
  6
BYLAYER
 10
29.6917067952
 20
12.328302686
 11
29.6917067952
 21
10.8283033715
  0
LINE
  5
2E4
100
AcDbEntity
  8
0
100
AcDbLine
 62
7
  6
BYLAYER
 10
33.1667067104
 20
39.7898466501
 11
33.1667067446
 21
21.6382908
  0
LINE
  5
2E5
100
AcDbEntity
  8
0
100
AcDbLine
 62
7
  6
BYLAYER
 10
33.206706319
 20
21.6383466376
 11
33.2067065881
 21
19.338303094
  0
LINE
  5
2E6
100
AcDbEntity
  8
0
100
AcDbLine
 62
7
  6
BYLAYER
 10
33.206706319
 20
39.8275685204
 11
33.206706319
 21
51.7283031063
  0
LINE
  5
2E7
100
AcDbEntity
  8
0
100
AcDbLine
 62
7
  6
BYLAYER
 10
33.3317065881
 20
20.2734035235
 11
33.3317065881
 21
19.3840984762
  0
LINE
  5
2E8
100
AcDbEntity
  8
0
100
AcDbLine
 62
7
  6
BYLAYER
 10
33.3317065881
 20
38.0499035235
 11
33.3317065881
 21
38.9184901506
  0
LINE
  5
2E9
100
AcDbEntity
  8
0
100
AcDbLine
 62
7
  6
BYLAYER
 10
33.7008816496
 20
25.1501215183
 11
33.7008816454
 21
32.5065095089
  0
LINE
  5
2EA
100
AcDbEntity
  8
0
100
AcDbLine
 62
7
  6
BYLAYER
 10
33.7105195332
 20
32.5165066073
 11
33.7105454343
 21
25.1399739443
  0
LINE
  5
2EB
100
AcDbEntity
  8
0
100
AcDbLine
 62
7
  6
BYLAYER
 10
33.7364090718
 20
47.9380257503
 11
33.7364090718
 21
32.9593827092
  0
LINE
  5
2EC
100
AcDbEntity
  8
0
100
AcDbLine
 62
7
  6
BYLAYER
 10
33.7364090718
 20
9.7185812966
 11
33.7364090718
 21
24.8900404533
  0
LINE
  5
2ED
100
AcDbEntity
  8
0
100
AcDbLine
 62
7
  6
BYLAYER
 10
33.7417064346
 20
32.5533035174
 11
33.7417064346
 21
25.103303536
  0
LINE
  5
2EE
100
AcDbEntity
  8
0
100
AcDbLine
 62
7
  6
BYLAYER
 10
33.9417065881
 20
44.8283038662
 11
33.9417065881
 21
41.1283025257
  0
LINE
  5
2EF
100
AcDbEntity
  8
0
100
AcDbLine
 62
7
  6
BYLAYER
 10
34.2449484504
 20
9.6679378377
 11
34.2449484504
 21
47.9886692095
  0
LINE
  5
2F0
100
AcDbEntity
  8
0
100
AcDbLine
 62
7
  6
BYLAYER
 10
34.5417065881
 20
12.8283023463
 11
34.5417065881
 21
17.8252812655
  0
LINE
  5
2F1
100
AcDbEntity
  8
0
100
AcDbLine
 62
7
  6
BYLAYER
 10
23.26022391
 20
8.809046107
 11
23.4128054782
 21
9.071983085
  0
LINE
  5
2F2
100
AcDbEntity
  8
0
100
AcDbLine
 62
7
  6
BYLAYER
 10
6.1417065881
 20
41.1283027016
 11
35.9417065881
 21
41.1283027016
  0
LINE
  5
2F3
100
AcDbEntity
  8
0
100
AcDbLine
 62
7
  6
BYLAYER
 10
34.9417065881
 20
16.7930022184
 11
34.9417065881
 21
24.6283044702
  0
LINE
  5
2F4
100
AcDbEntity
  8
0
100
AcDbLine
 62
7
  6
BYLAYER
 10
34.9917061738
 20
50.6547856607
 11
34.9917061738
 21
50.747469121
  0
LINE
  5
2F5
100
AcDbEntity
  8
0
100
AcDbLine
 62
7
  6
BYLAYER
 10
34.9917061738
 20
24.0466442204
 11
34.9917061738
 21
50.6547856607
  0
LINE
  5
2F6
100
AcDbEntity
  8
0
100
AcDbLine
 62
7
  6
BYLAYER
 10
35.0417065881
 20
44.8283038662
 11
35.0417065881
 21
41.1283025642
  0
LINE
  5
2F7
100
AcDbEntity
  8
0
100
AcDbLine
 62
7
  6
BYLAYER
 10
35.4263305757
 20
49.8180887039
 11
35.4263304468
 21
7.8385179925
  0
LINE
  5
2F8
100
AcDbEntity
  8
0
100
AcDbLine
 62
7
  6
BYLAYER
 10
35.7067066961
 20
51.7283031063
 11
35.7067066889
 21
48.8585522238
  0
LINE
  5
2F9
100
AcDbEntity
  8
0
100
AcDbLine
 62
7
  6
BYLAYER
 10
35.7067066889
 20
48.8585522238
 11
35.7067066057
 21
15.8283036641
  0
LINE
  5
2FA
100
AcDbEntity
  8
0
100
AcDbLine
 62
7
  6
BYLAYER
 10
35.7263190869
 20
8.9087763954
 11
35.7263190888
 21
48.7478302597
  0
LINE
  5
2FB
100
AcDbEntity
  8
0
100
AcDbLine
 62
7
  6
BYLAYER
 10
35.7917066699
 20
9.7147537025
 11
35.7917066401
 21
47.9418475874
  0
LINE
  5
2FC
100
AcDbEntity
  8
0
100
AcDbLine
 62
7
  6
BYLAYER
 10
35.9417065881
 20
12.328302686
 11
35.9417065881
 21
47.3283033461
  0
LINE
  5
2FD
100
AcDbEntity
  8
0
100
AcDbLine
 62
7
  6
BYLAYER
 10
34.9917061738
 20
24.0466442204
 11
34.565047258
 21
6.8427726696
  0
LINE
  5
2FE
100
AcDbEntity
  8
0
100
AcDbLine
 62
7
  6
BYLAYER
 10
6.1417065881
 20
44.1706252844
 11
35.9417065881
 21
44.1706252844
  0
LINE
  5
2FF
100
AcDbEntity
  8
0
100
AcDbLine
 62
7
  6
BYLAYER
 10
6.1417065881
 20
44.2783029379
 11
35.9417065881
 21
44.2783029379
  0
LINE
  5
300
100
AcDbEntity
  8
0
100
AcDbLine
 62
7
  6
BYLAYER
 10
35.9417065881
 20
44.4283026831
 11
6.1417065881
 21
44.4283026831
  0
LINE
  5
301
100
AcDbEntity
  8
0
100
AcDbLine
 62
7
  6
BYLAYER
 10
33.9417065881
 20
44.7168384355
 11
28.2417065881
 21
44.7168384355
  0
LINE
  5
302
100
AcDbEntity
  8
0
100
AcDbLine
 62
7
  6
BYLAYER
 10
24.1417065881
 20
44.7168384355
 11
18.4417065881
 21
44.7168384355
  0
LINE
  5
303
100
AcDbEntity
  8
0
100
AcDbLine
 62
7
  6
BYLAYER
 10
14.3417065881
 20
44.7168384355
 11
8.6417065881
 21
44.7168384355
  0
LINE
  5
304
100
AcDbEntity
  8
0
100
AcDbLine
 62
7
  6
BYLAYER
 10
6.1417065881
 20
44.8283038662
 11
35.9417065881
 21
44.8283038662
  0
LINE
  5
305
100
AcDbEntity
  8
0
100
AcDbLine
 62
7
  6
BYLAYER
 10
6.1417065881
 20
45.3783036719
 11
6.291706534
 21
45.3783036726
  0
LINE
  5
306
100
AcDbEntity
  8
0
100
AcDbLine
 62
7
  6
BYLAYER
 10
6.291706534
 20
45.3783036726
 11
28.0417072752
 21
45.3783035235
  0
LINE
  5
307
100
AcDbEntity
  8
0
100
AcDbLine
 62
7
  6
BYLAYER
 10
28.0417072752
 20
45.3783026453
 11
32.8773875882
 21
40.4933619893
  0
LINE
  5
308
100
AcDbEntity
  8
0
100
AcDbLine
 62
7
  6
BYLAYER
 10
27.6917064674
 20
10.8283033715
 11
23.2317393291
 21
8.7612291918
  0
LINE
  5
309
100
AcDbEntity
  8
0
100
AcDbLine
 62
7
  6
BYLAYER
 10
6.3767064474
 20
47.3283033447
 11
8.8767068572
 21
47.3283033447
  0
LINE
  5
30A
100
AcDbEntity
  8
0
100
AcDbLine
 62
7
  6
BYLAYER
 10
28.1917063751
 20
47.3283033447
 11
35.7917066405
 21
47.3283033452
  0
LINE
  5
30B
100
AcDbEntity
  8
0
100
AcDbLine
 62
7
  6
BYLAYER
 10
35.7917066405
 20
47.3283033452
 11
35.9417065881
 21
47.3283033461
  0
LINE
  5
30C
100
AcDbEntity
  8
0
100
AcDbLine
 62
7
  6
BYLAYER
 10
12.1016011176
 20
48.8491440088
 11
13.5709967876
 21
48.8491440088
  0
LINE
  5
30D
100
AcDbEntity
  8
0
100
AcDbLine
 62
7
  6
BYLAYER
 10
11.6768737743
 20
50.1283027307
 11
8.0417066122
 21
50.1283027307
  0
LINE
  5
30E
100
AcDbEntity
  8
0
100
AcDbLine
 62
7
  6
BYLAYER
 10
35.7067066961
 20
51.7283031063
 11
34.0233505154
 21
51.7283031063
  0
LINE
  5
30F
100
AcDbEntity
  8
0
100
AcDbLine
 62
7
  6
BYLAYER
 10
34.0233505154
 20
51.7283031063
 11
33.206706319
 21
51.7283031063
  0
LINE
  5
310
100
AcDbEntity
  8
0
100
AcDbLine
 62
7
  6
BYLAYER
 10
8.060055724
 20
51.7283031063
 11
6.3767064474
 21
51.7283031063
  0
LINE
  5
311
100
AcDbEntity
  8
0
100
AcDbLine
 62
7
  6
BYLAYER
 10
8.8767068572
 20
51.7283031063
 11
8.060055724
 21
51.7283031063
  0
LINE
  5
312
100
AcDbEntity
  8
0
100
AcDbLine
 62
7
  6
BYLAYER
 10
8.0417063777
 20
51.828303151
 11
8.1893730435
 21
51.828303151
  0
LINE
  5
313
100
AcDbEntity
  8
0
100
AcDbLine
 62
7
  6
BYLAYER
 10
8.1893730435
 20
51.828303151
 11
14.041706372
 21
51.828303151
  0
LINE
  5
314
100
AcDbEntity
  8
0
100
AcDbLine
 62
7
  6
BYLAYER
 10
6.4328296758
 20
50.6140976922
 11
7.1628433643
 21
50.7618687032
  0
LINE
  5
315
100
AcDbEntity
  8
0
100
AcDbLine
 62
7
  6
BYLAYER
 10
7.1628433643
 20
50.7618687032
 11
16.5417065881
 21
52.6603592701
  0
LINE
  5
316
100
AcDbEntity
  8
0
100
AcDbLine
 62
7
  6
BYLAYER
 10
21.5462103578
 20
53.4783035593
 11
20.5372028184
 21
53.4783035593
  0
LINE
  5
317
100
AcDbEntity
  8
0
100
AcDbLine
 62
7
  6
BYLAYER
 10
34.9917061738
 20
50.747469121
 11
34.9205698252
 21
50.7618687005
  0
LINE
  5
318
100
AcDbEntity
  8
0
100
AcDbLine
 62
7
  6
BYLAYER
 10
34.9205698252
 20
50.7618687005
 11
25.541706588
 21
52.6603592701
  0
ARC
  5
319
100
AcDbEntity
  8
0
100
AcDbCircle
 62
7
  6
BYLAYER
 10
11.2917071313
 20
9.7147543302
 40
5.0000006327
100
AcDbArc
 50
180.0000239152
 51
262.5304106301
  0
ARC
  5
31A
100
AcDbEntity
  8
0
100
AcDbCircle
 62
7
  6
BYLAYER
 10
12.9917065267
 20
14.5383034621
 40
3.8000000614
100
AcDbArc
 50
0.0000542979
 51
90.0000288124
  0
ARC
  5
31B
100
AcDbEntity
  8
0
100
AcDbCircle
 62
7
  6
BYLAYER
 10
11.2602527456
 20
9.6890002179
 40
3.4218528427
100
AcDbArc
 50
180.3526695148
 51
262.2219096405
  0
ARC
  5
31C
100
AcDbEntity
  8
0
100
AcDbCircle
 62
7
  6
BYLAYER
 10
11.317489508
 20
9.7369526297
 40
2.970542213
100
AcDbArc
 50
180.3543482913
 51
262.1843045613
  0
ARC
  5
31D
100
AcDbEntity
  8
0
100
AcDbCircle
 62
7
  6
BYLAYER
 10
20.9812208291
 20
10.413437536
 40
2.6717846258
100
AcDbArc
 50
194.5288724943
 51
210.1378472618
  0
ARC
  5
31E
100
AcDbEntity
  8
0
100
AcDbCircle
 62
7
  6
BYLAYER
 10
16.0417069701
 20
16.1383075665
 40
2.3999960981
100
AcDbArc
 50
32.7971080391
 51
101.1634163391
  0
ARC
  5
31F
100
AcDbEntity
  8
0
100
AcDbCircle
 62
7
  6
BYLAYER
 10
9.876706369
 20
19.338303446
 40
0.999999781
100
AcDbArc
 50
180.0000515955
 51
270.0000824538
  0
ARC
  5
320
100
AcDbEntity
  8
0
100
AcDbCircle
 62
7
  6
BYLAYER
 10
9.716707239
 20
21.6383037945
 40
0.800000651
100
AcDbArc
 50
180.0000185133
 51
269.9999799081
  0
ARC
  5
321
100
AcDbEntity
  8
0
100
AcDbCircle
 62
7
  6
BYLAYER
 10
11.2917070598
 20
47.9418528697
 40
5.0000004717
100
AcDbArc
 50
97.4695894012
 51
180.0000000037
  0
ARC
  5
322
100
AcDbEntity
  8
0
100
AcDbCircle
 62
7
  6
BYLAYER
 10
11.2125817957
 20
48.0186321801
 40
3.3742501065
100
AcDbArc
 50
97.0531852429
 51
180.5087859208
  0
ARC
  5
323
100
AcDbEntity
  8
0
100
AcDbCircle
 62
7
  6
BYLAYER
 10
11.317489508
 20
47.9196544173
 40
2.970542213
100
AcDbArc
 50
97.8156954395
 51
179.6456517086
  0
ARC
  5
324
100
AcDbEntity
  8
0
100
AcDbCircle
 62
7
  6
BYLAYER
 10
9.9167065656
 20
38.128303528
 40
0.9999999776
100
AcDbArc
 50
135.0000057309
 51
180.0000001324
  0
ARC
  5
325
100
AcDbEntity
  8
0
100
AcDbCircle
 62
7
  6
BYLAYER
 10
14.1118435972
 20
48.4886100597
 40
0.65
100
AcDbArc
 50
96.1944711729
 51
249.775345106
  0
ARC
  5
326
100
AcDbEntity
  8
0
100
AcDbCircle
 62
7
  6
BYLAYER
 10
13.7142867756
 20
47.4095153874
 40
0.4999985817
100
AcDbArc
 50
30.0000075508
 51
69.7753449287
  0
ARC
  5
327
100
AcDbEntity
  8
0
100
AcDbCircle
 62
7
  6
BYLAYER
 10
11.6768737741
 20
49.8283052519
 40
0.2999974789
100
AcDbArc
 50
7.1250198852
 51
89.999999942
  0
ARC
  5
328
100
AcDbEntity
  8
0
100
AcDbCircle
 62
7
  6
BYLAYER
 10
8.4379757547
 20
32.453183785
 40
0.0963464382
100
AcDbArc
 50
85.465973361
 51
181.9331386684
  0
ARC
  5
329
100
AcDbEntity
  8
0
100
AcDbCircle
 62
7
  6
BYLAYER
 10
21.0417056724
 20
-320.8717544436
 40
345.9947605162
100
AcDbArc
 50
87.8973201292
 51
92.1026795673
  0
ARC
  5
32A
100
AcDbEntity
  8
0
100
AcDbCircle
 62
7
  6
BYLAYER
 10
21.0417066695
 20
-297.35170107
 40
322.7050045931
100
AcDbArc
 50
87.7445520221
 51
87.9165443848
  0
ARC
  5
32B
100
AcDbEntity
  8
0
100
AcDbCircle
 62
7
  6
BYLAYER
 10
21.0417066695
 20
-297.35170107
 40
322.7050045931
100
AcDbArc
 50
92.0834554619
 51
92.255448255
  0
ARC
  5
32C
100
AcDbEntity
  8
0
100
AcDbCircle
 62
7
  6
BYLAYER
 10
21.0417066695
 20
-297.35170107
 40
322.7050045931
100
AcDbArc
 50
88.0079874516
 51
91.9920175813
  0
ARC
  5
32D
100
AcDbEntity
  8
0
100
AcDbCircle
 62
7
  6
BYLAYER
 10
21.0417066695
 20
-297.35170107
 40
322.7050045931
100
AcDbArc
 50
87.9165443848
 51
88.0079874516
  0
ARC
  5
32E
100
AcDbEntity
  8
0
100
AcDbCircle
 62
7
  6
BYLAYER
 10
21.0417066695
 20
-297.35170107
 40
322.7050045931
100
AcDbArc
 50
91.9920175813
 51
92.0834554619
  0
ARC
  5
32F
100
AcDbEntity
  8
0
100
AcDbCircle
 62
7
  6
BYLAYER
 10
21.0417065881
 20
-26.4217224178
 40
80.0000259407
100
AcDbArc
 50
82.5304105781
 51
97.4695894019
  0
ARC
  5
330
100
AcDbEntity
  8
0
100
AcDbCircle
 62
7
  6
BYLAYER
 10
21.0081694099
 20
-26.8007246008
 40
78.8320360824
100
AcDbArc
 50
82.5042978305
 51
97.4415542894
  0
ARC
  5
331
100
AcDbEntity
  8
0
100
AcDbCircle
 62
7
  6
BYLAYER
 10
21.0247001331
 20
-26.2108709563
 40
77.7338788945
100
AcDbArc
 50
82.501266967
 51
97.4738752748
  0
ARC
  5
332
100
AcDbEntity
  8
0
100
AcDbCircle
 62
7
  6
BYLAYER
 10
21.040064174
 20
16.8224331011
 40
12.6341296844
100
AcDbArc
 50
249.1423076925
 51
290.8576923075
  0
CIRCLE
  5
333
100
AcDbEntity
  8
0
100
AcDbCircle
 62
7
  6
BYLAYER
 10
21.0417065881
 20
15.6283035235
 40
8.5002134999
  0
CIRCLE
  5
334
100
AcDbEntity
  8
0
100
AcDbCircle
 62
7
  6
BYLAYER
 10
21.0417065881
 20
15.6283035235
 40
7.0394533329
  0
CIRCLE
  5
335
100
AcDbEntity
  8
0
100
AcDbCircle
 62
7
  6
BYLAYER
 10
21.0417065881
 20
15.6283035235
 40
5.3997566345
  0
CIRCLE
  5
336
100
AcDbEntity
  8
0
100
AcDbCircle
 62
7
  6
BYLAYER
 10
21.0417065881
 20
15.6283035235
 40
5.2511194534
  0
ARC
  5
337
100
AcDbEntity
  8
0
100
AcDbCircle
 62
7
  6
BYLAYER
 10
21.0417065881
 20
13.503384644
 40
5.2234358174
100
AcDbArc
 50
245.2114579813
 51
294.7885420185
  0
ARC
  5
338
100
AcDbEntity
  8
0
100
AcDbCircle
 62
7
  6
BYLAYER
 10
21.0417065881
 20
15.6283035235
 40
4.5835282537
100
AcDbArc
 50
102.6017019116
 51
257.3983045648
  0
ARC
  5
339
100
AcDbEntity
  8
0
100
AcDbCircle
 62
7
  6
BYLAYER
 10
21.0417065881
 20
15.6283035235
 40
4.5835282531
100
AcDbArc
 50
282.6017019641
 51
77.3983046058
  0
ARC
  5
33A
100
AcDbEntity
  8
0
100
AcDbCircle
 62
7
  6
BYLAYER
 10
21.1020922937
 20
10.4134792226
 40
2.6718920841
100
AcDbArc
 50
329.8624568903
 51
345.4077094633
  0
ARC
  5
33B
100
AcDbEntity
  8
0
100
AcDbCircle
 62
7
  6
BYLAYER
 10
26.0417064665
 20
16.1383038086
 40
2.3999997344
100
AcDbArc
 50
78.8366071302
 51
147.202841176
  0
ARC
  5
33C
100
AcDbEntity
  8
0
100
AcDbCircle
 62
7
  6
BYLAYER
 10
30.7917060289
 20
9.7147543442
 40
5.0000006486
100
AcDbArc
 50
277.4695893593
 51
359.9999755079
  0
ARC
  5
33D
100
AcDbEntity
  8
0
100
AcDbCircle
 62
7
  6
BYLAYER
 10
29.0917065912
 20
14.5383038929
 40
3.7999997722
100
AcDbArc
 50
90.0000288122
 51
180.0
  0
ARC
  5
33E
100
AcDbEntity
  8
0
100
AcDbCircle
 62
7
  6
BYLAYER
 10
30.8149793306
 20
9.6922384556
 40
3.4300552012
100
AcDbArc
 50
277.8793310909
 51
359.5940781101
  0
ARC
  5
33F
100
AcDbEntity
  8
0
100
AcDbCircle
 62
7
  6
BYLAYER
 10
30.7600603159
 20
9.7466115398
 40
2.9764807427
100
AcDbArc
 50
277.9027554502
 51
359.4604237318
  0
ARC
  5
340
100
AcDbEntity
  8
0
100
AcDbCircle
 62
7
  6
BYLAYER
 10
32.2067065881
 20
19.3383035235
 40
1.0
100
AcDbArc
 50
270.0000654498
 51
359.999848606
  0
ARC
  5
341
100
AcDbEntity
  8
0
100
AcDbCircle
 62
7
  6
BYLAYER
 10
32.3667057217
 20
21.6383043675
 40
0.800001224
100
AcDbArc
 50
270.0000515917
 51
0.0007754824
  0
ARC
  5
342
100
AcDbEntity
  8
0
100
AcDbCircle
 62
7
  6
BYLAYER
 10
21.0417065881
 20
84.0783293951
 40
80.0000258716
100
AcDbArc
 50
262.5304106301
 51
277.4695893592
  0
ARC
  5
343
100
AcDbEntity
  8
0
100
AcDbCircle
 62
7
  6
BYLAYER
 10
21.0565789228
 20
83.9792238487
 40
78.3551568203
100
AcDbArc
 50
262.4763772261
 51
277.5008975004
  0
ARC
  5
344
100
AcDbEntity
  8
0
100
AcDbCircle
 62
7
  6
BYLAYER
 10
21.0247001331
 20
83.8674780033
 40
77.7338788945
100
AcDbArc
 50
262.5261247252
 51
277.498733033
  0
CIRCLE
  5
345
100
AcDbEntity
  8
0
100
AcDbCircle
 62
7
  6
BYLAYER
 10
21.0417065881
 20
28.8283035235
 40
13.58
  0
ARC
  5
346
100
AcDbEntity
  8
0
100
AcDbCircle
 62
7
  6
BYLAYER
 10
21.0397474402
 20
40.8558954411
 40
12.6324082343
100
AcDbArc
 50
92.2799521391
 51
110.8591299061
  0
ARC
  5
347
100
AcDbEntity
  8
0
100
AcDbCircle
 62
7
  6
BYLAYER
 10
21.0436657359
 20
40.8558954411
 40
12.6324082343
100
AcDbArc
 50
69.140870094
 51
87.7200478608
  0
ARC
  5
348
100
AcDbEntity
  8
0
100
AcDbCircle
 62
7
  6
BYLAYER
 10
21.0416961472
 20
28.8383198504
 40
11.7000193131
100
AcDbArc
 50
297.8439412954
 51
316.8617567734
  0
ARC
  5
349
100
AcDbEntity
  8
0
100
AcDbCircle
 62
7
  6
BYLAYER
 10
21.0417152037
 20
28.838317459
 40
11.7000163462
100
AcDbArc
 50
223.1382407929
 51
242.1560611383
  0
CIRCLE
  5
34A
100
AcDbEntity
  8
0
100
AcDbCircle
 62
7
  6
BYLAYER
 10
21.0417065881
 20
28.8283035235
 40
10.8749996871
  0
CIRCLE
  5
34B
100
AcDbEntity
  8
0
100
AcDbCircle
 62
7
  6
BYLAYER
 10
21.0417065881
 20
28.8283035235
 40
10.575
  0
CIRCLE
  5
34C
100
AcDbEntity
  8
0
100
AcDbCircle
 62
7
  6
BYLAYER
 10
21.0417065881
 20
28.8283035235
 40
10.0999996066
  0
CIRCLE
  5
34D
100
AcDbEntity
  8
0
100
AcDbCircle
 62
7
  6
BYLAYER
 10
21.0417065881
 20
42.0283035235
 40
8.5002134999
  0
CIRCLE
  5
34E
100
AcDbEntity
  8
0
100
AcDbCircle
 62
7
  6
BYLAYER
 10
21.0417065881
 20
42.0283035235
 40
7.0394533329
  0
CIRCLE
  5
34F
100
AcDbEntity
  8
0
100
AcDbCircle
 62
7
  6
BYLAYER
 10
21.0417065881
 20
42.0283035235
 40
5.3997566345
  0
CIRCLE
  5
350
100
AcDbEntity
  8
0
100
AcDbCircle
 62
7
  6
BYLAYER
 10
21.0417065881
 20
42.0283035235
 40
5.2511194534
  0
CIRCLE
  5
351
100
AcDbEntity
  8
0
100
AcDbCircle
 62
7
  6
BYLAYER
 10
21.0417065881
 20
42.0283035235
 40
5.0
  0
CIRCLE
  5
352
100
AcDbEntity
  8
0
100
AcDbCircle
 62
7
  6
BYLAYER
 10
21.0417065881
 20
42.0283035235
 40
3.499826778
  0
ARC
  5
353
100
AcDbEntity
  8
0
100
AcDbCircle
 62
7
  6
BYLAYER
 10
21.0417056724
 20
378.5283614905
 40
345.9947605162
100
AcDbArc
 50
267.8973204327
 51
272.0710927996
  0
ARC
  5
354
100
AcDbEntity
  8
0
100
AcDbCircle
 62
7
  6
BYLAYER
 10
21.0417065074
 20
355.0083087167
 40
322.7050051925
100
AcDbArc
 50
272.0830847402
 51
272.2554480025
  0
ARC
  5
355
100
AcDbEntity
  8
0
100
AcDbCircle
 62
7
  6
BYLAYER
 10
21.0417065074
 20
355.0083087167
 40
322.7050051925
100
AcDbArc
 50
268.007360516
 51
271.9926444242
  0
ARC
  5
356
100
AcDbEntity
  8
0
100
AcDbCircle
 62
7
  6
BYLAYER
 10
21.0417065074
 20
355.0083087167
 40
322.7050051925
100
AcDbArc
 50
267.7630108869
 51
267.9169150533
  0
ARC
  5
357
100
AcDbEntity
  8
0
100
AcDbCircle
 62
7
  6
BYLAYER
 10
21.0417065074
 20
355.0083087167
 40
322.7050051925
100
AcDbArc
 50
267.9169150533
 51
268.007360516
  0
ARC
  5
358
100
AcDbEntity
  8
0
100
AcDbCircle
 62
7
  6
BYLAYER
 10
21.0417065074
 20
355.0083087167
 40
322.7050051925
100
AcDbArc
 50
271.9926444242
 51
272.0830847402
  0
ARC
  5
359
100
AcDbEntity
  8
0
100
AcDbCircle
 62
7
  6
BYLAYER
 10
30.791706146
 20
47.9418528958
 40
5.000000442
100
AcDbArc
 50
359.9997358933
 51
82.5304105775
  0
ARC
  5
35A
100
AcDbEntity
  8
0
100
AcDbCircle
 62
7
  6
BYLAYER
 10
30.9543895692
 20
48.0831035114
 40
3.2919136666
100
AcDbArc
 50
358.3561448254
 51
84.1143751156
  0
ARC
  5
35B
100
AcDbEntity
  8
0
100
AcDbCircle
 62
7
  6
BYLAYER
 10
30.7600603159
 20
47.9099955072
 40
2.9764807427
100
AcDbArc
 50
0.5395762686
 51
82.0972445514
  0
ARC
  5
35C
100
AcDbEntity
  8
0
100
AcDbCircle
 62
7
  6
BYLAYER
 10
32.1667065881
 20
39.7898475858
 40
1.0
100
AcDbArc
 50
359.9999463938
 51
44.7096495824
  0
ARC
  5
35D
100
AcDbEntity
  8
0
100
AcDbCircle
 62
7
  6
BYLAYER
 10
33.5296470106
 20
32.9659340754
 40
0.206865827
100
AcDbArc
 50
274.473999756
 51
358.1851598651
  0
SPLINE
  5
35E
100
AcDbEntity
  8
0
100
AcDbSpline
 62
7
  6
BYLAYER
 70
0
 71
3
 72
9
 73
5
 74
0
 42
0.0000001
 43
0.0000001
 44
0.0000000001
 40
0.0
 40
0.0
 40
0.0
 40
0.0
 40
0.2495166001
 40
1.0
 40
1.0
 40
1.0
 40
1.0
 10
33.7008816269
 20
32.5065095066
 30
0.0
 10
33.5812514163
 20
32.5057963997
 30
0.0
 10
33.1018032603
 20
32.5029810896
 30
0.0
 10
32.6223541132
 20
32.5003345639
 30
0.0
 10
32.2625349996
 20
32.4984431548
 30
0.0
  0
SPLINE
  5
35F
100
AcDbEntity
  8
0
100
AcDbSpline
 62
7
  6
BYLAYER
 70
0
 71
3
 72
9
 73
5
 74
0
 42
0.0000001
 43
0.0000001
 44
0.0000000001
 40
0.0
 40
0.0
 40
0.0
 40
0.0
 40
0.2504753094
 40
1.0
 40
1.0
 40
1.0
 40
1.0
 10
32.25900804
 20
25.158286589
 30
0.0
 10
32.379392856
 20
25.1576477587
 30
0.0
 10
32.8600181065
 20
25.1550541295
 30
0.0
 10
33.3406424379
 20
25.152290106
 30
0.0
 10
33.7008816467
 20
25.1501214174
 30
0.0
  0
LINE
  5
360
100
AcDbEntity
  8
0
100
AcDbLine
 62
7
  6
BYLAYER
 10
33.7104855936
 20
32.5165066073
 11
32.7716070847
 21
32.5165538327
  0
SPLINE
  5
361
100
AcDbEntity
  8
0
100
AcDbSpline
 62
7
  6
BYLAYER
 70
0
 71
3
 72
11
 73
7
 74
0
 42
0.0000001
 43
0.0000001
 44
0.0000000001
 40
0.0
 40
0.0
 40
0.0
 40
0.0
 40
0.2499999121
 40
0.5000009156
 40
0.7500000565
 40
1.0
 40
1.0
 40
1.0
 40
1.0
 10
9.3118048892
 20
32.5165572186
 30
0.0
 10
9.2333701371
 20
32.5165572186
 30
0.0
 10
9.0765002324
 20
32.5167467091
 30
0.0
 10
8.841196158
 20
32.5161390342
 30
0.0
 10
8.6058915636
 20
32.5167689972
 30
0.0
 10
8.4490270193
 20
32.5183421476
 30
0.0
 10
8.3705922574
 20
32.5183421476
 30
0.0
  0
SPLINE
  5
362
100
AcDbEntity
  8
0
100
AcDbSpline
 62
7
  6
BYLAYER
 70
0
 71
3
 72
9
 73
5
 74
0
 42
0.0000001
 43
0.0000001
 44
0.0000000001
 40
0.0
 40
0.0
 40
0.0
 40
0.0
 40
0.7889078419
 40
1.0
 40
1.0
 40
1.0
 40
1.0
 10
8.3760004284
 20
32.5132460872
 30
0.0
 10
8.3746060404
 20
32.5141618373
 30
0.0
 10
8.3726467721
 20
32.5149861309
 30
0.0
 10
8.370901688
 20
32.5162185007
 30
0.0
 10
8.3705922574
 20
32.5165402143
 30
0.0
  0
SPLINE
  5
363
100
AcDbEntity
  8
0
100
AcDbSpline
 62
7
  6
BYLAYER
 70
0
 71
3
 72
9
 73
5
 74
0
 42
0.0000001
 43
0.0000001
 44
0.0000000001
 40
0.0
 40
0.0
 40
0.0
 40
0.0
 40
0.2504742343
 40
1.0
 40
1.0
 40
1.0
 40
1.0
 10
9.8208765559
 20
32.4984432058
 30
0.0
 10
9.700786889
 20
32.4990744085
 30
0.0
 10
9.2213379309
 20
32.5016369647
 30
0.0
 10
8.7418898698
 20
32.5043674184
 30
0.0
 10
8.3825317747
 20
32.5065095257
 30
0.0
  0
SPLINE
  5
364
100
AcDbEntity
  8
0
100
AcDbSpline
 62
7
  6
BYLAYER
 70
0
 71
3
 72
9
 73
5
 74
0
 42
0.0000001
 43
0.0000001
 44
0.0000000001
 40
0.0
 40
0.0
 40
0.0
 40
0.0
 40
0.2495154753
 40
1.0
 40
1.0
 40
1.0
 40
1.0
 10
8.3825317947
 20
25.1501214396
 30
0.0
 10
8.5024549167
 20
25.1508433929
 30
0.0
 10
8.9830791609
 20
25.1536935368
 30
0.0
 10
9.4637044209
 20
25.1563723798
 30
0.0
 10
9.8244067403
 20
25.1582866394
 30
0.0
  0
SPLINE
  5
365
100
AcDbEntity
  8
0
100
AcDbSpline
 62
7
  6
BYLAYER
 70
0
 71
3
 72
33
 73
29
 74
0
 42
0.0000001
 43
0.0000001
 44
0.0000000001
 40
0.0
 40
0.0
 40
0.0
 40
0.0
 40
0.083179154
 40
0.1292677991
 40
0.1598574515
 40
0.1807090206
 40
0.1952959667
 40
0.2160417616
 40
0.2450517708
 40
0.2680207017
 40
0.2885380692
 40
0.3069771614
 40
0.3291461549
 40
0.3497714724
 40
0.3834154044
 40
0.4194699562
 40
0.4552655137
 40
0.4912066383
 40
0.508309516
 40
0.5202010108
 40
0.5348701131
 40
0.5535408929
 40
0.5780837127
 40
0.6111121071
 40
0.657287802
 40
0.7250434917
 40
0.8288237265
 40
1.0
 40
1.0
 40
1.0
 40
1.0
 10
20.7308132347
 20
12.9185975457
 30
0.0
 10
20.709169405
 20
12.9185975457
 30
0.0
 10
20.6755295299
 20
12.9187682354
 30
0.0
 10
20.6339494508
 20
12.9199758672
 30
0.0
 10
20.6085984962
 20
12.9212512527
 30
0.0
 10
20.5914746333
 20
12.9226258258
 30
0.0
 10
20.5768990318
 20
12.9238610097
 30
0.0
 10
20.5603524314
 20
12.9262726589
 30
0.0
 10
20.541590411
 20
12.9297526445
 30
0.0
 10
20.5238124557
 20
12.9346555566
 30
0.0
 10
20.5095973622
 20
12.947546286
 30
0.0
 10
20.5176035731
 20
12.964458702
 30
0.0
 10
20.5307844315
 20
12.9730716029
 30
0.0
 10
20.5475172527
 20
12.9839927608
 30
0.0
 10
20.569223106
 20
12.9931808255
 30
0.0
 10
20.5946673006
 20
13.003457803
 30
0.0
 10
20.6213774839
 20
13.0120887121
 30
0.0
 10
20.6435752034
 20
13.0185434371
 30
0.0
 10
20.6599232566
 20
13.0228183095
 30
0.0
 10
20.670937756
 20
13.0256051143
 30
0.0
 10
20.6823805096
 20
13.0283607239
 30
0.0
 10
20.6970658485
 20
13.0317074695
 30
0.0
 10
20.7164688511
 20
13.0358467398
 30
0.0
 10
20.7429738996
 20
13.0409797247
 30
0.0
 10
20.7806727703
 20
13.0474153544
 30
0.0
 10
20.8367991035
 20
13.0551873074
 30
0.0
 10
20.9255789593
 20
13.0638855158
 30
0.0
 10
20.9971652584
 20
13.0664002199
 30
0.0
 10
21.0417065881
 20
13.0664002199
 30
0.0
  0
SPLINE
  5
366
100
AcDbEntity
  8
0
100
AcDbSpline
 62
7
  6
BYLAYER
 70
0
 71
3
 72
18
 73
14
 74
0
 42
0.0000001
 43
0.0000001
 44
0.0000000001
 40
0.0
 40
0.0
 40
0.0
 40
0.0
 40
0.0918039648
 40
0.1833565923
 40
0.2739616712
 40
0.3639705497
 40
0.4539367971
 40
0.5435739074
 40
0.6334727559
 40
0.7238971662
 40
0.8153787147
 40
0.907831358
 40
1.0
 40
1.0
 40
1.0
 40
1.0
 10
11.0417065881
 20
22.5286132779
 30
0.0
 10
10.8239646585
 20
22.5286132779
 30
0.0
 10
10.3865932439
 20
22.4667458425
 30
0.0
 10
9.7865716019
 20
22.1963102583
 30
0.0
 10
9.2888078746
 20
21.7716135816
 30
0.0
 10
8.9324731037
 20
21.2273634861
 30
0.0
 10
8.7454319639
 20
20.6065224524
 30
0.0
 10
8.7428217737
 20
19.9584039176
 30
0.0
 10
8.9250289952
 20
19.3352730267
 30
0.0
 10
9.2789022656
 20
18.7858061507
 30
0.0
 10
9.7785126817
 20
18.3548881507
 30
0.0
 10
10.382699515
 20
18.080737718
 30
0.0
 10
10.8230997118
 20
18.0181937691
 30
0.0
 10
11.0417065881
 20
18.0181937691
 30
0.0
  0
SPLINE
  5
367
100
AcDbEntity
  8
0
100
AcDbSpline
 62
7
  6
BYLAYER
 70
0
 71
3
 72
18
 73
14
 74
0
 42
0.0000001
 43
0.0000001
 44
0.0000000001
 40
0.0
 40
0.0
 40
0.0
 40
0.0
 40
0.0918039648
 40
0.1833565923
 40
0.2739616712
 40
0.3639705497
 40
0.4539367971
 40
0.5435739074
 40
0.6334727559
 40
0.7238971662
 40
0.8153787147
 40
0.907831358
 40
1.0
 40
1.0
 40
1.0
 40
1.0
 10
11.0417065881
 20
18.0181937691
 30
0.0
 10
11.2594485177
 20
18.0181937691
 30
0.0
 10
11.6968199323
 20
18.0800612045
 30
0.0
 10
12.2968415742
 20
18.3504967887
 30
0.0
 10
12.7946053016
 20
18.7751934654
 30
0.0
 10
13.1509400724
 20
19.3194435609
 30
0.0
 10
13.3379812122
 20
19.9402845946
 30
0.0
 10
13.3405914024
 20
20.5884031294
 30
0.0
 10
13.158384181
 20
21.2115340203
 30
0.0
 10
12.8045109105
 20
21.7610008963
 30
0.0
 10
12.3049004945
 20
22.1919188963
 30
0.0
 10
11.7007136611
 20
22.466069329
 30
0.0
 10
11.2603134643
 20
22.5286132779
 30
0.0
 10
11.0417065881
 20
22.5286132779
 30
0.0
  0
SPLINE
  5
368
100
AcDbEntity
  8
0
100
AcDbSpline
 62
7
  6
BYLAYER
 70
0
 71
3
 72
18
 73
14
 74
0
 42
0.0000001
 43
0.0000001
 44
0.0000000001
 40
0.0
 40
0.0
 40
0.0
 40
0.0
 40
0.0918039648
 40
0.1833565923
 40
0.2739616712
 40
0.3639705497
 40
0.4539367971
 40
0.5435739074
 40
0.6334727559
 40
0.7238971662
 40
0.8153787147
 40
0.907831358
 40
1.0
 40
1.0
 40
1.0
 40
1.0
 10
11.0417065881
 20
40.3051132779
 30
0.0
 10
10.8239646585
 20
40.3051132779
 30
0.0
 10
10.3865932439
 20
40.2432458425
 30
0.0
 10
9.7865716019
 20
39.9728102583
 30
0.0
 10
9.2888078746
 20
39.5481135816
 30
0.0
 10
8.9324731037
 20
39.0038634861
 30
0.0
 10
8.7454319639
 20
38.3830224524
 30
0.0
 10
8.7428217737
 20
37.7349039176
 30
0.0
 10
8.9250289952
 20
37.1117730267
 30
0.0
 10
9.2789022656
 20
36.5623061507
 30
0.0
 10
9.7785126817
 20
36.1313881507
 30
0.0
 10
10.382699515
 20
35.857237718
 30
0.0
 10
10.8230997118
 20
35.7946937691
 30
0.0
 10
11.0417065881
 20
35.7946937691
 30
0.0
  0
SPLINE
  5
369
100
AcDbEntity
  8
0
100
AcDbSpline
 62
7
  6
BYLAYER
 70
0
 71
3
 72
18
 73
14
 74
0
 42
0.0000001
 43
0.0000001
 44
0.0000000001
 40
0.0
 40
0.0
 40
0.0
 40
0.0
 40
0.0918039648
 40
0.1833565923
 40
0.2739616712
 40
0.3639705497
 40
0.4539367971
 40
0.5435739074
 40
0.6334727559
 40
0.7238971662
 40
0.8153787147
 40
0.907831358
 40
1.0
 40
1.0
 40
1.0
 40
1.0
 10
11.0417065881
 20
35.7946937691
 30
0.0
 10
11.2594485177
 20
35.7946937691
 30
0.0
 10
11.6968199323
 20
35.8565612045
 30
0.0
 10
12.2968415742
 20
36.1269967887
 30
0.0
 10
12.7946053016
 20
36.5516934654
 30
0.0
 10
13.1509400724
 20
37.0959435609
 30
0.0
 10
13.3379812122
 20
37.7167845946
 30
0.0
 10
13.3405914024
 20
38.3649031294
 30
0.0
 10
13.158384181
 20
38.9880340203
 30
0.0
 10
12.8045109105
 20
39.5375008963
 30
0.0
 10
12.3049004945
 20
39.9684188963
 30
0.0
 10
11.7007136611
 20
40.242569329
 30
0.0
 10
11.2603134643
 20
40.3051132779
 30
0.0
 10
11.0417065881
 20
40.3051132779
 30
0.0
  0
SPLINE
  5
36A
100
AcDbEntity
  8
0
100
AcDbSpline
 62
7
  6
BYLAYER
 70
0
 71
3
 72
18
 73
14
 74
0
 42
0.0000001
 43
0.0000001
 44
0.0000000001
 40
0.0
 40
0.0
 40
0.0
 40
0.0
 40
0.0918039648
 40
0.1833565923
 40
0.2739616712
 40
0.3639705497
 40
0.4539367971
 40
0.5435739074
 40
0.6334727559
 40
0.7238971662
 40
0.8153787147
 40
0.907831358
 40
1.0
 40
1.0
 40
1.0
 40
1.0
 10
21.2417065881
 20
22.5286132779
 30
0.0
 10
21.0239646585
 20
22.5286132779
 30
0.0
 10
20.5865932439
 20
22.4667458425
 30
0.0
 10
19.9865716019
 20
22.1963102583
 30
0.0
 10
19.4888078746
 20
21.7716135816
 30
0.0
 10
19.1324731037
 20
21.2273634861
 30
0.0
 10
18.9454319639
 20
20.6065224524
 30
0.0
 10
18.9428217737
 20
19.9584039176
 30
0.0
 10
19.1250289952
 20
19.3352730267
 30
0.0
 10
19.4789022656
 20
18.7858061507
 30
0.0
 10
19.9785126817
 20
18.3548881507
 30
0.0
 10
20.582699515
 20
18.080737718
 30
0.0
 10
21.0230997118
 20
18.0181937691
 30
0.0
 10
21.2417065881
 20
18.0181937691
 30
0.0
  0
SPLINE
  5
36B
100
AcDbEntity
  8
0
100
AcDbSpline
 62
7
  6
BYLAYER
 70
0
 71
3
 72
18
 73
14
 74
0
 42
0.0000001
 43
0.0000001
 44
0.0000000001
 40
0.0
 40
0.0
 40
0.0
 40
0.0
 40
0.0918039648
 40
0.1833565923
 40
0.2739616712
 40
0.3639705497
 40
0.4539367971
 40
0.5435739074
 40
0.6334727559
 40
0.7238971662
 40
0.8153787147
 40
0.907831358
 40
1.0
 40
1.0
 40
1.0
 40
1.0
 10
21.2417065881
 20
18.0181937691
 30
0.0
 10
21.4594485177
 20
18.0181937691
 30
0.0
 10
21.8968199323
 20
18.0800612045
 30
0.0
 10
22.4968415742
 20
18.3504967887
 30
0.0
 10
22.9946053016
 20
18.7751934654
 30
0.0
 10
23.3509400724
 20
19.3194435609
 30
0.0
 10
23.5379812122
 20
19.9402845946
 30
0.0
 10
23.5405914024
 20
20.5884031294
 30
0.0
 10
23.358384181
 20
21.2115340203
 30
0.0
 10
23.0045109105
 20
21.7610008963
 30
0.0
 10
22.5049004945
 20
22.1919188963
 30
0.0
 10
21.9007136611
 20
22.466069329
 30
0.0
 10
21.4603134643
 20
22.5286132779
 30
0.0
 10
21.2417065881
 20
22.5286132779
 30
0.0
  0
SPLINE
  5
36C
100
AcDbEntity
  8
0
100
AcDbSpline
 62
7
  6
BYLAYER
 70
0
 71
3
 72
18
 73
14
 74
0
 42
0.0000001
 43
0.0000001
 44
0.0000000001
 40
0.0
 40
0.0
 40
0.0
 40
0.0
 40
0.0918039648
 40
0.1833565923
 40
0.2739616712
 40
0.3639705497
 40
0.4539367971
 40
0.5435739074
 40
0.6334727559
 40
0.7238971662
 40
0.8153787147
 40
0.907831358
 40
1.0
 40
1.0
 40
1.0
 40
1.0
 10
31.0417065881
 20
22.5286132779
 30
0.0
 10
30.8239646585
 20
22.5286132779
 30
0.0
 10
30.3865932439
 20
22.4667458425
 30
0.0
 10
29.7865716019
 20
22.1963102583
 30
0.0
 10
29.2888078746
 20
21.7716135816
 30
0.0
 10
28.9324731037
 20
21.2273634861
 30
0.0
 10
28.7454319639
 20
20.6065224524
 30
0.0
 10
28.7428217737
 20
19.9584039176
 30
0.0
 10
28.9250289952
 20
19.3352730267
 30
0.0
 10
29.2789022656
 20
18.7858061507
 30
0.0
 10
29.7785126817
 20
18.3548881507
 30
0.0
 10
30.382699515
 20
18.080737718
 30
0.0
 10
30.8230997118
 20
18.0181937691
 30
0.0
 10
31.0417065881
 20
18.0181937691
 30
0.0
  0
SPLINE
  5
36D
100
AcDbEntity
  8
0
100
AcDbSpline
 62
7
  6
BYLAYER
 70
0
 71
3
 72
18
 73
14
 74
0
 42
0.0000001
 43
0.0000001
 44
0.0000000001
 40
0.0
 40
0.0
 40
0.0
 40
0.0
 40
0.0918039648
 40
0.1833565923
 40
0.2739616712
 40
0.3639705497
 40
0.4539367971
 40
0.5435739074
 40
0.6334727559
 40
0.7238971662
 40
0.8153787147
 40
0.907831358
 40
1.0
 40
1.0
 40
1.0
 40
1.0
 10
31.0417065881
 20
18.0181937691
 30
0.0
 10
31.2594485177
 20
18.0181937691
 30
0.0
 10
31.6968199323
 20
18.0800612045
 30
0.0
 10
32.2968415742
 20
18.3504967887
 30
0.0
 10
32.7946053016
 20
18.7751934654
 30
0.0
 10
33.1509400724
 20
19.3194435609
 30
0.0
 10
33.3379812122
 20
19.9402845946
 30
0.0
 10
33.3405914024
 20
20.5884031294
 30
0.0
 10
33.158384181
 20
21.2115340203
 30
0.0
 10
32.8045109105
 20
21.7610008963
 30
0.0
 10
32.3049004945
 20
22.1919188963
 30
0.0
 10
31.7007136611
 20
22.466069329
 30
0.0
 10
31.2603134643
 20
22.5286132779
 30
0.0
 10
31.0417065881
 20
22.5286132779
 30
0.0
  0
SPLINE
  5
36E
100
AcDbEntity
  8
0
100
AcDbSpline
 62
7
  6
BYLAYER
 70
0
 71
3
 72
18
 73
14
 74
0
 42
0.0000001
 43
0.0000001
 44
0.0000000001
 40
0.0
 40
0.0
 40
0.0
 40
0.0
 40
0.0918039648
 40
0.1833565923
 40
0.2739616712
 40
0.3639705497
 40
0.4539367971
 40
0.5435739074
 40
0.6334727559
 40
0.7238971662
 40
0.8153787147
 40
0.907831358
 40
1.0
 40
1.0
 40
1.0
 40
1.0
 10
21.2417065881
 20
40.3051132779
 30
0.0
 10
21.0239646585
 20
40.3051132779
 30
0.0
 10
20.5865932439
 20
40.2432458425
 30
0.0
 10
19.9865716019
 20
39.9728102583
 30
0.0
 10
19.4888078746
 20
39.5481135816
 30
0.0
 10
19.1324731037
 20
39.0038634861
 30
0.0
 10
18.9454319639
 20
38.3830224524
 30
0.0
 10
18.9428217737
 20
37.7349039176
 30
0.0
 10
19.1250289952
 20
37.1117730267
 30
0.0
 10
19.4789022656
 20
36.5623061507
 30
0.0
 10
19.9785126817
 20
36.1313881507
 30
0.0
 10
20.582699515
 20
35.857237718
 30
0.0
 10
21.0230997118
 20
35.7946937691
 30
0.0
 10
21.2417065881
 20
35.7946937691
 30
0.0
  0
SPLINE
  5
36F
100
AcDbEntity
  8
0
100
AcDbSpline
 62
7
  6
BYLAYER
 70
0
 71
3
 72
18
 73
14
 74
0
 42
0.0000001
 43
0.0000001
 44
0.0000000001
 40
0.0
 40
0.0
 40
0.0
 40
0.0
 40
0.0918039648
 40
0.1833565923
 40
0.2739616712
 40
0.3639705497
 40
0.4539367971
 40
0.5435739074
 40
0.6334727559
 40
0.7238971662
 40
0.8153787147
 40
0.907831358
 40
1.0
 40
1.0
 40
1.0
 40
1.0
 10
21.2417065881
 20
35.7946937691
 30
0.0
 10
21.4594485177
 20
35.7946937691
 30
0.0
 10
21.8968199323
 20
35.8565612045
 30
0.0
 10
22.4968415742
 20
36.1269967887
 30
0.0
 10
22.9946053016
 20
36.5516934654
 30
0.0
 10
23.3509400724
 20
37.0959435609
 30
0.0
 10
23.5379812122
 20
37.7167845946
 30
0.0
 10
23.5405914024
 20
38.3649031294
 30
0.0
 10
23.358384181
 20
38.9880340203
 30
0.0
 10
23.0045109105
 20
39.5375008963
 30
0.0
 10
22.5049004945
 20
39.9684188963
 30
0.0
 10
21.9007136611
 20
40.242569329
 30
0.0
 10
21.4603134643
 20
40.3051132779
 30
0.0
 10
21.2417065881
 20
40.3051132779
 30
0.0
  0
SPLINE
  5
370
100
AcDbEntity
  8
0
100
AcDbSpline
 62
7
  6
BYLAYER
 70
0
 71
3
 72
18
 73
14
 74
0
 42
0.0000001
 43
0.0000001
 44
0.0000000001
 40
0.0
 40
0.0
 40
0.0
 40
0.0
 40
0.0918039648
 40
0.1833565923
 40
0.2739616712
 40
0.3639705497
 40
0.4539367971
 40
0.5435739074
 40
0.6334727559
 40
0.7238971662
 40
0.8153787147
 40
0.907831358
 40
1.0
 40
1.0
 40
1.0
 40
1.0
 10
31.0417065881
 20
40.3051132779
 30
0.0
 10
30.8239646585
 20
40.3051132779
 30
0.0
 10
30.3865932439
 20
40.2432458425
 30
0.0
 10
29.7865716019
 20
39.9728102583
 30
0.0
 10
29.2888078746
 20
39.5481135816
 30
0.0
 10
28.9324731037
 20
39.0038634861
 30
0.0
 10
28.7454319639
 20
38.3830224524
 30
0.0
 10
28.7428217737
 20
37.7349039176
 30
0.0
 10
28.9250289952
 20
37.1117730267
 30
0.0
 10
29.2789022656
 20
36.5623061507
 30
0.0
 10
29.7785126817
 20
36.1313881507
 30
0.0
 10
30.382699515
 20
35.857237718
 30
0.0
 10
30.8230997118
 20
35.7946937691
 30
0.0
 10
31.0417065881
 20
35.7946937691
 30
0.0
  0
SPLINE
  5
371
100
AcDbEntity
  8
0
100
AcDbSpline
 62
7
  6
BYLAYER
 70
0
 71
3
 72
18
 73
14
 74
0
 42
0.0000001
 43
0.0000001
 44
0.0000000001
 40
0.0
 40
0.0
 40
0.0
 40
0.0
 40
0.0918039648
 40
0.1833565923
 40
0.2739616712
 40
0.3639705497
 40
0.4539367971
 40
0.5435739074
 40
0.6334727559
 40
0.7238971662
 40
0.8153787147
 40
0.907831358
 40
1.0
 40
1.0
 40
1.0
 40
1.0
 10
31.0417065881
 20
35.7946937691
 30
0.0
 10
31.2594485177
 20
35.7946937691
 30
0.0
 10
31.6968199323
 20
35.8565612045
 30
0.0
 10
32.2968415742
 20
36.1269967887
 30
0.0
 10
32.7946053016
 20
36.5516934654
 30
0.0
 10
33.1509400724
 20
37.0959435609
 30
0.0
 10
33.3379812122
 20
37.7167845946
 30
0.0
 10
33.3405914024
 20
38.3649031294
 30
0.0
 10
33.158384181
 20
38.9880340203
 30
0.0
 10
32.8045109105
 20
39.5375008963
 30
0.0
 10
32.3049004945
 20
39.9684188963
 30
0.0
 10
31.7007136611
 20
40.242569329
 30
0.0
 10
31.2603134643
 20
40.3051132779
 30
0.0
 10
31.0417065881
 20
40.3051132779
 30
0.0
  0
SPLINE
  5
372
100
AcDbEntity
  8
0
100
AcDbSpline
 62
7
  6
BYLAYER
 70
0
 71
3
 72
18
 73
14
 74
0
 42
0.0000001
 43
0.0000001
 44
0.0000000001
 40
0.0
 40
0.0
 40
0.0
 40
0.0
 40
0.0915756153
 40
0.1829405613
 40
0.2739499542
 40
0.3645708649
 40
0.4548940364
 40
0.5451059636
 40
0.6354291351
 40
0.7260500458
 40
0.8170594387
 40
0.9084243847
 40
1.0
 40
1.0
 40
1.0
 40
1.0
 10
21.0417065881
 20
11.5953181656
 30
0.0
 10
21.2318761105
 20
11.5953181656
 30
0.0
 10
21.6139377765
 20
11.6492178528
 30
0.0
 10
22.1394714986
 20
11.8854371242
 30
0.0
 10
22.576921162
 20
12.2581661841
 30
0.0
 10
22.8900998
 20
12.7374928222
 30
0.0
 10
23.0534570437
 20
13.2846440236
 30
0.0
 10
23.0534570437
 20
13.8550738581
 30
0.0
 10
22.8900998
 20
14.4022250594
 30
0.0
 10
22.576921162
 20
14.8815516976
 30
0.0
 10
22.1394714986
 20
15.2542807574
 30
0.0
 10
21.6139377765
 20
15.4905000289
 30
0.0
 10
21.2318761105
 20
15.5443997161
 30
0.0
 10
21.0417065881
 20
15.5443997161
 30
0.0
  0
SPLINE
  5
373
100
AcDbEntity
  8
0
100
AcDbSpline
 62
7
  6
BYLAYER
 70
0
 71
3
 72
18
 73
14
 74
0
 42
0.0000001
 43
0.0000001
 44
0.0000000001
 40
0.0
 40
0.0
 40
0.0
 40
0.0
 40
0.0915756153
 40
0.1829405613
 40
0.2739499542
 40
0.3645708649
 40
0.4548940364
 40
0.5451059636
 40
0.6354291351
 40
0.7260500458
 40
0.8170594387
 40
0.9084243847
 40
1.0
 40
1.0
 40
1.0
 40
1.0
 10
21.0417065881
 20
11.5953181656
 30
0.0
 10
20.8515370656
 20
11.5953181656
 30
0.0
 10
20.4694753997
 20
11.6492178528
 30
0.0
 10
19.9439416776
 20
11.8854371242
 30
0.0
 10
19.5064920142
 20
12.2581661841
 30
0.0
 10
19.1933133761
 20
12.7374928222
 30
0.0
 10
19.0299561325
 20
13.2846440236
 30
0.0
 10
19.0299561325
 20
13.8550738581
 30
0.0
 10
19.1933133761
 20
14.4022250594
 30
0.0
 10
19.5064920142
 20
14.8815516976
 30
0.0
 10
19.9439416776
 20
15.2542807574
 30
0.0
 10
20.4694753997
 20
15.4905000289
 30
0.0
 10
20.8515370656
 20
15.5443997161
 30
0.0
 10
21.0417065881
 20
15.5443997161
 30
0.0
  0
SPLINE
  5
374
100
AcDbEntity
  8
0
100
AcDbSpline
 62
7
  6
BYLAYER
 70
0
 71
3
 72
18
 73
14
 74
0
 42
0.0000001
 43
0.0000001
 44
0.0000000001
 40
0.0
 40
0.0
 40
0.0
 40
0.0
 40
0.0915756153
 40
0.1829405613
 40
0.2739499542
 40
0.3645708649
 40
0.4548940364
 40
0.5451059636
 40
0.6354291351
 40
0.7260500458
 40
0.8170594387
 40
0.9084243847
 40
1.0
 40
1.0
 40
1.0
 40
1.0
 10
21.0417065881
 20
11.7738918187
 30
0.0
 10
21.2314017383
 20
11.7738918187
 30
0.0
 10
21.6125103628
 20
11.8276570547
 30
0.0
 10
22.1367331567
 20
12.0632870842
 30
0.0
 10
22.573091615
 20
12.4350863825
 30
0.0
 10
22.8854890382
 20
12.9132173546
 30
0.0
 10
23.0484387921
 20
13.4590037036
 30
0.0
 10
23.0484387921
 20
14.0280106179
 30
0.0
 10
22.8854890382
 20
14.5737969669
 30
0.0
 10
22.573091615
 20
15.051927939
 30
0.0
 10
22.1367331567
 20
15.4237272373
 30
0.0
 10
21.6125103628
 20
15.6593572668
 30
0.0
 10
21.2314017383
 20
15.7131225029
 30
0.0
 10
21.0417065881
 20
15.7131225029
 30
0.0
  0
SPLINE
  5
375
100
AcDbEntity
  8
0
100
AcDbSpline
 62
7
  6
BYLAYER
 70
0
 71
3
 72
18
 73
14
 74
0
 42
0.0000001
 43
0.0000001
 44
0.0000000001
 40
0.0
 40
0.0
 40
0.0
 40
0.0
 40
0.0915756153
 40
0.1829405613
 40
0.2739499542
 40
0.3645708649
 40
0.4548940364
 40
0.5451059636
 40
0.6354291351
 40
0.7260500458
 40
0.8170594387
 40
0.9084243847
 40
1.0
 40
1.0
 40
1.0
 40
1.0
 10
21.0417065881
 20
12.3547018291
 30
0.0
 10
21.1934627188
 20
12.3547018291
 30
0.0
 10
21.4983496397
 20
12.3977140209
 30
0.0
 10
21.917727904
 20
12.5862180577
 30
0.0
 10
22.2668146949
 20
12.883657517
 30
0.0
 10
22.5167326509
 20
13.2661623214
 30
0.0
 10
22.6470924631
 20
13.702791431
 30
0.0
 10
22.6470924631
 20
14.1579969941
 30
0.0
 10
22.5167326509
 20
14.5946261037
 30
0.0
 10
22.2668146949
 20
14.9771309081
 30
0.0
 10
21.917727904
 20
15.2745703674
 30
0.0
 10
21.4983496397
 20
15.4630744042
 30
0.0
 10
21.1934627188
 20
15.506086596
 30
0.0
 10
21.0417065881
 20
15.506086596
 30
0.0
  0
SPLINE
  5
376
100
AcDbEntity
  8
0
100
AcDbSpline
 62
7
  6
BYLAYER
 70
0
 71
3
 72
18
 73
14
 74
0
 42
0.0000001
 43
0.0000001
 44
0.0000000001
 40
0.0
 40
0.0
 40
0.0
 40
0.0
 40
0.0915756153
 40
0.1829405613
 40
0.2739499542
 40
0.3645708649
 40
0.4548940364
 40
0.5451059636
 40
0.6354291351
 40
0.7260500458
 40
0.8170594387
 40
0.9084243847
 40
1.0
 40
1.0
 40
1.0
 40
1.0
 10
21.0417065881
 20
11.7738918187
 30
0.0
 10
20.8520114378
 20
11.7738918187
 30
0.0
 10
20.4709028133
 20
11.8276570547
 30
0.0
 10
19.9466800194
 20
12.0632870842
 30
0.0
 10
19.5103215612
 20
12.4350863825
 30
0.0
 10
19.1979241379
 20
12.9132173546
 30
0.0
 10
19.0349743841
 20
13.4590037036
 30
0.0
 10
19.0349743841
 20
14.0280106179
 30
0.0
 10
19.1979241379
 20
14.5737969669
 30
0.0
 10
19.5103215612
 20
15.051927939
 30
0.0
 10
19.9466800194
 20
15.4237272373
 30
0.0
 10
20.4709028133
 20
15.6593572668
 30
0.0
 10
20.8520114378
 20
15.7131225029
 30
0.0
 10
21.0417065881
 20
15.7131225029
 30
0.0
  0
SPLINE
  5
377
100
AcDbEntity
  8
0
100
AcDbSpline
 62
7
  6
BYLAYER
 70
0
 71
3
 72
18
 73
14
 74
0
 42
0.0000001
 43
0.0000001
 44
0.0000000001
 40
0.0
 40
0.0
 40
0.0
 40
0.0
 40
0.0915756153
 40
0.1829405613
 40
0.2739499542
 40
0.3645708649
 40
0.4548940364
 40
0.5451059636
 40
0.6354291351
 40
0.7260500458
 40
0.8170594387
 40
0.9084243847
 40
1.0
 40
1.0
 40
1.0
 40
1.0
 10
21.0417065881
 20
12.3547018291
 30
0.0
 10
20.8899504573
 20
12.3547018291
 30
0.0
 10
20.5850635364
 20
12.3977140209
 30
0.0
 10
20.1656852721
 20
12.5862180576
 30
0.0
 10
19.8165984812
 20
12.883657517
 30
0.0
 10
19.5666805252
 20
13.2661623213
 30
0.0
 10
19.436320713
 20
13.702791431
 30
0.0
 10
19.436320713
 20
14.1579969941
 30
0.0
 10
19.5666805252
 20
14.5946261037
 30
0.0
 10
19.8165984812
 20
14.9771309081
 30
0.0
 10
20.1656852721
 20
15.2745703674
 30
0.0
 10
20.5850635364
 20
15.4630744042
 30
0.0
 10
20.8899504573
 20
15.506086596
 30
0.0
 10
21.0417065881
 20
15.506086596
 30
0.0
  0
SPLINE
  5
378
100
AcDbEntity
  8
0
100
AcDbSpline
 62
7
  6
BYLAYER
 70
0
 71
3
 72
9
 73
5
 74
0
 42
0.0000001
 43
0.0000001
 44
0.0000000001
 40
0.0
 40
0.0
 40
0.0
 40
0.0
 40
0.5009468781
 40
1.0
 40
1.0
 40
1.0
 40
1.0
 10
8.3825317747
 20
32.5065095257
 30
0.0
 10
8.3814456322
 20
32.5076387831
 30
0.0
 10
8.3792176305
 20
32.5098109216
 30
0.0
 10
8.3772639417
 20
32.5123448987
 30
0.0
 10
8.3760004284
 20
32.5132460872
 30
0.0
  0
SPLINE
  5
379
100
AcDbEntity
  8
0
100
AcDbSpline
 62
7
  6
BYLAYER
 70
0
 71
3
 72
18
 73
14
 74
0
 42
0.0000001
 43
0.0000001
 44
0.0000000001
 40
0.0
 40
0.0
 40
0.0
 40
0.0
 40
0.0919417034
 40
0.1833730296
 40
0.2742494631
 40
0.3646370123
 40
0.4547062003
 40
0.544691655
 40
0.6348492089
 40
0.7253870685
 40
0.8164309615
 40
0.9079969942
 40
1.0
 40
1.0
 40
1.0
 40
1.0
 10
21.3525999369
 20
12.9185975525
 30
0.0
 10
21.5825282359
 20
12.8905796355
 30
0.0
 10
22.0359118212
 20
12.7716447957
 30
0.0
 10
22.6394295108
 20
12.4186790837
 30
0.0
 10
23.1229533236
 20
11.9183784295
 30
0.0
 10
23.4504189946
 20
11.3084082693
 30
0.0
 10
23.5980016015
 20
10.6342278414
 30
0.0
 10
23.5548629143
 20
9.946005124
 30
0.0
 10
23.3242586812
 20
9.2949207154
 30
0.0
 10
22.9232653405
 20
8.7293677927
 30
0.0
 10
22.381179655
 20
8.291475026
 30
0.0
 10
21.7384087358
 20
8.0141982117
 30
0.0
 10
21.2734900982
 20
7.9509159118
 30
0.0
 10
21.0417065881
 20
7.9509159118
 30
0.0
  0
SPLINE
  5
37A
100
AcDbEntity
  8
0
100
AcDbSpline
 62
7
  6
BYLAYER
 70
0
 71
3
 72
18
 73
14
 74
0
 42
0.0000001
 43
0.0000001
 44
0.0000000001
 40
0.0
 40
0.0
 40
0.0
 40
0.0
 40
0.0920079008
 40
0.1835778322
 40
0.274624617
 40
0.3651643777
 40
0.4553228669
 40
0.5453083139
 40
0.635376555
 40
0.7257622004
 40
0.8166357482
 40
0.9080631858
 40
1.0
 40
1.0
 40
1.0
 40
1.0
 10
21.0417065881
 20
7.9509159118
 30
0.0
 10
20.8099107461
 20
7.9509159118
 30
0.0
 10
20.3449695631
 20
8.0142046993
 30
0.0
 10
19.7021763177
 20
8.2915067588
 30
0.0
 10
19.1600864653
 20
8.7294305897
 30
0.0
 10
18.7591063181
 20
9.2950112729
 30
0.0
 10
18.5285279204
 20
9.9461127098
 30
0.0
 10
18.485420316
 20
10.634337329
 30
0.0
 10
18.6330307028
 20
11.3085039998
 30
0.0
 10
18.960512944
 20
11.9184481968
 30
0.0
 10
19.4440364883
 20
12.4187174944
 30
0.0
 10
20.0475351411
 20
12.7716554381
 30
0.0
 10
20.5008971667
 20
12.8905811255
 30
0.0
 10
20.730813239
 20
12.9185975525
 30
0.0
  0
SPLINE
  5
37B
100
AcDbEntity
  8
0
100
AcDbSpline
 62
7
  6
BYLAYER
 70
0
 71
3
 72
18
 73
14
 74
0
 42
0.0000001
 43
0.0000001
 44
0.0000000001
 40
0.0
 40
0.0
 40
0.0
 40
0.0
 40
0.0918981163
 40
0.1831954324
 40
0.2735076199
 40
0.3634974365
 40
0.4537609248
 40
0.5437097891
 40
0.6338976685
 40
0.7243114192
 40
0.8155057921
 40
0.9077116879
 40
1.0
 40
1.0
 40
1.0
 40
1.0
 10
21.0417065881
 20
8.6715371133
 30
0.0
 10
21.2130327736
 20
8.6715371133
 30
0.0
 10
21.5565240397
 20
8.7201704818
 30
0.0
 10
22.0273584022
 20
8.9323236482
 30
0.0
 10
22.4180772161
 20
9.2650502065
 30
0.0
 10
22.6987769156
 20
9.6924026298
 30
0.0
 10
22.8466562583
 20
10.1813562279
 30
0.0
 10
22.8487492569
 20
10.6925416125
 30
0.0
 10
22.7047467378
 20
11.183321922
 30
0.0
 10
22.4260241977
 20
11.6148238521
 30
0.0
 10
22.0338552054
 20
11.952510457
 30
0.0
 10
21.5596975008
 20
12.1676582092
 30
0.0
 10
21.213760218
 20
12.2168463558
 30
0.0
 10
21.0417065881
 20
12.2168463558
 30
0.0
  0
SPLINE
  5
37C
100
AcDbEntity
  8
0
100
AcDbSpline
 62
7
  6
BYLAYER
 70
0
 71
3
 72
18
 73
14
 74
0
 42
0.0000001
 43
0.0000001
 44
0.0000000001
 40
0.0
 40
0.0
 40
0.0
 40
0.0
 40
0.0918981163
 40
0.1831954324
 40
0.2735076199
 40
0.3634974365
 40
0.4537609248
 40
0.5437097891
 40
0.6338976685
 40
0.7243114192
 40
0.8155057921
 40
0.9077116879
 40
1.0
 40
1.0
 40
1.0
 40
1.0
 10
21.0417065881
 20
12.2168463558
 30
0.0
 10
20.8703804025
 20
12.2168463558
 30
0.0
 10
20.5268891364
 20
12.1682129873
 30
0.0
 10
20.0560547739
 20
11.9560598209
 30
0.0
 10
19.6653359601
 20
11.6233332627
 30
0.0
 10
19.3846362605
 20
11.1959808393
 30
0.0
 10
19.2367569178
 20
10.7070272412
 30
0.0
 10
19.2346639193
 20
10.1958418566
 30
0.0
 10
19.3786664383
 20
9.7050615471
 30
0.0
 10
19.6573889785
 20
9.273559617
 30
0.0
 10
20.0495579708
 20
8.9358730121
 30
0.0
 10
20.5237156753
 20
8.7207252599
 30
0.0
 10
20.8696529582
 20
8.6715371133
 30
0.0
 10
21.0417065881
 20
8.6715371133
 30
0.0
  0
SPLINE
  5
37D
100
AcDbEntity
  8
0
100
AcDbSpline
 62
7
  6
BYLAYER
 70
0
 71
3
 72
33
 73
29
 74
0
 42
0.0000001
 43
0.0000001
 44
0.0000000001
 40
0.0
 40
0.0
 40
0.0
 40
0.0
 40
0.0845599029
 40
0.1323516475
 40
0.1622513119
 40
0.1822500229
 40
0.1956753095
 40
0.2078388266
 40
0.2365984953
 40
0.2595405411
 40
0.2809382854
 40
0.2988646365
 40
0.3206977852
 40
0.3444934609
 40
0.3732802457
 40
0.414323935
 40
0.4481664841
 40
0.488033758
 40
0.5078504239
 40
0.5196491255
 40
0.534100009
 40
0.5526710838
 40
0.577057703
 40
0.6099020423
 40
0.655836406
 40
0.7234970309
 40
0.8274297694
 40
1.0
 40
1.0
 40
1.0
 40
1.0
 10
21.3525999422
 20
12.9185975457
 30
0.0
 10
21.3746056194
 20
12.9185975457
 30
0.0
 10
21.4090521931
 20
12.9187693741
 30
0.0
 10
21.4512589958
 20
12.9200447278
 30
0.0
 10
21.4766519188
 20
12.9213654604
 30
0.0
 10
21.493074754
 20
12.9227144717
 30
0.0
 10
21.5048925323
 20
12.9238146676
 30
0.0
 10
21.5189186326
 20
12.9254747758
 30
0.0
 10
21.535490634
 20
12.9282930929
 30
0.0
 10
21.5533242098
 20
12.9332085517
 30
0.0
 10
21.5699176549
 20
12.9402652031
 30
0.0
 10
21.5712209144
 20
12.9591989495
 30
0.0
 10
21.5572470478
 20
12.9702102671
 30
0.0
 10
21.5413096189
 20
12.9805687241
 30
0.0
 10
21.5193021944
 20
12.9914481094
 30
0.0
 10
21.4942515862
 20
13.0013887771
 30
0.0
 10
21.4659018005
 20
13.0108287854
 30
0.0
 10
21.4426135327
 20
13.0179269881
 30
0.0
 10
21.4245776306
 20
13.0224918137
 30
0.0
 10
21.4129743493
 20
13.0255052592
 30
0.0
 10
21.4016289461
 20
13.028215749
 30
0.0
 10
21.3870652698
 20
13.0315478223
 30
0.0
 10
21.3677744628
 20
13.0356758226
 30
0.0
 10
21.3414187164
 20
13.0407998154
 30
0.0
 10
21.3038540654
 20
13.0472433142
 30
0.0
 10
21.2477739485
 20
13.0550484142
 30
0.0
 10
21.1586140549
 20
13.0638484941
 30
0.0
 10
21.0866158733
 20
13.0664002199
 30
0.0
 10
21.0417065881
 20
13.0664002199
 30
0.0
  0
SPLINE
  5
37E
100
AcDbEntity
  8
0
100
AcDbSpline
 62
7
  6
BYLAYER
 70
0
 71
3
 72
12
 73
8
 74
0
 42
0.0000001
 43
0.0000001
 44
0.0000000001
 40
0.0
 40
0.0
 40
0.0
 40
0.0
 40
0.1986155812
 40
0.3979175379
 40
0.5980172965
 40
0.7988089474
 40
1.0
 40
1.0
 40
1.0
 40
1.0
 10
23.6872690111
 20
9.7390596066
 30
0.0
 10
23.6277336176
 20
9.5101701205
 30
0.0
 10
23.4458440114
 20
9.0654154684
 30
0.0
 10
23.0072613718
 20
8.4942903973
 30
0.0
 10
22.4324953858
 20
8.0554478322
 30
0.0
 10
21.762276632
 20
7.779651646
 30
0.0
 10
21.2812789005
 20
7.7169473207
 30
0.0
 10
21.0417065881
 20
7.7169473207
 30
0.0
  0
SPLINE
  5
37F
100
AcDbEntity
  8
0
100
AcDbSpline
 62
7
  6
BYLAYER
 70
0
 71
3
 72
12
 73
8
 74
0
 42
0.0000001
 43
0.0000001
 44
0.0000000001
 40
0.0
 40
0.0
 40
0.0
 40
0.0
 40
0.2011923232
 40
0.4019846199
 40
0.6020841161
 40
0.8013851679
 40
1.0
 40
1.0
 40
1.0
 40
1.0
 10
21.0417065881
 20
7.7169473207
 30
0.0
 10
20.8019376065
 20
7.7169473207
 30
0.0
 10
20.3205419277
 20
7.7797556593
 30
0.0
 10
19.6498524381
 20
8.055999038
 30
0.0
 10
19.0748455931
 20
8.4955191395
 30
0.0
 10
18.636336294
 20
9.067454326
 30
0.0
 10
18.4547371392
 20
9.5127605156
 30
0.0
 10
18.3954066999
 20
9.7419013069
 30
0.0
  0
SPLINE
  5
380
100
AcDbEntity
  8
0
100
AcDbSpline
 62
7
  6
BYLAYER
 70
0
 71
3
 72
14
 73
10
 74
0
 42
0.0000001
 43
0.0000001
 44
0.0000000001
 40
0.0
 40
0.0
 40
0.0
 40
0.0
 40
0.1416996187
 40
0.2836885489
 40
0.4259692735
 40
0.568743266
 40
0.7120802507
 40
0.8559010942
 40
1.0
 40
1.0
 40
1.0
 40
1.0
 10
18.3950652303
 20
9.743221514
 30
0.0
 10
18.3370054416
 20
9.9679360524
 30
0.0
 10
18.2798648756
 20
10.4354944742
 30
0.0
 10
18.3803570041
 20
11.1337908705
 30
0.0
 10
18.6600490797
 20
11.7838201415
 30
0.0
 10
19.0999017381
 20
12.3407070654
 30
0.0
 10
19.6701910117
 20
12.7672855915
 30
0.0
 10
20.3318800058
 20
13.0350884802
 30
0.0
 10
20.8056874918
 20
13.0959230666
 30
0.0
 10
21.0417065881
 20
13.0959230666
 30
0.0
  0
SPLINE
  5
381
100
AcDbEntity
  8
0
100
AcDbSpline
 62
7
  6
BYLAYER
 70
0
 71
3
 72
12
 73
8
 74
0
 42
0.0000001
 43
0.0000001
 44
0.0000000001
 40
0.0
 40
0.0
 40
0.0
 40
0.0
 40
0.2011927136
 40
0.4019852087
 40
0.6020846238
 40
0.8013853975
 40
1.0
 40
1.0
 40
1.0
 40
1.0
 10
21.0417065881
 20
7.5412076683
 30
0.0
 10
21.2661028695
 20
7.5412076683
 30
0.0
 10
21.7166349299
 20
7.60000419
 30
0.0
 10
22.3443005356
 20
7.8585998473
 30
0.0
 10
22.8823745398
 20
8.2700315469
 30
0.0
 10
23.2926442342
 20
8.8053954512
 30
0.0
 10
23.4624736592
 20
9.2222045597
 30
0.0
 10
23.5179271046
 20
9.4366722646
 30
0.0
  0
SPLINE
  5
382
100
AcDbEntity
  8
0
100
AcDbSpline
 62
7
  6
BYLAYER
 70
0
 71
3
 72
14
 73
10
 74
0
 42
0.0000001
 43
0.0000001
 44
0.0000000001
 40
0.0
 40
0.0
 40
0.0
 40
0.0
 40
0.1419374322
 40
0.283886978
 40
0.4261284163
 40
0.5688630008
 40
0.7121603164
 40
0.8559412142
 40
1.0
 40
1.0
 40
1.0
 40
1.0
 10
23.5179271046
 20
9.4366722646
 30
0.0
 10
23.5723838833
 20
9.6472853335
 30
0.0
 10
23.6258647312
 20
10.0851209417
 30
0.0
 10
23.5316208078
 20
10.7387601101
 30
0.0
 10
23.2698431421
 20
11.3467897757
 30
0.0
 10
22.8582839135
 20
11.8676750317
 30
0.0
 10
22.3247446881
 20
12.2666654042
 30
0.0
 10
21.7057332464
 20
12.5171444391
 30
0.0
 10
21.2624973007
 20
12.5740432518
 30
0.0
 10
21.0417065881
 20
12.5740432518
 30
0.0
  0
SPLINE
  5
383
100
AcDbEntity
  8
0
100
AcDbSpline
 62
7
  6
BYLAYER
 70
0
 71
3
 72
14
 73
10
 74
0
 42
0.0000001
 43
0.0000001
 44
0.0000000001
 40
0.0
 40
0.0
 40
0.0
 40
0.0
 40
0.1440595194
 40
0.2878406449
 40
0.4311374449
 40
0.5738709677
 40
0.7161114241
 40
0.8580609242
 40
1.0
 40
1.0
 40
1.0
 40
1.0
 10
21.0417065881
 20
12.5740432518
 30
0.0
 10
20.8207050859
 20
12.5740432518
 30
0.0
 10
20.3770427696
 20
12.5170347067
 30
0.0
 10
19.7575230264
 20
12.2660830993
 30
0.0
 10
19.223714937
 20
11.8663750297
 30
0.0
 10
18.8122153304
 20
11.3446256357
 30
0.0
 10
18.550876067
 20
10.7357102617
 30
0.0
 10
18.4574530695
 20
10.0813042478
 30
0.0
 10
18.5117096971
 20
9.6431280422
 30
0.0
 10
18.5665923071
 20
9.4324094558
 30
0.0
  0
SPLINE
  5
384
100
AcDbEntity
  8
0
100
AcDbSpline
 62
7
  6
BYLAYER
 70
0
 71
3
 72
12
 73
8
 74
0
 42
0.0000001
 43
0.0000001
 44
0.0000000001
 40
0.0
 40
0.0
 40
0.0
 40
0.0
 40
0.1986158035
 40
0.3979180278
 40
0.5980178638
 40
0.7988093234
 40
1.0
 40
1.0
 40
1.0
 40
1.0
 10
18.5665923071
 20
9.4324094558
 30
0.0
 10
18.6223532063
 20
9.2183187293
 30
0.0
 10
18.7926183421
 20
8.8023369748
 30
0.0
 10
19.2029980624
 20
8.2681883175
 30
0.0
 10
19.7407107616
 20
7.857772986
 30
0.0
 10
20.3676702235
 20
7.59984816
 30
0.0
 10
20.8176053278
 20
7.5412076683
 30
0.0
 10
21.0417065881
 20
7.5412076683
 30
0.0
  0
SPLINE
  5
385
100
AcDbEntity
  8
0
100
AcDbSpline
 62
7
  6
BYLAYER
 70
0
 71
3
 72
18
 73
14
 74
0
 42
0.0000001
 43
0.0000001
 44
0.0000000001
 40
0.0
 40
0.0
 40
0.0
 40
0.0
 40
0.0918981163
 40
0.1831954324
 40
0.2735076199
 40
0.3634974365
 40
0.4537609248
 40
0.5437097891
 40
0.6338976685
 40
0.7243114192
 40
0.8155057921
 40
0.9077116879
 40
1.0
 40
1.0
 40
1.0
 40
1.0
 10
21.0417065881
 20
12.2321711153
 30
0.0
 10
20.8269417463
 20
12.2321711153
 30
0.0
 10
20.3963604713
 20
12.171207068
 30
0.0
 10
19.806149074
 20
11.905263826
 30
0.0
 10
19.3163660092
 20
11.4881765815
 30
0.0
 10
18.9644967
 20
10.9524716903
 30
0.0
 10
18.7791234978
 20
10.3395470415
 30
0.0
 10
18.7764998329
 20
9.698753879
 30
0.0
 10
18.9570132677
 20
9.0835393677
 30
0.0
 10
19.3064041214
 20
8.542632889
 30
0.0
 10
19.7980050481
 20
8.1193280099
 30
0.0
 10
20.3923823994
 20
7.849630924
 30
0.0
 10
20.8260298631
 20
7.7879714382
 30
0.0
 10
21.0417065881
 20
7.7879714382
 30
0.0
  0
SPLINE
  5
386
100
AcDbEntity
  8
0
100
AcDbSpline
 62
7
  6
BYLAYER
 70
0
 71
3
 72
18
 73
14
 74
0
 42
0.0000001
 43
0.0000001
 44
0.0000000001
 40
0.0
 40
0.0
 40
0.0
 40
0.0
 40
0.0918981163
 40
0.1831954324
 40
0.2735076199
 40
0.3634974365
 40
0.4537609248
 40
0.5437097891
 40
0.6338976685
 40
0.7243114192
 40
0.8155057921
 40
0.9077116879
 40
1.0
 40
1.0
 40
1.0
 40
1.0
 10
21.0417065881
 20
7.7879714382
 30
0.0
 10
21.2564714298
 20
7.7879714382
 30
0.0
 10
21.6870527049
 20
7.8489354855
 30
0.0
 10
22.2772641021
 20
8.1148787274
 30
0.0
 10
22.7670471669
 20
8.5319659719
 30
0.0
 10
23.1189164761
 20
9.0676708631
 30
0.0
 10
23.3042896783
 20
9.680595512
 30
0.0
 10
23.3069133433
 20
10.3213886744
 30
0.0
 10
23.1263999085
 20
10.9366031857
 30
0.0
 10
22.7770090547
 20
11.4775096645
 30
0.0
 10
22.2854081281
 20
11.9008145436
 30
0.0
 10
21.6910307767
 20
12.1705116294
 30
0.0
 10
21.2573833131
 20
12.2321711153
 30
0.0
 10
21.0417065881
 20
12.2321711153
 30
0.0
  0
SPLINE
  5
387
100
AcDbEntity
  8
0
100
AcDbSpline
 62
7
  6
BYLAYER
 70
0
 71
3
 72
14
 73
10
 74
0
 42
0.0000001
 43
0.0000001
 44
0.0000000001
 40
0.0
 40
0.0
 40
0.0
 40
0.0
 40
0.1384668015
 40
0.2809754615
 40
0.4237845348
 40
0.5670980708
 40
0.7109833171
 40
0.8553549617
 40
1.0
 40
1.0
 40
1.0
 40
1.0
 10
23.687797366
 20
9.7403250144
 30
0.0
 10
23.7452412655
 20
9.961012103
 30
0.0
 10
23.803763505
 20
10.4233872636
 30
0.0
 10
23.7089070761
 20
11.1206903325
 30
0.0
 10
23.4318274313
 20
11.7761465408
 30
0.0
 10
22.9924525572
 20
12.3386887715
 30
0.0
 10
22.4205478567
 20
12.7700855007
 30
0.0
 10
21.7556407673
 20
13.0411410007
 30
0.0
 10
21.2790786427
 20
13.1027379081
 30
0.0
 10
21.0417065881
 20
13.1027379081
 30
0.0
  0
SPLINE
  5
388
100
AcDbEntity
  8
0
100
AcDbSpline
 62
7
  6
BYLAYER
 70
0
 71
3
 72
14
 73
10
 74
0
 42
0.0000001
 43
0.0000001
 44
0.0000000001
 40
0.0
 40
0.0
 40
0.0
 40
0.0
 40
0.1447380692
 40
0.2891841709
 40
0.4331327842
 40
0.5765090958
 40
0.7193910815
 40
0.8619908784
 40
1.0
 40
1.0
 40
1.0
 40
1.0
 10
21.0417065881
 20
13.1027379081
 30
0.0
 10
20.8043232733
 20
13.1027379081
 30
0.0
 10
20.3277685005
 20
13.0411389468
 30
0.0
 10
19.6629047693
 20
12.7700994279
 30
0.0
 10
19.0910645735
 20
12.3387770805
 30
0.0
 10
18.651710064
 20
11.7763425796
 30
0.0
 10
18.3745815326
 20
11.1209600409
 30
0.0
 10
18.2797706766
 20
10.4245647132
 30
0.0
 10
18.3379012324
 20
9.9630611281
 30
0.0
 10
18.3948762795
 20
9.7431726945
 30
0.0
  0
SPLINE
  5
389
100
AcDbEntity
  8
0
100
AcDbSpline
 62
7
  6
BYLAYER
 70
0
 71
3
 72
14
 73
10
 74
0
 42
0.0000001
 43
0.0000001
 44
0.0000000001
 40
0.0
 40
0.0
 40
0.0
 40
0.0
 40
0.1440991612
 40
0.2879199451
 40
0.431256407
 40
0.5740295367
 40
0.716309449
 40
0.8582981515
 40
1.0
 40
1.0
 40
1.0
 40
1.0
 10
21.0417065881
 20
13.0959230666
 30
0.0
 10
21.2778662024
 20
13.0959230666
 30
0.0
 10
21.7519579186
 20
13.0350153293
 30
0.0
 10
22.4139857598
 20
12.7668974099
 30
0.0
 10
22.9844542639
 20
12.3398404461
 30
0.0
 10
23.4242671738
 20
11.7823774634
 30
0.0
 10
23.7036669943
 20
11.1317577554
 30
0.0
 10
23.8036125521
 20
10.4329481918
 30
0.0
 10
23.7459545815
 20
9.9651605043
 30
0.0
 10
23.6876104094
 20
9.7403735396
 30
0.0
  0
ELLIPSE
  5
38A
100
AcDbEntity
  8
0
100
AcDbEllipse
 62
7
  6
BYLAYER
 10
21.2417065881
 20
19.3840984762
 30
0.0
 11
0.0
 21
2.3253269412
 31
0.0
 40
0.984807753
 41
0.0
 42
6.2831853072
  0
ELLIPSE
  5
38B
100
AcDbEntity
  8
0
100
AcDbEllipse
 62
7
  6
BYLAYER
 10
31.0417065881
 20
19.3840984762
 30
0.0
 11
0.0
 21
2.3253269412
 31
0.0
 40
0.984807753
 41
0.0
 42
6.2831853072
  0
ELLIPSE
  5
38C
100
AcDbEntity
  8
0
100
AcDbEllipse
 62
7
  6
BYLAYER
 10
21.2417065881
 20
38.9184901506
 30
0.0
 11
-0.0
 21
2.3253269412
 31
0.0
 40
0.984807753
 41
0.0
 42
6.2831853072
  0
ELLIPSE
  5
38D
100
AcDbEntity
  8
0
100
AcDbEllipse
 62
7
  6
BYLAYER
 10
31.0417065881
 20
38.9184901506
 30
0.0
 11
0.0
 21
2.3253269412
 31
0.0
 40
0.984807753
 41
0.0
 42
6.2831853072
  0
ELLIPSE
  5
38E
100
AcDbEntity
  8
0
100
AcDbEllipse
 62
7
  6
BYLAYER
 10
11.0417065881
 20
19.3840984609
 30
0.0
 11
-0.0
 21
2.3253269412
 31
0.0
 40
0.984807753
 41
0.0
 42
6.2831853072
  0
ELLIPSE
  5
38F
100
AcDbEntity
  8
0
100
AcDbEllipse
 62
7
  6
BYLAYER
 10
11.0417065881
 20
38.9184901658
 30
0.0
 11
-0.0
 21
2.3253269412
 31
0.0
 40
0.984807753
 41
0.0
 42
6.2831853072
  0
ELLIPSE
  5
390
100
AcDbEntity
  8
0
100
AcDbEllipse
 62
7
  6
BYLAYER
 10
21.0417065881
 20
11.2768797226
 30
0.0
 11
0.0
 21
-1.8829796668
 31
0.0
 40
0.9848057673
 41
0.0
 42
6.2831853072
  0
ELLIPSE
  5
391
100
AcDbEntity
  8
0
100
AcDbEllipse
 62
7
  6
BYLAYER
 10
21.0417065881
 20
10.5960771633
 30
0.0
 11
1.8104314346
 21
-0.0
 31
0.0
 40
0.9216129175
 41
0.0
 42
6.2831853072
  0
ENDSEC
  0
SECTION
  2
OBJECTS
  0
DICTIONARY
  5
C
100
AcDbDictionary
280
0
281
1
  3
ACAD_GROUP
350
D
  3
ACAD_MLINESTYLE
350
17
  3
ACAD_LAYOUT
350
1A
  3
ACAD_PLOTSETTINGS
350
19
  3
ACAD_PLOTSTYLENAME
350
E
  0
DICTIONARY
  5
D
102
{ACAD_REACTORS
330
C
102
}
100
AcDbDictionary
280
0
281
1
  0
ACDBDICTIONARYWDFLT
  5
E
102
{ACAD_REACTORS
330
C
102
}
100
AcDbDictionary
281
1
  3
Normal
350
F
100
AcDbDictionaryWithDefault
340
F
  0
DICTIONARY
  5
17
102
{ACAD_REACTORS
330
C
102
}
100
AcDbDictionary
280
0
281
1
  3
Standard
350
18
  0
DICTIONARY
  5
19
102
{ACAD_REACTORS
330
C
102
}
100
AcDbDictionary
281
1
  0
DICTIONARY
  5
1A
102
{ACAD_REACTORS
330
C
102
}
100
AcDbDictionary
281
1
  3
Model
350
392
  3
Layout1
350
393
  0
ACDBPLACEHOLDER
  5
F
102
{ACAD_REACTORS
330
E
102
}
  0
MLINESTYLE
  5
18
102
{ACAD_REACTORS
330
17
102
}
100
AcDbMlineStyle
  2
STANDARD
 70
0
  3

 62
256
 51
90.0
 52
90.0
 71
2
 49
0.5
 62
256
  6
BYLAYER
 49
-0.5
 62
256
  6
BYLAYER
  0
LAYOUT
  5
392
102
{ACAD_REACTORS
330
1A
102
}
100
AcDbPlotSettings
  1

  2
none_device
  4

  6

 40
0.0
 41
0.0
 42
0.0
 43
0.0
 44
210.0
 45
297.0
 46
0.0
 47
0.0
 48
0.0
 49
0.0
140
0.0
141
0.0
142
1.0
143
1.0
 70
1024
 72
1
 73
0
 74
0
  7

 75
0
147
1.0
148
0.0
149
0.0
100
AcDbLayout
  1
Model
 70
0
 71
0
 10
0.0
 20
0.0
 11
210.0
 21
297.0
 12
0.0
 22
0.0
 32
0.0
 14
0.0
 24
0.0
 34
0.0
 15
0.0
 25
0.0
 35
0.0
146
0.0
 13
0.0
 23
0.0
 33
0.0
 16
1.0
 26
0.0
 36
0.0
 17
0.0
 27
1.0
 37
0.0
 76
0
330
210
345
0
346
0
  0
LAYOUT
  5
393
102
{ACAD_REACTORS
330
1A
102
}
100
AcDbPlotSettings
  1

  2
none_device
  4

  6

 40
0.0
 41
0.0
 42
0.0
 43
0.0
 44
210.0
 45
297.0
 46
0.0
 47
0.0
 48
0.0
 49
0.0
140
0.0
141
0.0
142
1.0
143
1.0
 70
0
 72
1
 73
0
 74
0
  7

 75
0
147
1.0
148
0.0
149
0.0
100
AcDbLayout
  1
Layout1
 70
0
 71
1
 10
0.0
 20
0.0
 11
210.0
 21
297.0
 12
0.0
 22
0.0
 32
0.0
 14
0.0
 24
0.0
 34
0.0
 15
0.0
 25
0.0
 35
0.0
146
0.0
 13
0.0
 23
0.0
 33
0.0
 16
1.0
 26
0.0
 36
0.0
 17
0.0
 27
1.0
 37
0.0
 76
0
330
211
345
0
346
0
  0
ENDSEC
  0
EOF
