999
DXF file: C:\Users\sesa63760\Dev\_Creo\CAD\MCADID0004817_3D-CAD\drw0001_3.dxf
999
Pro/ENGINEER 2019471 by Parametric Technology Corporation
  0
SECTION
  2
HEADER
  9
$ACADVER
  1
AC1024
  9
$DWGCODEPAGE
  3
ANSI_1252
  9
$EXTMAX
 10
64.3408711538
 20
90.9963749175
 30
0.0
  9
$EXTMIN
 10
0.0
 20
0.0
 30
0.0
  9
$LIMMIN
 10
0.0
 20
0.0
  9
$LIMMAX
 10
64.3408711538
 20
90.9963749175
  9
$VIEWCTR
 10
32.1704355769
 20
45.4981874587
  9
$VIEWSIZE
 40
90.9963749175
  9
$CLAYER
  8
0
  9
$LTSCALE
 40
5.9316155502
  9
$CELTYPE
  6
BYLAYER
  9
$DIMSCALE
 40
1.0
  9
$DIMASZ
 40
0.7659627518
  9
$DIMEXO
 40
1.0
  9
$DIMDLI
 40
4.0982071074
  9
$DIMEXE
 40
1.0
  9
$DIMCEN
 40
0.9706279991
  9
$DIMLFAC
 40
1.0
  9
$DIMBLK
  1
_FILLED
  9
$DIMALT
 70
0
  9
$DIMALTF
 40
0.0393700787
  9
$DIMTXT
 40
1.0723478526
  9
$DIMTOL
 70
1
  9
$DIMLIM
 70
0
  9
$DIMTFAC
 40
1.0
  9
$DIMTP
 40
0.01
  9
$DIMTM
 40
0.01
  9
$DIMGAP
 40
0.625
  9
$DIMDSEP
 70
46
  9
$AUNITS
 70
0
  9
$PDMODE
 70
3
  9
$PDSIZE
 40
0.3125
  9
$HANDSEED
  5
24A
  9
$TILEMODE
 70
1
  9
$MEASUREMENT
 70
1
  9
$INSUNITS
 70
4
  0
ENDSEC
  0
SECTION
  2
CLASSES
  0
CLASS
  1
ACDBDICTIONARYWDFLT
  2
AcDbDictionaryWithDefault
  3
AutoCAD 2000
 90
0
 91
1
280
0
281
0
  0
CLASS
  1
ACDBPLACEHOLDER
  2
AcDbPlaceHolder
  3
AutoCAD 2000
 90
0
 91
1
280
0
281
0
  0
CLASS
  1
LAYOUT
  2
AcDbLayout
  3
AutoCAD 2000
 90
0
 91
0
280
0
281
0
  0
ENDSEC
  0
SECTION
  2
TABLES
  0
TABLE
  2
VPORT
  5
8
100
AcDbSymbolTable
 70
2
  0
VPORT
  5
1F4
100
AcDbSymbolTableRecord
100
AcDbViewportTableRecord
  2
*ACTIVE
 70
0
 10
0.0
 20
0.0
 11
1.0
 21
1.0
 12
32.1704355769
 22
45.4981874587
 13
0.0
 23
0.0
 14
1.0
 24
1.0
 15
0.0
 25
0.0
 16
0.0
 26
0.0
 36
1.0
 17
0.0
 27
0.0
 37
0.0
 40
90.9963749175
 41
0.7070707071
 42
50.0
 43
0.0
 44
0.0
 50
0.0
 51
0.0
 71
0
 72
100
 73
1
 74
1
 75
0
 76
0
 77
0
 78
0
  0
ENDTAB
  0
TABLE
  2
LTYPE
  5
5
100
AcDbSymbolTable
 70
6
  0
LTYPE
  5
14
100
AcDbSymbolTableRecord
100
AcDbLinetypeTableRecord
  2
BYBLOCK
 70
0
  3

 72
65
 73
0
 40
0.0
  0
LTYPE
  5
15
100
AcDbSymbolTableRecord
100
AcDbLinetypeTableRecord
  2
BYLAYER
 70
0
  3

 72
65
 73
0
 40
0.0
  0
LTYPE
  5
16
100
AcDbSymbolTableRecord
100
AcDbLinetypeTableRecord
  2
CONTINUOUS
 70
64
  3
Solid line
 72
65
 73
0
 40
0.0
  0
LTYPE
  5
1F5
100
AcDbSymbolTableRecord
100
AcDbLinetypeTableRecord
  2
CENTER
 70
64
  3
____ _ ____ _ ____ _ ____ _ ____ _ ____ _ ____
 72
65
 73
4
 40
0.6
 49
0.375
 74
0
 49
-0.075
 74
0
 49
0.075
 74
0
 49
-0.075
 74
0
  0
LTYPE
  5
1F6
100
AcDbSymbolTableRecord
100
AcDbLinetypeTableRecord
  2
HIDDEN
 70
64
  3
- - - - - - - - - - - - - - - - - - - -
 72
65
 73
2
 40
0.2
 49
0.1
 74
0
 49
-0.1
 74
0
  0
LTYPE
  5
1F7
100
AcDbSymbolTableRecord
100
AcDbLinetypeTableRecord
  2
PHANTOM
 70
64
  3
_____ _ _ _____ _ _ _____ _ _ _____
 72
65
 73
6
 40
0.8
 49
0.45
 74
0
 49
-0.05
 74
0
 49
0.1
 74
0
 49
-0.05
 74
0
 49
0.1
 74
0
 49
-0.05
 74
0
  0
LTYPE
  5
1F8
100
AcDbSymbolTableRecord
100
AcDbLinetypeTableRecord
  2
DOT
 70
64
  3
. . . . . . . . . . . . . . . . . . . .
 72
65
 73
2
 40
0.2
 49
0.1
 74
0
 49
-0.1
 74
0
  0
LTYPE
  5
1F9
100
AcDbSymbolTableRecord
100
AcDbLinetypeTableRecord
  2
DASHED
 70
64
  3
- - - - - - - - - - - - - - - - - - - -
 72
65
 73
2
 40
0.2
 49
0.1
 74
0
 49
-0.1
 74
0
  0
ENDTAB
  0
TABLE
  2
LAYER
  5
2
100
AcDbSymbolTable
 70
36
  0
LAYER
  5
10
100
AcDbSymbolTableRecord
100
AcDbLayerTableRecord
  2
0
 70
0
 62
7
  6
CONTINUOUS
370
-3
390
F
  0
LAYER
  5
1FA
100
AcDbSymbolTableRecord
100
AcDbLayerTableRecord
  2
DEFAULT_1
 70
0
 62
7
  6
CENTER
370
-3
390
F
  0
LAYER
  5
1FB
100
AcDbSymbolTableRecord
100
AcDbLayerTableRecord
  2
DEFAULT_2
 70
0
 62
7
  6
HIDDEN
370
-3
390
F
  0
LAYER
  5
1FC
100
AcDbSymbolTableRecord
100
AcDbLayerTableRecord
  2
DEFAULT_3
 70
0
 62
7
  6
PHANTOM
370
-3
390
F
  0
LAYER
  5
1FD
100
AcDbSymbolTableRecord
100
AcDbLayerTableRecord
  2
00_COMPONENTS
 70
0
 62
7
  6
CONTINUOUS
370
-3
390
F
  0
LAYER
  5
1FE
100
AcDbSymbolTableRecord
100
AcDbLayerTableRecord
  2
01_1_DEFAULT_DATUMS
 70
0
 62
7
  6
CONTINUOUS
370
-3
390
F
  0
LAYER
  5
1FF
100
AcDbSymbolTableRecord
100
AcDbLayerTableRecord
  2
01_PLANES
 70
0
 62
7
  6
CONTINUOUS
370
-3
390
F
  0
LAYER
  5
200
100
AcDbSymbolTableRecord
100
AcDbLayerTableRecord
  2
02_COORD_SYS
 70
0
 62
7
  6
CONTINUOUS
370
-3
390
F
  0
LAYER
  5
201
100
AcDbSymbolTableRecord
100
AcDbLayerTableRecord
  2
03_AXES
 70
0
 62
7
  6
CONTINUOUS
370
-3
390
F
  0
LAYER
  5
202
100
AcDbSymbolTableRecord
100
AcDbLayerTableRecord
  2
04_POINTS
 70
0
 62
7
  6
CONTINUOUS
370
-3
390
F
  0
LAYER
  5
203
100
AcDbSymbolTableRecord
100
AcDbLayerTableRecord
  2
05_CURVES
 70
0
 62
7
  6
CONTINUOUS
370
-3
390
F
  0
LAYER
  5
204
100
AcDbSymbolTableRecord
100
AcDbLayerTableRecord
  2
06_SURFS
 70
0
 62
7
  6
CONTINUOUS
370
-3
390
F
  0
LAYER
  5
205
100
AcDbSymbolTableRecord
100
AcDbLayerTableRecord
  2
07_COSMETICS
 70
0
 62
7
  6
CONTINUOUS
370
-3
390
F
  0
LAYER
  5
206
100
AcDbSymbolTableRecord
100
AcDbLayerTableRecord
  2
10_NOTES
 70
0
 62
7
  6
CONTINUOUS
370
-3
390
F
  0
LAYER
  5
207
100
AcDbSymbolTableRecord
100
AcDbLayerTableRecord
  2
11_NOTES_PUB
 70
0
 62
7
  6
CONTINUOUS
370
-3
390
F
  0
LAYER
  5
208
100
AcDbSymbolTableRecord
100
AcDbLayerTableRecord
  2
13_REF_GTOL
 70
0
 62
7
  6
CONTINUOUS
370
-3
390
F
  0
LAYER
  5
209
100
AcDbSymbolTableRecord
100
AcDbLayerTableRecord
  2
16_MISC
 70
0
 62
7
  6
CONTINUOUS
370
-3
390
F
  0
LAYER
  5
20A
100
AcDbSymbolTableRecord
100
AcDbLayerTableRecord
  2
17_NO_PRINT
 70
0
 62
7
  6
CONTINUOUS
370
-3
390
F
  0
LAYER
  5
20B
100
AcDbSymbolTableRecord
100
AcDbLayerTableRecord
  2
18_DATUM_CAMS_JOINTS
 70
0
 62
7
  6
CONTINUOUS
370
-3
390
F
  0
LAYER
  5
20C
100
AcDbSymbolTableRecord
100
AcDbLayerTableRecord
  2
19_DATUM_FUNCTIONAL
 70
0
 62
7
  6
CONTINUOUS
370
-3
390
F
  0
LAYER
  5
20D
100
AcDbSymbolTableRecord
100
AcDbLayerTableRecord
  2
20_DATUM_KINEMATIC_SCHEME
 70
0
 62
7
  6
CONTINUOUS
370
-3
390
F
  0
ENDTAB
  0
TABLE
  2
STYLE
  5
3
100
AcDbSymbolTable
 70
1
  0
STYLE
  5
11
100
AcDbSymbolTableRecord
100
AcDbTextStyleTableRecord
  2
STANDARD
 70
0
 40
0.0
 41
1.0
 50
0.0
 71
0
 42
0.2
  3
ARIAL.TTF
  4

  0
STYLE
  5
20E
100
AcDbSymbolTableRecord
100
AcDbTextStyleTableRecord
  2
TEXTSTYLE_1
 70
0
 40
0.0
 41
0.8
 50
0.0
 71
0
 42
0.2
  3
gdt
  4

  0
ENDTAB
  0
TABLE
  2
VIEW
  5
6
100
AcDbSymbolTable
 70
0
  0
ENDTAB
  0
TABLE
  2
UCS
  5
7
100
AcDbSymbolTable
 70
0
  0
ENDTAB
  0
TABLE
  2
APPID
  5
9
100
AcDbSymbolTable
 70
1
  0
APPID
  5
20F
100
AcDbSymbolTableRecord
100
AcDbRegAppTableRecord
  2
ACAD
 70
0
  0
ENDTAB
  0
TABLE
  2
BLOCK_RECORD
  5
1
100
AcDbSymbolTable
 70
0
  0
BLOCK_RECORD
  5
210
100
AcDbSymbolTableRecord
100
AcDbBlockTableRecord
  2
*Model_Space
  0
BLOCK_RECORD
  5
211
100
AcDbSymbolTableRecord
100
AcDbBlockTableRecord
  2
*Paper_Space
  0
BLOCK_RECORD
  5
212
100
AcDbSymbolTableRecord
100
AcDbBlockTableRecord
  2
_FILLED
  0
ENDTAB
  0
TABLE
  2
DIMSTYLE
  5
A
100
AcDbSymbolTable
 70
1
100
AcDbDimStyleTable
 71
0
  0
DIMSTYLE
105
213
100
AcDbSymbolTableRecord
100
AcDbDimStyleTableRecord
  2
STANDARD
 70
0
  3

  4

 40
1.0
 41
0.7659627518
 42
1.0
 43
0.38
 44
1.0
 45
0.0
 46
0.0
 47
0.01
 48
0.01
140
1.0723478526
141
0.09
142
0.0
143
25.4
144
1.0
145
0.0
146
1.0
147
0.625
 71
1
 72
0
 73
0
 74
0
 75
0
 76
0
 77
1
 78
8
 79
2
170
0
171
1
172
0
173
0
174
0
175
0
176
0
177
0
178
0
270
2
179
2
271
2
272
2
273
2
274
2
275
0
280
0
281
0
282
0
283
1
284
8
285
0
286
0
287
3
288
0
340
11
278
46
341
212
342
212
343
212
344
212
  0
ENDTAB
  0
ENDSEC
  0
SECTION
  2
BLOCKS
  0
BLOCK
  5
20
100
AcDbEntity
  8
0
100
AcDbBlockBegin
  2
*Model_Space
 70
0
 10
0.0
 20
0.0
 30
0.0
  3
*Model_Space
  1

  0
ENDBLK
  5
21
100
AcDbEntity
  8
0
100
AcDbBlockEnd
  0
BLOCK
  5
1C
100
AcDbEntity
  8
0
100
AcDbBlockBegin
  2
*Paper_Space
 70
0
 10
0.0
 20
0.0
 30
0.0
  3
*Paper_Space
  1

  0
ENDBLK
  5
1D
100
AcDbEntity
  8
0
100
AcDbBlockEnd
  0
BLOCK
  5
214
100
AcDbEntity
  8
0
100
AcDbBlockBegin
  2
_FILLED
 70
64
 10
0.0
 20
0.0
  3
_FILLED
  1

  0
SOLID
  5
215
100
AcDbEntity
  8
0
  6
BYBLOCK
 62
0
100
AcDbTrace
 10
0.0
 20
0.0
 11
-1.0
 21
0.25
 12
-1.0
 22
-0.25
 13
-1.0
 23
-0.25
  0
ENDBLK
  5
216
100
AcDbEntity
  8
0
  6
BYBLOCK
 62
0
100
AcDbBlockEnd
  0
ENDSEC
  0
SECTION
  2
ENTITIES
  0
LINE
  5
217
100
AcDbEntity
  8
0
100
AcDbLine
 62
7
  6
BYLAYER
 10
7.6114384296
 20
53.0209464907
 11
7.6114384296
 21
38.4209464907
  0
LINE
  5
218
100
AcDbEntity
  8
0
100
AcDbLine
 62
7
  6
BYLAYER
 10
7.9961761085
 20
38.1056175129
 11
7.9961761085
 21
53.3362754684
  0
LWPOLYLINE
  5
219
100
AcDbEntity
  8
0
100
AcDbPolyline
 62
7
  6
BYLAYER
 90
4
 70
0
 10
45.6935001539
 20
39.3959469941
 10
46.1006792405
 20
39.42600907
 10
46.582115443
 20
39.540809803
 10
46.9841710714
 20
39.7072900149
  0
LINE
  5
21A
100
AcDbEntity
  8
0
100
AcDbLine
 62
7
  6
BYLAYER
 10
36.9114384296
 20
37.7209464907
 11
8.3114384296
 21
37.7209464907
  0
LINE
  5
21B
100
AcDbEntity
  8
0
100
AcDbLine
 62
7
  6
BYLAYER
 10
36.9794257513
 20
38.0209464907
 11
24.7816918711
 21
38.0209464907
  0
LINE
  5
21C
100
AcDbEntity
  8
0
100
AcDbLine
 62
7
  6
BYLAYER
 10
20.4411849882
 20
38.0209464907
 11
8.2434511079
 21
38.0209464907
  0
LINE
  5
21D
100
AcDbEntity
  8
0
100
AcDbLine
 62
7
  6
BYLAYER
 10
45.6937247095
 20
39.3959464907
 11
37.6114384296
 21
39.3959464907
  0
LINE
  5
21E
100
AcDbEntity
  8
0
100
AcDbLine
 62
7
  6
BYLAYER
 10
58.511491474
 20
40.3709464907
 11
47.511491474
 21
40.3709464907
  0
LINE
  5
21F
100
AcDbEntity
  8
0
100
AcDbLine
 62
7
  6
BYLAYER
 10
37.2267007508
 20
38.1056175129
 11
37.2267007508
 21
53.3362754684
  0
LINE
  5
220
100
AcDbEntity
  8
0
100
AcDbLine
 62
7
  6
BYLAYER
 10
37.6114384296
 20
38.4209464907
 11
37.6114384296
 21
53.0209464907
  0
LINE
  5
221
100
AcDbEntity
  8
0
100
AcDbLine
 62
7
  6
BYLAYER
 10
58.511491474
 20
51.0709464907
 11
47.511491474
 21
51.0709464907
  0
LINE
  5
222
100
AcDbEntity
  8
0
100
AcDbLine
 62
7
  6
BYLAYER
 10
45.693834034
 20
52.0459464906
 11
37.6114384296
 21
52.0459464907
  0
LINE
  5
223
100
AcDbEntity
  8
0
100
AcDbLine
 62
7
  6
BYLAYER
 10
8.2434511079
 20
53.4209464907
 11
20.4411849882
 21
53.4209464907
  0
LINE
  5
224
100
AcDbEntity
  8
0
100
AcDbLine
 62
7
  6
BYLAYER
 10
24.7816918711
 20
53.4209464907
 11
36.9794257513
 21
53.4209464907
  0
LINE
  5
225
100
AcDbEntity
  8
0
100
AcDbLine
 62
7
  6
BYLAYER
 10
8.3114384296
 20
53.7209464907
 11
36.9114384296
 21
53.7209464907
  0
LWPOLYLINE
  5
226
100
AcDbEntity
  8
0
100
AcDbPolyline
 62
7
  6
BYLAYER
 90
4
 70
0
 10
46.9841379229
 20
51.7346215245
 10
46.5842079651
 20
51.9003854033
 10
46.1045571413
 20
52.0153100073
 10
45.6936603801
 20
52.0459442357
  0
LINE
  5
227
100
AcDbEntity
  8
0
100
AcDbLine
 62
7
  6
BYLAYER
 10
47.511491474
 20
39.9709464907
 11
46.9839299942
 21
39.7071657507
  0
LINE
  5
228
100
AcDbEntity
  8
0
100
AcDbLine
 62
7
  6
BYLAYER
 10
47.511491474
 20
51.4709464907
 11
46.9839199981
 21
51.7347322286
  0
LINE
  5
229
100
AcDbEntity
  8
0
100
AcDbLine
 62
7
  6
BYLAYER
 10
47.511491474
 20
39.9710163994
 11
47.511491474
 21
51.4709438619
  0
LINE
  5
22A
100
AcDbEntity
  8
0
100
AcDbLine
 62
7
  6
BYLAYER
 10
47.511491474
 20
40.2261635125
 11
46.9840726366
 21
39.7072371366
  0
LINE
  5
22B
100
AcDbEntity
  8
0
100
AcDbLine
 62
7
  6
BYLAYER
 10
46.9840759802
 20
51.7346541801
 11
47.511491474
 21
51.2156369132
  0
LINE
  5
22C
100
AcDbEntity
  8
0
100
AcDbLine
 62
7
  6
BYLAYER
 10
58.511491474
 20
51.0708604506
 11
58.511491474
 21
40.3710325307
  0
CIRCLE
  5
22D
100
AcDbEntity
  8
0
100
AcDbCircle
 62
7
  6
BYLAYER
 10
22.6114384296
 20
45.7209464907
 40
8.0
  0
ARC
  5
22E
100
AcDbEntity
  8
0
100
AcDbCircle
 62
7
  6
BYLAYER
 10
8.3114384296
 20
53.0209464907
 40
0.7
100
AcDbArc
 50
90.0
 51
180.0
  0
ARC
  5
22F
100
AcDbEntity
  8
0
100
AcDbCircle
 62
7
  6
BYLAYER
 10
8.3114384296
 20
38.4209464907
 40
0.7
100
AcDbArc
 50
180.0
 51
270.0
  0
ARC
  5
230
100
AcDbEntity
  8
0
100
AcDbCircle
 62
7
  6
BYLAYER
 10
36.9114384296
 20
38.4209464907
 40
0.7
100
AcDbArc
 50
270.0
 51
360.0
  0
ARC
  5
231
100
AcDbEntity
  8
0
100
AcDbCircle
 62
7
  6
BYLAYER
 10
36.9114384296
 20
53.0209464907
 40
0.7
100
AcDbArc
 50
0.0
 51
90.0
  0
ARC
  5
232
100
AcDbEntity
  8
0
100
AcDbCircle
 62
7
  6
BYLAYER
 10
36.9795251988
 20
53.0178279043
 40
0.4031185987
100
AcDbArc
 50
52.1817726425
 51
90.0141345974
  0
ARC
  5
233
100
AcDbEntity
  8
0
100
AcDbCircle
 62
7
  6
BYLAYER
 10
8.2433516605
 20
38.4240650771
 40
0.4031185987
100
AcDbArc
 50
232.1817726425
 51
270.0141345974
  0
SPLINE
  5
234
100
AcDbEntity
  8
0
100
AcDbSpline
 62
7
  6
BYLAYER
 70
0
 71
3
 72
19
 73
15
 74
0
 42
0.0000001
 43
0.0000001
 44
0.0000000001
 40
0.0
 40
0.0
 40
0.0
 40
0.0
 40
0.1485422826
 40
0.2949851248
 40
0.437139759
 40
0.5727298712
 40
0.6372987871
 40
0.6992928748
 40
0.7583897299
 40
0.8142691453
 40
0.8666133
 40
0.9151445155
 40
0.9596509636
 40
1.0
 40
1.0
 40
1.0
 40
1.0
 10
43.8489909809
 20
45.7209464907
 30
0.0
 10
43.5637185909
 20
46.0503101034
 30
0.0
 10
42.9979949906
 20
46.7050650334
 30
0.0
 10
42.1535232749
 20
47.6700498774
 30
0.0
 10
41.3227384402
 20
48.596429683
 30
0.0
 10
40.6372609642
 20
49.3303717017
 30
0.0
 10
40.0989076955
 20
49.8795403752
 30
0.0
 10
39.7100037881
 20
50.2608559841
 30
0.0
 10
39.3304635678
 20
50.6151177131
 30
0.0
 10
38.9615053801
 20
50.9389423339
 30
0.0
 10
38.604378096
 20
51.2288071913
 30
0.0
 10
38.2603126699
 20
51.4811628129
 30
0.0
 10
37.930530885
 20
51.6922686013
 30
0.0
 10
37.7100978103
 20
51.8088953394
 30
0.0
 10
37.6024591695
 20
51.8581166182
 30
0.0
  0
SPLINE
  5
235
100
AcDbEntity
  8
0
100
AcDbSpline
 62
7
  6
BYLAYER
 70
0
 71
3
 72
13
 73
9
 74
0
 42
0.0000001
 43
0.0000001
 44
0.0000000001
 40
0.0
 40
0.0
 40
0.0
 40
0.0
 40
0.2610185005
 40
0.517890244
 40
0.6433631172
 40
0.7660009098
 40
0.8851432969
 40
1.0
 40
1.0
 40
1.0
 40
1.0
 10
43.8489916226
 20
45.7209478981
 30
0.0
 10
43.3119233009
 20
45.965783213
 30
0.0
 10
42.2463215767
 20
46.4515619132
 30
0.0
 10
40.9172362029
 20
47.0433958353
 30
0.0
 10
39.8672760563
 20
47.4924200095
 30
0.0
 10
39.0993150668
 20
47.808610231
 30
0.0
 10
38.3482489287
 20
48.1024859643
 30
0.0
 10
37.8510370044
 20
48.2837496229
 30
0.0
 10
37.6056627588
 20
48.3688918874
 30
0.0
  0
SPLINE
  5
236
100
AcDbEntity
  8
0
100
AcDbSpline
 62
7
  6
BYLAYER
 70
0
 71
3
 72
13
 73
9
 74
0
 42
0.0000001
 43
0.0000001
 44
0.0000000001
 40
0.0
 40
0.0
 40
0.0
 40
0.0
 40
0.1148621389
 40
0.2340078135
 40
0.3566472242
 40
0.4821197731
 40
0.7389886395
 40
1.0
 40
1.0
 40
1.0
 40
1.0
 10
37.6069074601
 20
43.073431941
 30
0.0
 10
37.8522409476
 20
43.1585753305
 30
0.0
 10
38.3493666238
 20
43.3398328581
 30
0.0
 10
39.1003001083
 20
43.6336818754
 30
0.0
 10
39.8681159381
 20
43.9498282298
 30
0.0
 10
40.9178644113
 20
44.3987743481
 30
0.0
 10
42.2466680572
 20
44.9904889544
 30
0.0
 10
43.3120421499
 20
45.4761642465
 30
0.0
 10
43.8489915784
 20
45.72094518
 30
0.0
  0
SPLINE
  5
237
100
AcDbEntity
  8
0
100
AcDbSpline
 62
7
  6
BYLAYER
 70
0
 71
3
 72
19
 73
15
 74
0
 42
0.0000001
 43
0.0000001
 44
0.0000000001
 40
0.0
 40
0.0
 40
0.0
 40
0.0
 40
0.0403599915
 40
0.0848735658
 40
0.1334022197
 40
0.1857416992
 40
0.2416169272
 40
0.3007092624
 40
0.3626980943
 40
0.4272615739
 40
0.5628428207
 40
0.7049942268
 40
0.8514474485
 40
1.0
 40
1.0
 40
1.0
 40
1.0
 10
37.6022737335
 20
39.5837595889
 30
0.0
 10
37.7099504075
 20
39.6329805229
 30
0.0
 10
37.930457645
 20
39.7495904507
 30
0.0
 10
38.2603109009
 20
39.960686619
 30
0.0
 10
38.6043667873
 20
40.2130699377
 30
0.0
 10
38.9614642038
 20
40.5029316766
 30
0.0
 10
39.330407037
 20
40.8267287072
 30
0.0
 10
39.7099256837
 20
41.1809685527
 30
0.0
 10
40.098803381
 20
41.5622622377
 30
0.0
 10
40.637133443
 20
42.1113944101
 30
0.0
 10
41.3225776255
 20
42.845323827
 30
0.0
 10
42.1534111146
 20
43.7716857012
 30
0.0
 10
42.9979207794
 20
44.7367387249
 30
0.0
 10
43.5637073729
 20
45.3915414937
 30
0.0
 10
43.8489909809
 20
45.7209464907
 30
0.0
  0
SPLINE
  5
238
100
AcDbEntity
  8
0
100
AcDbSpline
 62
7
  6
BYLAYER
 70
0
 71
3
 72
21
 73
17
 74
0
 42
0.0000001
 43
0.0000001
 44
0.0000000001
 40
0.0
 40
0.0
 40
0.0
 40
0.0
 40
0.0303050073
 40
0.0625567238
 40
0.0980179332
 40
0.1375858874
 40
0.1818511006
 40
0.2311671861
 40
0.2857164564
 40
0.3455685051
 40
0.4106944386
 40
0.4810095134
 40
0.5563520694
 40
0.6365212018
 40
0.8103356734
 40
1.0
 40
1.0
 40
1.0
 40
1.0
 10
45.6937197223
 20
39.3959465879
 30
0.0
 10
45.7363265859
 20
39.3959476347
 30
0.0
 10
45.8245712052
 20
39.4070705011
 30
0.0
 10
45.9547509482
 20
39.4551088159
 30
0.0
 10
46.0844196784
 20
39.5336088679
 30
0.0
 10
46.2133229299
 20
39.6417120995
 30
0.0
 10
46.3412622212
 20
39.7788766802
 30
0.0
 10
46.467849788
 20
39.9445894396
 30
0.0
 10
46.5925843171
 20
40.1382792809
 30
0.0
 10
46.7148418929
 20
40.3592777615
 30
0.0
 10
46.8339563208
 20
40.6068051755
 30
0.0
 10
46.9491751087
 20
40.8799514497
 30
0.0
 10
47.0597605753
 20
41.1776652643
 30
0.0
 10
47.2038597224
 20
41.6177871162
 30
0.0
 10
47.3651697825
 20
42.2208353178
 30
0.0
 10
47.4661089528
 20
42.7221394496
 30
0.0
 10
47.511491474
 20
42.9849048854
 30
0.0
  0
SPLINE
  5
239
100
AcDbEntity
  8
0
100
AcDbSpline
 62
7
  6
BYLAYER
 70
0
 71
3
 72
20
 73
16
 74
0
 42
0.0000001
 43
0.0000001
 44
0.0000000001
 40
0.0
 40
0.0
 40
0.0
 40
0.0
 40
0.1877643253
 40
0.3605113973
 40
0.5156473263
 40
0.5860131154
 40
0.6513450463
 40
0.7115124098
 40
0.7664339576
 40
0.8161524806
 40
0.860848902
 40
0.9008540422
 40
0.9367228606
 40
0.9693389739
 40
1.0
 40
1.0
 40
1.0
 40
1.0
 10
47.5115489048
 20
48.4572716693
 30
0.0
 10
47.4666158966
 20
48.7173721546
 30
0.0
 10
47.3664144726
 20
49.2145291017
 30
0.0
 10
47.1796107734
 20
49.9153945291
 30
0.0
 10
46.997671038
 20
50.4455396492
 30
0.0
 10
46.8395170619
 20
50.8227002211
 30
0.0
 10
46.7206913262
 20
51.0712215605
 30
0.0
 10
46.5985148935
 20
51.2936624993
 30
0.0
 10
46.4736343184
 20
51.4890465612
 30
0.0
 10
46.3466571991
 20
51.6565614892
 30
0.0
 10
46.2181108773
 20
51.7955691047
 30
0.0
 10
46.0883851175
 20
51.9054505055
 30
0.0
 10
45.9576583155
 20
51.9854769158
 30
0.0
 10
45.8261334873
 20
52.0344958554
 30
0.0
 10
45.7368720836
 20
52.0458120228
 30
0.0
 10
45.6937697924
 20
52.045802824
 30
0.0
  0
SPLINE
  5
23A
100
AcDbEntity
  8
0
100
AcDbSpline
 62
7
  6
BYLAYER
 70
0
 71
3
 72
14
 73
10
 74
0
 42
0.0000001
 43
0.0000001
 44
0.0000000001
 40
0.0
 40
0.0
 40
0.0
 40
0.0
 40
0.3251251347
 40
0.4698632878
 40
0.6003365595
 40
0.7165079647
 40
0.8197071282
 40
0.9127074122
 40
1.0
 40
1.0
 40
1.0
 40
1.0
 10
37.2267007508
 20
38.1056175129
 30
0.0
 10
37.2811543192
 20
38.1227128413
 30
0.0
 10
37.3587456403
 20
38.1519504742
 30
0.0
 10
37.4514502909
 20
38.2023911353
 30
0.0
 10
37.5079426838
 20
38.2418084175
 30
0.0
 10
37.5531022679
 20
38.2837885094
 30
0.0
 10
37.5862879099
 20
38.3279085457
 30
0.0
 10
37.6067282011
 20
38.3738207503
 30
0.0
 10
37.6114364939
 20
38.4056227384
 30
0.0
 10
37.6114384296
 20
38.4209464907
 30
0.0
  0
SPLINE
  5
23B
100
AcDbEntity
  8
0
100
AcDbSpline
 62
7
  6
BYLAYER
 70
0
 71
3
 72
14
 73
10
 74
0
 42
0.0000001
 43
0.0000001
 44
0.0000000001
 40
0.0
 40
0.0
 40
0.0
 40
0.0
 40
0.0872928375
 40
0.1802626699
 40
0.2834551036
 40
0.3996422321
 40
0.5301534117
 40
0.6749088722
 40
1.0
 40
1.0
 40
1.0
 40
1.0
 10
37.6114384296
 20
53.0209464907
 30
0.0
 10
37.6114359299
 20
53.036270318
 30
0.0
 10
37.6067361086
 20
53.0680680772
 30
0.0
 10
37.5862954839
 20
53.1139741349
 30
0.0
 10
37.5531118236
 20
53.1580901432
 30
0.0
 10
37.5079502664
 20
53.2000808032
 30
0.0
 10
37.4514441324
 20
53.2395008125
 30
0.0
 10
37.3587389817
 20
53.2899479478
 30
0.0
 10
37.2811494508
 20
53.3191841742
 30
0.0
 10
37.2267007508
 20
53.3362754684
 30
0.0
  0
SPLINE
  5
23C
100
AcDbEntity
  8
0
100
AcDbSpline
 62
7
  6
BYLAYER
 70
0
 71
3
 72
16
 73
12
 74
0
 42
0.0000001
 43
0.0000001
 44
0.0000000001
 40
0.0
 40
0.0
 40
0.0
 40
0.0
 40
0.1823204212
 40
0.3633559826
 40
0.5341352984
 40
0.6854150534
 40
0.809086975
 40
0.9014158658
 40
0.9354947703
 40
0.9623259572
 40
1.0
 40
1.0
 40
1.0
 40
1.0
 10
37.2267007508
 20
38.1056175129
 30
0.0
 10
37.2364634276
 20
38.0924067636
 30
0.0
 10
37.2555084957
 20
38.0657717168
 30
0.0
 10
37.2821747593
 20
38.0256963414
 30
0.0
 10
37.3056761391
 20
37.9869230278
 30
0.0
 10
37.3247799078
 20
37.9515619167
 30
0.0
 10
37.3382536333
 20
37.9213116087
 30
0.0
 10
37.3453283772
 20
37.8998227976
 30
0.0
 10
37.3472666626
 20
37.8860630466
 30
0.0
 10
37.3471688986
 20
37.8772564746
 30
0.0
 10
37.3447978871
 20
37.8712091878
 30
0.0
 10
37.3421220544
 20
37.8691207796
 30
0.0
  0
SPLINE
  5
23D
100
AcDbEntity
  8
0
100
AcDbSpline
 62
7
  6
BYLAYER
 70
0
 71
3
 72
16
 73
12
 74
0
 42
0.0000001
 43
0.0000001
 44
0.0000000001
 40
0.0
 40
0.0
 40
0.0
 40
0.0
 40
0.1866019382
 40
0.3704479002
 40
0.5421640545
 40
0.6926973976
 40
0.8143803185
 40
0.9043439416
 40
0.9373831373
 40
0.9633673644
 40
1.0
 40
1.0
 40
1.0
 40
1.0
 10
37.2267007508
 20
53.3362754684
 30
0.0
 10
37.2366932585
 20
53.3497972225
 30
0.0
 10
37.2560999483
 20
53.3769620341
 30
0.0
 10
37.2831249909
 20
53.4176717919
 30
0.0
 10
37.3066877064
 20
53.4567276036
 30
0.0
 10
37.3256088552
 20
53.4920071938
 30
0.0
 10
37.3387636305
 20
53.5218978311
 30
0.0
 10
37.3455412937
 20
53.5429781301
 30
0.0
 10
37.3472971245
 20
53.5563721682
 30
0.0
 10
37.3471002439
 20
53.5649248898
 30
0.0
 10
37.3447240677
 20
53.5707414078
 30
0.0
 10
37.3421220535
 20
53.5727722024
 30
0.0
  0
SPLINE
  5
23E
100
AcDbEntity
  8
0
100
AcDbSpline
 62
7
  6
BYLAYER
 70
0
 71
3
 72
16
 73
12
 74
0
 42
0.0000001
 43
0.0000001
 44
0.0000000001
 40
0.0
 40
0.0
 40
0.0
 40
0.0
 40
0.1717915562
 40
0.3475201631
 40
0.5175397329
 40
0.670896518
 40
0.7977748494
 40
0.8935528422
 40
0.9293342393
 40
0.9579808185
 40
1.0
 40
1.0
 40
1.0
 40
1.0
 10
36.9794251412
 20
53.4209464907
 30
0.0
 10
36.979425115
 20
53.4391641069
 30
0.0
 10
36.9786582806
 20
53.4760203351
 30
0.0
 10
36.9751816876
 20
53.5308143145
 30
0.0
 10
36.9690804773
 20
53.5834100986
 30
0.0
 10
36.9607780476
 20
53.6304854886
 30
0.0
 10
36.9503591308
 20
53.6690118402
 30
0.0
 10
36.94012263
 20
53.6946039673
 30
0.0
 10
36.9308293008
 20
53.7089468289
 30
0.0
 10
36.9232506077
 20
53.7172539348
 30
0.0
 10
36.9158933097
 20
53.7209464904
 30
0.0
 10
36.9114373903
 20
53.7209464907
 30
0.0
  0
SPLINE
  5
23F
100
AcDbEntity
  8
0
100
AcDbSpline
 62
7
  6
BYLAYER
 70
0
 71
3
 72
9
 73
5
 74
0
 42
0.0000001
 43
0.0000001
 44
0.0000000001
 40
0.0
 40
0.0
 40
0.0
 40
0.0
 40
0.4995403653
 40
1.0
 40
1.0
 40
1.0
 40
1.0
 10
36.9794257514
 20
38.0209450378
 30
0.0
 10
37.023535664
 20
38.0209460487
 30
0.0
 10
37.1123474181
 20
38.0360160088
 30
0.0
 10
37.1918017403
 20
38.078508208
 30
0.0
 10
37.2267016032
 20
38.1056163539
 30
0.0
  0
SPLINE
  5
240
100
AcDbEntity
  8
0
100
AcDbSpline
 62
7
  6
BYLAYER
 70
0
 71
3
 72
16
 73
12
 74
0
 42
0.0000001
 43
0.0000001
 44
0.0000000001
 40
0.0
 40
0.0
 40
0.0
 40
0.0
 40
0.1717920548
 40
0.3475210148
 40
0.5175407267
 40
0.6708974435
 40
0.7977755378
 40
0.8935532311
 40
0.9293344917
 40
0.957980958
 40
1.0
 40
1.0
 40
1.0
 40
1.0
 10
36.9794257513
 20
38.0209464907
 30
0.0
 10
36.9794257513
 20
38.0027288259
 30
0.0
 10
36.978658966
 20
37.9658725153
 30
0.0
 10
36.9751824373
 20
37.9110784394
 30
0.0
 10
36.9690812829
 20
37.858482616
 30
0.0
 10
36.9607789048
 20
37.8114072459
 30
0.0
 10
36.9503600364
 20
37.7728809578
 30
0.0
 10
36.9401235737
 20
37.7472888984
 30
0.0
 10
36.930830276
 20
37.7329460913
 30
0.0
 10
36.9232516065
 20
37.7246390213
 30
0.0
 10
36.9158943331
 20
37.7209464907
 30
0.0
 10
36.9114384296
 20
37.7209464907
 30
0.0
  0
SPLINE
  5
241
100
AcDbEntity
  8
0
100
AcDbSpline
 62
7
  6
BYLAYER
 70
0
 71
3
 72
16
 73
12
 74
0
 42
0.0000001
 43
0.0000001
 44
0.0000000001
 40
0.0
 40
0.0
 40
0.0
 40
0.0
 40
0.1717915562
 40
0.3475201631
 40
0.5175397329
 40
0.670896518
 40
0.7977748494
 40
0.8935528422
 40
0.9293342393
 40
0.9579808185
 40
1.0
 40
1.0
 40
1.0
 40
1.0
 10
8.243451718
 20
38.0209464907
 30
0.0
 10
8.2434517442
 20
38.0027288744
 30
0.0
 10
8.2442185787
 20
37.9658726462
 30
0.0
 10
8.2476951717
 20
37.9110786668
 30
0.0
 10
8.253796382
 20
37.8584828827
 30
0.0
 10
8.2620988117
 20
37.8114074927
 30
0.0
 10
8.2725177285
 20
37.7728811412
 30
0.0
 10
8.2827542293
 20
37.747289014
 30
0.0
 10
8.2920475584
 20
37.7329461524
 30
0.0
 10
8.2996262516
 20
37.7246390465
 30
0.0
 10
8.3069835496
 20
37.7209464909
 30
0.0
 10
8.3114394689
 20
37.7209464906
 30
0.0
  0
SPLINE
  5
242
100
AcDbEntity
  8
0
100
AcDbSpline
 62
7
  6
BYLAYER
 70
0
 71
3
 72
16
 73
12
 74
0
 42
0.0000001
 43
0.0000001
 44
0.0000000001
 40
0.0
 40
0.0
 40
0.0
 40
0.0
 40
0.1866019372
 40
0.3704478982
 40
0.5421640518
 40
0.6926973947
 40
0.814380316
 40
0.90434394
 40
0.9373831362
 40
0.9633673638
 40
1.0
 40
1.0
 40
1.0
 40
1.0
 10
7.9961761085
 20
38.1056175129
 30
0.0
 10
7.9861836008
 20
38.092095759
 30
0.0
 10
7.9667769112
 20
38.0649309475
 30
0.0
 10
7.9397518688
 20
38.02422119
 30
0.0
 10
7.9161891534
 20
37.9851653786
 30
0.0
 10
7.8972680045
 20
37.9498857884
 30
0.0
 10
7.8841132292
 20
37.9199951512
 30
0.0
 10
7.8773355658
 20
37.8989148522
 30
0.0
 10
7.8755797348
 20
37.8855208139
 30
0.0
 10
7.8757766152
 20
37.8769680922
 30
0.0
 10
7.8781527912
 20
37.871151574
 30
0.0
 10
7.8807548053
 20
37.8691207793
 30
0.0
  0
SPLINE
  5
243
100
AcDbEntity
  8
0
100
AcDbSpline
 62
7
  6
BYLAYER
 70
0
 71
3
 72
14
 73
10
 74
0
 42
0.0000001
 43
0.0000001
 44
0.0000000001
 40
0.0
 40
0.0
 40
0.0
 40
0.0
 40
0.3251251783
 40
0.4698632669
 40
0.6003363269
 40
0.7165075098
 40
0.8197072745
 40
0.9127089001
 40
1.0
 40
1.0
 40
1.0
 40
1.0
 10
7.9961761085
 20
53.3362754684
 30
0.0
 10
7.9417227077
 20
53.3191795712
 30
0.0
 10
7.8641313705
 20
53.2899421708
 30
0.0
 10
7.7714265518
 20
53.2395018716
 30
0.0
 10
7.7149340824
 20
53.2000848498
 30
0.0
 10
7.669774383
 20
53.1581048109
 30
0.0
 10
7.636588812
 20
53.1139842944
 30
0.0
 10
7.6161488584
 20
53.0680719009
 30
0.0
 10
7.6114403007
 20
53.0362699825
 30
0.0
 10
7.6114384296
 20
53.0209464907
 30
0.0
  0
SPLINE
  5
244
100
AcDbEntity
  8
0
100
AcDbSpline
 62
7
  6
BYLAYER
 70
0
 71
3
 72
14
 73
10
 74
0
 42
0.0000001
 43
0.0000001
 44
0.0000000001
 40
0.0
 40
0.0
 40
0.0
 40
0.0
 40
0.0872914611
 40
0.1802625504
 40
0.2834555243
 40
0.3996424562
 40
0.5301534422
 40
0.6749088346
 40
1.0
 40
1.0
 40
1.0
 40
1.0
 10
7.6114384296
 20
38.4209464907
 30
0.0
 10
7.6114408678
 20
38.4056229041
 30
0.0
 10
7.6161409409
 20
38.373825207
 30
0.0
 10
7.6365812507
 20
38.3279189737
 30
0.0
 10
7.6697648459
 20
38.2838025201
 30
0.0
 10
7.7149264949
 20
38.241811894
 30
0.0
 10
7.7714327046
 20
38.202392129
 30
0.0
 10
7.8641380274
 20
38.1519453564
 30
0.0
 10
7.9417275834
 20
38.1227093959
 30
0.0
 10
7.9961761085
 20
38.1056175129
 30
0.0
  0
SPLINE
  5
245
100
AcDbEntity
  8
0
100
AcDbSpline
 62
7
  6
BYLAYER
 70
0
 71
3
 72
16
 73
12
 74
0
 42
0.0000001
 43
0.0000001
 44
0.0000000001
 40
0.0
 40
0.0
 40
0.0
 40
0.0
 40
0.1823204212
 40
0.3633559826
 40
0.5341352984
 40
0.6854150534
 40
0.809086975
 40
0.9014158658
 40
0.9354947703
 40
0.9623259572
 40
1.0
 40
1.0
 40
1.0
 40
1.0
 10
7.9961761085
 20
53.3362754684
 30
0.0
 10
7.9864134317
 20
53.3494862178
 30
0.0
 10
7.9673683636
 20
53.3761212645
 30
0.0
 10
7.9407021
 20
53.4161966399
 30
0.0
 10
7.9172007201
 20
53.4549699535
 30
0.0
 10
7.8980969514
 20
53.4903310646
 30
0.0
 10
7.8846232259
 20
53.5205813726
 30
0.0
 10
7.8775484821
 20
53.5420701837
 30
0.0
 10
7.8756101967
 20
53.5558299347
 30
0.0
 10
7.8757079607
 20
53.5646365067
 30
0.0
 10
7.8780789722
 20
53.5706837935
 30
0.0
 10
7.8807548048
 20
53.5727722017
 30
0.0
  0
SPLINE
  5
246
100
AcDbEntity
  8
0
100
AcDbSpline
 62
7
  6
BYLAYER
 70
0
 71
3
 72
16
 73
12
 74
0
 42
0.0000001
 43
0.0000001
 44
0.0000000001
 40
0.0
 40
0.0
 40
0.0
 40
0.0
 40
0.1717920548
 40
0.3475210148
 40
0.5175407267
 40
0.6708974435
 40
0.7977755378
 40
0.8935532311
 40
0.9293344917
 40
0.957980958
 40
1.0
 40
1.0
 40
1.0
 40
1.0
 10
8.2434511079
 20
53.4209464907
 30
0.0
 10
8.2434511079
 20
53.4391641554
 30
0.0
 10
8.2442178933
 20
53.476020466
 30
0.0
 10
8.247694422
 20
53.530814542
 30
0.0
 10
8.2537955764
 20
53.5834103653
 30
0.0
 10
8.2620979545
 20
53.6304857354
 30
0.0
 10
8.2725168229
 20
53.6690120235
 30
0.0
 10
8.2827532856
 20
53.6946040829
 30
0.0
 10
8.2920465833
 20
53.70894689
 30
0.0
 10
8.2996252527
 20
53.71725396
 30
0.0
 10
8.3069825261
 20
53.7209464906
 30
0.0
 10
8.3114384296
 20
53.7209464907
 30
0.0
  0
SPLINE
  5
247
100
AcDbEntity
  8
0
100
AcDbSpline
 62
7
  6
BYLAYER
 70
0
 71
3
 72
9
 73
5
 74
0
 42
0.0000001
 43
0.0000001
 44
0.0000000001
 40
0.0
 40
0.0
 40
0.0
 40
0.0
 40
0.4995403653
 40
1.0
 40
1.0
 40
1.0
 40
1.0
 10
8.2434511079
 20
53.4209479435
 30
0.0
 10
8.1993411952
 20
53.4209469326
 30
0.0
 10
8.1105294412
 20
53.4058769725
 30
0.0
 10
8.0310751189
 20
53.3633847733
 30
0.0
 10
7.9961752561
 20
53.3362766274
 30
0.0
  0
ENDSEC
  0
SECTION
  2
OBJECTS
  0
DICTIONARY
  5
C
100
AcDbDictionary
280
0
281
1
  3
ACAD_GROUP
350
D
  3
ACAD_MLINESTYLE
350
17
  3
ACAD_LAYOUT
350
1A
  3
ACAD_PLOTSETTINGS
350
19
  3
ACAD_PLOTSTYLENAME
350
E
  0
DICTIONARY
  5
D
102
{ACAD_REACTORS
330
C
102
}
100
AcDbDictionary
280
0
281
1
  0
ACDBDICTIONARYWDFLT
  5
E
102
{ACAD_REACTORS
330
C
102
}
100
AcDbDictionary
281
1
  3
Normal
350
F
100
AcDbDictionaryWithDefault
340
F
  0
DICTIONARY
  5
17
102
{ACAD_REACTORS
330
C
102
}
100
AcDbDictionary
280
0
281
1
  3
Standard
350
18
  0
DICTIONARY
  5
19
102
{ACAD_REACTORS
330
C
102
}
100
AcDbDictionary
281
1
  0
DICTIONARY
  5
1A
102
{ACAD_REACTORS
330
C
102
}
100
AcDbDictionary
281
1
  3
Model
350
248
  3
Layout1
350
249
  0
ACDBPLACEHOLDER
  5
F
102
{ACAD_REACTORS
330
E
102
}
  0
MLINESTYLE
  5
18
102
{ACAD_REACTORS
330
17
102
}
100
AcDbMlineStyle
  2
STANDARD
 70
0
  3

 62
256
 51
90.0
 52
90.0
 71
2
 49
0.5
 62
256
  6
BYLAYER
 49
-0.5
 62
256
  6
BYLAYER
  0
LAYOUT
  5
248
102
{ACAD_REACTORS
330
1A
102
}
100
AcDbPlotSettings
  1

  2
none_device
  4

  6

 40
0.0
 41
0.0
 42
0.0
 43
0.0
 44
210.0
 45
297.0
 46
0.0
 47
0.0
 48
0.0
 49
0.0
140
0.0
141
0.0
142
1.0
143
1.0
 70
1024
 72
1
 73
0
 74
0
  7

 75
0
147
1.0
148
0.0
149
0.0
100
AcDbLayout
  1
Model
 70
0
 71
0
 10
0.0
 20
0.0
 11
210.0
 21
297.0
 12
0.0
 22
0.0
 32
0.0
 14
0.0
 24
0.0
 34
0.0
 15
0.0
 25
0.0
 35
0.0
146
0.0
 13
0.0
 23
0.0
 33
0.0
 16
1.0
 26
0.0
 36
0.0
 17
0.0
 27
1.0
 37
0.0
 76
0
330
210
345
0
346
0
  0
LAYOUT
  5
249
102
{ACAD_REACTORS
330
1A
102
}
100
AcDbPlotSettings
  1

  2
none_device
  4

  6

 40
0.0
 41
0.0
 42
0.0
 43
0.0
 44
210.0
 45
297.0
 46
0.0
 47
0.0
 48
0.0
 49
0.0
140
0.0
141
0.0
142
1.0
143
1.0
 70
0
 72
1
 73
0
 74
0
  7

 75
0
147
1.0
148
0.0
149
0.0
100
AcDbLayout
  1
Layout1
 70
0
 71
1
 10
0.0
 20
0.0
 11
210.0
 21
297.0
 12
0.0
 22
0.0
 32
0.0
 14
0.0
 24
0.0
 34
0.0
 15
0.0
 25
0.0
 35
0.0
146
0.0
 13
0.0
 23
0.0
 33
0.0
 16
1.0
 26
0.0
 36
0.0
 17
0.0
 27
1.0
 37
0.0
 76
0
330
211
345
0
346
0
  0
ENDSEC
  0
EOF
