999
DXF file: C:\Users\sesa63760\Dev\_Creo\CAD\MCADID0002082_3D-CAD\drw0001_5.dxf
999
Pro/ENGINEER 2019471 by Parametric Technology Corporation
  0
SECTION
  2
HEADER
  9
$ACADVER
  1
AC1024
  9
$DWGCODEPAGE
  3
ANSI_1252
  9
$EXTMAX
 10
220.1622073988
 20
311.3722647498
 30
0.0
  9
$EXTMIN
 10
0.0
 20
0.0
 30
0.0
  9
$LIMMIN
 10
0.0
 20
0.0
  9
$LIMMAX
 10
220.1622073988
 20
311.3722647498
  9
$VIEWCTR
 10
110.0811036994
 20
155.6861323749
  9
$VIEWSIZE
 40
311.3722647498
  9
$CLAYER
  8
0
  9
$LTSCALE
 40
20.2968587392
  9
$CELTYPE
  6
BYLAYER
  9
$DIMSCALE
 40
1.0
  9
$DIMASZ
 40
2.6209786595
  9
$DIMEXO
 40
1.0
  9
$DIMDLI
 40
14.0232842198
  9
$DIMEXE
 40
1.0
  9
$DIMCEN
 40
3.3213041573
  9
$DIMLFAC
 40
1.0
  9
$DIMBLK
  1
_FILLED
  9
$DIMALT
 70
0
  9
$DIMALTF
 40
0.0393700787
  9
$DIMTXT
 40
3.6693701233
  9
$DIMTOL
 70
1
  9
$DIMLIM
 70
0
  9
$DIMTFAC
 40
1.0
  9
$DIMTP
 40
0.01
  9
$DIMTM
 40
0.01
  9
$DIMGAP
 40
0.625
  9
$DIMDSEP
 70
46
  9
$AUNITS
 70
0
  9
$PDMODE
 70
3
  9
$PDSIZE
 40
0.3125
  9
$HANDSEED
  5
492
  9
$TILEMODE
 70
1
  9
$MEASUREMENT
 70
1
  9
$INSUNITS
 70
4
  0
ENDSEC
  0
SECTION
  2
CLASSES
  0
CLASS
  1
ACDBDICTIONARYWDFLT
  2
AcDbDictionaryWithDefault
  3
AutoCAD 2000
 90
0
 91
1
280
0
281
0
  0
CLASS
  1
ACDBPLACEHOLDER
  2
AcDbPlaceHolder
  3
AutoCAD 2000
 90
0
 91
1
280
0
281
0
  0
CLASS
  1
LAYOUT
  2
AcDbLayout
  3
AutoCAD 2000
 90
0
 91
0
280
0
281
0
  0
ENDSEC
  0
SECTION
  2
TABLES
  0
TABLE
  2
VPORT
  5
8
100
AcDbSymbolTable
 70
2
  0
VPORT
  5
1F4
100
AcDbSymbolTableRecord
100
AcDbViewportTableRecord
  2
*ACTIVE
 70
0
 10
0.0
 20
0.0
 11
1.0
 21
1.0
 12
110.0811036994
 22
155.6861323749
 13
0.0
 23
0.0
 14
1.0
 24
1.0
 15
0.0
 25
0.0
 16
0.0
 26
0.0
 36
1.0
 17
0.0
 27
0.0
 37
0.0
 40
311.3722647498
 41
0.7070707071
 42
50.0
 43
0.0
 44
0.0
 50
0.0
 51
0.0
 71
0
 72
100
 73
1
 74
1
 75
0
 76
0
 77
0
 78
0
  0
ENDTAB
  0
TABLE
  2
LTYPE
  5
5
100
AcDbSymbolTable
 70
6
  0
LTYPE
  5
14
100
AcDbSymbolTableRecord
100
AcDbLinetypeTableRecord
  2
BYBLOCK
 70
0
  3

 72
65
 73
0
 40
0.0
  0
LTYPE
  5
15
100
AcDbSymbolTableRecord
100
AcDbLinetypeTableRecord
  2
BYLAYER
 70
0
  3

 72
65
 73
0
 40
0.0
  0
LTYPE
  5
16
100
AcDbSymbolTableRecord
100
AcDbLinetypeTableRecord
  2
CONTINUOUS
 70
64
  3
Solid line
 72
65
 73
0
 40
0.0
  0
LTYPE
  5
1F5
100
AcDbSymbolTableRecord
100
AcDbLinetypeTableRecord
  2
CENTER
 70
64
  3
____ _ ____ _ ____ _ ____ _ ____ _ ____ _ ____
 72
65
 73
4
 40
0.6
 49
0.375
 74
0
 49
-0.075
 74
0
 49
0.075
 74
0
 49
-0.075
 74
0
  0
LTYPE
  5
1F6
100
AcDbSymbolTableRecord
100
AcDbLinetypeTableRecord
  2
HIDDEN
 70
64
  3
- - - - - - - - - - - - - - - - - - - -
 72
65
 73
2
 40
0.2
 49
0.1
 74
0
 49
-0.1
 74
0
  0
LTYPE
  5
1F7
100
AcDbSymbolTableRecord
100
AcDbLinetypeTableRecord
  2
PHANTOM
 70
64
  3
_____ _ _ _____ _ _ _____ _ _ _____
 72
65
 73
6
 40
0.8
 49
0.45
 74
0
 49
-0.05
 74
0
 49
0.1
 74
0
 49
-0.05
 74
0
 49
0.1
 74
0
 49
-0.05
 74
0
  0
LTYPE
  5
1F8
100
AcDbSymbolTableRecord
100
AcDbLinetypeTableRecord
  2
DOT
 70
64
  3
. . . . . . . . . . . . . . . . . . . .
 72
65
 73
2
 40
0.2
 49
0.1
 74
0
 49
-0.1
 74
0
  0
LTYPE
  5
1F9
100
AcDbSymbolTableRecord
100
AcDbLinetypeTableRecord
  2
DASHED
 70
64
  3
- - - - - - - - - - - - - - - - - - - -
 72
65
 73
2
 40
0.2
 49
0.1
 74
0
 49
-0.1
 74
0
  0
ENDTAB
  0
TABLE
  2
LAYER
  5
2
100
AcDbSymbolTable
 70
36
  0
LAYER
  5
10
100
AcDbSymbolTableRecord
100
AcDbLayerTableRecord
  2
0
 70
0
 62
7
  6
CONTINUOUS
370
-3
390
F
  0
LAYER
  5
1FA
100
AcDbSymbolTableRecord
100
AcDbLayerTableRecord
  2
DEFAULT_1
 70
0
 62
7
  6
CENTER
370
-3
390
F
  0
LAYER
  5
1FB
100
AcDbSymbolTableRecord
100
AcDbLayerTableRecord
  2
DEFAULT_2
 70
0
 62
8
  6
HIDDEN
370
-3
390
F
  0
LAYER
  5
1FC
100
AcDbSymbolTableRecord
100
AcDbLayerTableRecord
  2
DEFAULT_3
 70
0
 62
7
  6
PHANTOM
370
-3
390
F
  0
LAYER
  5
1FD
100
AcDbSymbolTableRecord
100
AcDbLayerTableRecord
  2
00_COMPONENTS
 70
0
 62
7
  6
CONTINUOUS
370
-3
390
F
  0
LAYER
  5
1FE
100
AcDbSymbolTableRecord
100
AcDbLayerTableRecord
  2
01_1_DEFAULT_DATUMS
 70
0
 62
7
  6
CONTINUOUS
370
-3
390
F
  0
LAYER
  5
1FF
100
AcDbSymbolTableRecord
100
AcDbLayerTableRecord
  2
01_PLANES
 70
0
 62
7
  6
CONTINUOUS
370
-3
390
F
  0
LAYER
  5
200
100
AcDbSymbolTableRecord
100
AcDbLayerTableRecord
  2
02_COORD_SYS
 70
0
 62
7
  6
CONTINUOUS
370
-3
390
F
  0
LAYER
  5
201
100
AcDbSymbolTableRecord
100
AcDbLayerTableRecord
  2
03_AXES
 70
0
 62
7
  6
CONTINUOUS
370
-3
390
F
  0
LAYER
  5
202
100
AcDbSymbolTableRecord
100
AcDbLayerTableRecord
  2
04_POINTS
 70
0
 62
7
  6
CONTINUOUS
370
-3
390
F
  0
LAYER
  5
203
100
AcDbSymbolTableRecord
100
AcDbLayerTableRecord
  2
05_CURVES
 70
0
 62
7
  6
CONTINUOUS
370
-3
390
F
  0
LAYER
  5
204
100
AcDbSymbolTableRecord
100
AcDbLayerTableRecord
  2
06_SURFS
 70
0
 62
7
  6
CONTINUOUS
370
-3
390
F
  0
LAYER
  5
205
100
AcDbSymbolTableRecord
100
AcDbLayerTableRecord
  2
07_COSMETICS
 70
0
 62
7
  6
CONTINUOUS
370
-3
390
F
  0
LAYER
  5
206
100
AcDbSymbolTableRecord
100
AcDbLayerTableRecord
  2
10_NOTES
 70
0
 62
7
  6
CONTINUOUS
370
-3
390
F
  0
LAYER
  5
207
100
AcDbSymbolTableRecord
100
AcDbLayerTableRecord
  2
11_NOTES_PUB
 70
0
 62
7
  6
CONTINUOUS
370
-3
390
F
  0
LAYER
  5
208
100
AcDbSymbolTableRecord
100
AcDbLayerTableRecord
  2
13_REF_GTOL
 70
0
 62
7
  6
CONTINUOUS
370
-3
390
F
  0
LAYER
  5
209
100
AcDbSymbolTableRecord
100
AcDbLayerTableRecord
  2
16_MISC
 70
0
 62
7
  6
CONTINUOUS
370
-3
390
F
  0
LAYER
  5
20A
100
AcDbSymbolTableRecord
100
AcDbLayerTableRecord
  2
17_NO_PRINT
 70
0
 62
7
  6
CONTINUOUS
370
-3
390
F
  0
LAYER
  5
20B
100
AcDbSymbolTableRecord
100
AcDbLayerTableRecord
  2
18_DATUM_CAMS_JOINTS
 70
0
 62
7
  6
CONTINUOUS
370
-3
390
F
  0
LAYER
  5
20C
100
AcDbSymbolTableRecord
100
AcDbLayerTableRecord
  2
19_DATUM_FUNCTIONAL
 70
0
 62
7
  6
CONTINUOUS
370
-3
390
F
  0
LAYER
  5
20D
100
AcDbSymbolTableRecord
100
AcDbLayerTableRecord
  2
20_DATUM_KINEMATIC_SCHEME
 70
0
 62
7
  6
CONTINUOUS
370
-3
390
F
  0
ENDTAB
  0
TABLE
  2
STYLE
  5
3
100
AcDbSymbolTable
 70
1
  0
STYLE
  5
11
100
AcDbSymbolTableRecord
100
AcDbTextStyleTableRecord
  2
STANDARD
 70
0
 40
0.0
 41
0.8
 50
0.0
 71
0
 42
0.2
  3
txt
  4

  0
STYLE
  5
20E
100
AcDbSymbolTableRecord
100
AcDbTextStyleTableRecord
  2
TEXTSTYLE_1
 70
0
 40
0.0
 41
0.8
 50
0.0
 71
0
 42
0.2
  3
gdt
  4

  0
ENDTAB
  0
TABLE
  2
VIEW
  5
6
100
AcDbSymbolTable
 70
0
  0
ENDTAB
  0
TABLE
  2
UCS
  5
7
100
AcDbSymbolTable
 70
0
  0
ENDTAB
  0
TABLE
  2
APPID
  5
9
100
AcDbSymbolTable
 70
1
  0
APPID
  5
20F
100
AcDbSymbolTableRecord
100
AcDbRegAppTableRecord
  2
ACAD
 70
0
  0
ENDTAB
  0
TABLE
  2
BLOCK_RECORD
  5
1
100
AcDbSymbolTable
 70
0
  0
BLOCK_RECORD
  5
210
100
AcDbSymbolTableRecord
100
AcDbBlockTableRecord
  2
*Model_Space
  0
BLOCK_RECORD
  5
211
100
AcDbSymbolTableRecord
100
AcDbBlockTableRecord
  2
*Paper_Space
  0
BLOCK_RECORD
  5
212
100
AcDbSymbolTableRecord
100
AcDbBlockTableRecord
  2
_FILLED
  0
ENDTAB
  0
TABLE
  2
DIMSTYLE
  5
A
100
AcDbSymbolTable
 70
1
100
AcDbDimStyleTable
 71
0
  0
DIMSTYLE
105
213
100
AcDbSymbolTableRecord
100
AcDbDimStyleTableRecord
  2
STANDARD
 70
0
  3

  4

 40
1.0
 41
2.6209786595
 42
1.0
 43
0.38
 44
1.0
 45
0.0
 46
0.0
 47
0.01
 48
0.01
140
3.6693701233
141
0.09
142
0.0
143
25.4
144
1.0
145
0.0
146
1.0
147
0.625
 71
1
 72
0
 73
0
 74
0
 75
0
 76
0
 77
1
 78
8
 79
2
170
0
171
1
172
0
173
0
174
0
175
0
176
0
177
0
178
0
270
2
179
2
271
2
272
2
273
2
274
2
275
0
280
0
281
0
282
0
283
1
284
8
285
0
286
0
287
3
288
0
340
11
278
46
341
212
342
212
343
212
344
212
  0
ENDTAB
  0
ENDSEC
  0
SECTION
  2
BLOCKS
  0
BLOCK
  5
20
100
AcDbEntity
  8
0
100
AcDbBlockBegin
  2
*Model_Space
 70
0
 10
0.0
 20
0.0
 30
0.0
  3
*Model_Space
  1

  0
ENDBLK
  5
21
100
AcDbEntity
  8
0
100
AcDbBlockEnd
  0
BLOCK
  5
1C
100
AcDbEntity
  8
0
100
AcDbBlockBegin
  2
*Paper_Space
 70
0
 10
0.0
 20
0.0
 30
0.0
  3
*Paper_Space
  1

  0
ENDBLK
  5
1D
100
AcDbEntity
  8
0
100
AcDbBlockEnd
  0
BLOCK
  5
214
100
AcDbEntity
  8
0
100
AcDbBlockBegin
  2
_FILLED
 70
64
 10
0.0
 20
0.0
  3
_FILLED
  1

  0
SOLID
  5
215
100
AcDbEntity
  8
0
  6
BYBLOCK
 62
0
100
AcDbTrace
 10
0.0
 20
0.0
 11
-1.0
 21
0.25
 12
-1.0
 22
-0.25
 13
-1.0
 23
-0.25
  0
ENDBLK
  5
216
100
AcDbEntity
  8
0
  6
BYBLOCK
 62
0
100
AcDbBlockEnd
  0
ENDSEC
  0
SECTION
  2
ENTITIES
  0
LINE
  5
217
100
AcDbEntity
  8
0
100
AcDbLine
 62
7
  6
CONTINUOUS
 10
93.6347245872
 20
30.3442623451
 11
93.667128355
 21
30.3465377482
  0
LINE
  5
218
100
AcDbEntity
  8
0
100
AcDbLine
 62
7
  6
CONTINUOUS
 10
104.8134263186
 20
26.1251327118
 11
104.5473305226
 21
26.1085646383
  0
LINE
  5
219
100
AcDbEntity
  8
0
100
AcDbLine
 62
7
  6
CONTINUOUS
 10
100.2882347243
 20
31.1058869674
 11
100.5544631733
 21
31.1224635339
  0
LINE
  5
21A
100
AcDbEntity
  8
0
100
AcDbLine
 62
7
  6
CONTINUOUS
 10
93.6347241845
 20
30.3925733936
 11
93.6339730782
 21
30.3925617069
  0
LINE
  5
21B
100
AcDbEntity
  8
0
100
AcDbLine
 62
7
  6
CONTINUOUS
 10
127.7358026925
 20
25.3453715804
 11
127.6580616385
 21
25.3447668527
  0
LINE
  5
21C
100
AcDbEntity
  8
0
100
AcDbLine
 62
7
  6
CONTINUOUS
 10
127.6578388865
 20
25.3447668527
 11
98.6660533272
 21
25.3447668527
  0
LINE
  5
21D
100
AcDbEntity
  8
0
100
AcDbLine
 62
7
  6
CONTINUOUS
 10
113.1160909476
 20
26.3032250142
 11
114.3783822153
 21
26.3032250142
  0
LINE
  5
21E
100
AcDbEntity
  8
0
100
AcDbLine
 62
7
  6
CONTINUOUS
 10
114.4884090993
 20
31.3014379701
 11
113.2287466462
 21
31.3014379701
  0
LINE
  5
21F
100
AcDbEntity
  8
0
100
AcDbLine
 62
7
  6
CONTINUOUS
 10
122.709395561
 20
26.1085646393
 11
122.4635358263
 21
26.1251326203
  0
LINE
  5
220
100
AcDbEntity
  8
0
100
AcDbLine
 62
7
  6
CONTINUOUS
 10
126.8307240548
 20
31.1224635339
 11
127.0767073784
 21
31.1058869674
  0
LINE
  5
221
100
AcDbEntity
  8
0
100
AcDbLine
 62
7
  6
CONTINUOUS
 10
117.9324875239
 20
45.4435295181
 11
118.5852224981
 21
45.4437021896
  0
LINE
  5
222
100
AcDbEntity
  8
0
100
AcDbLine
 62
7
  6
CONTINUOUS
 10
109.7346842577
 20
45.4435295181
 11
109.1041444197
 21
45.4437021896
  0
LINE
  5
223
100
AcDbEntity
  8
0
100
AcDbLine
 62
7
  6
CONTINUOUS
 10
117.9320874231
 20
93.4435264054
 11
118.5848223973
 21
93.4436990769
  0
LINE
  5
224
100
AcDbEntity
  8
0
100
AcDbLine
 62
7
  6
CONTINUOUS
 10
109.7342841569
 20
93.4435264054
 11
109.1037443189
 21
93.4436990769
  0
LWPOLYLINE
  5
225
100
AcDbEntity
  8
0
100
AcDbPolyline
 62
7
  6
CONTINUOUS
 90
4
 70
0
 10
113.2281739989
 20
100.0017504227
 10
113.4362641528
 20
100.0056653385
 10
113.6462133878
 20
100.0056653385
 10
113.858005326
 20
100.0095802543
  0
LINE
  5
226
100
AcDbEntity
  8
0
100
AcDbLine
 62
7
  6
CONTINUOUS
 10
93.666533148
 20
100.2477427829
 11
93.6341293653
 21
100.2472385995
  0
LINE
  5
227
100
AcDbEntity
  8
0
100
AcDbLine
 62
7
  6
CONTINUOUS
 10
113.2281745247
 20
100.0017094333
 11
113.8580058252
 21
100.0095390207
  0
LINE
  5
228
100
AcDbEntity
  8
0
100
AcDbLine
 62
7
  6
CONTINUOUS
 10
113.859411892
 20
100.5032996147
 11
114.486921857
 21
100.5110350719
  0
LINE
  5
229
100
AcDbEntity
  8
0
100
AcDbLine
 62
7
  6
CONTINUOUS
 10
93.6664392188
 20
100.2447619956
 11
99.9455500751
 21
100.2532208628
  0
LINE
  5
22A
100
AcDbEntity
  8
0
100
AcDbLine
 62
7
  6
CONTINUOUS
 10
127.3917551876
 20
100.2526254141
 11
132.6680269066
 21
100.2445421296
  0
LINE
  5
22B
100
AcDbEntity
  8
0
100
AcDbLine
 62
7
  6
CONTINUOUS
 10
113.2299386397
 20
100.5110249872
 11
113.8594118627
 21
100.5032997031
  0
LINE
  5
22C
100
AcDbEntity
  8
0
100
AcDbLine
 62
7
  6
CONTINUOUS
 10
113.858005326
 20
100.0095802543
 11
114.4858694966
 21
100.0017660785
  0
LWPOLYLINE
  5
22D
100
AcDbEntity
  8
0
100
AcDbPolyline
 62
7
  6
CONTINUOUS
 90
3
 70
0
 10
93.6665457231
 20
100.2447619956
 10
93.6558692995
 20
100.2485526143
 10
93.6341419405
 20
100.2442578123
  0
LINE
  5
22E
100
AcDbEntity
  8
0
100
AcDbLine
 62
7
  6
CONTINUOUS
 10
90.3848618577
 20
119.7234160695
 11
90.4155302593
 21
119.7238932514
  0
LINE
  5
22F
100
AcDbEntity
  8
0
100
AcDbLine
 62
7
  6
CONTINUOUS
 10
87.1063951291
 20
139.2004236244
 11
87.1057310101
 21
218.8746215479
  0
LINE
  5
230
100
AcDbEntity
  8
0
100
AcDbLine
 62
7
  6
CONTINUOUS
 10
87.1348944145
 20
218.875075313
 11
87.1355585335
 21
139.2008773894
  0
LINE
  5
231
100
AcDbEntity
  8
0
100
AcDbLine
 62
7
  6
CONTINUOUS
 10
87.16382653
 20
218.855525478
 11
87.1644904694
 21
139.2029942166
  0
LINE
  5
232
100
AcDbEntity
  8
0
100
AcDbLine
 62
7
  6
CONTINUOUS
 10
132.152105465
 20
121.1886479218
 11
131.5787758125
 21
121.4038186164
  0
LINE
  5
233
100
AcDbEntity
  8
0
100
AcDbLine
 62
7
  6
CONTINUOUS
 10
90.4946155667
 20
147.3389791309
 11
90.4956411397
 21
139.3499040132
  0
LINE
  5
234
100
AcDbEntity
  8
0
100
AcDbLine
 62
7
  6
CONTINUOUS
 10
89.8318116599
 20
213.3183928966
 11
89.8318998316
 21
207.6692243212
  0
LINE
  5
235
100
AcDbEntity
  8
0
100
AcDbLine
 62
7
  6
CONTINUOUS
 10
90.4945879976
 20
150.6464325035
 11
90.4941126799
 21
207.6701843489
  0
LINE
  5
236
100
AcDbEntity
  8
0
100
AcDbLine
 62
7
  6
CONTINUOUS
 10
91.6510272679
 20
207.443233811
 11
91.6513950978
 21
163.3147715661
  0
LINE
  5
237
100
AcDbEntity
  8
0
100
AcDbLine
 62
7
  6
CONTINUOUS
 10
93.6055607802
 20
30.3921196286
 11
93.6049785501
 21
100.242115099
  0
LINE
  5
238
100
AcDbEntity
  8
0
100
AcDbLine
 62
7
  6
CONTINUOUS
 10
93.6347245872
 20
30.3442623451
 11
93.6341419405
 21
100.2442578123
  0
LINE
  5
239
100
AcDbEntity
  8
0
100
AcDbLine
 62
7
  6
CONTINUOUS
 10
93.667128355
 20
30.3465377482
 11
93.6665457231
 21
100.2447619956
  0
LINE
  5
23A
100
AcDbEntity
  8
0
100
AcDbLine
 62
7
  6
CONTINUOUS
 10
91.6515789117
 20
141.2626591281
 11
91.6512986072
 21
139.3634052456
  0
LINE
  5
23B
100
AcDbEntity
  8
0
100
AcDbLine
 62
7
  6
CONTINUOUS
 10
96.525160381
 20
242.3432539853
 11
96.5232913905
 21
229.3856281673
  0
LINE
  5
23C
100
AcDbEntity
  8
0
100
AcDbLine
 62
7
  6
CONTINUOUS
 10
102.8069603842
 20
252.764797823
 11
101.3689733299
 21
241.2227041183
  0
LINE
  5
23D
100
AcDbEntity
  8
0
100
AcDbLine
 62
7
  6
CONTINUOUS
 10
96.4529695091
 20
247.4473031294
 11
96.488125613
 21
246.2226098236
  0
LINE
  5
23E
100
AcDbEntity
  8
0
100
AcDbLine
 62
7
  6
CONTINUOUS
 10
99.4517342168
 20
247.5333858106
 11
99.4868903206
 21
246.3086925047
  0
LINE
  5
23F
100
AcDbEntity
  8
0
100
AcDbLine
 62
7
  6
CONTINUOUS
 10
96.4529695091
 20
247.4473031294
 11
96.4525682418
 21
247.4902691751
  0
LINE
  5
240
100
AcDbEntity
  8
0
100
AcDbLine
 62
7
  6
CONTINUOUS
 10
99.3390841163
 20
178.2451187619
 11
99.3388807317
 21
202.6451171796
  0
LINE
  5
241
100
AcDbEntity
  8
0
100
AcDbLine
 62
7
  6
CONTINUOUS
 10
100.2882347243
 20
31.1058869674
 11
100.287659279
 21
100.141922982
  0
LINE
  5
242
100
AcDbEntity
  8
0
100
AcDbLine
 62
7
  6
CONTINUOUS
 10
100.5538885221
 20
100.0632217044
 11
100.5544631733
 21
31.1224635339
  0
LINE
  5
243
100
AcDbEntity
  8
0
100
AcDbLine
 62
7
  6
CONTINUOUS
 10
99.5251603498
 20
242.3428212694
 11
99.5232913593
 21
229.3851954514
  0
LINE
  5
244
100
AcDbEntity
  8
0
100
AcDbLine
 62
7
  6
CONTINUOUS
 10
101.3293337655
 20
229.0315685567
 11
101.3306137424
 21
240.6050850727
  0
LINE
  5
245
100
AcDbEntity
  8
0
100
AcDbLine
 62
7
  6
CONTINUOUS
 10
104.4819585455
 20
252.7645832493
 11
104.4825668129
 21
258.2645204632
  0
LINE
  5
246
100
AcDbEntity
  8
0
100
AcDbLine
 62
7
  6
CONTINUOUS
 10
91.6512986072
 20
139.3634052456
 11
90.4956411397
 21
139.3499040132
  0
LINE
  5
247
100
AcDbEntity
  8
0
100
AcDbLine
 62
7
  6
CONTINUOUS
 10
136.7414829237
 20
139.3499040132
 11
135.7696481368
 21
139.3634052456
  0
LINE
  5
248
100
AcDbEntity
  8
0
100
AcDbLine
 62
7
  6
CONTINUOUS
 10
117.9324875239
 20
45.4435295181
 11
117.8867679672
 21
46.0566001196
  0
LINE
  5
249
100
AcDbEntity
  8
0
100
AcDbLine
 62
7
  6
CONTINUOUS
 10
117.9320874231
 20
93.4435264054
 11
117.8863678664
 21
94.0565970069
  0
LINE
  5
24A
100
AcDbEntity
  8
0
100
AcDbLine
 62
7
  6
CONTINUOUS
 10
107.3671728447
 20
177.4457446522
 11
107.3669561234
 21
203.4457429662
  0
LINE
  5
24B
100
AcDbEntity
  8
0
100
AcDbLine
 62
7
  6
CONTINUOUS
 10
107.376437861
 20
176.6309746233
 11
107.3764310683
 21
177.4458887046
  0
LINE
  5
24C
100
AcDbEntity
  8
0
100
AcDbLine
 62
7
  6
CONTINUOUS
 10
107.376214347
 20
203.4458870186
 11
107.3762057046
 21
204.4827809392
  0
LINE
  5
24D
100
AcDbEntity
  8
0
100
AcDbLine
 62
7
  6
CONTINUOUS
 10
113.22819068
 20
98.0005676104
 11
113.2281739989
 21
100.0017504227
  0
LINE
  5
24E
100
AcDbEntity
  8
0
100
AcDbLine
 62
7
  6
CONTINUOUS
 10
113.2287466462
 20
31.3014379701
 11
113.228666747
 21
40.8869212583
  0
LINE
  5
24F
100
AcDbEntity
  8
0
100
AcDbLine
 62
7
  6
CONTINUOUS
 10
113.2285907808
 20
50.0005707231
 11
113.2282666462
 21
88.8869181456
  0
LINE
  5
250
100
AcDbEntity
  8
0
100
AcDbLine
 62
7
  6
CONTINUOUS
 10
105.482898589
 20
261.2643756209
 11
105.4835068564
 21
266.7643128348
  0
LINE
  5
251
100
AcDbEntity
  8
0
100
AcDbLine
 62
7
  6
CONTINUOUS
 10
106.3838386331
 20
269.764179052
 11
106.3844469005
 21
275.2641162659
  0
LINE
  5
252
100
AcDbEntity
  8
0
100
AcDbLine
 62
7
  6
CONTINUOUS
 10
107.484778676
 20
278.2639603641
 11
107.4853869434
 21
283.763897578
  0
LINE
  5
253
100
AcDbEntity
  8
0
100
AcDbLine
 62
7
  6
CONTINUOUS
 10
124.3052666229
 20
215.9304519424
 11
125.2781236461
 21
219.904351225
  0
LINE
  5
254
100
AcDbEntity
  8
0
100
AcDbLine
 62
7
  6
CONTINUOUS
 10
91.6510272679
 20
207.443233811
 11
91.5845609004
 21
207.6715337413
  0
LINE
  5
255
100
AcDbEntity
  8
0
100
AcDbLine
 62
7
  6
CONTINUOUS
 10
114.4878527949
 20
98.0009087476
 11
114.4858694966
 21
100.0017660785
  0
LINE
  5
256
100
AcDbEntity
  8
0
100
AcDbLine
 62
7
  6
CONTINUOUS
 10
114.4879290965
 20
88.8872592524
 11
114.488253231
 21
50.0009118299
  0
LINE
  5
257
100
AcDbEntity
  8
0
100
AcDbLine
 62
7
  6
CONTINUOUS
 10
114.4883291973
 20
40.8872623651
 11
114.4884090993
 21
31.3014379701
  0
LINE
  5
258
100
AcDbEntity
  8
0
100
AcDbLine
 62
7
  6
CONTINUOUS
 10
120.5834145599
 20
203.4457429662
 11
120.5836312811
 21
177.4457446522
  0
LINE
  5
259
100
AcDbEntity
  8
0
100
AcDbLine
 62
7
  6
CONTINUOUS
 10
120.59266414
 20
204.4827809392
 11
120.5926727835
 21
203.4458870186
  0
LINE
  5
25A
100
AcDbEntity
  8
0
100
AcDbLine
 62
7
  6
CONTINUOUS
 10
120.5928895047
 20
177.4458887046
 11
120.5928962974
 21
176.6309746233
  0
LINE
  5
25B
100
AcDbEntity
  8
0
100
AcDbLine
 62
7
  6
CONTINUOUS
 10
118.7847786069
 20
278.2627106368
 11
118.7853868743
 21
283.7626478507
  0
LINE
  5
25C
100
AcDbEntity
  8
0
100
AcDbLine
 62
7
  6
CONTINUOUS
 10
119.8838385505
 20
269.762686015
 11
119.884446818
 21
275.2626232289
  0
LINE
  5
25D
100
AcDbEntity
  8
0
100
AcDbLine
 62
7
  6
CONTINUOUS
 10
120.7828984954
 20
261.2626835123
 11
120.7835067628
 21
266.7626207262
  0
LINE
  5
25E
100
AcDbEntity
  8
0
100
AcDbLine
 62
7
  6
CONTINUOUS
 10
121.7819584397
 20
252.76266995
 11
121.7825667071
 21
258.2626071639
  0
LINE
  5
25F
100
AcDbEntity
  8
0
100
AcDbLine
 62
7
  6
CONTINUOUS
 10
117.8870455806
 20
92.8349333032
 11
117.9320874231
 21
93.4435264054
  0
LINE
  5
260
100
AcDbEntity
  8
0
100
AcDbLine
 62
7
  6
CONTINUOUS
 10
135.8247221238
 20
207.6715337413
 11
135.7688316307
 21
207.443233811
  0
LINE
  5
261
100
AcDbEntity
  8
0
100
AcDbLine
 62
7
  6
CONTINUOUS
 10
102.2065258845
 20
219.9043512249
 11
103.3634717049
 21
215.9304519425
  0
LINE
  5
262
100
AcDbEntity
  8
0
100
AcDbLine
 62
7
  6
CONTINUOUS
 10
127.4836537846
 20
246.224165918
 11
127.4484976808
 21
247.4488592239
  0
LINE
  5
263
100
AcDbEntity
  8
0
100
AcDbLine
 62
7
  6
CONTINUOUS
 10
127.4484976808
 20
247.4488592239
 11
127.4480964134
 21
247.4918252695
  0
LINE
  5
264
100
AcDbEntity
  8
0
100
AcDbLine
 62
7
  6
CONTINUOUS
 10
126.8307240548
 20
31.1224635339
 11
126.8301494037
 21
100.0632217044
  0
LINE
  5
265
100
AcDbEntity
  8
0
100
AcDbLine
 62
7
  6
CONTINUOUS
 10
127.076131933
 20
100.141922982
 11
127.0767073784
 21
31.1058869674
  0
LINE
  5
266
100
AcDbEntity
  8
0
100
AcDbLine
 62
7
  6
CONTINUOUS
 10
128.5310582161
 20
202.6451171796
 11
128.5312616007
 21
178.2451187619
  0
LINE
  5
267
100
AcDbEntity
  8
0
100
AcDbLine
 62
7
  6
CONTINUOUS
 10
124.9293317616
 20
229.0121447814
 11
124.9306135981
 21
240.6024750228
  0
LINE
  5
268
100
AcDbEntity
  8
0
100
AcDbLine
 62
7
  6
CONTINUOUS
 10
127.5188195621
 20
229.3871842617
 11
127.5206882751
 21
242.3428864171
  0
LINE
  5
269
100
AcDbEntity
  8
0
100
AcDbLine
 62
7
  6
CONTINUOUS
 10
130.5188195309
 20
229.3867515458
 11
130.5206882439
 21
242.3424537012
  0
LINE
  5
26A
100
AcDbEntity
  8
0
100
AcDbLine
 62
7
  6
CONTINUOUS
 10
117.8874456814
 20
44.8349364158
 11
117.9324875239
 21
45.4435295181
  0
LINE
  5
26B
100
AcDbEntity
  8
0
100
AcDbLine
 62
7
  6
CONTINUOUS
 10
130.4824184923
 20
246.3102485992
 11
130.4472623884
 21
247.534941905
  0
LWPOLYLINE
  5
26C
100
AcDbEntity
  8
0
100
AcDbPolyline
 62
7
  6
CONTINUOUS
 90
17
 70
0
 10
139.1532992787
 20
218.855901994
 10
139.1458917897
 20
219.2308168339
 10
139.0026305247
 20
220.5410245177
 10
138.6941549104
 20
221.7735424493
 10
138.2432506672
 20
222.9133325913
 10
137.6718929759
 20
223.9502768601
 10
137.0016108262
 20
224.8769836363
 10
136.2523310185
 20
225.68997503
 10
135.4422094431
 20
226.3885639056
 10
134.587719409
 20
226.9740754673
 10
134.1506183265
 20
227.2241640712
 10
133.2802020944
 20
227.6365917723
 10
132.4476029032
 20
227.9360804006
 10
131.8575556899
 20
228.0975696132
 10
131.5691073635
 20
228.1628128548
 10
131.3745575236
 20
228.2027630841
 10
131.1887186658
 20
228.2388407899
  0
LINE
  5
26D
100
AcDbEntity
  8
0
100
AcDbLine
 62
7
  6
CONTINUOUS
 10
135.7693832745
 20
141.2626591281
 11
135.7696481368
 21
139.3634052456
  0
LINE
  5
26E
100
AcDbEntity
  8
0
100
AcDbLine
 62
7
  6
CONTINUOUS
 10
132.6686092439
 20
30.381672004
 11
132.6680269066
 21
100.2445421296
  0
LINE
  5
26F
100
AcDbEntity
  8
0
100
AcDbLine
 62
7
  6
CONTINUOUS
 10
135.7691994606
 20
163.3147715661
 11
135.7688316307
 21
207.443233811
  0
LINE
  5
270
100
AcDbEntity
  8
0
100
AcDbLine
 62
7
  6
CONTINUOUS
 10
136.7417198863
 20
207.6701843489
 11
136.7421934802
 21
150.8532380599
  0
LINE
  5
271
100
AcDbEntity
  8
0
100
AcDbLine
 62
7
  6
CONTINUOUS
 10
137.2805456698
 20
213.317561877
 11
137.2805310968
 21
207.6692243212
  0
LINE
  5
272
100
AcDbEntity
  8
0
100
AcDbLine
 62
7
  6
CONTINUOUS
 10
139.1543455761
 20
139.2018774141
 11
139.1536816231
 21
218.8561655952
  0
LINE
  5
273
100
AcDbEntity
  8
0
100
AcDbLine
 62
7
  6
CONTINUOUS
 10
136.7422233226
 20
147.2730521787
 11
136.7414829237
 21
139.3499040132
  0
LWPOLYLINE
  5
274
100
AcDbEntity
  8
0
100
AcDbPolyline
 62
7
  6
CONTINUOUS
 90
4
 70
0
 10
132.6680320492
 20
100.2445534852
 10
133.0175726349
 20
106.7161643996
 10
134.1347389223
 20
113.4458747319
 10
135.9101831905
 20
119.7260927764
  0
LINE
  5
275
100
AcDbEntity
  8
0
100
AcDbLine
 62
7
  6
CONTINUOUS
 10
95.148194604
 20
121.1879352629
 11
95.8236553815
 21
121.4039135106
  0
LINE
  5
276
100
AcDbEntity
  8
0
100
AcDbLine
 62
7
  6
CONTINUOUS
 10
114.068681619
 20
178.4468483273
 11
113.9753937275
 21
178.4457445874
  0
LINE
  5
277
100
AcDbEntity
  8
0
100
AcDbLine
 62
7
  6
CONTINUOUS
 10
100.1488596714
 20
177.4452741464
 11
127.7414657756
 21
177.4452741462
  0
LINE
  5
278
100
AcDbEntity
  8
0
100
AcDbLine
 62
7
  6
CONTINUOUS
 10
99.1103709059
 20
214.3665025782
 11
99.096958191
 21
214.3847513021
  0
LINE
  5
279
100
AcDbEntity
  8
0
100
AcDbLine
 62
7
  6
CONTINUOUS
 10
123.4569566075
 20
252.7625140298
 11
124.8923906232
 21
241.220102538
  0
LWPOLYLINE
  5
27A
100
AcDbEntity
  8
0
100
AcDbPolyline
 62
7
  6
CONTINUOUS
 90
4
 70
0
 10
135.9101573393
 20
119.7260927044
 10
137.6777215169
 20
125.970108646
 10
138.8004999075
 20
132.7054403967
 10
139.1543110616
 20
139.201882033
  0
LINE
  5
27B
100
AcDbEntity
  8
0
100
AcDbLine
 62
7
  6
CONTINUOUS
 10
95.5994486511
 20
121.3327975254
 11
95.8239462422
 21
121.4032093252
  0
LINE
  5
27C
100
AcDbEntity
  8
0
100
AcDbLine
 62
7
  6
CONTINUOUS
 10
113.8820034008
 20
190.4447516125
 11
113.9752937023
 21
190.4457438092
  0
LINE
  5
27D
100
AcDbEntity
  8
0
100
AcDbLine
 62
7
  6
CONTINUOUS
 10
96.5235077537
 20
229.3853365144
 11
96.5232913905
 21
229.3856281673
  0
LINE
  5
27E
100
AcDbEntity
  8
0
100
AcDbLine
 62
7
  6
CONTINUOUS
 10
95.8610002795
 20
208.0738915866
 11
95.9248541884
 21
208.074401214
  0
LINE
  5
27F
100
AcDbEntity
  8
0
100
AcDbLine
 62
7
  6
CONTINUOUS
 10
89.8318989579
 20
207.6692243198
 11
91.5845609004
 21
207.6715337413
  0
LINE
  5
280
100
AcDbEntity
  8
0
100
AcDbLine
 62
7
  6
CONTINUOUS
 10
90.2395676899
 20
208.0692242905
 11
92.1025192953
 21
208.0716567301
  0
LINE
  5
281
100
AcDbEntity
  8
0
100
AcDbLine
 62
7
  6
CONTINUOUS
 10
92.1025192953
 20
208.0716567301
 11
95.8609848611
 21
208.0738913467
  0
LINE
  5
282
100
AcDbEntity
  8
0
100
AcDbLine
 62
7
  6
CONTINUOUS
 10
107.3762057046
 20
204.4827809392
 11
120.59266414
 21
204.4827809392
  0
LINE
  5
283
100
AcDbEntity
  8
0
100
AcDbLine
 62
7
  6
CONTINUOUS
 10
127.7412490543
 20
203.4452724602
 11
100.1486429501
 21
203.4452724604
  0
LINE
  5
284
100
AcDbEntity
  8
0
100
AcDbLine
 62
7
  6
CONTINUOUS
 10
131.8513367865
 20
208.0738912864
 11
136.3530535234
 21
208.0701470394
  0
LINE
  5
285
100
AcDbEntity
  8
0
100
AcDbLine
 62
7
  6
CONTINUOUS
 10
137.2805321345
 20
207.6692243191
 11
135.8247221238
 21
207.6715337413
  0
LINE
  5
286
100
AcDbEntity
  8
0
100
AcDbLine
 62
7
  6
CONTINUOUS
 10
136.3530535234
 20
208.0701470394
 11
136.8728572017
 21
208.0692242905
  0
LINE
  5
287
100
AcDbEntity
  8
0
100
AcDbLine
 62
7
  6
CONTINUOUS
 10
131.5513233479
 20
216.0692237765
 11
131.7324793433
 21
216.0720424548
  0
LINE
  5
288
100
AcDbEntity
  8
0
100
AcDbLine
 62
7
  6
CONTINUOUS
 10
87.1348945812
 20
218.8550753143
 11
87.16382653
 21
218.855525478
  0
LINE
  5
289
100
AcDbEntity
  8
0
100
AcDbLine
 62
7
  6
CONTINUOUS
 10
131.732480147
 20
216.0720424674
 11
131.6717918691
 21
216.0715820937
  0
LINE
  5
28A
100
AcDbEntity
  8
0
100
AcDbLine
 62
7
  6
CONTINUOUS
 10
95.7421243444
 20
216.0720424674
 11
90.4939975285
 21
216.0692237735
  0
LINE
  5
28B
100
AcDbEntity
  8
0
100
AcDbLine
 62
7
  6
CONTINUOUS
 10
120.5112432846
 20
212.966796004
 11
107.2947848481
 21
212.966796004
  0
LINE
  5
28C
100
AcDbEntity
  8
0
100
AcDbLine
 62
7
  6
CONTINUOUS
 10
136.618288092
 20
216.0692237736
 11
131.7324793433
 21
216.0720424548
  0
LINE
  5
28D
100
AcDbEntity
  8
0
100
AcDbLine
 62
7
  6
CONTINUOUS
 10
101.3306137424
 20
240.6050850727
 11
101.3313466363
 21
240.6044567334
  0
LINE
  5
28E
100
AcDbEntity
  8
0
100
AcDbLine
 62
7
  6
CONTINUOUS
 10
101.3697017627
 20
241.2220444106
 11
101.3689733299
 21
241.2227041183
  0
LINE
  5
28F
100
AcDbEntity
  8
0
100
AcDbLine
 62
7
  6
CONTINUOUS
 10
127.5190359253
 20
229.3868926089
 11
127.5188195621
 21
229.3871842617
  0
LINE
  5
290
100
AcDbEntity
  8
0
100
AcDbLine
 62
7
  6
CONTINUOUS
 10
96.6443518723
 20
228.4244818772
 11
97.615196038
 21
228.5517132228
  0
LINE
  5
291
100
AcDbEntity
  8
0
100
AcDbLine
 62
7
  6
CONTINUOUS
 10
95.2445696443
 20
228.2492500935
 11
96.6443244299
 21
228.424478001
  0
LWPOLYLINE
  5
292
100
AcDbEntity
  8
0
100
AcDbPolyline
 62
7
  6
CONTINUOUS
 90
3
 70
0
 10
95.2445696443
 20
228.2492500935
 10
95.4081751945
 20
228.2682739396
 10
96.6443244299
 20
228.424478001
  0
LINE
  5
293
100
AcDbEntity
  8
0
100
AcDbLine
 62
7
  6
CONTINUOUS
 10
97.6151089445
 20
228.5517014266
 11
103.2394842149
 21
229.1652579333
  0
LINE
  5
294
100
AcDbEntity
  8
0
100
AcDbLine
 62
7
  6
CONTINUOUS
 10
111.2914511594
 20
229.5781907929
 11
111.5292460869
 21
229.5821277495
  0
LINE
  5
295
100
AcDbEntity
  8
0
100
AcDbLine
 62
7
  6
CONTINUOUS
 10
95.225553576
 20
228.2489542149
 11
95.2445696443
 21
228.2492500935
  0
LINE
  5
296
100
AcDbEntity
  8
0
100
AcDbLine
 62
7
  6
CONTINUOUS
 10
111.2914521612
 20
229.5781719106
 11
111.5296145131
 21
229.574267704
  0
LINE
  5
297
100
AcDbEntity
  8
0
100
AcDbLine
 62
7
  6
CONTINUOUS
 10
129.2736629408
 20
228.5462318121
 11
129.2239732067
 21
228.5529256396
  0
LINE
  5
298
100
AcDbEntity
  8
0
100
AcDbLine
 62
7
  6
CONTINUOUS
 10
131.0400641915
 20
228.2687999284
 11
130.9869081667
 21
228.2763559013
  0
LINE
  5
299
100
AcDbEntity
  8
0
100
AcDbLine
 62
7
  6
CONTINUOUS
 10
131.0400641915
 20
228.2687999284
 11
130.986974678
 21
228.276798305
  0
LWPOLYLINE
  5
29A
100
AcDbEntity
  8
0
100
AcDbPolyline
 62
7
  6
CONTINUOUS
 90
4
 70
0
 10
130.3804558902
 20
228.3829754502
 10
130.0596709526
 20
228.4339674987
 10
129.8360108507
 20
228.4671141402
 10
129.2733927391
 20
228.5464378016
  0
LWPOLYLINE
  5
29B
100
AcDbEntity
  8
0
100
AcDbPolyline
 62
7
  6
CONTINUOUS
 90
4
 70
0
 10
131.1887186658
 20
228.2388407899
 10
130.9563110497
 20
228.2820436839
 10
130.6058515361
 20
228.3443469151
 10
130.3721976204
 20
228.3843747285
  0
LWPOLYLINE
  5
29C
100
AcDbEntity
  8
0
100
AcDbPolyline
 62
7
  6
CONTINUOUS
 90
4
 70
0
 10
131.7704905053
 20
27.5042013178
 10
132.0744068841
 20
28.0039782576
 10
132.546924708
 20
29.2818913602
 10
132.6680951532
 20
30.3815050568
  0
LINE
  5
29D
100
AcDbEntity
  8
0
100
AcDbLine
 62
7
  6
CONTINUOUS
 10
104.4842757789
 20
252.7636265996
 11
104.4820759372
 21
252.7645832361
  0
LINE
  5
29E
100
AcDbEntity
  8
0
100
AcDbLine
 62
7
  6
CONTINUOUS
 10
102.8071784691
 20
252.7647977977
 11
102.8097245019
 21
252.7636265996
  0
LINE
  5
29F
100
AcDbEntity
  8
0
100
AcDbLine
 62
7
  6
CONTINUOUS
 10
123.4567454362
 20
252.7625140531
 11
123.4541924832
 21
252.7636265996
  0
LINE
  5
2A0
100
AcDbEntity
  8
0
100
AcDbLine
 62
7
  6
CONTINUOUS
 10
105.4849479341
 20
261.2635295666
 11
105.4830207341
 21
261.2643756072
  0
LINE
  5
2A1
100
AcDbEntity
  8
0
100
AcDbLine
 62
7
  6
CONTINUOUS
 10
106.3856468788
 20
269.7634325335
 11
106.3839732906
 21
269.7641790368
  0
LINE
  5
2A2
100
AcDbEntity
  8
0
100
AcDbLine
 62
7
  6
CONTINUOUS
 10
107.4862922446
 20
278.2633355005
 11
107.4849222921
 21
278.2639603477
  0
LINE
  5
2A3
100
AcDbEntity
  8
0
100
AcDbLine
 62
7
  6
CONTINUOUS
 10
109.4866965055
 20
286.7632384674
 11
109.4858701237
 21
286.7636421227
  0
LINE
  5
2A4
100
AcDbEntity
  8
0
100
AcDbLine
 62
7
  6
CONTINUOUS
 10
116.7847408766
 20
286.7632384674
 11
116.7855672585
 21
286.7628348121
  0
ARC
  5
2A5
100
AcDbEntity
  8
0
100
AcDbCircle
 62
7
  6
CONTINUOUS
 10
-227.4183109192
 20
347.8168503019
 40
376.0214459811
100
AcDbArc
 50
332.5681579783
 51
332.9186025743
  0
ARC
  5
2A6
100
AcDbEntity
  8
0
100
AcDbCircle
 62
7
  6
CONTINUOUS
 10
-212.900335131
 20
6.072929596
 40
374.5768040487
100
AcDbArc
 50
26.7357824827
 51
27.0864955107
  0
ARC
  5
2A7
100
AcDbEntity
  8
0
100
AcDbCircle
 62
7
  6
CONTINUOUS
 10
32.4772989466
 20
100.9386978989
 40
80.7494178239
100
AcDbArc
 50
359.6965540229
 51
359.9367186778
  0
ARC
  5
2A8
100
AcDbEntity
  8
0
100
AcDbCircle
 62
7
  6
CONTINUOUS
 10
33.6204855822
 20
100.2423531225
 40
60.0136563728
100
AcDbArc
 50
0.0002059711
 51
18.9402700697
  0
ARC
  5
2A9
100
AcDbEntity
  8
0
100
AcDbCircle
 62
7
  6
CONTINUOUS
 10
113.0076928496
 20
-763.4694741475
 40
1050.2597288229
100
AcDbArc
 50
89.793253771
 51
90.1838382878
  0
ARC
  5
2AA
100
AcDbEntity
  8
0
100
AcDbCircle
 62
7
  6
CONTINUOUS
 10
112.1889352377
 20
-407.0922274225
 40
693.8816907956
100
AcDbArc
 50
90.1130311907
 51
90.2509356508
  0
ARC
  5
2AB
100
AcDbEntity
  8
0
100
AcDbCircle
 62
7
  6
CONTINUOUS
 10
114.0368704418
 20
-374.8935631302
 40
661.6827024087
100
AcDbArc
 50
89.7466208823
 51
89.8923211512
  0
ARC
  5
2AC
100
AcDbEntity
  8
0
100
AcDbCircle
 62
7
  6
CONTINUOUS
 10
102.8265707671
 20
-179.3927259242
 40
396.1311676654
100
AcDbArc
 50
91.0570449798
 51
91.2440033501
  0
ARC
  5
2AD
100
AcDbEntity
  8
0
100
AcDbCircle
 62
7
  6
CONTINUOUS
 10
125.4093248495
 20
-125.6908379773
 40
342.4247130035
100
AcDbArc
 50
88.6953394324
 51
88.902536445
  0
ARC
  5
2AE
100
AcDbEntity
  8
0
100
AcDbCircle
 62
7
  6
CONTINUOUS
 10
59.9044072093
 20
104.3105067088
 40
43.8754495552
100
AcDbArc
 50
22.7405212231
 51
25.0114284434
  0
ARC
  5
2AF
100
AcDbEntity
  8
0
100
AcDbCircle
 62
7
  6
CONTINUOUS
 10
98.6342262703
 20
30.3436606143
 40
4.999452125
100
AcDbArc
 50
179.9931039859
 51
269.5408195956
  0
ARC
  5
2B0
100
AcDbEntity
  8
0
100
AcDbCircle
 62
7
  6
CONTINUOUS
 10
98.5863156918
 20
30.3775123038
 40
4.9805644528
100
AcDbArc
 50
181.623891122
 51
239.5606965829
  0
ARC
  5
2B1
100
AcDbEntity
  8
0
100
AcDbCircle
 62
7
  6
CONTINUOUS
 10
98.5839788514
 20
30.3926228262
 40
4.9492546671
100
AcDbArc
 50
180.0005722628
 51
180.5235864198
  0
ARC
  5
2B2
100
AcDbEntity
  8
0
100
AcDbCircle
 62
7
  6
CONTINUOUS
 10
98.6334329865
 20
30.2888498726
 40
4.9445872033
100
AcDbArc
 50
269.5449215765
 51
269.9999282268
  0
ARC
  5
2B3
100
AcDbEntity
  8
0
100
AcDbCircle
 62
7
  6
CONTINUOUS
 10
92.4093175979
 20
100.460433585
 40
8.1542512114
100
AcDbArc
 50
357.2078889981
 51
359.9830687567
  0
ARC
  5
2B4
100
AcDbEntity
  8
0
100
AcDbCircle
 62
7
  6
CONTINUOUS
 10
92.1488613911
 20
100.648831849
 40
8.1352700774
100
AcDbArc
 50
356.4671687251
 51
358.0377024343
  0
ARC
  5
2B5
100
AcDbEntity
  8
0
100
AcDbCircle
 62
7
  6
CONTINUOUS
 10
92.2204636865
 20
100.7771876104
 40
8.0921694171
100
AcDbArc
 50
355.4974408912
 51
357.1741811497
  0
ARC
  5
2B6
100
AcDbEntity
  8
0
100
AcDbCircle
 62
7
  6
CONTINUOUS
 10
92.4801645943
 20
100.7186027282
 40
8.0676097201
100
AcDbArc
 50
355.3937804232
 51
358.1263771047
  0
ARC
  5
2B7
100
AcDbEntity
  8
0
100
AcDbCircle
 62
7
  6
CONTINUOUS
 10
98.7605481883
 20
139.4816272718
 40
4.8774277314
100
AcDbArc
 50
180.7370514139
 51
185.6502194251
  0
ARC
  5
2B8
100
AcDbEntity
  8
0
100
AcDbCircle
 62
7
  6
CONTINUOUS
 10
95.6573092636
 20
139.3586674896
 40
4.0060028499
100
AcDbArc
 50
179.9322383411
 51
184.3479416403
  0
ARC
  5
2B9
100
AcDbEntity
  8
0
100
AcDbCircle
 62
7
  6
CONTINUOUS
 10
100.4769169567
 20
99.8285428167
 40
0.5766206907
100
AcDbArc
 50
107.5761305869
 51
110.0527217971
  0
ARC
  5
2BA
100
AcDbEntity
  8
0
100
AcDbCircle
 62
7
  6
CONTINUOUS
 10
100.1917718358
 20
99.8525182867
 40
0.3048576763
100
AcDbArc
 50
71.6790996976
 51
75.4005986496
  0
ARC
  5
2BB
100
AcDbEntity
  8
0
100
AcDbCircle
 62
7
  6
CONTINUOUS
 10
100.6064540749
 20
100.3616653149
 40
0.3030374993
100
AcDbArc
 50
253.7621883092
 51
260.0108196521
  0
ARC
  5
2BC
100
AcDbEntity
  8
0
100
AcDbCircle
 62
7
  6
CONTINUOUS
 10
113.8697327666
 20
45.6878312959
 40
4.843177617
100
AcDbArc
 50
260.968816236
 51
262.3937455083
  0
ARC
  5
2BD
100
AcDbEntity
  8
0
100
AcDbCircle
 62
7
  6
CONTINUOUS
 10
113.8695306096
 20
45.2009724385
 40
4.8421994422
100
AcDbArc
 50
97.6062946727
 51
99.0491487256
  0
ARC
  5
2BE
100
AcDbEntity
  8
0
100
AcDbCircle
 62
7
  6
CONTINUOUS
 10
113.8493213495
 20
45.6726343584
 40
4.8278425972
100
AcDbArc
 50
277.6059159194
 51
278.8093524025
  0
ARC
  5
2BF
100
AcDbEntity
  8
0
100
AcDbCircle
 62
7
  6
CONTINUOUS
 10
113.8494185019
 20
45.2164764514
 40
4.8265525682
100
AcDbArc
 50
81.2051539827
 51
82.3941134604
  0
ARC
  5
2C0
100
AcDbEntity
  8
0
100
AcDbCircle
 62
7
  6
CONTINUOUS
 10
113.859661148
 20
45.4247525557
 40
4.6191299732
100
AcDbArc
 50
82.1786629354
 51
97.8523675655
  0
ARC
  5
2C1
100
AcDbEntity
  8
0
100
AcDbCircle
 62
7
  6
CONTINUOUS
 10
113.85725883
 20
45.4630805325
 40
4.6191299732
100
AcDbArc
 50
262.1786629354
 51
277.8523675655
  0
ARC
  5
2C2
100
AcDbEntity
  8
0
100
AcDbCircle
 62
7
  6
CONTINUOUS
 10
114.1085685008
 20
45.4408933686
 40
4.4766491457
100
AcDbArc
 50
0.0359495742
 51
9.8473364545
  0
ARC
  5
2C3
100
AcDbEntity
  8
0
100
AcDbCircle
 62
7
  6
CONTINUOUS
 10
114.1092665099
 20
45.4463996844
 40
4.4759516734
100
AcDbArc
 50
350.2111909329
 51
359.9654699032
  0
ARC
  5
2C4
100
AcDbEntity
  8
0
100
AcDbCircle
 62
7
  6
CONTINUOUS
 10
113.4469203613
 20
45.4436134588
 40
4.3427707476
100
AcDbArc
 50
178.0230343237
 51
181.9873238041
  0
ARC
  5
2C5
100
AcDbEntity
  8
0
100
AcDbCircle
 62
7
  6
CONTINUOUS
 10
113.5574994265
 20
45.4288503972
 40
4.1102829834
100
AcDbArc
 50
86.8647734036
 51
89.644611699
  0
ARC
  5
2C6
100
AcDbEntity
  8
0
100
AcDbCircle
 62
7
  6
CONTINUOUS
 10
113.8472896151
 20
45.447515728
 40
4.1037732614
100
AcDbArc
 50
262.1324379822
 51
270.8849774451
  0
ARC
  5
2C7
100
AcDbEntity
  8
0
100
AcDbCircle
 62
7
  6
CONTINUOUS
 10
113.8464848039
 20
45.4399572292
 40
4.1037732614
100
AcDbArc
 50
82.1324379821
 51
90.8849774451
  0
ARC
  5
2C8
100
AcDbEntity
  8
0
100
AcDbCircle
 62
7
  6
CONTINUOUS
 10
113.8471540506
 20
45.4420747387
 40
4.1016664012
100
AcDbArc
 50
90.8947818291
 51
97.8706719623
  0
ARC
  5
2C9
100
AcDbEntity
  8
0
100
AcDbCircle
 62
7
  6
CONTINUOUS
 10
113.8466203684
 20
45.4453982185
 40
4.1016664012
100
AcDbArc
 50
270.8947818291
 51
277.8706719625
  0
ARC
  5
2CA
100
AcDbEntity
  8
0
100
AcDbCircle
 62
7
  6
CONTINUOUS
 10
113.5566441879
 20
45.4389511628
 40
4.0998193115
100
AcDbArc
 50
281.5094897
 51
78.5300690745
  0
ARC
  5
2CB
100
AcDbEntity
  8
0
100
AcDbCircle
 62
7
  6
CONTINUOUS
 10
113.5584264529
 20
45.4341002823
 40
4.0947462482
100
AcDbArc
 50
272.1635167195
 51
277.92325545
  0
ARC
  5
2CC
100
AcDbEntity
  8
0
100
AcDbCircle
 62
7
  6
CONTINUOUS
 10
113.5582429479
 20
45.4456738274
 40
4.0934440726
100
AcDbArc
 50
78.5358212409
 51
86.8622859942
  0
ARC
  5
2CD
100
AcDbEntity
  8
0
100
AcDbCircle
 62
7
  6
CONTINUOUS
 10
113.5589327968
 20
45.4258807837
 40
4.0865354673
100
AcDbArc
 50
277.9321097482
 51
281.5146120937
  0
ARC
  5
2CE
100
AcDbEntity
  8
0
100
AcDbCircle
 62
7
  6
CONTINUOUS
 10
113.1281771899
 20
109.5535462235
 40
120.0590314498
100
AcDbArc
 50
95.6390643833
 51
96.529989677
  0
ARC
  5
2CF
100
AcDbEntity
  8
0
100
AcDbCircle
 62
7
  6
CONTINUOUS
 10
113.1280903037
 20
109.5343493533
 40
120.058223654
100
AcDbArc
 50
95.6390607013
 51
96.530758592
  0
ARC
  5
2D0
100
AcDbEntity
  8
0
100
AcDbCircle
 62
7
  6
CONTINUOUS
 10
113.1281043874
 20
109.5545781749
 40
120.0579981322
100
AcDbArc
 50
98.0280958886
 51
98.5804782515
  0
ARC
  5
2D1
100
AcDbEntity
  8
0
100
AcDbCircle
 62
7
  6
CONTINUOUS
 10
113.4011365595
 20
109.6335657102
 40
119.963259987
100
AcDbArc
 50
91.0078803975
 51
91.2869724526
  0
ARC
  5
2D2
100
AcDbEntity
  8
0
100
AcDbCircle
 62
7
  6
CONTINUOUS
 10
113.3992928923
 20
109.7992613465
 40
119.7975647548
100
AcDbArc
 50
91.2878708022
 51
94.8649911363
  0
ARC
  5
2D3
100
AcDbEntity
  8
0
100
AcDbCircle
 62
7
  6
CONTINUOUS
 10
113.8693326658
 20
93.6878281833
 40
4.8431776171
100
AcDbArc
 50
260.9688162363
 51
262.3937455082
  0
ARC
  5
2D4
100
AcDbEntity
  8
0
100
AcDbCircle
 62
7
  6
CONTINUOUS
 10
113.8691305088
 20
93.2009693258
 40
4.8421994422
100
AcDbArc
 50
97.6062946749
 51
99.0491487257
  0
ARC
  5
2D5
100
AcDbEntity
  8
0
100
AcDbCircle
 62
7
  6
CONTINUOUS
 10
113.8489212487
 20
93.6726312458
 40
4.8278425973
100
AcDbArc
 50
277.6059159195
 51
278.8093524022
  0
ARC
  5
2D6
100
AcDbEntity
  8
0
100
AcDbCircle
 62
7
  6
CONTINUOUS
 10
113.8490184012
 20
93.2164733387
 40
4.8265525682
100
AcDbArc
 50
81.2051539831
 51
82.3941134605
  0
ARC
  5
2D7
100
AcDbEntity
  8
0
100
AcDbCircle
 62
7
  6
CONTINUOUS
 10
113.8568587292
 20
93.4630774198
 40
4.6191299732
100
AcDbArc
 50
262.1786629354
 51
277.8523675655
  0
ARC
  5
2D8
100
AcDbEntity
  8
0
100
AcDbCircle
 62
7
  6
CONTINUOUS
 10
113.8592609899
 20
93.4247506762
 40
4.6191287438
100
AcDbArc
 50
82.1786643203
 51
97.8523689504
  0
ARC
  5
2D9
100
AcDbEntity
  8
0
100
AcDbCircle
 62
7
  6
CONTINUOUS
 10
114.1081684
 20
93.440890256
 40
4.4766491457
100
AcDbArc
 50
0.0359495742
 51
9.8473364544
  0
ARC
  5
2DA
100
AcDbEntity
  8
0
100
AcDbCircle
 62
7
  6
CONTINUOUS
 10
114.1088664091
 20
93.4463965717
 40
4.4759516734
100
AcDbArc
 50
350.2111909333
 51
359.9654699032
  0
ARC
  5
2DB
100
AcDbEntity
  8
0
100
AcDbCircle
 62
7
  6
CONTINUOUS
 10
113.4465202605
 20
93.4436103461
 40
4.3427707475
100
AcDbArc
 50
178.0230343237
 51
181.987323804
  0
ARC
  5
2DC
100
AcDbEntity
  8
0
100
AcDbCircle
 62
7
  6
CONTINUOUS
 10
113.5570993257
 20
93.4288472846
 40
4.1102829834
100
AcDbArc
 50
86.8647734036
 51
89.644611699
  0
ARC
  5
2DD
100
AcDbEntity
  8
0
100
AcDbCircle
 62
7
  6
CONTINUOUS
 10
113.8468895143
 20
93.4475126153
 40
4.1037732614
100
AcDbArc
 50
262.1324379823
 51
270.8849774451
  0
ARC
  5
2DE
100
AcDbEntity
  8
0
100
AcDbCircle
 62
7
  6
CONTINUOUS
 10
113.8460847031
 20
93.4399541166
 40
4.1037732613
100
AcDbArc
 50
82.1324379824
 51
90.8849774452
  0
ARC
  5
2DF
100
AcDbEntity
  8
0
100
AcDbCircle
 62
7
  6
CONTINUOUS
 10
113.8467539498
 20
93.4420716262
 40
4.1016664011
100
AcDbArc
 50
90.894781829
 51
97.8706719622
  0
ARC
  5
2E0
100
AcDbEntity
  8
0
100
AcDbCircle
 62
7
  6
CONTINUOUS
 10
113.8462202676
 20
93.4453951057
 40
4.1016664011
100
AcDbArc
 50
270.894781829
 51
277.8706719623
  0
ARC
  5
2E1
100
AcDbEntity
  8
0
100
AcDbCircle
 62
7
  6
CONTINUOUS
 10
113.5562440866
 20
93.4389480505
 40
4.099819312
100
AcDbArc
 50
281.5094897056
 51
78.5300690745
  0
ARC
  5
2E2
100
AcDbEntity
  8
0
100
AcDbCircle
 62
7
  6
CONTINUOUS
 10
113.5580263521
 20
93.4340971696
 40
4.0947462482
100
AcDbArc
 50
272.1635167195
 51
277.9232554501
  0
ARC
  5
2E3
100
AcDbEntity
  8
0
100
AcDbCircle
 62
7
  6
CONTINUOUS
 10
113.5578428471
 20
93.4456707147
 40
4.0934440726
100
AcDbArc
 50
78.5358212413
 51
86.8622859942
  0
ARC
  5
2E4
100
AcDbEntity
  8
0
100
AcDbCircle
 62
7
  6
CONTINUOUS
 10
113.558532696
 20
93.425877671
 40
4.0865354673
100
AcDbArc
 50
277.9321097482
 51
281.5146120933
  0
ARC
  5
2E5
100
AcDbEntity
  8
0
100
AcDbCircle
 62
7
  6
CONTINUOUS
 10
93.7933262163
 20
171.7226521005
 40
36.0166730197
100
AcDbArc
 50
93.3007709216
 51
93.515938036
  0
ARC
  5
2E6
100
AcDbEntity
  8
0
100
AcDbCircle
 62
7
  6
CONTINUOUS
 10
110.7690560019
 20
213.3392180028
 40
20.9372546988
100
AcDbArc
 50
171.2411333033
 51
180.0569888891
  0
ARC
  5
2E7
100
AcDbEntity
  8
0
100
AcDbCircle
 62
7
  6
CONTINUOUS
 10
96.6342962755
 20
218.85503502
 40
9.5002949406
100
AcDbArc
 50
99.063217026
 51
105.0488514181
  0
ARC
  5
2E8
100
AcDbEntity
  8
0
100
AcDbCircle
 62
7
  6
CONTINUOUS
 10
96.6343061052
 20
218.8560687104
 40
9.4993622634
100
AcDbArc
 50
105.0505274891
 51
180.0059916768
  0
ARC
  5
2E9
100
AcDbEntity
  8
0
100
AcDbCircle
 62
7
  6
CONTINUOUS
 10
96.634266424
 20
218.8761666539
 40
9.4992779869
100
AcDbArc
 50
99.0897082383
 51
180.0065824592
  0
ARC
  5
2EA
100
AcDbEntity
  8
0
100
AcDbCircle
 62
7
  6
CONTINUOUS
 10
96.605054301
 20
218.8756739497
 40
9.499274014
100
AcDbArc
 50
104.8977333741
 51
180.0063476291
  0
ARC
  5
2EB
100
AcDbEntity
  8
0
100
AcDbCircle
 62
7
  6
CONTINUOUS
 10
96.6235834318
 20
218.9377712447
 40
9.4366523706
100
AcDbArc
 50
98.5805520919
 51
99.0847507538
  0
ARC
  5
2EC
100
AcDbEntity
  8
0
100
AcDbCircle
 62
7
  6
CONTINUOUS
 10
98.6990714973
 20
205.5294177886
 40
7.3032305953
100
AcDbArc
 50
162.8777243538
 51
164.8093813793
  0
ARC
  5
2ED
100
AcDbEntity
  8
0
100
AcDbCircle
 62
7
  6
CONTINUOUS
 10
113.9736282536
 20
184.4457210694
 40
6.000229101
100
AcDbArc
 50
270.9077868181
 51
89.984096197
  0
ARC
  5
2EE
100
AcDbEntity
  8
0
100
AcDbCircle
 62
7
  6
CONTINUOUS
 10
113.9770586014
 20
184.4457668909
 40
6.0002281904
100
AcDbArc
 50
90.9077875672
 51
269.9841016849
  0
ARC
  5
2EF
100
AcDbEntity
  8
0
100
AcDbCircle
 62
7
  6
CONTINUOUS
 10
101.9819499774
 20
247.6060299229
 40
5.5312583752
100
AcDbArc
 50
179.4264198882
 51
181.6444041083
  0
ARC
  5
2F0
100
AcDbEntity
  8
0
100
AcDbCircle
 62
7
  6
CONTINUOUS
 10
106.3355564483
 20
240.6042347658
 40
5.0049427781
100
AcDbArc
 50
172.9017186202
 51
179.9902658238
  0
ARC
  5
2F1
100
AcDbEntity
  8
0
100
AcDbCircle
 62
7
  6
CONTINUOUS
 10
95.7710168393
 20
212.2290641451
 40
4.3991078238
100
AcDbArc
 50
32.8532744265
 51
36.7846394814
  0
ARC
  5
2F2
100
AcDbEntity
  8
0
100
AcDbCircle
 62
7
  6
CONTINUOUS
 10
95.7744177653
 20
212.2584903745
 40
4.3860206413
100
AcDbArc
 50
357.4510994353
 51
2.5265756436
  0
ARC
  5
2F3
100
AcDbEntity
  8
0
100
AcDbCircle
 62
7
  6
CONTINUOUS
 10
95.7875042422
 20
212.2399887492
 40
4.3793308968
100
AcDbArc
 50
32.5549189943
 51
32.8502246338
  0
ARC
  5
2F4
100
AcDbEntity
  8
0
100
AcDbCircle
 62
7
  6
CONTINUOUS
 10
95.8291578192
 20
212.2644240428
 40
4.3310736548
100
AcDbArc
 50
2.4800782564
 51
32.578971829
  0
ARC
  5
2F5
100
AcDbEntity
  8
0
100
AcDbCircle
 62
7
  6
CONTINUOUS
 10
95.5590777276
 20
212.0771203303
 40
4.0079442146
100
AcDbArc
 50
274.1459336166
 51
275.0246906081
  0
ARC
  5
2F6
100
AcDbEntity
  8
0
100
AcDbCircle
 62
7
  6
CONTINUOUS
 10
95.5591218539
 20
212.0691953876
 40
4.0008074557
100
AcDbArc
 50
0.0004102737
 51
30.0265791801
  0
ARC
  5
2F7
100
AcDbEntity
  8
0
100
AcDbCircle
 62
7
  6
CONTINUOUS
 10
95.5604148746
 20
212.0686951077
 40
3.9994843106
100
AcDbArc
 50
275.0161797634
 51
0.0075772586
  0
ARC
  5
2F8
100
AcDbEntity
  8
0
100
AcDbCircle
 62
7
  6
CONTINUOUS
 10
95.5608107181
 20
212.0706471722
 40
3.9985681717
100
AcDbArc
 50
32.3911951881
 51
87.5602024181
  0
ARC
  5
2F9
100
AcDbEntity
  8
0
100
AcDbCircle
 62
7
  6
CONTINUOUS
 10
95.5671261132
 20
212.0732922382
 40
3.9918273764
100
AcDbArc
 50
30.0331575543
 51
32.4076959617
  0
ARC
  5
2FA
100
AcDbEntity
  8
0
100
AcDbCircle
 62
7
  6
CONTINUOUS
 10
95.5603800014
 20
212.0570895985
 40
3.9878717526
100
AcDbArc
 50
270.9030327978
 51
274.1480786444
  0
ARC
  5
2FB
100
AcDbEntity
  8
0
100
AcDbCircle
 62
7
  6
CONTINUOUS
 10
95.5608319078
 20
212.0982707965
 40
3.9709529824
100
AcDbArc
 50
87.5435407497
 51
89.9980429258
  0
ARC
  5
2FC
100
AcDbEntity
  8
0
100
AcDbCircle
 62
7
  6
CONTINUOUS
 10
93.5225272934
 20
229.3861234527
 40
3.000764138
100
AcDbArc
 50
341.0049403042
 51
359.9905431539
  0
ARC
  5
2FD
100
AcDbEntity
  8
0
100
AcDbCircle
 62
7
  6
CONTINUOUS
 10
101.981668941
 20
247.6060272977
 40
2.5309773792
100
AcDbArc
 50
179.4266856569
 51
181.644669877
  0
ARC
  5
2FE
100
AcDbEntity
  8
0
100
AcDbCircle
 62
7
  6
CONTINUOUS
 10
113.9644949286
 20
184.4455691035
 40
2.490050014
100
AcDbArc
 50
90.0171370946
 51
269.9838181422
  0
ARC
  5
2FF
100
AcDbEntity
  8
0
100
AcDbCircle
 62
7
  6
CONTINUOUS
 10
113.963046942
 20
184.4455591361
 40
2.490050014
100
AcDbArc
 50
270.0171370974
 51
89.9838181397
  0
ARC
  5
300
100
AcDbEntity
  8
0
100
AcDbCircle
 62
7
  6
CONTINUOUS
 10
104.4835862015
 20
259.7647721876
 40
1.5008732329
100
AcDbArc
 50
180.0039303512
 51
258.3997017864
  0
ARC
  5
301
100
AcDbEntity
  8
0
100
AcDbCircle
 62
7
  6
CONTINUOUS
 10
105.4844242599
 20
268.2645341831
 40
1.5007707352
100
AcDbArc
 50
180.0027709174
 51
258.3924153072
  0
ARC
  5
302
100
AcDbEntity
  8
0
100
AcDbCircle
 62
7
  6
CONTINUOUS
 10
106.3852757235
 20
276.7643077945
 40
1.500678769
100
AcDbArc
 50
180.0016325527
 51
258.3857176336
  0
ARC
  5
303
100
AcDbEntity
  8
0
100
AcDbCircle
 62
7
  6
CONTINUOUS
 10
107.4861075174
 20
285.2640540995
 40
1.5005670981
100
AcDbArc
 50
180.0002959946
 51
258.3775408973
  0
ARC
  5
304
100
AcDbEntity
  8
0
100
AcDbCircle
 62
7
  6
CONTINUOUS
 10
97.568796024
 20
247.4785986856
 40
1.1162887898
100
AcDbArc
 50
171.2285560137
 51
179.4009776125
  0
ARC
  5
305
100
AcDbEntity
  8
0
100
AcDbCircle
 62
7
  6
CONTINUOUS
 10
110.1620488678
 20
642.7462110995
 40
364.5097100734
100
AcDbArc
 50
269.564119731
 51
269.8044087288
  0
ARC
  5
306
100
AcDbEntity
  8
0
100
AcDbCircle
 62
7
  6
CONTINUOUS
 10
108.2647972065
 20
568.4312771544
 40
307.1987639634
100
AcDbArc
 50
269.464268608
 51
269.7519966744
  0
ARC
  5
307
100
AcDbEntity
  8
0
100
AcDbCircle
 62
7
  6
CONTINUOUS
 10
109.0422903081
 20
568.0131285809
 40
298.2779708753
100
AcDbArc
 50
269.4735778595
 51
269.784113195
  0
ARC
  5
308
100
AcDbEntity
  8
0
100
AcDbCircle
 62
7
  6
CONTINUOUS
 10
147.1492149059
 20
139.201093131
 40
60.0136563728
100
AcDbArc
 50
180.0002059711
 51
198.9402700697
  0
ARC
  5
309
100
AcDbEntity
  8
0
100
AcDbCircle
 62
7
  6
CONTINUOUS
 10
168.7666587301
 20
103.8077215294
 40
45.0152463674
100
AcDbArc
 50
154.9592414188
 51
157.173627933
  0
ARC
  5
30A
100
AcDbEntity
  8
0
100
AcDbCircle
 62
7
  6
CONTINUOUS
 10
116.3371844963
 20
213.3382828408
 40
20.943371424
100
AcDbArc
 50
359.9433126624
 51
8.7588717716
  0
ARC
  5
30B
100
AcDbEntity
  8
0
100
AcDbCircle
 62
7
  6
CONTINUOUS
 10
134.2976971602
 20
186.7870200381
 40
20.9402654102
100
AcDbArc
 50
85.8181134027
 51
86.1316529957
  0
ARC
  5
30C
100
AcDbEntity
  8
0
100
AcDbCircle
 62
7
  6
CONTINUOUS
 10
129.6162282069
 20
218.8529094849
 40
9.5230047011
100
AcDbArc
 50
74.7484096906
 51
78.4214160108
  0
ARC
  5
30D
100
AcDbEntity
  8
0
100
AcDbCircle
 62
7
  6
CONTINUOUS
 10
129.6185912054
 20
218.8606919592
 40
9.5148747226
100
AcDbArc
 50
70.8604358876
 51
74.7498099275
  0
ARC
  5
30E
100
AcDbEntity
  8
0
100
AcDbCircle
 62
7
  6
CONTINUOUS
 10
129.6256466826
 20
218.8986706105
 40
9.4762844001
100
AcDbArc
 50
78.4216700539
 51
80.9121892339
  0
ARC
  5
30F
100
AcDbEntity
  8
0
100
AcDbCircle
 62
7
  6
CONTINUOUS
 10
129.6337781064
 20
218.9053545651
 40
9.4677016138
100
AcDbArc
 50
69.2539708971
 51
70.8586437784
  0
ARC
  5
310
100
AcDbEntity
  8
0
100
AcDbCircle
 62
7
  6
CONTINUOUS
 10
129.6316350328
 20
218.934677588
 40
9.4397835574
100
AcDbArc
 50
80.9135606676
 51
81.2158331063
  0
ARC
  5
311
100
AcDbEntity
  8
0
100
AcDbCircle
 62
7
  6
CONTINUOUS
 10
129.6328003861
 20
218.9422051812
 40
9.432166294
100
AcDbArc
 50
81.2158460146
 51
81.4195263958
  0
ARC
  5
312
100
AcDbEntity
  8
0
100
AcDbCircle
 62
7
  6
CONTINUOUS
 10
134.7560421655
 20
100.4205056458
 40
7.9339415101
100
AcDbArc
 50
179.7290566358
 51
182.581035803
  0
ARC
  5
313
100
AcDbEntity
  8
0
100
AcDbCircle
 62
7
  6
CONTINUOUS
 10
134.993426377
 20
100.5982213044
 40
7.9125977734
100
AcDbArc
 50
181.650878406
 51
183.2652412826
  0
ARC
  5
314
100
AcDbEntity
  8
0
100
AcDbCircle
 62
7
  6
CONTINUOUS
 10
134.9219739795
 20
100.7129046952
 40
7.8665912271
100
AcDbArc
 50
182.4382078224
 51
184.162366523
  0
ARC
  5
315
100
AcDbEntity
  8
0
100
AcDbCircle
 62
7
  6
CONTINUOUS
 10
134.6817065075
 20
100.6531154768
 40
7.8434846741
100
AcDbArc
 50
181.4485948822
 51
184.2582806547
  0
ARC
  5
316
100
AcDbEntity
  8
0
100
AcDbCircle
 62
7
  6
CONTINUOUS
 10
128.9593955079
 20
205.8881091753
 40
6.9847161963
100
AcDbArc
 50
12.8629109831
 51
14.8615416864
  0
ARC
  5
317
100
AcDbEntity
  8
0
100
AcDbCircle
 62
7
  6
CONTINUOUS
 10
133.5265111101
 20
229.3870653828
 40
6.0076915491
100
AcDbArc
 50
179.9988662431
 51
186.5642082812
  0
ARC
  5
318
100
AcDbEntity
  8
0
100
AcDbCircle
 62
7
  6
CONTINUOUS
 10
128.4841655978
 20
222.8298716098
 40
5.7706201002
100
AcDbArc
 50
71.4551114874
 51
82.1381606014
  0
ARC
  5
319
100
AcDbEntity
  8
0
100
AcDbCircle
 62
7
  6
CONTINUOUS
 10
119.9256708266
 20
240.6027317625
 40
5.004942778
100
AcDbArc
 50
359.9970608843
 51
7.0856080879
  0
ARC
  5
31A
100
AcDbEntity
  8
0
100
AcDbCircle
 62
7
  6
CONTINUOUS
 10
127.658179168
 20
30.3402276601
 40
4.9954570473
100
AcDbArc
 50
270.8903437677
 51
325.4084585783
  0
ARC
  5
31B
100
AcDbEntity
  8
0
100
AcDbCircle
 62
7
  6
CONTINUOUS
 10
129.0251020508
 20
139.4755987373
 40
4.7305561673
100
AcDbArc
 50
354.2474906508
 51
359.3130767208
  0
ARC
  5
31C
100
AcDbEntity
  8
0
100
AcDbCircle
 62
7
  6
CONTINUOUS
 10
132.2234476489
 20
212.399093675
 40
4.6065440903
100
AcDbArc
 50
183.7195272873
 51
185.7442604363
  0
ARC
  5
31D
100
AcDbEntity
  8
0
100
AcDbCircle
 62
7
  6
CONTINUOUS
 10
131.7863091907
 20
139.3593661691
 40
3.9833302535
100
AcDbArc
 50
355.6171832844
 51
0.0580976152
  0
ARC
  5
31E
100
AcDbEntity
  8
0
100
AcDbCircle
 62
7
  6
CONTINUOUS
 10
131.7312040215
 20
212.2536954157
 40
3.8183483088
100
AcDbArc
 50
90.8914400565
 51
92.6910987985
  0
ARC
  5
31F
100
AcDbEntity
  8
0
100
AcDbCircle
 62
7
  6
CONTINUOUS
 10
133.5181621484
 20
229.3862598806
 40
2.9993426578
100
AcDbArc
 50
179.9906078287
 51
200.7513008917
  0
ARC
  5
320
100
AcDbEntity
  8
0
100
AcDbCircle
 62
7
  6
CONTINUOUS
 10
121.7818798064
 20
259.7623198191
 40
1.5008732329
100
AcDbArc
 50
0.0039827833
 51
78.3997387188
  0
ARC
  5
321
100
AcDbEntity
  8
0
100
AcDbCircle
 62
7
  6
CONTINUOUS
 10
120.7829200322
 20
268.2623659003
 40
1.5007707352
100
AcDbArc
 50
0.0027415408
 51
78.392367911
  0
ARC
  5
322
100
AcDbEntity
  8
0
100
AcDbCircle
 62
7
  6
CONTINUOUS
 10
119.8839306102
 20
276.7623818467
 40
1.5007009943
100
AcDbArc
 50
0.0022283949
 51
78.3851208016
  0
ARC
  5
323
100
AcDbEntity
  8
0
100
AcDbCircle
 62
7
  6
CONTINUOUS
 10
118.7849982967
 20
285.2624570198
 40
1.5005670981
100
AcDbArc
 50
0.0002983805
 51
78.377549385
  0
ARC
  5
324
100
AcDbEntity
  8
0
100
AcDbCircle
 62
7
  6
CONTINUOUS
 10
126.8987813082
 20
99.901655731
 40
0.5039270684
100
AcDbArc
 50
68.4037234307
 51
71.0408082106
  0
ARC
  5
325
100
AcDbEntity
  8
0
100
AcDbCircle
 62
7
  6
CONTINUOUS
 10
127.1658154104
 20
99.8917133218
 40
0.2657961937
100
AcDbArc
 50
105.748104752
 51
109.7189366767
  0
ARC
  5
326
100
AcDbEntity
  8
0
100
AcDbCircle
 62
7
  6
CONTINUOUS
 10
126.7810150249
 20
100.3207933718
 40
0.2622162295
100
AcDbArc
 50
280.7999904271
 51
287.5020828401
  0
ARC
  5
327
100
AcDbEntity
  8
0
100
AcDbCircle
 62
7
  6
CONTINUOUS
 10
115.7704893802
 20
721.714434941
 40
443.4795615515
100
AcDbArc
 50
270.2049117219
 51
270.4018917347
  0
ARC
  5
328
100
AcDbEntity
  8
0
100
AcDbCircle
 62
7
  6
CONTINUOUS
 10
117.6076973637
 20
637.7292361049
 40
376.4991531774
100
AcDbArc
 50
270.2661399494
 51
270.4999496231
  0
ARC
  5
329
100
AcDbEntity
  8
0
100
AcDbCircle
 62
7
  6
CONTINUOUS
 10
116.8066870254
 20
644.9741415058
 40
375.241188288
100
AcDbArc
 50
270.2372734144
 51
270.4848736651
  0
ARC
  5
32A
100
AcDbEntity
  8
0
100
AcDbCircle
 62
7
  6
CONTINUOUS
 10
297.3751869729
 20
58.4090494499
 40
188.9715897094
100
AcDbArc
 50
166.6834104163
 51
167.0214363268
  0
ARC
  5
32B
100
AcDbEntity
  8
0
100
AcDbCircle
 62
7
  6
CONTINUOUS
 10
197.8273032167
 20
101.1841018283
 40
83.9708327129
100
AcDbArc
 50
180.291078846
 51
180.4645377607
  0
ARC
  5
32C
100
AcDbEntity
  8
0
100
AcDbCircle
 62
7
  6
CONTINUOUS
 10
194.3909269752
 20
100.6679101896
 40
79.9041616394
100
AcDbArc
 50
179.8697773448
 51
180.1124883948
  0
ARC
  5
32D
100
AcDbEntity
  8
0
100
AcDbCircle
 62
7
  6
CONTINUOUS
 10
113.362696928
 20
2395.6375199495
 40
2155.0902814222
100
AcDbArc
 50
269.7860097596
 51
270.2045718537
  0
ARC
  5
32E
100
AcDbEntity
  8
0
100
AcDbCircle
 62
7
  6
CONTINUOUS
 10
113.3008674454
 20
1796.7896674607
 40
1535.5676407419
100
AcDbArc
 50
269.7624769353
 51
270.2259524184
  0
ARC
  5
32F
100
AcDbEntity
  8
0
100
AcDbCircle
 62
7
  6
CONTINUOUS
 10
113.2735857772
 20
1536.2388776121
 40
1258.0077938327
100
AcDbArc
 50
269.8016123495
 51
270.185957843
  0
ARC
  5
330
100
AcDbEntity
  8
0
100
AcDbCircle
 62
7
  6
CONTINUOUS
 10
113.2532388512
 20
1271.0302206476
 40
992.7940104803
100
AcDbArc
 50
269.7506741451
 51
270.2291680261
  0
SPLINE
  5
331
100
AcDbEntity
  8
0
100
AcDbSpline
 62
7
  6
CONTINUOUS
 70
0
 71
3
 72
15
 73
11
 74
0
 42
0.0000001
 43
0.0000001
 44
0.0000000001
 40
0.0
 40
0.0
 40
0.0
 40
0.0
 40
0.0870842765
 40
0.1801197741
 40
0.2825046347
 40
0.3971279098
 40
0.5260269606
 40
0.6696178186
 40
0.8277821204
 40
1.0
 40
1.0
 40
1.0
 40
1.0
 10
99.4508182671
 20
247.631352399
 30
0.0
 10
99.452315853
 20
247.7808579819
 30
0.0
 10
99.4831166581
 20
248.0904654972
 30
0.0
 10
99.6156355151
 20
248.5593479598
 30
0.0
 10
99.8420669073
 20
249.0434667544
 30
0.0
 10
100.1709031186
 20
249.5402434154
 30
0.0
 10
100.6067104766
 20
250.0441511784
 30
0.0
 10
101.1513535747
 20
250.5462507804
 30
0.0
 10
101.8021713819
 20
251.0366265341
 30
0.0
 10
102.2838429475
 20
251.3375939121
 30
0.0
 10
102.5402275079
 20
251.4848756274
 30
0.0
  0
SPLINE
  5
332
100
AcDbEntity
  8
0
100
AcDbSpline
 62
7
  6
CONTINUOUS
 70
0
 71
3
 72
15
 73
11
 74
0
 42
0.0000001
 43
0.0000001
 44
0.0000000001
 40
0.0
 40
0.0
 40
0.0
 40
0.0
 40
0.1735874065
 40
0.3334195
 40
0.4786775201
 40
0.6089014915
 40
0.7241501583
 40
0.8257862514
 40
0.9165478661
 40
1.0
 40
1.0
 40
1.0
 40
1.0
 10
123.7142855446
 20
251.6686549826
 30
0.0
 10
124.0165840295
 20
251.5124860479
 30
0.0
 10
124.5865711489
 20
251.1910478303
 30
0.0
 10
125.3624986162
 20
250.6613055976
 30
0.0
 10
126.0182934566
 20
250.1129381373
 30
0.0
 10
126.5480426801
 20
249.5572742593
 30
0.0
 10
126.9517581585
 20
249.0068965376
 30
0.0
 10
127.2327995431
 20
248.4704405731
 30
0.0
 10
127.4005653719
 20
247.9535379239
 30
0.0
 10
127.4438039561
 20
247.6123691861
 30
0.0
 10
127.4484976808
 20
247.4488592239
 30
0.0
  0
SPLINE
  5
333
100
AcDbEntity
  8
0
100
AcDbSpline
 62
7
  6
CONTINUOUS
 70
0
 71
3
 72
10
 73
6
 74
0
 42
0.0000001
 43
0.0000001
 44
0.0000000001
 40
0.0
 40
0.0
 40
0.0
 40
0.0
 40
0.1871173353
 40
0.4267044943
 40
1.0
 40
1.0
 40
1.0
 40
1.0
 10
130.4824184923
 20
246.3102485992
 30
0.0
 10
130.4895202617
 20
246.062852314
 30
0.0
 10
130.5007460813
 20
245.4985495503
 30
0.0
 10
130.5168641166
 20
244.1759560064
 30
0.0
 10
130.5208030744
 20
243.1007457957
 30
0.0
 10
130.5206882369
 20
242.3424536703
 30
0.0
  0
SPLINE
  5
334
100
AcDbEntity
  8
0
100
AcDbSpline
 62
7
  6
CONTINUOUS
 70
0
 71
3
 72
10
 73
6
 74
0
 42
0.0000001
 43
0.0000001
 44
0.0000000001
 40
0.0
 40
0.0
 40
0.0
 40
0.0
 40
0.1829153701
 40
0.4226657145
 40
1.0
 40
1.0
 40
1.0
 40
1.0
 10
127.4836537846
 20
246.224165918
 30
0.0
 10
127.4904446924
 20
245.9875987656
 30
0.0
 10
127.5012303919
 20
245.4408238156
 30
0.0
 10
127.5169571548
 20
244.1470704351
 30
0.0
 10
127.5208014532
 20
243.0898689743
 30
0.0
 10
127.5206882681
 20
242.3428864353
 30
0.0
  0
SPLINE
  5
335
100
AcDbEntity
  8
0
100
AcDbSpline
 62
7
  6
CONTINUOUS
 70
0
 71
3
 72
15
 73
11
 74
0
 42
0.0000001
 43
0.0000001
 44
0.0000000001
 40
0.0
 40
0.0
 40
0.0
 40
0.0
 40
0.1085466721
 40
0.2186291385
 40
0.3320425319
 40
0.4506364968
 40
0.576017052
 40
0.7092107792
 40
0.8506098606
 40
1.0
 40
1.0
 40
1.0
 40
1.0
 10
96.4509687639
 20
247.6614016594
 30
0.0
 10
96.4552887363
 20
248.0926690831
 30
0.0
 10
96.5673612756
 20
248.9635088928
 30
0.0
 10
97.0305442634
 20
250.2093819285
 30
0.0
 10
97.7573342871
 20
251.3678317281
 30
0.0
 10
98.7154411739
 20
252.4242076556
 30
0.0
 10
99.8788965119
 20
253.376053061
 30
0.0
 10
101.2280554513
 20
254.2225865839
 30
0.0
 10
102.7447477188
 20
254.9618721109
 30
0.0
 10
103.8274144721
 20
255.3702033176
 30
0.0
 10
104.3907739926
 20
255.5571645651
 30
0.0
  0
SPLINE
  5
336
100
AcDbEntity
  8
0
100
AcDbSpline
 62
7
  6
CONTINUOUS
 70
0
 71
3
 72
16
 73
12
 74
0
 42
0.0000001
 43
0.0000001
 44
0.0000000001
 40
0.0
 40
0.0
 40
0.0
 40
0.0
 40
0.1503109922
 40
0.2927247866
 40
0.4267814387
 40
0.5526472499
 40
0.6711881214
 40
0.7839408193
 40
0.8928418561
 40
0.9464734658
 40
1.0
 40
1.0
 40
1.0
 40
1.0
 10
121.8574713232
 20
255.6444129954
 30
0.0
 10
122.4582687444
 20
255.4566300368
 30
0.0
 10
123.6144796332
 20
255.0440503376
 30
0.0
 10
125.2384656307
 20
254.2913150682
 30
0.0
 10
126.6878358397
 20
253.4251551282
 30
0.0
 10
127.9423286553
 20
252.4489832449
 30
0.0
 10
128.9810391789
 20
251.3639686982
 30
0.0
 10
129.7774444174
 20
250.1728096904
 30
0.0
 10
130.2124030169
 20
249.094074177
 30
0.0
 10
130.4005980693
 20
248.2072840348
 30
0.0
 10
130.4408304616
 20
247.7590036455
 30
0.0
 10
130.4472623884
 20
247.534941905
 30
0.0
  0
SPLINE
  5
337
100
AcDbEntity
  8
0
100
AcDbSpline
 62
7
  6
CONTINUOUS
 70
0
 71
3
 72
10
 73
6
 74
0
 42
0.0000001
 43
0.0000001
 44
0.0000000001
 40
0.0
 40
0.0
 40
0.0
 40
0.0
 40
0.5733002838
 40
0.812879312
 40
1.0
 40
1.0
 40
1.0
 40
1.0
 10
99.5251603498
 20
242.3428212694
 30
0.0
 10
99.5252696727
 20
243.1007521002
 30
0.0
 10
99.5213268334
 20
244.1754365929
 30
0.0
 10
99.5052109267
 20
245.4973888922
 30
0.0
 10
99.4939887744
 20
246.0614117241
 30
0.0
 10
99.4868903206
 20
246.3086925047
 30
0.0
  0
SPLINE
  5
338
100
AcDbEntity
  8
0
100
AcDbSpline
 62
7
  6
CONTINUOUS
 70
0
 71
3
 72
10
 73
6
 74
0
 42
0.0000001
 43
0.0000001
 44
0.0000000001
 40
0.0
 40
0.0
 40
0.0
 40
0.0
 40
0.5773402517
 40
0.8170818535
 40
1.0
 40
1.0
 40
1.0
 40
1.0
 10
96.525160381
 20
242.3432539853
 30
0.0
 10
96.5252680724
 20
243.0898740482
 30
0.0
 10
96.521419917
 20
244.1465479518
 30
0.0
 10
96.5056953532
 20
245.4396601054
 30
0.0
 10
96.4949132584
 20
245.986156321
 30
0.0
 10
96.488125613
 20
246.2226098236
 30
0.0
  0
SPLINE
  5
339
100
AcDbEntity
  8
0
100
AcDbSpline
 62
7
  6
CONTINUOUS
 70
0
 71
3
 72
21
 73
17
 74
0
 42
0.0000001
 43
0.0000001
 44
0.0000000001
 40
0.0
 40
0.0
 40
0.0
 40
0.0
 40
0.1920470286
 40
0.3775040937
 40
0.5489715255
 40
0.7000385939
 40
0.7660397904
 40
0.8248346468
 40
0.875847487
 40
0.9185790965
 40
0.9526489135
 40
0.9776994937
 40
0.9867685088
 40
0.9935122212
 40
0.9979193504
 40
1.0
 40
1.0
 40
1.0
 40
1.0
 10
98.0487676924
 20
229.3682421188
 30
0.0
 10
97.9511047864
 20
229.3682372157
 30
0.0
 10
97.7591301371
 20
229.3684410105
 30
0.0
 10
97.4799593955
 20
229.3693717288
 30
0.0
 10
97.2216314375
 20
229.3708920761
 30
0.0
 10
97.0240541017
 20
229.3726552142
 30
0.0
 10
96.883778279
 20
229.3743702503
 30
0.0
 10
96.7943821406
 20
229.3756971696
 30
0.0
 10
96.7168249907
 20
229.3771127898
 30
0.0
 10
96.6518376899
 20
229.3785839633
 30
0.0
 10
96.6000790652
 20
229.3801314477
 30
0.0
 10
96.5653969235
 20
229.3814691644
 30
0.0
 10
96.5446936
 20
229.382730087
 30
0.0
 10
96.5343649489
 20
229.3834241346
 30
0.0
 10
96.5278273262
 20
229.38437081
 30
0.0
 10
96.5243851751
 20
229.3847451788
 30
0.0
 10
96.5235077537
 20
229.3853365144
 30
0.0
  0
SPLINE
  5
33A
100
AcDbEntity
  8
0
100
AcDbSpline
 62
7
  6
CONTINUOUS
 70
0
 71
3
 72
13
 73
9
 74
0
 42
0.0000001
 43
0.0000001
 44
0.0000000001
 40
0.0
 40
0.0
 40
0.0
 40
0.0
 40
0.2664025514
 40
0.5228155725
 40
0.6463233204
 40
0.7664232192
 40
0.8839393851
 40
1.0
 40
1.0
 40
1.0
 40
1.0
 10
97.965277381
 20
248.780712625
 30
0.0
 10
98.1550421295
 20
248.780722152
 30
0.0
 10
98.5303876221
 20
248.7197191758
 30
0.0
 10
98.9428676423
 20
248.4920761134
 30
0.0
 10
99.1944103495
 20
248.2369673679
 30
0.0
 10
99.3356707119
 20
248.0196962316
 30
0.0
 10
99.4257517459
 20
247.7823773317
 30
0.0
 10
99.4493299956
 20
247.6160235274
 30
0.0
 10
99.4517268233
 20
247.5333855967
 30
0.0
  0
SPLINE
  5
33B
100
AcDbEntity
  8
0
100
AcDbSpline
 62
7
  6
CONTINUOUS
 70
0
 71
3
 72
13
 73
9
 74
0
 42
0.0000001
 43
0.0000001
 44
0.0000000001
 40
0.0
 40
0.0
 40
0.0
 40
0.0
 40
0.1156148515
 40
0.2330522283
 40
0.3533046111
 40
0.4771235149
 40
0.7340789405
 40
1.0
 40
1.0
 40
1.0
 40
1.0
 10
127.4480964134
 20
247.4918252695
 30
0.0
 10
127.4489431469
 20
247.5763555679
 30
0.0
 10
127.4704053789
 20
247.7471539387
 30
0.0
 10
127.5596624802
 20
247.9917024653
 30
0.0
 10
127.7025437991
 20
248.2164718087
 30
0.0
 10
127.9589875867
 20
248.4811142708
 30
0.0
 10
128.3810463653
 20
248.7180384617
 30
0.0
 10
128.7663710669
 20
248.7822589581
 30
0.0
 10
128.9608055526
 20
248.7822687195
 30
0.0
  0
SPLINE
  5
33C
100
AcDbEntity
  8
0
100
AcDbSpline
 62
7
  6
CONTINUOUS
 70
0
 71
3
 72
23
 73
19
 74
0
 42
0.0000001
 43
0.0000001
 44
0.0000000001
 40
0.0
 40
0.0
 40
0.0
 40
0.0
 40
0.1958698724
 40
0.3838856125
 40
0.5566785706
 40
0.6353762465
 40
0.7079418719
 40
0.7736558794
 40
0.8319233619
 40
0.8821937665
 40
0.9239737825
 40
0.9569059321
 40
0.9699490208
 40
0.9806600894
 40
0.9890229308
 40
0.9950272568
 40
0.9986693573
 40
1.0
 40
1.0
 40
1.0
 40
1.0
 10
129.046164577
 20
242.3255003686
 30
0.0
 10
129.1424652045
 20
242.3255052033
 30
0.0
 10
129.3312049908
 20
242.325721401
 30
0.0
 10
129.6048980675
 20
242.3266591753
 30
0.0
 10
129.8209805124
 20
242.3279539085
 30
0.0
 10
129.9802991957
 20
242.3293018296
 30
0.0
 10
130.0869716588
 20
242.3304030663
 30
0.0
 10
130.1835982382
 20
242.3316163812
 30
0.0
 10
130.26925878
 20
242.3329285207
 30
0.0
 10
130.3431552578
 20
242.3343201129
 30
0.0
 10
130.404573442
 20
242.3357856786
 30
0.0
 10
130.4477295836
 20
242.3371082087
 30
0.0
 10
130.4755298374
 20
242.3382598264
 30
0.0
 10
130.4913998421
 20
242.3390271609
 30
0.0
 10
130.503447945
 20
242.3398805126
 30
0.0
 10
130.5128559586
 20
242.3405052177
 30
0.0
 10
130.5171598569
 20
242.3414821033
 30
0.0
 10
130.5206833062
 20
242.3417994957
 30
0.0
 10
130.5206874299
 20
242.3424537013
 30
0.0
  0
SPLINE
  5
33D
100
AcDbEntity
  8
0
100
AcDbSpline
 62
7
  6
CONTINUOUS
 70
0
 71
3
 72
13
 73
9
 74
0
 42
0.0000001
 43
0.0000001
 44
0.0000000001
 40
0.0
 40
0.0
 40
0.0
 40
0.0
 40
0.2662851077
 40
0.52323347
 40
0.6469157733
 40
0.7670183694
 40
0.8842914808
 40
1.0
 40
1.0
 40
1.0
 40
1.0
 10
128.9959616564
 20
247.5575754136
 30
0.0
 10
128.7974955374
 20
247.5575654499
 30
0.0
 10
128.4043038692
 20
247.4907034127
 30
0.0
 10
127.9761736483
 20
247.2440371672
 30
0.0
 10
127.7199176727
 20
246.9695013396
 30
0.0
 10
127.5800930035
 20
246.7370499623
 30
0.0
 10
127.4966977107
 20
246.4851913228
 30
0.0
 10
127.4811703442
 20
246.3103693755
 30
0.0
 10
127.4836574332
 20
246.2241660231
 30
0.0
  0
SPLINE
  5
33E
100
AcDbEntity
  8
0
100
AcDbSpline
 62
7
  6
CONTINUOUS
 70
0
 71
3
 72
13
 73
9
 74
0
 42
0.0000001
 43
0.0000001
 44
0.0000000001
 40
0.0
 40
0.0
 40
0.0
 40
0.0
 40
0.2664025514
 40
0.5228155725
 40
0.6463233204
 40
0.7664232192
 40
0.8839393851
 40
1.0
 40
1.0
 40
1.0
 40
1.0
 10
128.9608055526
 20
248.7822687195
 30
0.0
 10
129.1505703012
 20
248.7822782464
 30
0.0
 10
129.5259157937
 20
248.7212752702
 30
0.0
 10
129.9383958139
 20
248.4936322078
 30
0.0
 10
130.1899385211
 20
248.2385234623
 30
0.0
 10
130.3311988836
 20
248.021252326
 30
0.0
 10
130.4212799175
 20
247.7839334261
 30
0.0
 10
130.4448581672
 20
247.6175796218
 30
0.0
 10
130.4472549949
 20
247.5349416911
 30
0.0
  0
SPLINE
  5
33F
100
AcDbEntity
  8
0
100
AcDbSpline
 62
7
  6
CONTINUOUS
 70
0
 71
3
 72
12
 73
8
 74
0
 42
0.0000001
 43
0.0000001
 44
0.0000000001
 40
0.0
 40
0.0
 40
0.0
 40
0.0
 40
0.1158977783
 40
0.2339227888
 40
0.4782763163
 40
0.7353151855
 40
1.0
 40
1.0
 40
1.0
 40
1.0
 10
96.4655627827
 20
247.6488252333
 30
0.0
 10
96.4775256974
 20
247.7264886965
 30
0.0
 10
96.5182852572
 20
247.8811758745
 30
0.0
 10
96.6633567213
 20
248.1732343724
 30
0.0
 10
96.9584492313
 20
248.4867894555
 30
0.0
 10
97.4295268229
 20
248.7255787519
 30
0.0
 10
97.785819424
 20
248.7807036156
 30
0.0
 10
97.965277381
 20
248.780712625
 30
0.0
  0
SPLINE
  5
340
100
AcDbEntity
  8
0
100
AcDbSpline
 62
7
  6
CONTINUOUS
 70
0
 71
3
 72
23
 73
19
 74
0
 42
0.0000001
 43
0.0000001
 44
0.0000000001
 40
0.0
 40
0.0
 40
0.0
 40
0.0
 40
0.0013351738
 40
0.0050108709
 40
0.0110728443
 40
0.0195136339
 40
0.0303194081
 40
0.0434739103
 40
0.0766886414
 40
0.1188020446
 40
0.1694309974
 40
0.2280712135
 40
0.2941310135
 40
0.3669899512
 40
0.4459002543
 40
0.6187093492
 40
0.8059461582
 40
1.0
 40
1.0
 40
1.0
 40
1.0
 10
127.5206886138
 20
242.3428864171
 30
0.0
 10
127.5206856865
 20
242.3422072983
 30
0.0
 10
127.5243881383
 20
242.3419044457
 30
0.0
 10
127.5288545016
 20
242.3408850243
 30
0.0
 10
127.5386953898
 20
242.3402560052
 30
0.0
 10
127.551268453
 20
242.3393758845
 30
0.0
 10
127.5678351236
 20
242.3385897592
 30
0.0
 10
127.5968432946
 20
242.3374054232
 30
0.0
 10
127.6418618009
 20
242.3360462335
 30
0.0
 10
127.705897387
 20
242.3345370868
 30
0.0
 10
127.7828886935
 20
242.3331031944
 30
0.0
 10
127.8720565489
 20
242.331751268
 30
0.0
 10
127.972536124
 20
242.3305007446
 30
0.0
 10
128.0833271663
 20
242.329366497
 30
0.0
 10
128.248415573
 20
242.327981213
 30
0.0
 10
128.4716833879
 20
242.326654451
 30
0.0
 10
128.7535202791
 20
242.3257032279
 30
0.0
 10
128.9474606978
 20
242.3254954133
 30
0.0
 10
129.046164577
 20
242.3255003686
 30
0.0
  0
SPLINE
  5
341
100
AcDbEntity
  8
0
100
AcDbSpline
 62
7
  6
CONTINUOUS
 70
0
 71
3
 72
21
 73
17
 74
0
 42
0.0000001
 43
0.0000001
 44
0.0000000001
 40
0.0
 40
0.0
 40
0.0
 40
0.0
 40
0.1920470286
 40
0.3775040937
 40
0.5489715255
 40
0.7000385939
 40
0.7660397904
 40
0.8248346468
 40
0.875847487
 40
0.9185790965
 40
0.9526489135
 40
0.9776994937
 40
0.9867685088
 40
0.9935122212
 40
0.9979193504
 40
1.0
 40
1.0
 40
1.0
 40
1.0
 10
129.044295864
 20
229.3697982132
 30
0.0
 10
128.946632958
 20
229.3697933101
 30
0.0
 10
128.7546583087
 20
229.3699971049
 30
0.0
 10
128.4754875671
 20
229.3709278232
 30
0.0
 10
128.2171596091
 20
229.3724481705
 30
0.0
 10
128.0195822733
 20
229.3742113087
 30
0.0
 10
127.8793064507
 20
229.3759263447
 30
0.0
 10
127.7899103122
 20
229.377253264
 30
0.0
 10
127.7123531624
 20
229.3786688842
 30
0.0
 10
127.6473658616
 20
229.3801400577
 30
0.0
 10
127.5956072368
 20
229.3816875421
 30
0.0
 10
127.5609250951
 20
229.3830252589
 30
0.0
 10
127.5402217716
 20
229.3842861815
 30
0.0
 10
127.5298931205
 20
229.384980229
 30
0.0
 10
127.5233554979
 20
229.3859269045
 30
0.0
 10
127.5199133467
 20
229.3863012732
 30
0.0
 10
127.5190359253
 20
229.3868926089
 30
0.0
  0
SPLINE
  5
342
100
AcDbEntity
  8
0
100
AcDbSpline
 62
7
  6
CONTINUOUS
 70
0
 71
3
 72
23
 73
19
 74
0
 42
0.0000001
 43
0.0000001
 44
0.0000000001
 40
0.0
 40
0.0
 40
0.0
 40
0.0
 40
0.0013334235
 40
0.0049774883
 40
0.0109831522
 40
0.0193473986
 40
0.0300606754
 40
0.0431071973
 40
0.076047744
 40
0.1178340638
 40
0.1681066624
 40
0.2263753221
 40
0.2920884512
 40
0.3646530714
 40
0.4433502328
 40
0.6161387849
 40
0.8041415669
 40
1.0
 40
1.0
 40
1.0
 40
1.0
 10
130.5188173429
 20
229.3867515461
 30
0.0
 10
130.518808049
 20
229.3860960272
 30
0.0
 10
130.5152897012
 20
229.3857849658
 30
0.0
 10
130.5109749449
 20
229.3848026085
 30
0.0
 10
130.5015693519
 20
229.3841800875
 30
0.0
 10
130.4895168122
 20
229.383324587
 30
0.0
 10
130.4736441987
 20
229.3825569084
 30
0.0
 10
130.4458367297
 20
229.381404475
 30
0.0
 10
130.4026719715
 20
229.3800822516
 30
0.0
 10
130.3412454588
 20
229.3786171085
 30
0.0
 10
130.2673443745
 20
229.3772257234
 30
0.0
 10
130.1816827273
 20
229.3759136838
 30
0.0
 10
130.0850566514
 20
229.374700352
 30
0.0
 10
129.9783855327
 20
229.3735992077
 30
0.0
 10
129.8190700121
 20
229.3722514842
 30
0.0
 10
129.602996696
 20
229.3709569032
 30
0.0
 10
129.3293182107
 20
229.3700191813
 30
0.0
 10
129.140590716
 20
229.3698030476
 30
0.0
 10
129.044295864
 20
229.3697982132
 30
0.0
  0
SPLINE
  5
343
100
AcDbEntity
  8
0
100
AcDbSpline
 62
7
  6
CONTINUOUS
 70
0
 71
3
 72
13
 73
9
 74
0
 42
0.0000001
 43
0.0000001
 44
0.0000000001
 40
0.0
 40
0.0
 40
0.0
 40
0.0
 40
0.1160408354
 40
0.2335284924
 40
0.3536514223
 40
0.4771601975
 40
0.7335849171
 40
1.0
 40
1.0
 40
1.0
 40
1.0
 10
130.4824148437
 20
246.310248494
 30
0.0
 10
130.4800310176
 20
246.3928727174
 30
0.0
 10
130.4564645307
 20
246.5591980363
 30
0.0
 10
130.3663556213
 20
246.7964816208
 30
0.0
 10
130.2251573712
 20
247.0137886876
 30
0.0
 10
129.9735789294
 20
247.2689042437
 30
0.0
 10
129.5611030923
 20
247.4965809146
 30
0.0
 10
129.1857353589
 20
247.557584941
 30
0.0
 10
128.9959616564
 20
247.5575754136
 30
0.0
  0
SPLINE
  5
344
100
AcDbEntity
  8
0
100
AcDbSpline
 62
7
  6
CONTINUOUS
 70
0
 71
3
 72
23
 73
19
 74
0
 42
0.0000001
 43
0.0000001
 44
0.0000000001
 40
0.0
 40
0.0
 40
0.0
 40
0.0
 40
0.1958634951
 40
0.3838707107
 40
0.5566624763
 40
0.6353606427
 40
0.7079258514
 40
0.7736391335
 40
0.8319073384
 40
0.8821786301
 40
0.9239628747
 40
0.9569012451
 40
0.9699468633
 40
0.9806594035
 40
0.9890228032
 40
0.9950271692
 40
0.9986691867
 40
1.0
 40
1.0
 40
1.0
 40
1.0
 10
98.0506366829
 20
242.3258679368
 30
0.0
 10
98.1469341559
 20
242.3258727713
 30
0.0
 10
98.3356665785
 20
242.326088926
 30
0.0
 10
98.6093516885
 20
242.3270266679
 30
0.0
 10
98.8254295549
 20
242.3283213368
 30
0.0
 10
98.9847476574
 20
242.3296691797
 30
0.0
 10
99.0914197799
 20
242.3307703588
 30
0.0
 10
99.1880461341
 20
242.3319836121
 30
0.0
 10
99.2737070976
 20
242.3332956063
 30
0.0
 10
99.3476064263
 20
242.3346872564
 30
0.0
 10
99.4090301816
 20
242.3361529452
 30
0.0
 10
99.4521926742
 20
242.3374755255
 30
0.0
 10
99.4799979839
 20
242.3386272139
 30
0.0
 10
99.4958701492
 20
242.3393945682
 30
0.0
 10
99.5079194947
 20
242.3402480227
 30
0.0
 10
99.5173271934
 20
242.3408726461
 30
0.0
 10
99.5216321823
 20
242.3418497936
 30
0.0
 10
99.5251546157
 20
242.3421669836
 30
0.0
 10
99.5251592605
 20
242.3428212695
 30
0.0
  0
SPLINE
  5
345
100
AcDbEntity
  8
0
100
AcDbSpline
 62
7
  6
CONTINUOUS
 70
0
 71
3
 72
13
 73
9
 74
0
 42
0.0000001
 43
0.0000001
 44
0.0000000001
 40
0.0
 40
0.0
 40
0.0
 40
0.0
 40
0.2662851077
 40
0.52323347
 40
0.6469157733
 40
0.7670183694
 40
0.8842914808
 40
1.0
 40
1.0
 40
1.0
 40
1.0
 10
98.0004334848
 20
247.5560193192
 30
0.0
 10
97.8019673658
 20
247.5560093554
 30
0.0
 10
97.4087756975
 20
247.4891473183
 30
0.0
 10
96.9806454766
 20
247.2424810727
 30
0.0
 10
96.7243895011
 20
246.9679452451
 30
0.0
 10
96.5845648319
 20
246.7354938679
 30
0.0
 10
96.5011695391
 20
246.4836352284
 30
0.0
 10
96.4856421725
 20
246.3088132811
 30
0.0
 10
96.4881292616
 20
246.2226099287
 30
0.0
  0
SPLINE
  5
346
100
AcDbEntity
  8
0
100
AcDbSpline
 62
7
  6
CONTINUOUS
 70
0
 71
3
 72
13
 73
9
 74
0
 42
0.0000001
 43
0.0000001
 44
0.0000000001
 40
0.0
 40
0.0
 40
0.0
 40
0.0
 40
0.1160408354
 40
0.2335284924
 40
0.3536514223
 40
0.4771601975
 40
0.7335849171
 40
1.0
 40
1.0
 40
1.0
 40
1.0
 10
99.486886672
 20
246.3086923996
 30
0.0
 10
99.484502846
 20
246.391316623
 30
0.0
 10
99.4609363591
 20
246.5576419419
 30
0.0
 10
99.3708274497
 20
246.7949255264
 30
0.0
 10
99.2296291996
 20
247.0122325932
 30
0.0
 10
98.9780507578
 20
247.2673481493
 30
0.0
 10
98.5655749207
 20
247.4950248201
 30
0.0
 10
98.1902071872
 20
247.5560288466
 30
0.0
 10
98.0004334848
 20
247.5560193192
 30
0.0
  0
SPLINE
  5
347
100
AcDbEntity
  8
0
100
AcDbSpline
 62
7
  6
CONTINUOUS
 70
0
 71
3
 72
23
 73
19
 74
0
 42
0.0000001
 43
0.0000001
 44
0.0000000001
 40
0.0
 40
0.0
 40
0.0
 40
0.0
 40
0.0013337078
 40
0.0050091862
 40
0.0110718518
 40
0.0195136043
 40
0.0303199658
 40
0.0434744218
 40
0.0766929072
 40
0.1188094515
 40
0.1694349535
 40
0.2280715872
 40
0.2941270035
 40
0.3669812326
 40
0.4458884668
 40
0.6186942997
 40
0.8059370452
 40
1.0
 40
1.0
 40
1.0
 40
1.0
 10
96.5251614702
 20
242.3432539852
 30
0.0
 10
96.5251566544
 20
242.3425756231
 30
0.0
 10
96.5288610601
 20
242.3422706686
 30
0.0
 10
96.533323658
 20
242.3412532376
 30
0.0
 10
96.5431672708
 20
242.3406232649
 30
0.0
 10
96.5557405947
 20
242.3397435932
 30
0.0
 10
96.5723083549
 20
242.3389572774
 30
0.0
 10
96.6013185393
 20
242.3377728326
 30
0.0
 10
96.6463406227
 20
242.3364137041
 30
0.0
 10
96.7103778946
 20
242.3349045741
 30
0.0
 10
96.7873672069
 20
242.3334705362
 30
0.0
 10
96.8765292219
 20
242.3321188028
 30
0.0
 10
96.9770023176
 20
242.3308683926
 30
0.0
 10
97.0877871354
 20
242.3297341723
 30
0.0
 10
97.25286987
 20
242.3283489161
 30
0.0
 10
97.4761374066
 20
242.3270220737
 30
0.0
 10
97.7579801961
 20
242.3260708457
 30
0.0
 10
97.9519282025
 20
242.3258629812
 30
0.0
 10
98.0506366829
 20
242.3258679368
 30
0.0
  0
SPLINE
  5
348
100
AcDbEntity
  8
0
100
AcDbSpline
 62
7
  6
CONTINUOUS
 70
0
 71
3
 72
23
 73
19
 74
0
 42
0.0000001
 43
0.0000001
 44
0.0000000001
 40
0.0
 40
0.0
 40
0.0
 40
0.0
 40
0.0013334235
 40
0.0049774883
 40
0.0109831522
 40
0.0193473986
 40
0.0300606754
 40
0.0431071973
 40
0.076047744
 40
0.1178340638
 40
0.1681066624
 40
0.2263753221
 40
0.2920884512
 40
0.3646530714
 40
0.4433502328
 40
0.6161387849
 40
0.8041415669
 40
1.0
 40
1.0
 40
1.0
 40
1.0
 10
99.5232891713
 20
229.3851954517
 30
0.0
 10
99.5232798774
 20
229.3845399327
 30
0.0
 10
99.5197615296
 20
229.3842288714
 30
0.0
 10
99.5154467733
 20
229.3832465141
 30
0.0
 10
99.5060411803
 20
229.3826239931
 30
0.0
 10
99.4939886406
 20
229.3817684926
 30
0.0
 10
99.4781160271
 20
229.381000814
 30
0.0
 10
99.4503085581
 20
229.3798483806
 30
0.0
 10
99.4071437999
 20
229.3785261572
 30
0.0
 10
99.3457172872
 20
229.3770610141
 30
0.0
 10
99.2718162029
 20
229.375669629
 30
0.0
 10
99.1861545556
 20
229.3743575894
 30
0.0
 10
99.0895284797
 20
229.3731442575
 30
0.0
 10
98.9828573611
 20
229.3720431133
 30
0.0
 10
98.8235418405
 20
229.3706953898
 30
0.0
 10
98.6074685244
 20
229.3694008088
 30
0.0
 10
98.333790039
 20
229.3684630869
 30
0.0
 10
98.1450625444
 20
229.3682469531
 30
0.0
 10
98.0487676924
 20
229.3682421188
 30
0.0
  0
SPLINE
  5
349
100
AcDbEntity
  8
0
100
AcDbSpline
 62
7
  6
CONTINUOUS
 70
0
 71
3
 72
14
 73
10
 74
0
 42
0.0000001
 43
0.0000001
 44
0.0000000001
 40
0.0
 40
0.0
 40
0.0
 40
0.0
 40
0.1575213033
 40
0.3149338135
 40
0.472332125
 40
0.6293688604
 40
0.785164518
 40
0.9170935155
 40
1.0
 40
1.0
 40
1.0
 40
1.0
 10
123.282732589
 20
259.7624241474
 30
0.0
 10
123.2827189374
 20
259.6389861623
 30
0.0
 10
123.2518843063
 20
259.3911228546
 30
0.0
 10
123.1162938765
 20
259.0428307665
 30
0.0
 10
122.8996603699
 20
258.7384775082
 30
0.0
 10
122.6162702575
 20
258.4971233678
 30
0.0
 10
122.3007398303
 20
258.3410451024
 30
0.0
 10
122.0161435989
 20
258.2729177261
 30
0.0
 10
121.8478987767
 20
258.2615406322
 30
0.0
 10
121.7829826368
 20
258.2589507872
 30
0.0
  0
SPLINE
  5
34A
100
AcDbEntity
  8
0
100
AcDbSpline
 62
7
  6
CONTINUOUS
 70
0
 71
3
 72
24
 73
20
 74
0
 42
0.0000001
 43
0.0000001
 44
0.0000000001
 40
0.0
 40
0.0
 40
0.0
 40
0.0
 40
0.0211479587
 40
0.0567534723
 40
0.1069797318
 40
0.1703351403
 40
0.2447469984
 40
0.3277337282
 40
0.5080629012
 40
0.5992705985
 40
0.6870319749
 40
0.7683913735
 40
0.8406198732
 40
0.9013131472
 40
0.9485026398
 40
0.9665819375
 40
0.980873634
 40
0.9915354902
 40
1.0
 40
1.0
 40
1.0
 40
1.0
 10
121.7829826368
 20
258.2589507872
 30
0.0
 10
121.6606724821
 20
258.2540711942
 30
0.0
 10
121.3321652341
 20
258.2491006785
 30
0.0
 10
120.7130183173
 20
258.2421363511
 30
0.0
 10
119.8495045523
 20
258.2364620203
 30
0.0
 10
118.7613885214
 20
258.2312169891
 30
0.0
 10
117.4836366963
 20
258.2270908826
 30
0.0
 10
115.5288242507
 20
258.2229832112
 30
0.0
 10
113.4767888679
 20
258.2217033257
 30
0.0
 10
111.3971188332
 20
258.2230223355
 30
0.0
 10
109.8903013777
 20
258.2253480603
 30
0.0
 10
108.4933411564
 20
258.228911057
 30
0.0
 10
107.2530586593
 20
258.233563793
 30
0.0
 10
106.2105638451
 20
258.2391534707
 30
0.0
 10
105.4814951943
 20
258.2446958468
 30
0.0
 10
105.0210174639
 20
258.2498121065
 30
0.0
 10
104.7719585171
 20
258.2534218648
 30
0.0
 10
104.5785786573
 20
258.2573854785
 30
0.0
 10
104.4679079056
 20
258.2610331216
 30
0.0
 10
104.4190030752
 20
258.263984571
 30
0.0
  0
SPLINE
  5
34B
100
AcDbEntity
  8
0
100
AcDbSpline
 62
7
  6
CONTINUOUS
 70
0
 71
3
 72
9
 73
5
 74
0
 42
0.0000001
 43
0.0000001
 44
0.0000000001
 40
0.0
 40
0.0
 40
0.0
 40
0.0
 40
0.1328343172
 40
1.0
 40
1.0
 40
1.0
 40
1.0
 10
104.4190030752
 20
258.263984571
 30
0.0
 10
104.4084288651
 20
258.2646227339
 30
0.0
 10
104.3288669257
 20
258.2699522821
 30
0.0
 10
104.2495073626
 20
258.2805422285
 30
0.0
 10
104.1817796532
 20
258.2945241801
 30
0.0
  0
SPLINE
  5
34C
100
AcDbEntity
  8
0
100
AcDbSpline
 62
7
  6
CONTINUOUS
 70
0
 71
3
 72
18
 73
14
 74
0
 42
0.0000001
 43
0.0000001
 44
0.0000000001
 40
0.0
 40
0.0
 40
0.0
 40
0.0
 40
0.1152367041
 40
0.2303827953
 40
0.3455168919
 40
0.4603463764
 40
0.5737207946
 40
0.6584612099
 40
0.7100627116
 40
0.7567375129
 40
0.8195734792
 40
0.9006370369
 40
1.0
 40
1.0
 40
1.0
 40
1.0
 10
102.9827327132
 20
259.7646692327
 30
0.0
 10
102.9827468991
 20
259.8929383983
 30
0.0
 10
103.0160476783
 20
260.150584404
 30
0.0
 10
103.1623590015
 20
260.5106523256
 30
0.0
 10
103.395191214
 20
260.8215642035
 30
0.0
 10
103.6976666643
 20
261.061967728
 30
0.0
 10
104.0197548088
 20
261.2042626165
 30
0.0
 10
104.2939364202
 20
261.2592924568
 30
0.0
 10
104.4975754739
 20
261.2694262834
 30
0.0
 10
104.6768326421
 20
261.273741408
 30
0.0
 10
104.8889401965
 20
261.2773122641
 30
0.0
 10
105.1596897146
 20
261.2806785989
 30
0.0
 10
105.3605128073
 20
261.2826469674
 30
0.0
 10
105.4711086132
 20
261.283634715
 30
0.0
  0
LINE
  5
34D
100
AcDbEntity
  8
0
100
AcDbLine
 62
7
  6
CONTINUOUS
 10
120.7889732505
 20
261.2819922568
 11
120.8497619434
 21
261.28142762
  0
SPLINE
  5
34E
100
AcDbEntity
  8
0
100
AcDbSpline
 62
7
  6
CONTINUOUS
 70
0
 71
3
 72
12
 73
8
 74
0
 42
0.0000001
 43
0.0000001
 44
0.0000000001
 40
0.0
 40
0.0
 40
0.0
 40
0.0
 40
0.3271038595
 40
0.5719089821
 40
0.7411198597
 40
0.816060221
 40
1.0
 40
1.0
 40
1.0
 40
1.0
 10
120.8497619434
 20
261.28142762
 30
0.0
 10
120.9845364718
 20
261.2801526371
 30
0.0
 10
121.2201783568
 20
261.2776892728
 30
0.0
 10
121.5255068767
 20
261.2731681875
 30
0.0
 10
121.726956883
 20
261.2688053109
 30
0.0
 10
121.9031593025
 20
261.2611340289
 30
0.0
 10
122.0094599259
 20
261.2478926249
 30
0.0
 10
122.0836856489
 20
261.2325692
 30
0.0
  0
SPLINE
  5
34F
100
AcDbEntity
  8
0
100
AcDbSpline
 62
7
  6
CONTINUOUS
 70
0
 71
3
 72
17
 73
13
 74
0
 42
0.0000001
 43
0.0000001
 44
0.0000000001
 40
0.0
 40
0.0
 40
0.0
 40
0.0
 40
0.0087927034
 40
0.0249428202
 40
0.0484403921
 40
0.0792628382
 40
0.1627694442
 40
0.2750754122
 40
0.4156513065
 40
0.5838850033
 40
0.7789577127
 40
1.0
 40
1.0
 40
1.0
 40
1.0
 10
123.4541924832
 20
252.7636265996
 30
0.0
 10
123.4495615703
 20
252.7645826219
 30
0.0
 10
123.4361411331
 20
252.7656360366
 30
0.0
 10
123.4101761441
 20
252.7673166902
 30
0.0
 10
123.3722916701
 20
252.7688467504
 30
0.0
 10
123.2982200715
 20
252.7712946939
 30
0.0
 10
123.1763624728
 20
252.7740727086
 30
0.0
 10
122.9954894424
 20
252.7772456757
 30
0.0
 10
122.7690404151
 20
252.7803633346
 30
0.0
 10
122.4980788568
 20
252.7834364176
 30
0.0
 10
122.1838400632
 20
252.7864290968
 30
0.0
 10
121.9600679118
 20
252.7882498099
 30
0.0
 10
121.8411985892
 20
252.7891546491
 30
0.0
  0
SPLINE
  5
350
100
AcDbEntity
  8
0
100
AcDbSpline
 62
7
  6
CONTINUOUS
 70
0
 71
3
 72
23
 73
19
 74
0
 42
0.0000001
 43
0.0000001
 44
0.0000000001
 40
0.0
 40
0.0
 40
0.0
 40
0.0
 40
0.2293207056
 40
0.4304202683
 40
0.6023407785
 40
0.6770906499
 40
0.7442278809
 40
0.8036770982
 40
0.855375425
 40
0.8992602357
 40
0.9352692763
 40
0.9633506254
 40
0.9744122028
 40
0.9834861546
 40
0.9905721874
 40
0.9956719562
 40
0.998794029
 40
1.0
 40
1.0
 40
1.0
 40
1.0
 10
104.3897771775
 20
252.790835834
 30
0.0
 10
104.2687455516
 20
252.7899291666
 30
0.0
 10
104.0415778297
 20
252.78810363
 30
0.0
 10
103.7236777961
 20
252.7850791181
 30
0.0
 10
103.4873609379
 20
252.7823750413
 30
0.0
 10
103.3217490874
 20
252.780123113
 30
0.0
 10
103.2154966922
 20
252.7784957767
 30
0.0
 10
103.1214121787
 20
252.7768539417
 30
0.0
 10
103.0396041687
 20
252.7752000277
 30
0.0
 10
102.9701662091
 20
252.7735419452
 30
0.0
 10
102.9132105829
 20
252.7718778403
 30
0.0
 10
102.8735498723
 20
252.7704198535
 30
0.0
 10
102.8481635333
 20
252.769185607
 30
0.0
 10
102.8337503534
 20
252.7683631094
 30
0.0
 10
102.8227411708
 20
252.7674864928
 30
0.0
 10
102.8142850441
 20
252.7667855618
 30
0.0
 10
102.8101167635
 20
252.7658434255
 30
0.0
 10
102.8070582167
 20
252.7654282546
 30
0.0
 10
102.8069704789
 20
252.7647978214
 30
0.0
  0
SPLINE
  5
351
100
AcDbEntity
  8
0
100
AcDbSpline
 62
7
  6
CONTINUOUS
 70
0
 71
3
 72
14
 73
10
 74
0
 42
0.0000001
 43
0.0000001
 44
0.0000000001
 40
0.0
 40
0.0
 40
0.0
 40
0.0
 40
0.154532714
 40
0.308950695
 40
0.4633470721
 40
0.6174531803
 40
0.7708176281
 40
0.9083616752
 40
1.0
 40
1.0
 40
1.0
 40
1.0
 10
122.2836726448
 20
268.2624377097
 30
0.0
 10
122.2836592526
 20
268.141345777
 30
0.0
 10
122.2539976045
 20
267.8982390074
 30
0.0
 10
122.1234605613
 20
267.5557769582
 30
0.0
 10
121.9145759953
 20
267.2548159964
 30
0.0
 10
121.6402762289
 20
267.013265948
 30
0.0
 10
121.3279896599
 20
266.8507792252
 30
0.0
 10
121.0354058005
 20
266.7747389556
 30
0.0
 10
120.8558624981
 20
266.7620103892
 30
0.0
 10
120.7841076459
 20
266.7592520392
 30
0.0
  0
SPLINE
  5
352
100
AcDbEntity
  8
0
100
AcDbSpline
 62
7
  6
CONTINUOUS
 70
0
 71
3
 72
22
 73
18
 74
0
 42
0.0000001
 43
0.0000001
 44
0.0000000001
 40
0.0
 40
0.0
 40
0.0
 40
0.0
 40
0.0216134964
 40
0.0574688522
 40
0.1077927156
 40
0.1711192699
 40
0.2453967503
 40
0.3281669094
 40
0.5079329272
 40
0.68635657
 40
0.7675238049
 40
0.8396496681
 40
0.9003521635
 40
0.9476833786
 40
0.9803571494
 40
0.9912527304
 40
1.0
 40
1.0
 40
1.0
 40
1.0
 10
120.7841076459
 20
266.7592520392
 30
0.0
 10
120.6735350458
 20
266.7550014844
 30
0.0
 10
120.3793081372
 20
266.7505547779
 30
0.0
 10
119.8274994232
 20
266.744439214
 30
0.0
 10
119.0620814576
 20
266.7394223823
 30
0.0
 10
118.0999650217
 20
266.7348138244
 30
0.0
 10
116.9717228112
 20
266.7311827288
 30
0.0
 10
115.2473474836
 20
266.7275714711
 30
0.0
 10
112.989771396
 20
266.7261771395
 30
0.0
 10
110.7404031525
 20
266.7284753533
 30
0.0
 10
109.0421230972
 20
266.7327776025
 30
0.0
 10
107.9465415107
 20
266.7368899406
 30
0.0
 10
107.0241914633
 20
266.7417554273
 30
0.0
 10
106.3038399758
 20
266.747334269
 30
0.0
 10
105.8384740371
 20
266.7525304685
 30
0.0
 10
105.5706903743
 20
266.7578793575
 30
0.0
 10
105.470158687
 20
266.7611118192
 30
0.0
 10
105.4254473179
 20
266.7636482338
 30
0.0
  0
SPLINE
  5
353
100
AcDbEntity
  8
0
100
AcDbSpline
 62
7
  6
CONTINUOUS
 70
0
 71
3
 72
9
 73
5
 74
0
 42
0.0000001
 43
0.0000001
 44
0.0000000001
 40
0.0
 40
0.0
 40
0.0
 40
0.0
 40
0.1302049538
 40
1.0
 40
1.0
 40
1.0
 40
1.0
 10
105.4254473179
 20
266.7636482338
 30
0.0
 10
105.4148306448
 20
266.7642505031
 30
0.0
 10
105.3333337054
 20
266.7693979227
 30
0.0
 10
105.252020326
 20
266.7800651724
 30
0.0
 10
105.1824518085
 20
266.794427147
 30
0.0
  0
SPLINE
  5
354
100
AcDbEntity
  8
0
100
AcDbSpline
 62
7
  6
CONTINUOUS
 70
0
 71
3
 72
19
 73
15
 74
0
 42
0.0000001
 43
0.0000001
 44
0.0000000001
 40
0.0
 40
0.0
 40
0.0
 40
0.0
 40
0.1105778131
 40
0.2210776853
 40
0.3315605476
 40
0.4418462102
 40
0.5516689062
 40
0.6524672853
 40
0.7004117282
 40
0.7227772222
 40
0.7670360315
 40
0.8264252415
 40
0.904009339
 40
1.0
 40
1.0
 40
1.0
 40
1.0
 10
103.9836727567
 20
268.2644616043
 30
0.0
 10
103.9836859778
 20
268.3840067761
 30
0.0
 10
104.0125940711
 20
268.6239863739
 30
0.0
 10
104.1398442365
 20
268.9626008978
 30
0.0
 10
104.3437152547
 20
269.2612548785
 30
0.0
 10
104.6119183374
 20
269.5026338418
 30
0.0
 10
104.9202350956
 20
269.668652751
 30
0.0
 10
105.1921603218
 20
269.7430983931
 30
0.0
 10
105.3763331607
 20
269.7627336713
 30
0.0
 10
105.5000585129
 20
269.7687089809
 30
0.0
 10
105.6362566415
 20
269.7721291543
 30
0.0
 10
105.8321550936
 20
269.7755084476
 30
0.0
 10
106.0839935493
 20
269.7786400055
 30
0.0
 10
106.2716354162
 20
269.7804636519
 30
0.0
 10
106.3754064516
 20
269.7813785536
 30
0.0
  0
SPLINE
  5
355
100
AcDbEntity
  8
0
100
AcDbSpline
 62
7
  6
CONTINUOUS
 70
0
 71
3
 72
12
 73
8
 74
0
 42
0.0000001
 43
0.0000001
 44
0.0000000001
 40
0.0
 40
0.0
 40
0.0
 40
0.0
 40
0.3245598494
 40
0.5672726389
 40
0.7348975373
 40
0.8102870085
 40
1.0
 40
1.0
 40
1.0
 40
1.0
 10
119.8927353695
 20
269.7798794859
 30
0.0
 10
120.0219405408
 20
269.7787114105
 30
0.0
 10
120.2477699468
 20
269.7764536143
 30
0.0
 10
120.540300175
 20
269.7722813336
 30
0.0
 10
120.7336556309
 20
269.7682486208
 30
0.0
 10
120.9057510709
 20
269.7608913051
 30
0.0
 10
121.0109267447
 20
269.7477421488
 30
0.0
 10
121.0848935929
 20
269.732472167
 30
0.0
  0
SPLINE
  5
356
100
AcDbEntity
  8
0
100
AcDbSpline
 62
7
  6
CONTINUOUS
 70
0
 71
3
 72
15
 73
11
 74
0
 42
0.0000001
 43
0.0000001
 44
0.0000000001
 40
0.0
 40
0.0
 40
0.0
 40
0.0
 40
0.1411016691
 40
0.2821401762
 40
0.4231198798
 40
0.5639586346
 40
0.7045547718
 40
0.8436035635
 40
0.9555825623
 40
1.0
 40
1.0
 40
1.0
 40
1.0
 10
121.3846126999
 20
276.7624402124
 30
0.0
 10
121.3846007341
 20
276.6542454208
 30
0.0
 10
121.3609300069
 20
276.4371874571
 30
0.0
 10
121.2565329092
 20
276.1274333044
 30
0.0
 10
121.0879265797
 20
275.8474649981
 30
0.0
 10
120.863455265
 20
275.6104673366
 30
0.0
 10
120.594561051
 20
275.4280250517
 30
0.0
 10
120.3137314688
 20
275.315374083
 30
0.0
 10
120.0901357434
 20
275.2722479747
 30
0.0
 10
119.9704771243
 20
275.2636222177
 30
0.0
 10
119.9364671258
 20
275.2618020185
 30
0.0
  0
SPLINE
  5
357
100
AcDbEntity
  8
0
100
AcDbSpline
 62
7
  6
CONTINUOUS
 70
0
 71
3
 72
9
 73
5
 74
0
 42
0.0000001
 43
0.0000001
 44
0.0000000001
 40
0.0
 40
0.0
 40
0.0
 40
0.0
 40
0.261330973
 40
1.0
 40
1.0
 40
1.0
 40
1.0
 10
119.9364671258
 20
275.2618020185
 30
0.0
 10
119.9284464878
 20
275.2613727577
 30
0.0
 10
119.8977463524
 20
275.2598903797
 30
0.0
 10
119.8670266758
 20
275.2588572977
 30
0.0
 10
119.8443334396
 20
275.2581813422
 30
0.0
  0
SPLINE
  5
358
100
AcDbEntity
  8
0
100
AcDbSpline
 62
7
  6
CONTINUOUS
 70
0
 71
3
 72
21
 73
17
 74
0
 42
0.0000001
 43
0.0000001
 44
0.0000000001
 40
0.0
 40
0.0
 40
0.0
 40
0.0
 40
0.0239585948
 40
0.0620486791
 40
0.1140201154
 40
0.1783724312
 40
0.3357308703
 40
0.5139889679
 40
0.6899523582
 40
0.7698499155
 40
0.8408430815
 40
0.9006591945
 40
0.9474457567
 40
0.9800037819
 40
0.9910337239
 40
1.0
 40
1.0
 40
1.0
 40
1.0
 10
119.8443334396
 20
275.2581813422
 30
0.0
 10
119.7364718382
 20
275.2549685065
 30
0.0
 10
119.4570164144
 20
275.2509706028
 30
0.0
 10
118.9435039614
 20
275.2458549409
 30
0.0
 10
118.2480331913
 20
275.2414851923
 30
0.0
 10
117.0153835652
 20
275.2359417499
 30
0.0
 10
115.2139266084
 20
275.2317864923
 30
0.0
 10
112.9097722227
 20
275.2304934025
 30
0.0
 10
110.954501225
 20
275.2326212632
 30
0.0
 10
109.4823557037
 20
275.236425841
 30
0.0
 10
108.5333398563
 20
275.2400307497
 30
0.0
 10
107.7334579636
 20
275.2442835763
 30
0.0
 10
107.1067005762
 20
275.2491422807
 30
0.0
 10
106.6996701035
 20
275.2536912065
 30
0.0
 10
106.4630163528
 20
275.2583452093
 30
0.0
 10
106.3729843284
 20
275.2611618431
 30
0.0
 10
106.3326565913
 20
275.2632943582
 30
0.0
  0
SPLINE
  5
359
100
AcDbEntity
  8
0
100
AcDbSpline
 62
7
  6
CONTINUOUS
 70
0
 71
3
 72
9
 73
5
 74
0
 42
0.0000001
 43
0.0000001
 44
0.0000000001
 40
0.0
 40
0.0
 40
0.0
 40
0.0
 40
0.1275767632
 40
1.0
 40
1.0
 40
1.0
 40
1.0
 10
106.3326565913
 20
275.2632943582
 30
0.0
 10
106.3219761705
 20
275.2638591347
 30
0.0
 10
106.2382982212
 20
275.2687989464
 30
0.0
 10
106.1547795326
 20
275.2795428115
 30
0.0
 10
106.0831507532
 20
275.294330114
 30
0.0
  0
SPLINE
  5
35A
100
AcDbEntity
  8
0
100
AcDbSpline
 62
7
  6
CONTINUOUS
 70
0
 71
3
 72
18
 73
14
 74
0
 42
0.0000001
 43
0.0000001
 44
0.0000000001
 40
0.0
 40
0.0
 40
0.0
 40
0.0
 40
0.1073947109
 40
0.2146978256
 40
0.3219809558
 40
0.4290464674
 40
0.5357056906
 40
0.6296015979
 40
0.6884508561
 40
0.7366810958
 40
0.8038012009
 40
0.891694373
 40
1.0
 40
1.0
 40
1.0
 40
1.0
 10
104.8846128008
 20
276.7642650355
 30
0.0
 10
104.8846264322
 20
276.8875197194
 30
0.0
 10
104.9153491693
 20
277.1349953863
 30
0.0
 10
105.0505557208
 20
277.4827761507
 30
0.0
 10
105.2665061346
 20
277.7868367251
 30
0.0
 10
105.5494840002
 20
278.0285967655
 30
0.0
 10
105.8689528966
 20
278.1869013714
 30
0.0
 10
106.1611634313
 20
278.2560165657
 30
0.0
 10
106.3918009655
 20
278.2684917476
 30
0.0
 10
106.5916499392
 20
278.2723904446
 30
0.0
 10
106.8248982425
 20
278.2758278298
 30
0.0
 10
107.1270830801
 20
278.2789019991
 30
0.0
 10
107.3522508596
 20
278.2807074065
 30
0.0
 10
107.476547775
 20
278.2816005511
 30
0.0
  0
SPLINE
  5
35B
100
AcDbEntity
  8
0
100
AcDbSpline
 62
7
  6
CONTINUOUS
 70
0
 71
3
 72
13
 73
9
 74
0
 42
0.0000001
 43
0.0000001
 44
0.0000000001
 40
0.0
 40
0.0
 40
0.0
 40
0.0
 40
0.3386806309
 40
0.5910988555
 40
0.6849916132
 40
0.7600218476
 40
0.8286737842
 40
1.0
 40
1.0
 40
1.0
 40
1.0
 10
118.7876732877
 20
278.2803884961
 30
0.0
 10
118.9457787189
 20
278.2792210486
 30
0.0
 10
119.2217170258
 20
278.2769147848
 30
0.0
 10
119.5414811846
 20
278.2731961861
 30
0.0
 10
119.7381480141
 20
278.2697867681
 30
0.0
 10
119.8490335835
 20
278.2671058661
 30
0.0
 10
119.9959674472
 20
278.2618019137
 30
0.0
 10
120.1077445391
 20
278.2485459035
 30
0.0
 10
120.1860747475
 20
278.2323751339
 30
0.0
  0
SPLINE
  5
35C
100
AcDbEntity
  8
0
100
AcDbSpline
 62
7
  6
CONTINUOUS
 70
0
 71
3
 72
19
 73
15
 74
0
 42
0.0000001
 43
0.0000001
 44
0.0000000001
 40
0.0
 40
0.0
 40
0.0
 40
0.0
 40
0.0998438907
 40
0.1995857739
 40
0.2992542657
 40
0.398767927
 40
0.4927216783
 40
0.5323335381
 40
0.5530460518
 40
0.5772160813
 40
0.6444483324
 40
0.7383878766
 40
0.85774145
 40
1.0
 40
1.0
 40
1.0
 40
1.0
 10
105.9855528437
 20
285.2640463475
 30
0.0
 10
105.985568813
 20
285.4084401104
 30
0.0
 10
106.0278365977
 20
285.6988215831
 30
0.0
 10
106.2126873814
 20
286.0965474358
 30
0.0
 10
106.5030260886
 20
286.4251250153
 30
0.0
 10
106.8676746047
 20
286.6524653145
 30
0.0
 10
107.1962750952
 20
286.7462984664
 30
0.0
 10
107.4188912356
 20
286.7647712833
 30
0.0
 10
107.5410352566
 20
286.7684222557
 30
0.0
 10
107.7031411455
 20
286.7717919655
 30
0.0
 10
107.9711648872
 20
286.7750574035
 30
0.0
 10
108.3768435878
 20
286.7785718169
 30
0.0
 10
108.8910319564
 20
286.7817090409
 30
0.0
 10
109.2693703014
 20
286.7834207104
 30
0.0
 10
109.4751023476
 20
286.7842314866
 30
0.0
  0
LINE
  5
35D
100
AcDbEntity
  8
0
100
AcDbLine
 62
7
  6
CONTINUOUS
 10
109.4751023476
 20
286.7842314866
 11
109.6378526869
 21
286.7848484642
  0
SPLINE
  5
35E
100
AcDbEntity
  8
0
100
AcDbSpline
 62
7
  6
CONTINUOUS
 70
0
 71
3
 72
13
 73
9
 74
0
 42
0.0000001
 43
0.0000001
 44
0.0000000001
 40
0.0
 40
0.0
 40
0.0
 40
0.0
 40
0.3664840796
 40
0.6432819945
 40
0.8212612067
 40
0.8785925212
 40
0.9129307271
 40
1.0
 40
1.0
 40
1.0
 40
1.0
 10
116.797444364
 20
286.7834171938
 30
0.0
 10
117.0774410789
 20
286.7822512362
 30
0.0
 10
117.5689107714
 20
286.7798669942
 30
0.0
 10
118.1963547123
 20
286.7751014498
 30
0.0
 10
118.5875781821
 20
286.7705670848
 30
0.0
 10
118.7935583822
 20
286.765636662
 30
0.0
 10
118.9299259476
 20
286.7583753397
 30
0.0
 10
119.0221610895
 20
286.7457275688
 30
0.0
 10
119.0873094809
 20
286.7322781008
 30
0.0
  0
SPLINE
  5
35F
100
AcDbEntity
  8
0
100
AcDbSpline
 62
7
  6
CONTINUOUS
 70
0
 71
3
 72
14
 73
10
 74
0
 42
0.0000001
 43
0.0000001
 44
0.0000000001
 40
0.0
 40
0.0
 40
0.0
 40
0.0
 40
0.159914171
 40
0.3196745617
 40
0.4793791914
 40
0.6388718893
 40
0.7973311912
 40
0.9235260962
 40
1.0
 40
1.0
 40
1.0
 40
1.0
 10
120.2855527562
 20
285.2624648342
 30
0.0
 10
120.2855385354
 20
285.1338802647
 30
0.0
 10
120.2520971102
 20
284.8756098332
 30
0.0
 10
120.1050585121
 20
284.5148752226
 30
0.0
 10
119.8711752047
 20
284.2034668117
 30
0.0
 10
119.5665887729
 20
283.9626408048
 30
0.0
 10
119.2358464158
 20
283.8176284535
 30
0.0
 10
118.9482939592
 20
283.7644550012
 30
0.0
 10
118.7852701399
 20
283.7596171593
 30
0.0
 10
118.723797999
 20
283.7580738311
 30
0.0
  0
SPLINE
  5
360
100
AcDbEntity
  8
0
100
AcDbSpline
 62
7
  6
CONTINUOUS
 70
0
 71
3
 72
20
 73
16
 74
0
 42
0.0000001
 43
0.0000001
 44
0.0000000001
 40
0.0
 40
0.0
 40
0.0
 40
0.0
 40
0.0257875774
 40
0.0651673275
 40
0.1177386617
 40
0.1820472905
 40
0.3377797635
 40
0.5132799888
 40
0.6866583765
 40
0.7657349563
 40
0.8364076122
 40
0.8965117282
 40
0.9442669669
 40
0.9784831951
 40
1.0
 40
1.0
 40
1.0
 40
1.0
 10
118.723797999
 20
283.7580738311
 30
0.0
 10
118.6270807205
 20
283.7556456336
 30
0.0
 10
118.3826052587
 20
283.7523130076
 30
0.0
 10
117.9409054501
 20
283.7482027816
 30
0.0
 10
117.3546713208
 20
283.7446266605
 30
0.0
 10
116.3319162111
 20
283.740177012
 30
0.0
 10
114.8479579264
 20
283.7368110229
 30
0.0
 10
112.9547986897
 20
283.7357725419
 30
0.0
 10
111.3492305318
 20
283.7374794453
 30
0.0
 10
110.1369504468
 20
283.7405458422
 30
0.0
 10
109.3496436176
 20
283.7434311512
 30
0.0
 10
108.6798533204
 20
283.7469394113
 30
0.0
 10
108.1468310848
 20
283.7507204354
 30
0.0
 10
107.7586123615
 20
283.7551926766
 30
0.0
 10
107.5495187066
 20
283.7585903368
 30
0.0
 10
107.4688551584
 20
283.7617399484
 30
0.0
  0
SPLINE
  5
361
100
AcDbEntity
  8
0
100
AcDbSpline
 62
7
  6
CONTINUOUS
 70
0
 71
3
 72
9
 73
5
 74
0
 42
0.0000001
 43
0.0000001
 44
0.0000000001
 40
0.0
 40
0.0
 40
0.0
 40
0.0
 40
0.1223303423
 40
1.0
 40
1.0
 40
1.0
 40
1.0
 10
107.4688551584
 20
283.7617399484
 30
0.0
 10
107.4571611452
 20
283.7621965561
 30
0.0
 10
107.3616022774
 20
283.7663191253
 30
0.0
 10
107.2660257757
 20
283.7772572952
 30
0.0
 10
107.183796119
 20
283.7942330809
 30
0.0
  0
SPLINE
  5
362
100
AcDbEntity
  8
0
100
AcDbSpline
 62
7
  6
CONTINUOUS
 70
0
 71
3
 72
42
 73
38
 74
0
 42
0.0000001
 43
0.0000001
 44
0.0000000001
 40
0.0
 40
0.0
 40
0.0
 40
0.0
 40
0.0001607957
 40
0.0006109886
 40
0.0013556258
 40
0.0023949963
 40
0.0037288244
 40
0.0053566789
 40
0.0094924551
 40
0.014794893
 40
0.0212485803
 40
0.0288368926
 40
0.0375431765
 40
0.0582307413
 40
0.0831063636
 40
0.1119407454
 40
0.1444554965
 40
0.1803463545
 40
0.2192707789
 40
0.2608598022
 40
0.3047194736
 40
0.3975648636
 40
0.4942909187
 40
0.5912354389
 40
0.6847281421
 40
0.7712292397
 40
0.8474628642
 40
0.8808093057
 40
0.9105430229
 40
0.9363823506
 40
0.9580830611
 40
0.9754353033
 40
0.988281119
 40
0.9929706116
 40
0.9964914642
 40
0.998836493
 40
1.0
 40
1.0
 40
1.0
 40
1.0
 10
116.7857128704
 20
286.7628347959
 30
0.0
 10
116.785702885
 20
286.7624436874
 30
0.0
 10
116.7835078029
 20
286.7624135506
 30
0.0
 10
116.7809121381
 20
286.7617933601
 30
0.0
 10
116.7751055104
 20
286.7615418973
 30
0.0
 10
116.7676992563
 20
286.7610715917
 30
0.0
 10
116.7579074204
 20
286.7606844015
 30
0.0
 10
116.7406798185
 20
286.7600729622
 30
0.0
 10
116.7137434681
 20
286.7593673091
 30
0.0
 10
116.6750936595
 20
286.7585582973
 30
0.0
 10
116.6280297429
 20
286.7577600101
 30
0.0
 10
116.5726870265
 20
286.7569684999
 30
0.0
 10
116.4827110633
 20
286.7558664475
 30
0.0
 10
116.3506731266
 20
286.7545723223
 30
0.0
 10
116.1696598956
 20
286.7531607393
 30
0.0
 10
115.9598684638
 20
286.7518379979
 30
0.0
 10
115.7232745518
 20
286.750616415
 30
0.0
 10
115.4621295182
 20
286.7495107256
 30
0.0
 10
115.1789050043
 20
286.7485315696
 30
0.0
 10
114.8762908587
 20
286.7476892833
 30
0.0
 10
114.4424801452
 20
286.7467422041
 30
0.0
 10
113.8745135624
 20
286.7459721339
 30
0.0
 10
113.1773844757
 20
286.7456913052
 30
0.0
 10
112.4786804293
 20
286.7460507831
 30
0.0
 10
111.8048555824
 20
286.7470346388
 30
0.0
 10
111.1814241991
 20
286.7486035541
 30
0.0
 10
110.7043374555
 20
286.7504074091
 30
0.0
 10
110.365374161
 20
286.7521510092
 30
0.0
 10
110.1490259486
 20
286.7534985859
 30
0.0
 10
109.9610151727
 20
286.7549343627
 30
0.0
 10
109.8031296654
 20
286.7564246045
 30
0.0
 10
109.6768666463
 20
286.7579880862
 30
0.0
 10
109.5919835228
 20
286.7593464469
 30
0.0
 10
109.5407766174
 20
286.7606067691
 30
0.0
 10
109.5150860248
 20
286.7613257213
 30
0.0
 10
109.4980402986
 20
286.7622597366
 30
0.0
 10
109.4894689991
 20
286.7626661039
 30
0.0
 10
109.4866965055
 20
286.7632384674
 30
0.0
  0
SPLINE
  5
363
100
AcDbEntity
  8
0
100
AcDbSpline
 62
7
  6
CONTINUOUS
 70
0
 71
3
 72
37
 73
33
 74
0
 42
0.0000001
 43
0.0000001
 44
0.0000000001
 40
0.0
 40
0.0
 40
0.0
 40
0.0
 40
0.0011765773
 40
0.0035521532
 40
0.0071212999
 40
0.0118770922
 40
0.0178104694
 40
0.0249049241
 40
0.0425035051
 40
0.0645113105
 40
0.0907091518
 40
0.1208510104
 40
0.1546412613
 40
0.2318461982
 40
0.3193556063
 40
0.4138060613
 40
0.5115677841
 40
0.6088842805
 40
0.7020162746
 40
0.7873852715
 40
0.8617108426
 40
0.8938179947
 40
0.922135568
 40
0.9463852217
 40
0.9663400476
 40
0.9746417686
 40
0.9818005009
 40
0.987800258
 40
0.9926250939
 40
0.9962612476
 40
0.9987031069
 40
1.0
 40
1.0
 40
1.0
 40
1.0
 10
107.4872322943
 20
286.7632384674
 30
0.0
 10
107.4915716134
 20
286.7623426428
 30
0.0
 10
107.5050035522
 20
286.7617137534
 30
0.0
 10
107.5317308029
 20
286.7602533402
 30
0.0
 10
107.5720407585
 20
286.7591360624
 30
0.0
 10
107.6257076774
 20
286.7578147791
 30
0.0
 10
107.6926713525
 20
286.7565681805
 30
0.0
 10
107.8079897597
 20
286.7547487056
 30
0.0
 10
107.9838475482
 20
286.7526303873
 30
0.0
 10
108.2316454349
 20
286.7502921561
 30
0.0
 10
108.5266829478
 20
286.7480645775
 30
0.0
 10
108.8660930737
 20
286.7459690458
 30
0.0
 10
109.3975883638
 20
286.7432643729
 30
0.0
 10
110.145123568
 20
286.7404745845
 30
0.0
 10
111.1210985906
 20
286.7380646361
 30
0.0
 10
112.1744894707
 20
286.7365769123
 30
0.0
 10
113.2648133295
 20
286.7360719863
 30
0.0
 10
114.3501721736
 20
286.7365723105
 30
0.0
 10
115.3888604441
 20
286.7380542246
 30
0.0
 10
116.3409675774
 20
286.7404570416
 30
0.0
 10
117.0632577837
 20
286.7432440039
 30
0.0
 10
117.5707058982
 20
286.7459582441
 30
0.0
 10
117.8895592069
 20
286.7480469832
 30
0.0
 10
118.1626926138
 20
286.7502749275
 30
0.0
 10
118.3603284814
 20
286.7523037961
 30
0.0
 10
118.493824621
 20
286.7540567358
 30
0.0
 10
118.574311302
 20
286.7552627627
 30
0.0
 10
118.6429450086
 20
286.7566120914
 30
0.0
 10
118.6949024591
 20
286.7576018786
 30
0.0
 10
118.7420256768
 20
286.759490769
 30
0.0
 10
118.7571216709
 20
286.7593452766
 30
0.0
 10
118.7889881421
 20
286.7622510365
 30
0.0
 10
118.7842050879
 20
286.7632384674
 30
0.0
  0
SPLINE
  5
364
100
AcDbEntity
  8
0
100
AcDbSpline
 62
7
  6
CONTINUOUS
 70
0
 71
3
 72
17
 73
13
 74
0
 42
0.0000001
 43
0.0000001
 44
0.0000000001
 40
0.0
 40
0.0
 40
0.0
 40
0.0
 40
0.0076664458
 40
0.0230583338
 40
0.0461421006
 40
0.0768743135
 40
0.1610213594
 40
0.2746812458
 40
0.4168595596
 40
0.5862034941
 40
0.7811919299
 40
1.0
 40
1.0
 40
1.0
 40
1.0
 10
118.7842050879
 20
286.7632384674
 30
0.0
 10
118.7800125994
 20
286.7641039798
 30
0.0
 10
118.7670866729
 20
286.7647348172
 30
0.0
 10
118.741407737
 20
286.7661506625
 30
0.0
 10
118.7027513453
 20
286.7672515318
 30
0.0
 10
118.625752097
 20
286.7691703191
 30
0.0
 10
118.4981418922
 20
286.7712450668
 30
0.0
 10
118.3083163633
 20
286.7736321305
 30
0.0
 10
118.0709059365
 20
286.775911408
 30
0.0
 10
117.7880826613
 20
286.7781110933
 30
0.0
 10
117.4624668693
 20
286.7801792516
 30
0.0
 10
117.2314086715
 20
286.7813954121
 30
0.0
 10
117.109229022
 20
286.7819863289
 30
0.0
  0
LINE
  5
365
100
AcDbEntity
  8
0
100
AcDbLine
 62
7
  6
CONTINUOUS
 10
117.109229022
 20
286.7819863289
 11
116.963020226
 21
286.782669112
  0
LINE
  5
366
100
AcDbEntity
  8
0
100
AcDbLine
 62
7
  6
CONTINUOUS
 10
115.2804033914
 20
286.787970761
 11
114.8533690831
 21
286.7887605243
  0
SPLINE
  5
367
100
AcDbEntity
  8
0
100
AcDbSpline
 62
7
  6
CONTINUOUS
 70
0
 71
3
 72
9
 73
5
 74
0
 42
0.0000001
 43
0.0000001
 44
0.0000000001
 40
0.0
 40
0.0
 40
0.0
 40
0.0
 40
0.2449999017
 40
1.0
 40
1.0
 40
1.0
 40
1.0
 10
114.8533690831
 20
286.7887605243
 30
0.0
 10
114.7322016256
 20
286.788958596
 30
0.0
 10
114.237640235
 20
286.7896792014
 30
0.0
 10
113.7430783643
 20
286.7900635912
 30
0.0
 10
113.3696840911
 20
286.7901788958
 30
0.0
  0
LINE
  5
368
100
AcDbEntity
  8
0
100
AcDbLine
 62
7
  6
CONTINUOUS
 10
113.3696840911
 20
286.7901788958
 11
112.4523514752
 21
286.7901053324
  0
SPLINE
  5
369
100
AcDbEntity
  8
0
100
AcDbSpline
 62
7
  6
CONTINUOUS
 70
0
 71
3
 72
9
 73
5
 74
0
 42
0.0000001
 43
0.0000001
 44
0.0000000001
 40
0.0
 40
0.0
 40
0.0
 40
0.0
 40
0.2568227018
 40
1.0
 40
1.0
 40
1.0
 40
1.0
 10
112.4523514752
 20
286.7901053324
 30
0.0
 10
112.3168110941
 20
286.790041432
 30
0.0
 10
111.7890525787
 20
286.7896996275
 30
0.0
 10
111.2612942718
 20
286.7889887577
 30
0.0
 10
110.869076812
 20
286.7882115843
 30
0.0
  0
LINE
  5
36A
100
AcDbEntity
  8
0
100
AcDbLine
 62
7
  6
CONTINUOUS
 10
110.869076812
 20
286.7882115843
 11
110.8200696161
 21
286.7881131467
  0
LINE
  5
36B
100
AcDbEntity
  8
0
100
AcDbLine
 62
7
  6
CONTINUOUS
 10
109.1499837047
 20
286.7828085855
 11
108.992539347
 21
286.7820468034
  0
SPLINE
  5
36C
100
AcDbEntity
  8
0
100
AcDbSpline
 62
7
  6
CONTINUOUS
 70
0
 71
3
 72
17
 73
13
 74
0
 42
0.0000001
 43
0.0000001
 44
0.0000000001
 40
0.0
 40
0.0
 40
0.0
 40
0.0
 40
0.4376476278
 40
0.613044002
 40
0.7572600479
 40
0.8172207868
 40
0.8689068842
 40
0.912204994
 40
0.9470020888
 40
0.9732042139
 40
0.9907746294
 40
1.0
 40
1.0
 40
1.0
 40
1.0
 10
108.992539347
 20
286.7820468034
 30
0.0
 10
108.772889059
 20
286.780939355
 30
0.0
 10
108.4652301342
 20
286.7791520569
 30
0.0
 10
108.0851337965
 20
286.7759809303
 30
0.0
 10
107.8947197768
 20
286.7739815572
 30
0.0
 10
107.7661811133
 20
286.7722554838
 30
0.0
 10
107.6887333935
 20
286.7710715943
 30
0.0
 10
107.6227184621
 20
286.7697399272
 30
0.0
 10
107.5727817778
 20
286.7687829182
 30
0.0
 10
107.5275112681
 20
286.7668917635
 30
0.0
 10
107.5130731373
 20
286.7671086499
 30
0.0
 10
107.4826977491
 20
286.7641745952
 30
0.0
 10
107.4872322943
 20
286.7632384674
 30
0.0
  0
SPLINE
  5
36D
100
AcDbEntity
  8
0
100
AcDbSpline
 62
7
  6
CONTINUOUS
 70
0
 71
3
 72
46
 73
42
 74
0
 42
0.0000001
 43
0.0000001
 44
0.0000000001
 40
0.0
 40
0.0
 40
0.0
 40
0.0
 40
0.0001602383
 40
0.0006097764
 40
0.001353828
 40
0.0023928149
 40
0.0037265922
 40
0.005354859
 40
0.0072771465
 40
0.0094921501
 40
0.0147935378
 40
0.0212454224
 40
0.0288340846
 40
0.037542386
 40
0.0473475755
 40
0.0582263696
 40
0.083104156
 40
0.1119366893
 40
0.1444544794
 40
0.1803453726
 40
0.2192710744
 40
0.2608606151
 40
0.3047200521
 40
0.3975656852
 40
0.4942922782
 40
0.5912373492
 40
0.6847303084
 40
0.7712314042
 40
0.8108235338
 40
0.8474657062
 40
0.8808128859
 40
0.9105456251
 40
0.9363845961
 40
0.9580838964
 40
0.9754369627
 40
0.9824308748
 40
0.9882811115
 40
0.9929718284
 40
0.996492465
 40
0.9988367494
 40
1.0
 40
1.0
 40
1.0
 40
1.0
 10
121.7819494141
 20
252.7626699511
 30
0.0
 10
121.7819343464
 20
252.7617461119
 30
0.0
 10
121.7767267041
 20
252.7616662721
 30
0.0
 10
121.7705997198
 20
252.7602034461
 30
0.0
 10
121.7568395009
 20
252.7596038859
 30
0.0
 10
121.7392978264
 20
252.7584907423
 30
0.0
 10
121.7160898591
 20
252.7575734074
 30
0.0
 10
121.6879996936
 20
252.7565735814
 30
0.0
 10
121.6547493669
 20
252.7556017262
 30
0.0
 10
121.6003501789
 20
252.7542117772
 30
0.0
 10
121.5198186012
 20
252.7525403263
 30
0.0
 10
121.4083077115
 20
252.7506424749
 30
0.0
 10
121.2771464316
 20
252.7487689826
 30
0.0
 10
121.126648336
 20
252.7469241804
 30
0.0
 10
120.9571768305
 20
252.745114522
 30
0.0
 10
120.6944713156
 20
252.742644363
 30
0.0
 10
120.322050268
 20
252.7397460639
 30
0.0
 10
119.8248537593
 20
252.7366082855
 30
0.0
 10
119.2641513268
 20
252.7337147171
 30
0.0
 10
118.645248048
 20
252.7310933142
 30
0.0
 10
117.9740339448
 20
252.7287732893
 30
0.0
 10
117.2568706086
 20
252.7267770465
 30
0.0
 10
116.2287952277
 20
252.724532507
 30
0.0
 10
114.8827885756
 20
252.72270747
 30
0.0
 10
113.2306798456
 20
252.7220421039
 30
0.0
 10
111.574838583
 20
252.7228934545
 30
0.0
 10
109.9779608104
 20
252.7252272807
 30
0.0
 10
108.7117922899
 20
252.7284077278
 30
0.0
 10
107.7734373404
 20
252.7316995679
 30
0.0
 10
107.1415771074
 20
252.7343919679
 30
0.0
 10
106.5665696429
 20
252.7373504958
 30
0.0
 10
106.0538577903
 20
252.7405470345
 30
0.0
 10
105.6083120683
 20
252.7439393332
 30
0.0
 10
105.2341549283
 20
252.7474998424
 30
0.0
 10
104.9686608813
 20
252.750721626
 30
0.0
 10
104.7945633905
 20
252.7534883943
 30
0.0
 10
104.6934650687
 20
252.7553840897
 30
0.0
 10
104.6124256995
 20
252.7573901939
 30
0.0
 10
104.5515406509
 20
252.7590920471
 30
0.0
 10
104.5111515376
 20
252.7613053325
 30
0.0
 10
104.4908447631
 20
252.7622704749
 30
0.0
 10
104.4842757789
 20
252.7636265996
 30
0.0
  0
SPLINE
  5
36E
100
AcDbEntity
  8
0
100
AcDbSpline
 62
7
  6
CONTINUOUS
 70
0
 71
3
 72
14
 73
10
 74
0
 42
0.0000001
 43
0.0000001
 44
0.0000000001
 40
0.0
 40
0.0
 40
0.0
 40
0.0
 40
0.0251300108
 40
0.0795456114
 40
0.1630472609
 40
0.2753100376
 40
0.415789983
 40
0.5839095275
 40
1.0
 40
1.0
 40
1.0
 40
1.0
 10
119.8829703545
 20
278.2633355005
 30
0.0
 10
119.8747446442
 20
278.2650336456
 30
0.0
 10
119.847983558
 20
278.2656016838
 30
0.0
 10
119.793688881
 20
278.2682867839
 30
0.0
 10
119.7100087078
 20
278.2698740297
 30
0.0
 10
119.5976795244
 20
278.2720489996
 30
0.0
 10
119.4570159601
 20
278.2739817785
 30
0.0
 10
119.2148263554
 20
278.2768306691
 30
0.0
 10
119.0195710143
 20
278.278529066
 30
0.0
 10
118.8805059954
 20
278.2796220709
 30
0.0
  0
SPLINE
  5
36F
100
AcDbEntity
  8
0
100
AcDbSpline
 62
7
  6
CONTINUOUS
 70
0
 71
3
 72
9
 73
5
 74
0
 42
0.0000001
 43
0.0000001
 44
0.0000000001
 40
0.0
 40
0.0
 40
0.0
 40
0.0
 40
0.2688340406
 40
1.0
 40
1.0
 40
1.0
 40
1.0
 10
107.9668069185
 20
278.28464925
 30
0.0
 10
107.9149729759
 20
278.2843602697
 30
0.0
 10
107.7221630195
 20
278.2832449264
 30
0.0
 10
107.5293539654
 20
278.2819649343
 30
0.0
 10
107.388379641
 20
278.2808878634
 30
0.0
  0
SPLINE
  5
370
100
AcDbEntity
  8
0
100
AcDbSpline
 62
7
  6
CONTINUOUS
 70
0
 71
3
 72
22
 73
18
 74
0
 42
0.0000001
 43
0.0000001
 44
0.0000000001
 40
0.0
 40
0.0
 40
0.0
 40
0.0
 40
0.4457427371
 40
0.6214004471
 40
0.7642706792
 40
0.8231968939
 40
0.8736786899
 40
0.915637608
 40
0.9490109705
 40
0.9624703641
 40
0.9737755855
 40
0.9829251916
 40
0.9899187724
 40
0.9947587954
 40
0.9974598012
 40
0.9982029231
 40
1.0
 40
1.0
 40
1.0
 40
1.0
 10
107.388379641
 20
278.2808878634
 30
0.0
 10
107.2389324652
 20
278.2797460584
 30
0.0
 10
107.0305923586
 20
278.2779575543
 30
0.0
 10
106.7743606147
 20
278.2749139878
 30
0.0
 10
106.6478188496
 20
278.2730352541
 30
0.0
 10
106.5632480105
 20
278.271457409
 30
0.0
 10
106.5125086371
 20
278.270347254
 30
0.0
 10
106.4703397818
 20
278.2692287142
 30
0.0
 10
106.440584117
 20
278.2682562219
 30
0.0
 10
106.4211093323
 20
278.267425687
 30
0.0
 10
106.4097498338
 20
278.266889798
 30
0.0
 10
106.4005704093
 20
278.2662443306
 30
0.0
 10
106.3935393933
 20
278.2658988476
 30
0.0
 10
106.3887305224
 20
278.2649162638
 30
0.0
 10
106.3859324805
 20
278.2651605054
 30
0.0
 10
106.3843497786
 20
278.2635232705
 30
0.0
 10
106.3859968361
 20
278.2634573212
 30
0.0
 10
106.3865869285
 20
278.2633355005
 30
0.0
  0
SPLINE
  5
371
100
AcDbEntity
  8
0
100
AcDbSpline
 62
7
  6
CONTINUOUS
 70
0
 71
3
 72
14
 73
10
 74
0
 42
0.0000001
 43
0.0000001
 44
0.0000000001
 40
0.0
 40
0.0
 40
0.0
 40
0.0
 40
0.0251300108
 40
0.0795456114
 40
0.1630472609
 40
0.2753100376
 40
0.415789983
 40
0.5839095275
 40
1.0
 40
1.0
 40
1.0
 40
1.0
 10
106.3865869285
 20
278.2633355005
 30
0.0
 10
106.3948126387
 20
278.2616373553
 30
0.0
 10
106.4215737249
 20
278.2610693171
 30
0.0
 10
106.4758684019
 20
278.258384217
 30
0.0
 10
106.5595485751
 20
278.2567969712
 30
0.0
 10
106.6718777585
 20
278.2546220013
 30
0.0
 10
106.8125413228
 20
278.2526892225
 30
0.0
 10
107.0547309275
 20
278.2498403318
 30
0.0
 10
107.2499862686
 20
278.2481419349
 30
0.0
 10
107.3890512875
 20
278.24704893
 30
0.0
  0
SPLINE
  5
372
100
AcDbEntity
  8
0
100
AcDbSpline
 62
7
  6
CONTINUOUS
 70
0
 71
3
 72
22
 73
18
 74
0
 42
0.0000001
 43
0.0000001
 44
0.0000000001
 40
0.0
 40
0.0
 40
0.0
 40
0.0
 40
0.4457427371
 40
0.6214004471
 40
0.7642706792
 40
0.8231968939
 40
0.8736786899
 40
0.915637608
 40
0.9490109705
 40
0.9624703641
 40
0.9737755855
 40
0.9829251916
 40
0.9899187724
 40
0.9947587954
 40
0.9974598012
 40
0.9982029231
 40
1.0
 40
1.0
 40
1.0
 40
1.0
 10
118.8811776419
 20
278.2457831375
 30
0.0
 10
119.0306248177
 20
278.2469249426
 30
0.0
 10
119.2389649243
 20
278.2487134466
 30
0.0
 10
119.4951966682
 20
278.2517570132
 30
0.0
 10
119.6217384333
 20
278.2536357468
 30
0.0
 10
119.7063092725
 20
278.2552135919
 30
0.0
 10
119.7570486458
 20
278.2563237469
 30
0.0
 10
119.7992175012
 20
278.2574422867
 30
0.0
 10
119.8289731659
 20
278.258414779
 30
0.0
 10
119.8484479506
 20
278.2592453139
 30
0.0
 10
119.8598074491
 20
278.2597812029
 30
0.0
 10
119.8689868736
 20
278.2604266704
 30
0.0
 10
119.8760178896
 20
278.2607721533
 30
0.0
 10
119.8808267605
 20
278.2617547372
 30
0.0
 10
119.8836248024
 20
278.2615104956
 30
0.0
 10
119.8852075043
 20
278.2631477305
 30
0.0
 10
119.8835604468
 20
278.2632136797
 30
0.0
 10
119.8829703545
 20
278.2633355005
 30
0.0
  0
SPLINE
  5
373
100
AcDbEntity
  8
0
100
AcDbSpline
 62
7
  6
CONTINUOUS
 70
0
 71
3
 72
14
 73
10
 74
0
 42
0.0000001
 43
0.0000001
 44
0.0000000001
 40
0.0
 40
0.0
 40
0.0
 40
0.0
 40
0.0265420987
 40
0.0817302791
 40
0.1654231254
 40
0.2774200991
 40
0.4173436436
 40
0.5847486237
 40
1.0
 40
1.0
 40
1.0
 40
1.0
 10
120.7817891999
 20
269.7634325335
 30
0.0
 10
120.7747174117
 20
269.7648924589
 30
0.0
 10
120.7523673539
 20
269.7657051196
 30
0.0
 10
120.707519868
 20
269.7680468603
 30
0.0
 10
120.6392321249
 20
269.7696854305
 30
0.0
 10
120.5479718738
 20
269.7717201128
 30
0.0
 10
120.4338988728
 20
269.7736019065
 30
0.0
 10
120.2373406298
 20
269.7763595403
 30
0.0
 10
120.0788325784
 20
269.7780340539
 30
0.0
 10
119.9658665422
 20
269.7791177839
 30
0.0
  0
SPLINE
  5
374
100
AcDbEntity
  8
0
100
AcDbSpline
 62
7
  6
CONTINUOUS
 70
0
 71
3
 72
21
 73
17
 74
0
 42
0.0000001
 43
0.0000001
 44
0.0000000001
 40
0.0
 40
0.0
 40
0.0
 40
0.0
 40
0.2412150011
 40
0.4502834354
 40
0.5424963798
 40
0.6263770194
 40
0.7018616725
 40
0.7688873432
 40
0.8773103687
 40
0.9511924471
 40
0.9751164124
 40
0.990354293
 40
0.9947258173
 40
0.9969678766
 40
0.9976580195
 40
1.0
 40
1.0
 40
1.0
 40
1.0
 10
106.2854962541
 20
269.7804752352
 30
0.0
 10
106.2208353524
 20
269.7798618193
 30
0.0
 10
106.1001318212
 20
269.7786354441
 30
0.0
 10
105.954711516
 20
269.7768916283
 30
0.0
 10
105.8514702821
 20
269.7754478712
 30
0.0
 10
105.7840334103
 20
269.7744037
 30
0.0
 10
105.7233623635
 20
269.7733414453
 30
0.0
 10
105.656068553
 20
269.7720438843
 30
0.0
 10
105.589445549
 20
269.7702991465
 30
0.0
 10
105.5337298106
 20
269.7688153095
 30
0.0
 10
105.5040297326
 20
269.7667814293
 30
0.0
 10
105.4916732255
 20
269.7663731341
 30
0.0
 10
105.486661969
 20
269.765014435
 30
0.0
 10
105.4839476609
 20
269.7650931995
 30
0.0
 10
105.4840654968
 20
269.763395
 30
0.0
 10
105.485273122
 20
269.7635594678
 30
0.0
 10
105.4858879838
 20
269.7634325335
 30
0.0
  0
SPLINE
  5
375
100
AcDbEntity
  8
0
100
AcDbSpline
 62
7
  6
CONTINUOUS
 70
0
 71
3
 72
14
 73
10
 74
0
 42
0.0000001
 43
0.0000001
 44
0.0000000001
 40
0.0
 40
0.0
 40
0.0
 40
0.0
 40
0.0265420987
 40
0.0817302791
 40
0.1654231254
 40
0.2774200991
 40
0.4173436436
 40
0.5847486237
 40
1.0
 40
1.0
 40
1.0
 40
1.0
 10
105.4858879838
 20
269.7634325335
 30
0.0
 10
105.492959772
 20
269.7619726082
 30
0.0
 10
105.5153098298
 20
269.7611599474
 30
0.0
 10
105.5601573157
 20
269.7588182067
 30
0.0
 10
105.6284450588
 20
269.7571796366
 30
0.0
 10
105.7197053099
 20
269.7551449542
 30
0.0
 10
105.8337783109
 20
269.7532631605
 30
0.0
 10
106.0303365538
 20
269.7505055267
 30
0.0
 10
106.1888446052
 20
269.7488310131
 30
0.0
 10
106.3018106415
 20
269.7477472832
 30
0.0
  0
SPLINE
  5
376
100
AcDbEntity
  8
0
100
AcDbSpline
 62
7
  6
CONTINUOUS
 70
0
 71
3
 72
9
 73
5
 74
0
 42
0.0000001
 43
0.0000001
 44
0.0000000001
 40
0.0
 40
0.0
 40
0.0
 40
0.0
 40
0.5002029469
 40
1.0
 40
1.0
 40
1.0
 40
1.0
 10
107.9184007947
 20
269.7372750797
 30
0.0
 10
109.6594640896
 20
269.7293317149
 30
0.0
 10
113.1402216493
 20
269.7248177623
 30
0.0
 10
116.6209801902
 20
269.7285866842
 30
0.0
 10
118.360632259
 20
269.7361708232
 30
0.0
  0
SPLINE
  5
377
100
AcDbEntity
  8
0
100
AcDbSpline
 62
7
  6
CONTINUOUS
 70
0
 71
3
 72
21
 73
17
 74
0
 42
0.0000001
 43
0.0000001
 44
0.0000000001
 40
0.0
 40
0.0
 40
0.0
 40
0.0
 40
0.2412150011
 40
0.4502834354
 40
0.5424963798
 40
0.6263770194
 40
0.7018616725
 40
0.7688873432
 40
0.8773103687
 40
0.9511924471
 40
0.9751164124
 40
0.990354293
 40
0.9947258173
 40
0.9969678766
 40
0.9976580195
 40
1.0
 40
1.0
 40
1.0
 40
1.0
 10
119.9821809296
 20
269.7463898319
 30
0.0
 10
120.0468418313
 20
269.7470032478
 30
0.0
 10
120.1675453625
 20
269.748229623
 30
0.0
 10
120.3129656676
 20
269.7499734387
 30
0.0
 10
120.4162069016
 20
269.7514171959
 30
0.0
 10
120.4836437733
 20
269.752461367
 30
0.0
 10
120.5443148202
 20
269.7535236218
 30
0.0
 10
120.6116086307
 20
269.7548211828
 30
0.0
 10
120.6782316347
 20
269.7565659205
 30
0.0
 10
120.733947373
 20
269.7580497576
 30
0.0
 10
120.7636474511
 20
269.7600836377
 30
0.0
 10
120.7760039581
 20
269.760491933
 30
0.0
 10
120.7810152147
 20
269.761850632
 30
0.0
 10
120.7837295227
 20
269.7617718676
 30
0.0
 10
120.7836116869
 20
269.763470067
 30
0.0
 10
120.7824040616
 20
269.7633055993
 30
0.0
 10
120.7817891999
 20
269.7634325335
 30
0.0
  0
SPLINE
  5
378
100
AcDbEntity
  8
0
100
AcDbSpline
 62
7
  6
CONTINUOUS
 70
0
 71
3
 72
14
 73
10
 74
0
 42
0.0000001
 43
0.0000001
 44
0.0000000001
 40
0.0
 40
0.0
 40
0.0
 40
0.0
 40
0.0266211082
 40
0.0818558234
 40
0.1655650906
 40
0.2775533426
 40
0.4174515368
 40
0.5848189831
 40
1.0
 40
1.0
 40
1.0
 40
1.0
 10
121.7805812559
 20
261.2635295666
 30
0.0
 10
121.772694646
 20
261.2651577067
 30
0.0
 10
121.7478070573
 20
261.2660818968
 30
0.0
 10
121.6978973845
 20
261.2686961268
 30
0.0
 10
121.6219520242
 20
261.270538724
 30
0.0
 10
121.5204841843
 20
261.2728174071
 30
0.0
 10
121.3936671475
 20
261.2749284044
 30
0.0
 10
121.1751524082
 20
261.2780211055
 30
0.0
 10
120.9989383117
 20
261.2799005861
 30
0.0
 10
120.8733514677
 20
261.2811172032
 30
0.0
  0
SPLINE
  5
379
100
AcDbEntity
  8
0
100
AcDbSpline
 62
7
  6
CONTINUOUS
 70
0
 71
3
 72
22
 73
18
 74
0
 42
0.0000001
 43
0.0000001
 44
0.0000000001
 40
0.0
 40
0.0
 40
0.0
 40
0.0
 40
0.4505096903
 40
0.6266260358
 40
0.7021071676
 40
0.7691201496
 40
0.8276026421
 40
0.8774925638
 40
0.9187329028
 40
0.9512977689
 40
0.9751758155
 40
0.9838558869
 40
0.9903649337
 40
0.9947103497
 40
0.996927211
 40
0.9976266384
 40
1.0
 40
1.0
 40
1.0
 40
1.0
 10
105.3728975173
 20
261.2826431602
 30
0.0
 10
105.2388154382
 20
261.2813572276
 30
0.0
 10
105.0523183718
 20
261.2793632553
 30
0.0
 10
104.8433677153
 20
261.2763082749
 30
0.0
 10
104.7485517288
 20
261.274643686
 30
0.0
 10
104.6887463419
 20
261.2734519479
 30
0.0
 10
104.6365562235
 20
261.2722569235
 30
0.0
 10
104.5920496152
 20
261.2710518374
 30
0.0
 10
104.5552312031
 20
261.2698677633
 30
0.0
 10
104.5262371971
 20
261.2686384047
 30
0.0
 10
104.5067619807
 20
261.2676632756
 30
0.0
 10
104.4953346598
 20
261.2666612517
 30
0.0
 10
104.4892515664
 20
261.2662557426
 30
0.0
 10
104.4860156519
 20
261.2653128466
 30
0.0
 10
104.4829765109
 20
261.2653720784
 30
0.0
 10
104.4831971398
 20
261.2634868787
 30
0.0
 10
104.4845240172
 20
261.2636723866
 30
0.0
 10
104.4852158285
 20
261.2635295666
 30
0.0
  0
SPLINE
  5
37A
100
AcDbEntity
  8
0
100
AcDbSpline
 62
7
  6
CONTINUOUS
 70
0
 71
3
 72
14
 73
10
 74
0
 42
0.0000001
 43
0.0000001
 44
0.0000000001
 40
0.0
 40
0.0
 40
0.0
 40
0.0
 40
0.0266211082
 40
0.0818558234
 40
0.1655650906
 40
0.2775533426
 40
0.4174515368
 40
0.5848189831
 40
1.0
 40
1.0
 40
1.0
 40
1.0
 10
104.4852158285
 20
261.2635295666
 30
0.0
 10
104.4931024384
 20
261.2619014265
 30
0.0
 10
104.5179900271
 20
261.2609772363
 30
0.0
 10
104.5678996999
 20
261.2583630064
 30
0.0
 10
104.6438450602
 20
261.2565204092
 30
0.0
 10
104.7453129001
 20
261.2542417261
 30
0.0
 10
104.8721299369
 20
261.2521307287
 30
0.0
 10
105.0906446762
 20
261.2490380277
 30
0.0
 10
105.2668587727
 20
261.2471585471
 30
0.0
 10
105.3924456167
 20
261.24594193
 30
0.0
  0
SPLINE
  5
37B
100
AcDbEntity
  8
0
100
AcDbSpline
 62
7
  6
CONTINUOUS
 70
0
 71
3
 72
22
 73
18
 74
0
 42
0.0000001
 43
0.0000001
 44
0.0000000001
 40
0.0
 40
0.0
 40
0.0
 40
0.0
 40
0.4505096903
 40
0.6266260358
 40
0.7021071676
 40
0.7691201496
 40
0.8276026421
 40
0.8774925638
 40
0.9187329028
 40
0.9512977689
 40
0.9751758155
 40
0.9838558869
 40
0.9903649337
 40
0.9947103497
 40
0.996927211
 40
0.9976266384
 40
1.0
 40
1.0
 40
1.0
 40
1.0
 10
120.8928995671
 20
261.244415973
 30
0.0
 10
121.0269816462
 20
261.2457019056
 30
0.0
 10
121.2134787126
 20
261.2476958779
 30
0.0
 10
121.4224293691
 20
261.2507508582
 30
0.0
 10
121.5172453557
 20
261.2524154472
 30
0.0
 10
121.5770507425
 20
261.2536071852
 30
0.0
 10
121.6292408609
 20
261.2548022096
 30
0.0
 10
121.6737474692
 20
261.2560072958
 30
0.0
 10
121.7105658813
 20
261.2571913698
 30
0.0
 10
121.7395598873
 20
261.2584207285
 30
0.0
 10
121.7590351037
 20
261.2593958576
 30
0.0
 10
121.7704624246
 20
261.2603978815
 30
0.0
 10
121.776545518
 20
261.2608033906
 30
0.0
 10
121.7797814325
 20
261.2617462865
 30
0.0
 10
121.7828205735
 20
261.2616870547
 30
0.0
 10
121.7825999446
 20
261.2635722544
 30
0.0
 10
121.7812730672
 20
261.2633867466
 30
0.0
 10
121.7805812559
 20
261.2635295666
 30
0.0
  0
SPLINE
  5
37C
100
AcDbEntity
  8
0
100
AcDbSpline
 62
7
  6
CONTINUOUS
 70
0
 71
3
 72
23
 73
19
 74
0
 42
0.0000001
 43
0.0000001
 44
0.0000000001
 40
0.0
 40
0.0
 40
0.0
 40
0.0
 40
0.0011292695
 40
0.0042014299
 40
0.0092714042
 40
0.0163457306
 40
0.0254250477
 40
0.0365083621
 40
0.0646800725
 40
0.1008313243
 40
0.144894291
 40
0.1967946011
 40
0.256457582
 40
0.3238055787
 40
0.398730323
 40
0.570801826
 40
0.7716392006
 40
1.0
 40
1.0
 40
1.0
 40
1.0
 10
120.7828905061
 20
261.2626835133
 30
0.0
 10
120.7828815588
 20
261.262135415
 30
0.0
 10
120.779972964
 20
261.2618328514
 30
0.0
 10
120.7763597589
 20
261.2610174634
 30
0.0
 10
120.7685284799
 20
261.260460841
 30
0.0
 10
120.7584569515
 20
261.2597246063
 30
0.0
 10
120.7451730752
 20
261.2590476166
 30
0.0
 10
120.721770632
 20
261.2580234502
 30
0.0
 10
120.6851610358
 20
261.2568189992
 30
0.0
 10
120.6325768817
 20
261.2554440902
 30
0.0
 10
120.5684561296
 20
261.2540770368
 30
0.0
 10
120.492925363
 20
261.252715807
 30
0.0
 10
120.4060879698
 20
261.2513677612
 30
0.0
 10
120.3080732322
 20
261.2500353831
 30
0.0
 10
120.155494817
 20
261.2481980569
 30
0.0
 10
119.9381177744
 20
261.2460045037
 30
0.0
 10
119.6462587304
 20
261.243572507
 30
0.0
 10
119.4379218433
 20
261.2421175326
 30
0.0
 10
119.327072989
 20
261.2413991473
 30
0.0
  0
SPLINE
  5
37D
100
AcDbEntity
  8
0
100
AcDbSpline
 62
7
  6
CONTINUOUS
 70
0
 71
3
 72
11
 73
7
 74
0
 42
0.0000001
 43
0.0000001
 44
0.0000000001
 40
0.0
 40
0.0
 40
0.0
 40
0.0
 40
0.2197885291
 40
0.5009903346
 40
0.7816678609
 40
1.0
 40
1.0
 40
1.0
 40
1.0
 10
119.327072989
 20
261.2413991473
 30
0.0
 10
118.416962927
 20
261.2355009387
 30
0.0
 10
116.3423997942
 20
261.2288612545
 30
0.0
 10
113.1055676313
 20
261.225705568
 30
0.0
 10
109.8747673326
 20
261.2296869046
 30
0.0
 10
107.8084075778
 20
261.2368455269
 30
0.0
 10
106.904330173
 20
261.2430015834
 30
0.0
  0
SPLINE
  5
37E
100
AcDbEntity
  8
0
100
AcDbSpline
 62
7
  6
CONTINUOUS
 70
0
 71
3
 72
17
 73
13
 74
0
 42
0.0000001
 43
0.0000001
 44
0.0000000001
 40
0.0
 40
0.0
 40
0.0
 40
0.0
 40
0.2208149901
 40
0.4160230894
 40
0.5845805001
 40
0.7255117089
 40
0.8380605651
 40
0.9216024871
 40
0.952334686
 40
0.9756614348
 40
0.9915551102
 40
1.0
 40
1.0
 40
1.0
 40
1.0
 10
106.904330173
 20
261.2430015834
 30
0.0
 10
106.7998392661
 20
261.2437130843
 30
0.0
 10
106.6029754542
 20
261.2451504224
 30
0.0
 10
106.3263521917
 20
261.2475288994
 30
0.0
 10
106.0875342975
 20
261.249987425
 30
0.0
 10
105.887833228
 20
261.2524921182
 30
0.0
 10
105.7283725672
 20
261.25505567
 30
0.0
 10
105.6210511994
 20
261.2572969708
 30
0.0
 10
105.5559756296
 20
261.2592920706
 30
0.0
 10
105.5228782007
 20
261.2605172548
 30
0.0
 10
105.500395763
 20
261.2619065626
 30
0.0
 10
105.4888616671
 20
261.2627216015
 30
0.0
 10
105.4849479341
 20
261.2635295666
 30
0.0
  0
SPLINE
  5
37F
100
AcDbEntity
  8
0
100
AcDbSpline
 62
7
  6
CONTINUOUS
 70
0
 71
3
 72
17
 73
13
 74
0
 42
0.0000001
 43
0.0000001
 44
0.0000000001
 40
0.0
 40
0.0
 40
0.0
 40
0.0
 40
0.0087927034
 40
0.0249428202
 40
0.0484403921
 40
0.0792628382
 40
0.1627694442
 40
0.2750754122
 40
0.4156513065
 40
0.5838850033
 40
0.7789577127
 40
1.0
 40
1.0
 40
1.0
 40
1.0
 10
102.8097245019
 20
252.7636265996
 30
0.0
 10
102.8143554149
 20
252.7626705773
 30
0.0
 10
102.8277758521
 20
252.7616171627
 30
0.0
 10
102.853740841
 20
252.759936509
 30
0.0
 10
102.8916253151
 20
252.7584064488
 30
0.0
 10
102.9656969137
 20
252.7559585054
 30
0.0
 10
103.0875545124
 20
252.7531804907
 30
0.0
 10
103.2684275427
 20
252.7500075235
 30
0.0
 10
103.49487657
 20
252.7468898647
 30
0.0
 10
103.7658381283
 20
252.7438167817
 30
0.0
 10
104.0800769219
 20
252.7408241024
 30
0.0
 10
104.3038490734
 20
252.7390033894
 30
0.0
 10
104.422718396
 20
252.7380985501
 30
0.0
  0
SPLINE
  5
380
100
AcDbEntity
  8
0
100
AcDbSpline
 62
7
  6
CONTINUOUS
 70
0
 71
3
 72
13
 73
9
 74
0
 42
0.0000001
 43
0.0000001
 44
0.0000000001
 40
0.0
 40
0.0
 40
0.0
 40
0.0
 40
0.094866138
 40
0.2152034366
 40
0.5008251629
 40
0.7860055162
 40
0.9058191489
 40
1.0
 40
1.0
 40
1.0
 40
1.0
 10
104.422718396
 20
252.7380985501
 30
0.0
 10
104.9745548492
 20
252.7338979434
 30
0.0
 10
106.2264136145
 20
252.727091324
 30
0.0
 10
109.1397823618
 20
252.7171446733
 30
0.0
 10
113.1602596319
 20
252.7125786301
 30
0.0
 10
117.1776915385
 20
252.7163570149
 30
0.0
 10
120.081461841
 20
252.7257470841
 30
0.0
 10
121.3262891691
 20
252.7323133279
 30
0.0
 10
121.8741398076
 20
252.7364173653
 30
0.0
  0
SPLINE
  5
381
100
AcDbEntity
  8
0
100
AcDbSpline
 62
7
  6
CONTINUOUS
 70
0
 71
3
 72
23
 73
19
 74
0
 42
0.0000001
 43
0.0000001
 44
0.0000000001
 40
0.0
 40
0.0
 40
0.0
 40
0.0
 40
0.2297730666
 40
0.4312034062
 40
0.6033275974
 40
0.6781299515
 40
0.7452860988
 40
0.8047206303
 40
0.8563702842
 40
0.9001720416
 40
0.9360632681
 40
0.9639924318
 40
0.974965207
 40
0.9839419064
 40
0.9909223035
 40
0.9959082682
 40
0.9989093484
 40
1.0
 40
1.0
 40
1.0
 40
1.0
 10
121.8741398076
 20
252.7364173653
 30
0.0
 10
121.9954127832
 20
252.7373258407
 30
0.0
 10
122.2229987095
 20
252.7391549714
 30
0.0
 10
122.5414263802
 20
252.7421860591
 30
0.0
 10
122.7780580424
 20
252.7448963496
 30
0.0
 10
122.9438185915
 20
252.747153767
 30
0.0
 10
123.0501031073
 20
252.7487847523
 30
0.0
 10
123.1441662431
 20
252.7504303146
 30
0.0
 10
123.2258982607
 20
252.7520876314
 30
0.0
 10
123.2952069955
 20
252.7537498068
 30
0.0
 10
123.3519742723
 20
252.7554154411
 30
0.0
 10
123.3914531755
 20
252.7568806422
 30
0.0
 10
123.4166506829
 20
252.7581120363
 30
0.0
 10
123.4309315124
 20
252.7589492348
 30
0.0
 10
123.4417186185
 20
252.7597917523
 30
0.0
 10
123.4501136684
 20
252.7605719661
 30
0.0
 10
123.4539015391
 20
252.7613629695
 30
0.0
 10
123.4570103832
 20
252.7619418357
 30
0.0
 10
123.4569473574
 20
252.7625140313
 30
0.0
  0
SPLINE
  5
382
100
AcDbEntity
  8
0
100
AcDbSpline
 62
7
  6
CONTINUOUS
 70
0
 71
3
 72
23
 73
19
 74
0
 42
0.0000001
 43
0.0000001
 44
0.0000000001
 40
0.0
 40
0.0
 40
0.0
 40
0.0
 40
0.0011141275
 40
0.0042169091
 40
0.0093474943
 40
0.0165090034
 40
0.0257002615
 40
0.0369189094
 40
0.0654265937
 40
0.1019828568
 40
0.1464914812
 40
0.1988507998
 40
0.2589589267
 40
0.3267014592
 40
0.4019177263
 40
0.5740855382
 40
0.7740314905
 40
1.0
 40
1.0
 40
1.0
 40
1.0
 10
118.7847708856
 20
278.2627106381
 30
0.0
 10
118.7847588875
 20
278.2621593769
 30
0.0
 10
118.7816962457
 20
278.2620578642
 30
0.0
 10
118.778042753
 20
278.2611972815
 30
0.0
 10
118.7699153037
 20
278.2607965929
 30
0.0
 10
118.7595326952
 20
278.2601169191
 30
0.0
 10
118.7458105538
 20
278.2595411557
 30
0.0
 10
118.7216596506
 20
278.258642175
 30
0.0
 10
118.6838927973
 20
278.2575996653
 30
0.0
 10
118.6296894898
 20
278.2564056375
 30
0.0
 10
118.5636626834
 20
278.2552249942
 30
0.0
 10
118.4859840797
 20
278.2540531518
 30
0.0
 10
118.3968034623
 20
278.2528985709
 30
0.0
 10
118.2963103386
 20
278.2517637103
 30
0.0
 10
118.1403589733
 20
278.250210383
 30
0.0
 10
117.91897878
 20
278.2483779323
 30
0.0
 10
117.622989109
 20
278.246382413
 30
0.0
 10
117.4122034078
 20
278.2452114974
 30
0.0
 10
117.3003710106
 20
278.2446408395
 30
0.0
  0
LINE
  5
383
100
AcDbEntity
  8
0
100
AcDbLine
 62
7
  6
CONTINUOUS
 10
117.3003710106
 20
278.2446408395
 11
117.2241423659
 21
278.2442596741
  0
SPLINE
  5
384
100
AcDbEntity
  8
0
100
AcDbSpline
 62
7
  6
CONTINUOUS
 70
0
 71
3
 72
17
 73
13
 74
0
 42
0.0000001
 43
0.0000001
 44
0.0000000001
 40
0.0
 40
0.0
 40
0.0
 40
0.0
 40
0.2196915175
 40
0.4148483546
 40
0.5839637063
 40
0.7256943377
 40
0.8389237771
 40
0.9227895297
 40
0.9534769309
 40
0.9765988478
 40
0.9921160952
 40
1.0
 40
1.0
 40
1.0
 40
1.0
 10
108.933053319
 20
278.2457564796
 30
0.0
 10
108.8270929406
 20
278.2463312662
 30
0.0
 10
108.6270061241
 20
278.2475052146
 30
0.0
 10
108.3453545412
 20
278.2494814405
 30
0.0
 10
108.1013078387
 20
278.2515598066
 30
0.0
 10
107.8967764886
 20
278.2536999044
 30
0.0
 10
107.7333726614
 20
278.2559218488
 30
0.0
 10
107.6235154054
 20
278.2578573781
 30
0.0
 10
107.5571466661
 20
278.259622874
 30
0.0
 10
107.5237037285
 20
278.260661255
 30
0.0
 10
107.5013389085
 20
278.2619362712
 30
0.0
 10
107.4900162917
 20
278.2625666948
 30
0.0
 10
107.4862922446
 20
278.2633355005
 30
0.0
  0
SPLINE
  5
385
100
AcDbEntity
  8
0
100
AcDbSpline
 62
7
  6
CONTINUOUS
 70
0
 71
3
 72
18
 73
14
 74
0
 42
0.0000001
 43
0.0000001
 44
0.0000000001
 40
0.0
 40
0.0
 40
0.0
 40
0.0
 40
0.0075246892
 40
0.0228435989
 40
0.0459255248
 40
0.076725353
 40
0.1151578939
 40
0.161117996
 40
0.2751626453
 40
0.4176724239
 40
0.5871952502
 40
0.7819730385
 40
1.0
 40
1.0
 40
1.0
 40
1.0
 10
101.3337748238
 20
240.6037800477
 30
0.0
 10
101.3433133684
 20
240.6018108763
 30
0.0
 10
101.3730116296
 20
240.600504879
 30
0.0
 10
101.4322537756
 20
240.5973108591
 30
0.0
 10
101.5218589573
 20
240.5949222858
 30
0.0
 10
101.6412862596
 20
240.5920642323
 30
0.0
 10
101.790373787
 20
240.5893795637
 30
0.0
 10
102.0471893447
 20
240.5854571681
 30
0.0
 10
102.4387308282
 20
240.580905098
 30
0.0
 10
102.9902059211
 20
240.5758890738
 30
0.0
 10
103.6461865004
 20
240.5711351035
 30
0.0
 10
104.3999170755
 20
240.5666834968
 30
0.0
 10
104.9342304701
 20
240.5640956811
 30
0.0
 10
105.2164339053
 20
240.5628454698
 30
0.0
  0
LINE
  5
386
100
AcDbEntity
  8
0
100
AcDbLine
 62
7
  6
CONTINUOUS
 10
105.2164339053
 20
240.5628454698
 11
105.313811179
 21
240.562418736
  0
SPLINE
  5
387
100
AcDbEntity
  8
0
100
AcDbSpline
 62
7
  6
CONTINUOUS
 70
0
 71
3
 72
27
 73
23
 74
0
 42
0.0000001
 43
0.0000001
 44
0.0000000001
 40
0.0
 40
0.0
 40
0.0
 40
0.0
 40
0.2237402434
 40
0.4228294343
 40
0.5124350488
 40
0.5950936506
 40
0.6705739482
 40
0.7386651063
 40
0.7991945503
 40
0.8519939679
 40
0.8969101851
 40
0.9338343291
 40
0.9492679776
 40
0.9626660002
 40
0.9740170509
 40
0.983315801
 40
0.9905593113
 40
0.995745597
 40
0.9975675828
 40
0.9988767812
 40
0.9996777707
 40
1.0
 40
1.0
 40
1.0
 40
1.0
 10
121.0573272372
 20
240.5611478164
 30
0.0
 10
121.3462503579
 20
240.5623673594
 30
0.0
 10
121.8922629428
 20
240.564905271
 30
0.0
 10
122.553982335
 20
240.5687033521
 30
0.0
 10
123.0335162557
 20
240.5719868536
 30
0.0
 10
123.3534303239
 20
240.5744458465
 30
0.0
 10
123.6455602786
 20
240.576981065
 30
0.0
 10
123.9091120406
 20
240.5795853236
 30
0.0
 10
124.1433726815
 20
240.5822490477
 30
0.0
 10
124.3477038394
 20
240.5849611331
 30
0.0
 10
124.5215482958
 20
240.5877137697
 30
0.0
 10
124.6471401287
 20
240.5901461081
 30
0.0
 10
124.7320286518
 20
240.5921645802
 30
0.0
 10
124.7839013434
 20
240.5935902649
 30
0.0
 10
124.8278388716
 20
240.5950170905
 30
0.0
 10
124.8638505709
 20
240.5964380811
 30
0.0
 10
124.8918250595
 20
240.5978469273
 30
0.0
 10
124.9102920657
 20
240.599094406
 30
0.0
 10
124.9208436165
 20
240.6001507762
 30
0.0
 10
124.9261037298
 20
240.6008638553
 30
0.0
 10
124.9287658219
 20
240.6014579084
 30
0.0
 10
124.9306070361
 20
240.60205893
 30
0.0
 10
124.9306106829
 20
240.6024750231
 30
0.0
  0
SPLINE
  5
388
100
AcDbEntity
  8
0
100
AcDbSpline
 62
7
  6
CONTINUOUS
 70
0
 71
3
 72
23
 73
19
 74
0
 42
0.0000001
 43
0.0000001
 44
0.0000000001
 40
0.0
 40
0.0
 40
0.0
 40
0.0
 40
0.0011173866
 40
0.0042069759
 40
0.009313095
 40
0.016440092
 40
0.0255875166
 40
0.0367535941
 40
0.0651319233
 40
0.1015307025
 40
0.1458649166
 40
0.1980453527
 40
0.2579825487
 40
0.3255739582
 40
0.4006761692
 40
0.5728070755
 40
0.7731039337
 40
1.0
 40
1.0
 40
1.0
 40
1.0
 10
119.8838305254
 20
269.7626860162
 30
0.0
 10
119.8838194449
 20
269.762095329
 30
0.0
 10
119.8805832128
 20
269.7619113918
 30
0.0
 10
119.8766749231
 20
269.7610055434
 30
0.0
 10
119.868048907
 20
269.7605172423
 30
0.0
 10
119.8570063035
 20
269.7597670809
 30
0.0
 10
119.8424201647
 20
269.7591115767
 30
0.0
 10
119.816739185
 20
269.7581004247
 30
0.0
 10
119.776573875
 20
269.7569216457
 30
0.0
 10
119.718912126
 20
269.7555731151
 30
0.0
 10
119.6486453535
 20
269.7542368411
 30
0.0
 10
119.5659373704
 20
269.7529088544
 30
0.0
 10
119.4709290349
 20
269.7515978732
 30
0.0
 10
119.3638008058
 20
269.7503064791
 30
0.0
 10
119.1973542978
 20
269.7485336447
 30
0.0
 10
118.9607428605
 20
269.7464325176
 30
0.0
 10
118.6438731853
 20
269.7441282278
 30
0.0
 10
118.4180093355
 20
269.7427654135
 30
0.0
 10
118.2980453956
 20
269.7420978054
 30
0.0
  0
LINE
  5
389
100
AcDbEntity
  8
0
100
AcDbLine
 62
7
  6
CONTINUOUS
 10
118.2980453956
 20
269.7420978054
 11
118.2311587349
 21
269.7417314105
  0
SPLINE
  5
38A
100
AcDbEntity
  8
0
100
AcDbSpline
 62
7
  6
CONTINUOUS
 70
0
 71
3
 72
11
 73
7
 74
0
 42
0.0000001
 43
0.0000001
 44
0.0000000001
 40
0.0
 40
0.0
 40
0.0
 40
0.0
 40
0.2265754215
 40
0.5029098173
 40
0.7777184457
 40
1.0
 40
1.0
 40
1.0
 40
1.0
 10
118.2311587349
 20
269.7417314105
 30
0.0
 10
117.4529621091
 20
269.7375352721
 30
0.0
 10
115.7256450074
 20
269.7324677087
 30
0.0
 10
113.0544518627
 20
269.7302559308
 30
0.0
 10
110.3980077277
 20
269.733352612
 30
0.0
 10
108.690680581
 20
269.7389830815
 30
0.0
 10
107.9272338763
 20
269.7434878826
 30
0.0
  0
SPLINE
  5
38B
100
AcDbEntity
  8
0
100
AcDbSpline
 62
7
  6
CONTINUOUS
 70
0
 71
3
 72
17
 73
13
 74
0
 42
0.0000001
 43
0.0000001
 44
0.0000000001
 40
0.0
 40
0.0
 40
0.0
 40
0.0
 40
0.2202048304
 40
0.4154337718
 40
0.5843542807
 40
0.7257806163
 40
0.8387278748
 40
0.9224362607
 40
0.9531197914
 40
0.9762958527
 40
0.9919302989
 40
1.0
 40
1.0
 40
1.0
 40
1.0
 10
107.9272338763
 20
269.7434878826
 30
0.0
 10
107.8140632067
 20
269.7441556586
 30
0.0
 10
107.6005584224
 20
269.7455133848
 30
0.0
 10
107.3002421561
 20
269.7477828602
 30
0.0
 10
107.0404165015
 20
269.750153349
 30
0.0
 10
106.8228793118
 20
269.7525834566
 30
0.0
 10
106.6491466815
 20
269.7550923412
 30
0.0
 10
106.5323179207
 20
269.7572808367
 30
0.0
 10
106.4616547828
 20
269.7592580004
 30
0.0
 10
106.4259371038
 20
269.7604409724
 30
0.0
 10
106.401922434
 20
269.7618483354
 30
0.0
 10
106.3897085919
 20
269.7625940189
 30
0.0
 10
106.3856468788
 20
269.7634325335
 30
0.0
  0
LINE
  5
38C
100
AcDbEntity
  8
0
100
AcDbLine
 62
7
  6
CONTINUOUS
 10
101.3721220712
 20
241.2213699206
 11
101.3697017627
 21
241.2220444106
  0
LINE
  5
38D
100
AcDbEntity
  8
0
100
AcDbLine
 62
7
  6
CONTINUOUS
 10
101.3313466363
 20
240.6044567334
 11
101.3337748238
 21
240.6037800477
  0
SPLINE
  5
38E
100
AcDbEntity
  8
0
100
AcDbSpline
 62
7
  6
CONTINUOUS
 70
0
 71
3
 72
42
 73
38
 74
0
 42
0.0000001
 43
0.0000001
 44
0.0000000001
 40
0.0
 40
0.0
 40
0.0
 40
0.0
 40
0.0001607957
 40
0.0006109886
 40
0.0013556258
 40
0.0023949963
 40
0.0037288244
 40
0.0053566789
 40
0.0094924551
 40
0.014794893
 40
0.0212485803
 40
0.0288368926
 40
0.0375431765
 40
0.0582307413
 40
0.0831063636
 40
0.1119407454
 40
0.1444554965
 40
0.1803463545
 40
0.2192707789
 40
0.2608598022
 40
0.3047194736
 40
0.3975648636
 40
0.4942909187
 40
0.5912354389
 40
0.6847281421
 40
0.7712292397
 40
0.8474628642
 40
0.8808093057
 40
0.9105430229
 40
0.9363823506
 40
0.9580830611
 40
0.9754353033
 40
0.988281119
 40
0.9929706116
 40
0.9964914642
 40
0.998836493
 40
1.0
 40
1.0
 40
1.0
 40
1.0
 10
109.4857245118
 20
286.7636421389
 30
0.0
 10
109.4857344972
 20
286.7640332475
 30
0.0
 10
109.4879295793
 20
286.7640633842
 30
0.0
 10
109.4905252441
 20
286.7646835747
 30
0.0
 10
109.4963318718
 20
286.7649350375
 30
0.0
 10
109.5037381259
 20
286.7654053431
 30
0.0
 10
109.5135299617
 20
286.7657925333
 30
0.0
 10
109.5307575637
 20
286.7664039727
 30
0.0
 10
109.5576939141
 20
286.7671096257
 30
0.0
 10
109.5963437227
 20
286.7679186375
 30
0.0
 10
109.6434076392
 20
286.7687169247
 30
0.0
 10
109.6987503557
 20
286.7695084349
 30
0.0
 10
109.7887263189
 20
286.7706104873
 30
0.0
 10
109.9207642556
 20
286.7719046125
 30
0.0
 10
110.1017774866
 20
286.7733161955
 30
0.0
 10
110.3115689184
 20
286.774638937
 30
0.0
 10
110.5481628304
 20
286.7758605198
 30
0.0
 10
110.809307864
 20
286.7769662092
 30
0.0
 10
111.0925323778
 20
286.7779453652
 30
0.0
 10
111.3951465235
 20
286.7787876515
 30
0.0
 10
111.828957237
 20
286.7797347307
 30
0.0
 10
112.3969238198
 20
286.7805048009
 30
0.0
 10
113.0940529064
 20
286.7807856296
 30
0.0
 10
113.7927569528
 20
286.7804261517
 30
0.0
 10
114.4665817998
 20
286.779442296
 30
0.0
 10
115.0900131831
 20
286.7778733807
 30
0.0
 10
115.5670999266
 20
286.7760695257
 30
0.0
 10
115.9060632212
 20
286.7743259256
 30
0.0
 10
116.1224114336
 20
286.7729783489
 30
0.0
 10
116.3104222094
 20
286.7715425721
 30
0.0
 10
116.4683077167
 20
286.7700523303
 30
0.0
 10
116.5945707359
 20
286.7684888486
 30
0.0
 10
116.6794538594
 20
286.7671304879
 30
0.0
 10
116.7306607648
 20
286.7658701657
 30
0.0
 10
116.7563513574
 20
286.7651512135
 30
0.0
 10
116.7733970836
 20
286.7642171982
 30
0.0
 10
116.7819683831
 20
286.7638108309
 30
0.0
 10
116.7847408766
 20
286.7632384674
 30
0.0
  0
SPLINE
  5
38F
100
AcDbEntity
  8
0
100
AcDbSpline
 62
7
  6
CONTINUOUS
 70
0
 71
3
 72
50
 73
46
 74
0
 42
0.0000001
 43
0.0000001
 44
0.0000000001
 40
0.0
 40
0.0
 40
0.0
 40
0.0
 40
0.0000445648
 40
0.0001564352
 40
0.0003409567
 40
0.0005989448
 40
0.001336065
 40
0.0023682886
 40
0.0036954083
 40
0.0053170567
 40
0.0072327434
 40
0.0094412592
 40
0.0147301098
 40
0.0211701817
 40
0.0287478272
 40
0.0374452961
 40
0.0472402665
 40
0.0581101662
 40
0.0700306589
 40
0.0829718179
 40
0.1117915565
 40
0.1442975055
 40
0.1801808432
 40
0.2191000329
 40
0.2606873613
 40
0.3045462492
 40
0.3502617197
 40
0.397399093
 40
0.4941411501
 40
0.5911079765
 40
0.6846265683
 40
0.7711541876
 40
0.8107579951
 40
0.8474129779
 40
0.8807711647
 40
0.9105146812
 40
0.9363635652
 40
0.9580696489
 40
0.9754293747
 40
0.9824253066
 40
0.9882771882
 40
0.9929697967
 40
0.9964916412
 40
0.9988365003
 40
1.0
 40
1.0
 40
1.0
 40
1.0
 10
124.8923880004
 20
241.2201025383
 30
0.0
 10
124.8924282883
 20
241.2197554579
 30
0.0
 10
124.8908920362
 20
241.2191020835
 30
0.0
 10
124.888634381
 20
241.2186295288
 30
0.0
 10
124.8841391109
 20
241.2179217664
 30
0.0
 10
124.8750608738
 20
241.2169636216
 30
0.0
 10
124.8591163831
 20
241.215781481
 30
0.0
 10
124.834916785
 20
241.2144779688
 30
0.0
 10
124.8037145375
 20
241.2131491095
 30
0.0
 10
124.7656039033
 20
241.2118188961
 30
0.0
 10
124.7205709575
 20
241.2104870626
 30
0.0
 10
124.6467927473
 20
241.2086005461
 30
0.0
 10
124.5375388374
 20
241.2063243939
 30
0.0
 10
124.3861876372
 20
241.2037441106
 30
0.0
 10
124.2081070935
 20
241.2011955229
 30
0.0
 10
124.0037198087
 20
241.198686044
 30
0.0
 10
123.7735173329
 20
241.196224422
 30
0.0
 10
123.5180429276
 20
241.1938183704
 30
0.0
 10
123.2378992946
 20
241.1914751615
 30
0.0
 10
122.8170218364
 20
241.188328092
 30
0.0
 10
122.2347436953
 20
241.1846531149
 30
0.0
 10
121.4725859571
 20
241.1807144898
 30
0.0
 10
120.6312408213
 20
241.1771486413
 30
0.0
 10
119.7186910237
 20
241.1739908592
 30
0.0
 10
118.7436072204
 20
241.1712747109
 30
0.0
 10
117.715235833
 20
241.169026158
 30
0.0
 10
116.6433482811
 20
241.1672682147
 30
0.0
 10
115.1568295131
 20
241.1655875864
 30
0.0
 10
113.2684732133
 20
241.164826264
 30
0.0
 10
111.0164648902
 20
241.1659802947
 30
0.0
 10
108.8445449193
 20
241.1691519792
 30
0.0
 10
107.1223829506
 20
241.1734752577
 30
0.0
 10
105.846063129
 20
241.1779517758
 30
0.0
 10
104.9866184463
 20
241.1816122647
 30
0.0
 10
104.2044858793
 20
241.1856356961
 30
0.0
 10
103.5070819373
 20
241.1899827233
 30
0.0
 10
102.9010396598
 20
241.1945954929
 30
0.0
 10
102.3920996737
 20
241.1994382355
 30
0.0
 10
102.030975246
 20
241.2038194298
 30
0.0
 10
101.7941667741
 20
241.2075822557
 30
0.0
 10
101.656655661
 20
241.2101604934
 30
0.0
 10
101.546425888
 20
241.2128881126
 30
0.0
 10
101.4636091534
 20
241.2152024634
 30
0.0
 10
101.4086745017
 20
241.2182124713
 30
0.0
 10
101.3810561029
 20
241.219525547
 30
0.0
 10
101.3721220712
 20
241.2213699206
 30
0.0
  0
SPLINE
  5
390
100
AcDbEntity
  8
0
100
AcDbSpline
 62
7
  6
CONTINUOUS
 70
0
 71
3
 72
9
 73
5
 74
0
 42
0.0000001
 43
0.0000001
 44
0.0000000001
 40
0.0
 40
0.0
 40
0.0
 40
0.0
 40
0.4999967674
 40
1.0
 40
1.0
 40
1.0
 40
1.0
 10
90.3556861245
 20
119.721268535
 30
0.0
 10
89.283850745
 20
122.8450775036
 30
0.0
 10
87.6575071281
 20
129.2817498701
 30
0.0
 10
87.1065436433
 20
135.8978041628
 30
0.0
 10
87.1063947322
 20
139.2004236687
 30
0.0
  0
SPLINE
  5
391
100
AcDbEntity
  8
0
100
AcDbSpline
 62
7
  6
CONTINUOUS
 70
0
 71
3
 72
9
 73
5
 74
0
 42
0.0000001
 43
0.0000001
 44
0.0000000001
 40
0.0
 40
0.0
 40
0.0
 40
0.0
 40
0.5000032325
 40
1.0
 40
1.0
 40
1.0
 40
1.0
 10
93.6049997095
 20
100.2421150588
 30
0.0
 10
93.6048446135
 20
103.5447359273
 30
0.0
 10
93.0538881976
 20
110.1607920074
 30
0.0
 10
91.4275477676
 20
116.597469948
 30
0.0
 10
90.3557035381
 20
119.7212773222
 30
0.0
  0
SPLINE
  5
392
100
AcDbEntity
  8
0
100
AcDbSpline
 62
7
  6
CONTINUOUS
 70
0
 71
3
 72
11
 73
7
 74
0
 42
0.0000001
 43
0.0000001
 44
0.0000000001
 40
0.0
 40
0.0
 40
0.0
 40
0.0
 40
0.2631771979
 40
0.5165329487
 40
0.760353263
 40
1.0
 40
1.0
 40
1.0
 40
1.0
 10
99.3388789062
 20
202.6451171808
 30
0.0
 10
99.3388779877
 20
202.7553124512
 30
0.0
 10
99.3855781016
 20
202.9743239269
 30
0.0
 10
99.5763598584
 20
203.239503727
 30
0.0
 10
99.8439315874
 20
203.4071140139
 30
0.0
 10
100.0483016513
 20
203.4452544862
 30
0.0
 10
100.1486444499
 20
203.4452724592
 30
0.0
  0
SPLINE
  5
393
100
AcDbEntity
  8
0
100
AcDbSpline
 62
7
  6
CONTINUOUS
 70
0
 71
3
 72
11
 73
7
 74
0
 42
0.0000001
 43
0.0000001
 44
0.0000000001
 40
0.0
 40
0.0
 40
0.0
 40
0.0
 40
0.250838208
 40
0.5001384309
 40
0.7493058142
 40
1.0
 40
1.0
 40
1.0
 40
1.0
 10
113.2854820456
 20
49.5051021599
 30
0.0
 10
112.8006843288
 20
49.4380529867
 30
0.0
 10
111.8497410381
 20
49.1265921813
 30
0.0
 10
110.6843198959
 20
48.1950919074
 30
0.0
 10
109.9144820739
 20
46.9170099424
 30
0.0
 10
109.7346813759
 20
45.9326608341
 30
0.0
 10
109.7346842577
 20
45.4435295181
 30
0.0
  0
SPLINE
  5
394
100
AcDbEntity
  8
0
100
AcDbSpline
 62
7
  6
CONTINUOUS
 70
0
 71
3
 72
11
 73
7
 74
0
 42
0.0000001
 43
0.0000001
 44
0.0000000001
 40
0.0
 40
0.0
 40
0.0
 40
0.0
 40
0.2512244707
 40
0.500379488
 40
0.7492096462
 40
1.0
 40
1.0
 40
1.0
 40
1.0
 10
114.4082923734
 20
41.3823707973
 30
0.0
 10
114.8424862505
 20
41.4424211823
 30
0.0
 10
115.6943114721
 20
41.7042544493
 30
0.0
 10
116.7740401267
 20
42.4794844701
 30
0.0
 10
117.5543435315
 20
43.5542460943
 30
0.0
 10
117.822937212
 20
44.4021154688
 30
0.0
 10
117.887335658
 20
44.8349200222
 30
0.0
  0
SPLINE
  5
395
100
AcDbEntity
  8
0
100
AcDbSpline
 62
7
  6
CONTINUOUS
 70
0
 71
3
 72
11
 73
7
 74
0
 42
0.0000001
 43
0.0000001
 44
0.0000000001
 40
0.0
 40
0.0
 40
0.0
 40
0.0
 40
0.2506884296
 40
0.4998387335
 40
0.7491333993
 40
1.0
 40
1.0
 40
1.0
 40
1.0
 10
109.7346842577
 20
45.4435295181
 30
0.0
 10
109.7346895282
 20
44.9544310128
 30
0.0
 10
109.9144799027
 20
43.9701681148
 30
0.0
 10
110.684322649
 20
42.6922244999
 30
0.0
 10
111.8497652803
 20
41.7608394242
 30
0.0
 10
112.8007185336
 20
41.4494244687
 30
0.0
 10
113.2855497521
 20
41.3823707973
 30
0.0
  0
SPLINE
  5
396
100
AcDbEntity
  8
0
100
AcDbSpline
 62
7
  6
CONTINUOUS
 70
0
 71
3
 72
11
 73
7
 74
0
 42
0.0000001
 43
0.0000001
 44
0.0000000001
 40
0.0
 40
0.0
 40
0.0
 40
0.0
 40
0.2550893748
 40
0.5065622136
 40
0.7545276846
 40
1.0
 40
1.0
 40
1.0
 40
1.0
 10
131.5519277293
 20
216.067832778
 30
0.0
 10
131.2502535407
 20
216.053654271
 30
0.0
 10
130.6521102698
 20
215.9536934313
 30
0.0
 10
129.8228396238
 20
215.6008327011
 30
0.0
 10
129.1063420717
 20
215.0737347035
 30
0.0
 10
128.7227272262
 20
214.6253763936
 30
0.0
 10
128.5597625164
 20
214.3847454667
 30
0.0
  0
SPLINE
  5
397
100
AcDbEntity
  8
0
100
AcDbSpline
 62
7
  6
CONTINUOUS
 70
0
 71
3
 72
11
 73
7
 74
0
 42
0.0000001
 43
0.0000001
 44
0.0000000001
 40
0.0
 40
0.0
 40
0.0
 40
0.0
 40
0.2136038392
 40
0.4708588532
 40
0.750956728
 40
1.0
 40
1.0
 40
1.0
 40
1.0
 10
95.9248854693
 20
208.074414339
 30
0.0
 10
96.3675171418
 20
208.0814629565
 30
0.0
 10
97.3475417454
 20
208.2525470675
 30
0.0
 10
98.723374661
 20
209.0654256664
 30
0.0
 10
99.6913264731
 20
210.4457977856
 30
0.0
 10
99.8945123126
 20
211.5582328653
 30
0.0
 10
99.8858523102
 20
212.0742952018
 30
0.0
  0
SPLINE
  5
398
100
AcDbEntity
  8
0
100
AcDbSpline
 62
7
  6
CONTINUOUS
 70
0
 71
3
 72
9
 73
5
 74
0
 42
0.0000001
 43
0.0000001
 44
0.0000000001
 40
0.0
 40
0.0
 40
0.0
 40
0.0
 40
0.2503309238
 40
1.0
 40
1.0
 40
1.0
 40
1.0
 10
111.5292460869
 20
229.5821277495
 30
0.0
 10
113.0088203691
 20
229.6051605202
 30
0.0
 10
118.9204647965
 20
229.5881655411
 30
0.0
 10
124.8310447486
 20
229.1362813187
 30
0.0
 10
129.2238307158
 20
228.5522806748
 30
0.0
  0
SPLINE
  5
399
100
AcDbEntity
  8
0
100
AcDbSpline
 62
7
  6
CONTINUOUS
 70
0
 71
3
 72
9
 73
5
 74
0
 42
0.0000001
 43
0.0000001
 44
0.0000000001
 40
0.0
 40
0.0
 40
0.0
 40
0.0
 40
0.4999967558
 40
1.0
 40
1.0
 40
1.0
 40
1.0
 10
90.3848618587
 20
119.7234160667
 30
0.0
 10
89.3130965391
 20
122.847244795
 30
0.0
 10
87.6868358098
 20
129.283920893
 30
0.0
 10
87.1357990755
 20
135.8999507309
 30
0.0
 10
87.1355708139
 20
139.2025663384
 30
0.0
  0
SPLINE
  5
39A
100
AcDbEntity
  8
0
100
AcDbSpline
 62
7
  6
CONTINUOUS
 70
0
 71
3
 72
9
 73
5
 74
0
 42
0.0000001
 43
0.0000001
 44
0.0000000001
 40
0.0
 40
0.0
 40
0.0
 40
0.0
 40
0.5000032442
 40
1.0
 40
1.0
 40
1.0
 40
1.0
 10
93.634129646
 20
100.2442578115
 30
0.0
 10
93.6339013844
 20
103.546873419
 30
0.0
 10
93.0828646501
 20
110.1629032569
 30
0.0
 10
91.4566039208
 20
116.5995793549
 30
0.0
 10
90.3848386012
 20
119.7234080832
 30
0.0
  0
SPLINE
  5
39B
100
AcDbEntity
  8
0
100
AcDbSpline
 62
7
  6
CONTINUOUS
 70
0
 71
3
 72
11
 73
7
 74
0
 42
0.0000001
 43
0.0000001
 44
0.0000000001
 40
0.0
 40
0.0
 40
0.0
 40
0.0
 40
0.2507761072
 40
0.4996058011
 40
0.7487637063
 40
1.0
 40
1.0
 40
1.0
 40
1.0
 10
117.886660292
 20
46.0566168464
 30
0.0
 10
117.8218421912
 20
46.4889836801
 30
0.0
 10
117.5526665266
 20
47.3358655178
 30
0.0
 10
116.7723669663
 20
48.4092460222
 30
0.0
 10
115.6932763
 20
49.1835422475
 30
0.0
 10
114.8420955604
 20
49.4450965923
 30
0.0
 10
114.4082246669
 20
49.5051021599
 30
0.0
  0
SPLINE
  5
39C
100
AcDbEntity
  8
0
100
AcDbSpline
 62
7
  6
CONTINUOUS
 70
0
 71
3
 72
11
 73
7
 74
0
 42
0.0000001
 43
0.0000001
 44
0.0000000001
 40
0.0
 40
0.0
 40
0.0
 40
0.0
 40
0.2507761072
 40
0.4996058011
 40
0.7487637063
 40
1.0
 40
1.0
 40
1.0
 40
1.0
 10
117.8862601912
 20
94.0566137337
 30
0.0
 10
117.8214420904
 20
94.4889805674
 30
0.0
 10
117.5522664258
 20
95.3358624052
 30
0.0
 10
116.7719668655
 20
96.4092429095
 30
0.0
 10
115.6928761992
 20
97.1835391348
 30
0.0
 10
114.8416954596
 20
97.4450934796
 30
0.0
 10
114.4078245661
 20
97.5050990472
 30
0.0
  0
SPLINE
  5
39D
100
AcDbEntity
  8
0
100
AcDbSpline
 62
7
  6
CONTINUOUS
 70
0
 71
3
 72
11
 73
7
 74
0
 42
0.0000001
 43
0.0000001
 44
0.0000000001
 40
0.0
 40
0.0
 40
0.0
 40
0.0
 40
0.2633157156
 40
0.5166193799
 40
0.7603523762
 40
1.0
 40
1.0
 40
1.0
 40
1.0
 10
99.3390841163
 20
178.2451187619
 30
0.0
 10
99.3390850352
 20
178.1348759082
 30
0.0
 10
99.3857689007
 20
177.9158331936
 30
0.0
 10
99.576630775
 20
177.6507385434
 30
0.0
 10
99.8441900417
 20
177.4832711985
 30
0.0
 10
100.0485259809
 20
177.4452561749
 30
0.0
 10
100.1488596714
 20
177.4452741464
 30
0.0
  0
SPLINE
  5
39E
100
AcDbEntity
  8
0
100
AcDbSpline
 62
7
  6
CONTINUOUS
 70
0
 71
3
 72
11
 73
7
 74
0
 42
0.0000001
 43
0.0000001
 44
0.0000000001
 40
0.0
 40
0.0
 40
0.0
 40
0.0
 40
0.250838208
 40
0.5001384309
 40
0.7493058142
 40
1.0
 40
1.0
 40
1.0
 40
1.0
 10
113.2850819449
 20
97.5050990472
 30
0.0
 10
112.800284228
 20
97.4380498741
 30
0.0
 10
111.8493409373
 20
97.1265890686
 30
0.0
 10
110.6839197951
 20
96.1950887947
 30
0.0
 10
109.9140819731
 20
94.9170068298
 30
0.0
 10
109.7342812751
 20
93.9326577215
 30
0.0
 10
109.7342841569
 20
93.4435264054
 30
0.0
  0
SPLINE
  5
39F
100
AcDbEntity
  8
0
100
AcDbSpline
 62
7
  6
CONTINUOUS
 70
0
 71
3
 72
11
 73
7
 74
0
 42
0.0000001
 43
0.0000001
 44
0.0000000001
 40
0.0
 40
0.0
 40
0.0
 40
0.0
 40
0.2506884296
 40
0.4998387335
 40
0.7491333993
 40
1.0
 40
1.0
 40
1.0
 40
1.0
 10
109.7342841569
 20
93.4435264054
 30
0.0
 10
109.7342894274
 20
92.9544279002
 30
0.0
 10
109.9140798019
 20
91.9701650021
 30
0.0
 10
110.6839225482
 20
90.6922213873
 30
0.0
 10
111.8493651795
 20
89.7608363116
 30
0.0
 10
112.8003184329
 20
89.4494213561
 30
0.0
 10
113.2851496513
 20
89.3823676846
 30
0.0
  0
SPLINE
  5
3A0
100
AcDbEntity
  8
0
100
AcDbSpline
 62
7
  6
CONTINUOUS
 70
0
 71
3
 72
11
 73
7
 74
0
 42
0.0000001
 43
0.0000001
 44
0.0000000001
 40
0.0
 40
0.0
 40
0.0
 40
0.0
 40
0.2512244707
 40
0.500379488
 40
0.7492096462
 40
1.0
 40
1.0
 40
1.0
 40
1.0
 10
114.4078922726
 20
89.3823676846
 30
0.0
 10
114.8420861496
 20
89.4424180696
 30
0.0
 10
115.6939113713
 20
89.7042513366
 30
0.0
 10
116.7736400259
 20
90.4794813575
 30
0.0
 10
117.5539434308
 20
91.5542429816
 30
0.0
 10
117.8225371112
 20
92.4021123562
 30
0.0
 10
117.8869355572
 20
92.8349169096
 30
0.0
  0
SPLINE
  5
3A1
100
AcDbEntity
  8
0
100
AcDbSpline
 62
7
  6
CONTINUOUS
 70
0
 71
3
 72
13
 73
9
 74
0
 42
0.0000001
 43
0.0000001
 44
0.0000000001
 40
0.0
 40
0.0
 40
0.0
 40
0.0
 40
0.0250623797
 40
0.0794873127
 40
0.1630246349
 40
0.2753522239
 40
0.5840220602
 40
1.0
 40
1.0
 40
1.0
 40
1.0
 10
101.3310058224
 20
229.0115683731
 30
0.0
 10
101.345543964
 20
229.0117945779
 30
0.0
 10
101.3915204451
 20
229.0159940518
 30
0.0
 10
101.4857742248
 20
229.0233353557
 30
0.0
 10
101.6304195539
 20
229.0363269934
 30
0.0
 10
101.9219698066
 20
229.0621597333
 30
0.0
 10
102.4056442489
 20
229.1051280563
 30
0.0
 10
102.824534795
 20
229.1407463329
 30
0.0
 10
103.0650449051
 20
229.1606098012
 30
0.0
  0
SPLINE
  5
3A2
100
AcDbEntity
  8
0
100
AcDbSpline
 62
7
  6
CONTINUOUS
 70
0
 71
3
 72
9
 73
5
 74
0
 42
0.0000001
 43
0.0000001
 44
0.0000000001
 40
0.0
 40
0.0
 40
0.0
 40
0.0
 40
0.202299378
 40
1.0
 40
1.0
 40
1.0
 40
1.0
 10
103.0650449051
 20
229.1606098012
 30
0.0
 10
103.3494130243
 20
229.1840954547
 30
0.0
 10
104.7554204825
 20
229.2961165237
 30
0.0
 10
106.1632441518
 20
229.3860312777
 30
0.0
 10
107.2869602438
 20
229.4424043295
 30
0.0
  0
SPLINE
  5
3A3
100
AcDbEntity
  8
0
100
AcDbSpline
 62
7
  6
CONTINUOUS
 70
0
 71
3
 72
9
 73
5
 74
0
 42
0.0000001
 43
0.0000001
 44
0.0000000001
 40
0.0
 40
0.0
 40
0.0
 40
0.0
 40
0.4667109292
 40
1.0
 40
1.0
 40
1.0
 40
1.0
 10
95.225553576
 20
228.2489542149
 30
0.0
 10
95.7503801601
 20
228.3239640892
 30
0.0
 10
96.8744887764
 20
228.4876785875
 30
0.0
 10
98.0011138284
 20
228.6333278406
 30
0.0
 10
98.602240226
 20
228.708345098
 30
0.0
  0
SPLINE
  5
3A4
100
AcDbEntity
  8
0
100
AcDbSpline
 62
7
  6
CONTINUOUS
 70
0
 71
3
 72
9
 73
5
 74
0
 42
0.0000001
 43
0.0000001
 44
0.0000000001
 40
0.0
 40
0.0
 40
0.0
 40
0.0
 40
0.2831710765
 40
1.0
 40
1.0
 40
1.0
 40
1.0
 10
95.1377705723
 20
228.2367200914
 30
0.0
 10
95.1461356719
 20
228.2368502473
 30
0.0
 10
95.1752973963
 20
228.2426613563
 30
0.0
 10
95.2045883605
 20
228.2459578
 30
0.0
 10
95.225553576
 20
228.2489542149
 30
0.0
  0
SPLINE
  5
3A5
100
AcDbEntity
  8
0
100
AcDbSpline
 62
7
  6
CONTINUOUS
 70
0
 71
3
 72
11
 73
7
 74
0
 42
0.0000001
 43
0.0000001
 44
0.0000000001
 40
0.0
 40
0.0
 40
0.0
 40
0.0
 40
0.2434014671
 40
0.4911033806
 40
0.7434974794
 40
1.0
 40
1.0
 40
1.0
 40
1.0
 10
99.096958191
 20
214.3847513021
 30
0.0
 10
98.909559974
 20
214.6383429673
 30
0.0
 10
98.4708840301
 20
215.1081412139
 30
0.0
 10
97.6631594266
 20
215.6480049617
 30
0.0
 10
96.7364044322
 20
215.9930214424
 30
0.0
 10
96.0744165873
 20
216.0721587648
 30
0.0
 10
95.7421243444
 20
216.0720424674
 30
0.0
  0
SPLINE
  5
3A6
100
AcDbEntity
  8
0
100
AcDbSpline
 62
7
  6
CONTINUOUS
 70
0
 71
3
 72
9
 73
5
 74
0
 42
0.0000001
 43
0.0000001
 44
0.0000000001
 40
0.0
 40
0.0
 40
0.0
 40
0.0
 40
0.5192525382
 40
1.0
 40
1.0
 40
1.0
 40
1.0
 10
99.8858523101
 20
212.0742952018
 30
0.0
 10
99.8785360082
 20
212.4980466911
 30
0.0
 10
99.7305701751
 20
213.3174864846
 30
0.0
 10
99.3418508262
 20
214.0496655052
 30
0.0
 10
99.1103711075
 20
214.3665006352
 30
0.0
  0
SPLINE
  5
3A7
100
AcDbEntity
  8
0
100
AcDbSpline
 62
7
  6
CONTINUOUS
 70
0
 71
3
 72
11
 73
7
 74
0
 42
0.0000001
 43
0.0000001
 44
0.0000000001
 40
0.0
 40
0.0
 40
0.0
 40
0.0
 40
0.254478515
 40
0.539271764
 40
0.7939932741
 40
1.0
 40
1.0
 40
1.0
 40
1.0
 10
127.878350971
 20
212.0742951971
 30
0.0
 10
127.8871771869
 20
211.5483138019
 30
0.0
 10
128.1255890737
 20
210.4267303578
 30
0.0
 10
129.1073378256
 20
209.0469400127
 30
0.0
 10
130.4666077803
 20
208.2372590988
 30
0.0
 10
131.4255010548
 20
208.074075188
 30
0.0
 10
131.851356061
 20
208.0738915863
 30
0.0
  0
SPLINE
  5
3A8
100
AcDbEntity
  8
0
100
AcDbSpline
 62
7
  6
CONTINUOUS
 70
0
 71
3
 72
9
 73
5
 74
0
 42
0.0000001
 43
0.0000001
 44
0.0000000001
 40
0.0
 40
0.0
 40
0.0
 40
0.0
 40
0.4768196952
 40
1.0
 40
1.0
 40
1.0
 40
1.0
 10
128.5597625164
 20
214.3847454667
 30
0.0
 10
128.3425937912
 20
214.0639472438
 30
0.0
 10
127.985342661
 20
213.3196815943
 30
0.0
 10
127.8709936737
 20
212.4992908707
 30
0.0
 10
127.8783509711
 20
212.0742951971
 30
0.0
  0
SPLINE
  5
3A9
100
AcDbEntity
  8
0
100
AcDbSpline
 62
7
  6
CONTINUOUS
 70
0
 71
3
 72
18
 73
14
 74
0
 42
0.0000001
 43
0.0000001
 44
0.0000000001
 40
0.0
 40
0.0
 40
0.0
 40
0.0
 40
0.0630682135
 40
0.1259557108
 40
0.1885516958
 40
0.2508752079
 40
0.3749322949
 40
0.4991262338
 40
0.6243137303
 40
0.7503788406
 40
0.8760244241
 40
0.9382711133
 40
1.0
 40
1.0
 40
1.0
 40
1.0
 10
114.4869687496
 20
100.8495160912
 30
0.0
 10
114.8772121126
 20
100.99669459
 30
0.0
 10
115.6422581903
 20
101.3297930168
 30
0.0
 10
116.7383119181
 20
101.9272917567
 30
0.0
 10
117.7740477675
 20
102.6158993984
 30
0.0
 10
119.0567243538
 20
103.6515361895
 30
0.0
 10
120.4793728024
 20
105.1461536709
 30
0.0
 10
121.9058717124
 20
107.1722643744
 30
0.0
 10
123.0266861694
 20
109.3974103469
 30
0.0
 10
123.8405358558
 20
111.7601683608
 30
0.0
 10
124.283658371
 20
113.7928426574
 30
0.0
 10
124.5169203792
 20
115.4274903517
 30
0.0
 10
124.5948815619
 20
116.2439214554
 30
0.0
 10
124.6272332312
 20
116.6508552215
 30
0.0
  0
LINE
  5
3AA
100
AcDbEntity
  8
0
100
AcDbLine
 62
7
  6
CONTINUOUS
 10
114.2407190359
 20
101.9351600216
 11
114.4869687496
 21
100.8495160912
  0
SPLINE
  5
3AB
100
AcDbEntity
  8
0
100
AcDbSpline
 62
7
  6
CONTINUOUS
 70
0
 71
3
 72
9
 73
5
 74
0
 42
0.0000001
 43
0.0000001
 44
0.0000000001
 40
0.0
 40
0.0
 40
0.0
 40
0.0
 40
0.2479935914
 40
1.0
 40
1.0
 40
1.0
 40
1.0
 10
113.8624423314
 20
101.8625064438
 30
0.0
 10
113.862041668
 20
101.7711643159
 30
0.0
 10
113.8603940712
 20
101.4028411937
 30
0.0
 10
113.8588567742
 20
101.0345072089
 30
0.0
 10
113.860216564
 20
100.7575254603
 30
0.0
  0
SPLINE
  5
3AC
100
AcDbEntity
  8
0
100
AcDbSpline
 62
7
  6
CONTINUOUS
 70
0
 71
3
 72
8
 73
4
 74
0
 42
0.0000001
 43
0.0000001
 44
0.0000000001
 40
0.0
 40
0.0
 40
0.0
 40
0.0
 40
1.0
 40
1.0
 40
1.0
 40
1.0
 10
114.4869687498
 20
100.8495160906
 30
0.0
 10
114.2824932329
 20
100.7968236454
 30
0.0
 10
114.0712470033
 20
100.764797684
 30
0.0
 10
113.8602165661
 20
100.7575254535
 30
0.0
  0
SPLINE
  5
3AD
100
AcDbEntity
  8
0
100
AcDbSpline
 62
7
  6
CONTINUOUS
 70
0
 71
3
 72
8
 73
4
 74
0
 42
0.0000001
 43
0.0000001
 44
0.0000000001
 40
0.0
 40
0.0
 40
0.0
 40
0.0
 40
1.0
 40
1.0
 40
1.0
 40
1.0
 10
113.8602164586
 20
100.7575257849
 30
0.0
 10
113.6483748629
 20
100.7645105822
 30
0.0
 10
113.4362648685
 20
100.7965389881
 30
0.0
 10
113.2310355405
 20
100.8495160772
 30
0.0
  0
SPLINE
  5
3AE
100
AcDbEntity
  8
0
100
AcDbSpline
 62
7
  6
CONTINUOUS
 70
0
 71
3
 72
8
 73
4
 74
0
 42
0.0000001
 43
0.0000001
 44
0.0000000001
 40
0.0
 40
0.0
 40
0.0
 40
0.0
 40
1.0
 40
1.0
 40
1.0
 40
1.0
 10
98.2001009757
 20
120.4848224616
 30
0.0
 10
97.9205330181
 20
120.9654485724
 30
0.0
 10
97.6113370385
 20
121.4287501737
 30
0.0
 10
97.2941656934
 20
121.8854361043
 30
0.0
  0
SPLINE
  5
3AF
100
AcDbEntity
  8
0
100
AcDbSpline
 62
7
  6
CONTINUOUS
 70
0
 71
3
 72
15
 73
11
 74
0
 42
0.0000001
 43
0.0000001
 44
0.0000000001
 40
0.0
 40
0.0
 40
0.0
 40
0.0
 40
0.130220036
 40
0.2538590199
 40
0.3756114418
 40
0.4976464116
 40
0.6213607586
 40
0.7469718017
 40
0.8733739121
 40
1.0
 40
1.0
 40
1.0
 40
1.0
 10
103.0525501143
 20
116.6507103119
 30
0.0
 10
102.7836356444
 20
116.7117161234
 30
0.0
 10
102.2666998797
 20
116.8665564323
 30
0.0
 10
101.5402131489
 20
117.1946577118
 30
0.0
 10
100.8684522151
 20
117.589955153
 30
0.0
 10
100.2414357174
 20
118.0532929535
 30
0.0
 10
99.65754043
 20
118.5814012607
 30
0.0
 10
99.1134734635
 20
119.164016593
 30
0.0
 10
98.6348292964
 20
119.8082037718
 30
0.0
 10
98.3348975032
 20
120.2530259903
 30
0.0
 10
98.2000779342
 20
120.4848043814
 30
0.0
  0
SPLINE
  5
3B0
100
AcDbEntity
  8
0
100
AcDbSpline
 62
7
  6
CONTINUOUS
 70
0
 71
3
 72
20
 73
16
 74
0
 42
0.0000001
 43
0.0000001
 44
0.0000000001
 40
0.0
 40
0.0
 40
0.0
 40
0.0
 40
0.0629248135
 40
0.0944519989
 40
0.1259181993
 40
0.1886088116
 40
0.2510883686
 40
0.3133999679
 40
0.3756152388
 40
0.5000483535
 40
0.625240786
 40
0.7511012225
 40
0.8139345746
 40
0.8763773059
 40
1.0
 40
1.0
 40
1.0
 40
1.0
 10
113.2310325843
 20
100.8495175276
 30
0.0
 10
112.837690348
 20
100.9880509186
 30
0.0
 10
112.2631164286
 20
101.241724027
 30
0.0
 10
111.5253422645
 20
101.6316167388
 30
0.0
 10
110.8026226534
 20
102.0460660699
 30
0.0
 10
109.9332059022
 20
102.6159613869
 30
0.0
 10
108.9620866903
 20
103.3938705816
 30
0.0
 10
108.0643844733
 20
104.2504615679
 30
0.0
 10
106.963545741
 20
105.481135062
 30
0.0
 10
105.7565357054
 20
107.1688833168
 30
0.0
 10
104.6228103492
 20
109.3936447158
 30
0.0
 10
103.9396869418
 20
111.3652026522
 30
0.0
 10
103.5420433305
 20
112.9822146697
 30
0.0
 10
103.2485495623
 20
114.6065226448
 30
0.0
 10
103.1252229215
 20
115.8347670646
 30
0.0
 10
103.0525245681
 20
116.6508260827
 30
0.0
  0
SPLINE
  5
3B1
100
AcDbEntity
  8
0
100
AcDbSpline
 62
7
  6
CONTINUOUS
 70
0
 71
3
 72
19
 73
15
 74
0
 42
0.0000001
 43
0.0000001
 44
0.0000000001
 40
0.0
 40
0.0
 40
0.0
 40
0.0
 40
0.0409928538
 40
0.0630722593
 40
0.0861276815
 40
0.1350357201
 40
0.1874388646
 40
0.24314742
 40
0.3019346095
 40
0.3635625631
 40
0.4277746477
 40
0.562847968
 40
0.7048764599
 40
1.0
 40
1.0
 40
1.0
 40
1.0
 10
100.5635656656
 20
100.4580237714
 30
0.0
 10
100.7364168683
 20
100.4672188901
 30
0.0
 10
101.0022310271
 20
100.4837763052
 30
0.0
 10
101.3655890754
 20
100.499932921
 30
0.0
 10
101.7626921613
 20
100.505602125
 30
0.0
 10
102.2878386193
 20
100.5034778965
 30
0.0
 10
102.9508672285
 20
100.5084645091
 30
0.0
 10
103.6554953448
 20
100.521612051
 30
0.0
 10
104.3991771275
 20
100.5275149261
 30
0.0
 10
105.1787650212
 20
100.5320470768
 30
0.0
 10
106.2804676504
 20
100.5396261244
 30
0.0
 10
107.7216913106
 20
100.5440990208
 30
0.0
 10
110.1379692938
 20
100.5400706434
 30
0.0
 10
111.9838010468
 20
100.5213332236
 30
0.0
 10
113.2299411736
 20
100.5110249637
 30
0.0
  0
SPLINE
  5
3B2
100
AcDbEntity
  8
0
100
AcDbSpline
 62
7
  6
CONTINUOUS
 70
0
 71
3
 72
8
 73
4
 74
0
 42
0.0000001
 43
0.0000001
 44
0.0000000001
 40
0.0
 40
0.0
 40
0.0
 40
0.0
 40
1.0
 40
1.0
 40
1.0
 40
1.0
 10
100.5434433531
 20
100.454830423
 30
0.0
 10
100.5502172166
 20
100.4553305634
 30
0.0
 10
100.5569630142
 20
100.4564416966
 30
0.0
 10
100.5635684532
 20
100.4580239553
 30
0.0
  0
SPLINE
  5
3B3
100
AcDbEntity
  8
0
100
AcDbSpline
 62
7
  6
CONTINUOUS
 70
0
 71
3
 72
9
 73
5
 74
0
 42
0.0000001
 43
0.0000001
 44
0.0000000001
 40
0.0
 40
0.0
 40
0.0
 40
0.0
 40
0.4976730729
 40
1.0
 40
1.0
 40
1.0
 40
1.0
 10
95.8239731535
 20
121.4032163902
 30
0.0
 10
97.1867741411
 20
118.0981623452
 30
0.0
 10
99.3646870066
 20
111.2123657389
 30
0.0
 10
100.3515630999
 20
104.0581529436
 30
0.0
 10
100.5434406007
 20
100.4548297313
 30
0.0
  0
SPLINE
  5
3B4
100
AcDbEntity
  8
0
100
AcDbSpline
 62
7
  6
CONTINUOUS
 70
0
 71
3
 72
9
 73
5
 74
0
 42
0.0000001
 43
0.0000001
 44
0.0000000001
 40
0.0
 40
0.0
 40
0.0
 40
0.0
 40
0.3129945773
 40
1.0
 40
1.0
 40
1.0
 40
1.0
 10
93.9068421651
 20
139.001962987
 30
0.0
 10
93.6727356858
 20
139.0085645321
 30
0.0
 10
92.9247553433
 20
139.0286847271
 30
0.0
 10
92.1767060224
 20
139.0471178845
 30
0.0
 10
91.6627109348
 20
139.0549504592
 30
0.0
  0
SPLINE
  5
3B5
100
AcDbEntity
  8
0
100
AcDbSpline
 62
7
  6
CONTINUOUS
 70
0
 71
3
 72
14
 73
10
 74
0
 42
0.0000001
 43
0.0000001
 44
0.0000000001
 40
0.0
 40
0.0
 40
0.0
 40
0.0
 40
0.1297701969
 40
0.2576073198
 40
0.3840108093
 40
0.5091676183
 40
0.6331828722
 40
0.7562543793
 40
1.0
 40
1.0
 40
1.0
 40
1.0
 10
97.2943234457
 20
121.8856164942
 30
0.0
 10
96.8655759003
 20
122.5205205109
 30
0.0
 10
96.1223729988
 20
123.8567902608
 30
0.0
 10
95.3209708194
 20
125.9825389535
 30
0.0
 10
94.7263703461
 20
128.1444073057
 30
0.0
 10
94.300929593
 20
130.3222917164
 30
0.0
 10
94.0196698588
 20
132.5032191427
 30
0.0
 10
93.8170574358
 20
135.3949968109
 30
0.0
 10
93.8345018068
 20
137.5647354641
 30
0.0
 10
93.9069859906
 20
139.0018865803
 30
0.0
  0
SPLINE
  5
3B6
100
AcDbEntity
  8
0
100
AcDbSpline
 62
7
  6
CONTINUOUS
 70
0
 71
3
 72
9
 73
5
 74
0
 42
0.0000001
 43
0.0000001
 44
0.0000000001
 40
0.0
 40
0.0
 40
0.0
 40
0.0
 40
0.2047326984
 40
1.0
 40
1.0
 40
1.0
 40
1.0
 10
95.8240189856
 20
121.4030338256
 30
0.0
 10
95.9246319409
 20
121.4350859605
 30
0.0
 10
96.4154494617
 20
121.5935786848
 30
0.0
 10
96.9050813314
 20
121.7557076304
 30
0.0
 10
97.2943162984
 20
121.8850898851
 30
0.0
  0
SPLINE
  5
3B7
100
AcDbEntity
  8
0
100
AcDbSpline
 62
7
  6
CONTINUOUS
 70
0
 71
3
 72
9
 73
5
 74
0
 42
0.0000001
 43
0.0000001
 44
0.0000000001
 40
0.0
 40
0.0
 40
0.0
 40
0.0
 40
0.5027042557
 40
1.0
 40
1.0
 40
1.0
 40
1.0
 10
91.6627109348
 20
139.0549504592
 30
0.0
 10
91.8852200816
 20
136.0145399581
 30
0.0
 10
92.8106372162
 20
129.9922019334
 30
0.0
 10
94.6744237106
 20
124.1912735007
 30
0.0
 10
95.8239465505
 20
121.4032091888
 30
0.0
  0
SPLINE
  5
3B8
100
AcDbEntity
  8
0
100
AcDbSpline
 62
7
  6
CONTINUOUS
 70
0
 71
3
 72
9
 73
5
 74
0
 42
0.0000001
 43
0.0000001
 44
0.0000000001
 40
0.0
 40
0.0
 40
0.0
 40
0.0
 40
0.2633798652
 40
1.0
 40
1.0
 40
1.0
 40
1.0
 10
96.3765669538
 20
140.6352471507
 30
0.0
 10
96.297250712
 20
140.6708888106
 30
0.0
 10
95.9997478203
 20
140.8136913423
 30
0.0
 10
95.7157800952
 20
140.9883212249
 30
0.0
 10
95.5269009683
 20
141.1415219908
 30
0.0
  0
SPLINE
  5
3B9
100
AcDbEntity
  8
0
100
AcDbSpline
 62
7
  6
CONTINUOUS
 70
0
 71
3
 72
12
 73
8
 74
0
 42
0.0000001
 43
0.0000001
 44
0.0000000001
 40
0.0
 40
0.0
 40
0.0
 40
0.0
 40
0.0995355322
 40
0.2071667038
 40
0.4478134826
 40
0.7155140628
 40
1.0
 40
1.0
 40
1.0
 40
1.0
 10
93.9068030041
 20
139.0014187002
 30
0.0
 10
94.006586828
 20
138.985111999
 30
0.0
 10
94.22157351
 20
138.9992452207
 30
0.0
 10
94.6565187577
 20
139.1392752596
 30
0.0
 10
95.1892493947
 20
139.483115754
 30
0.0
 10
95.7894267329
 20
140.0200223905
 30
0.0
 10
96.1802221909
 20
140.4232154398
 30
0.0
 10
96.3765669538
 20
140.6352471507
 30
0.0
  0
SPLINE
  5
3BA
100
AcDbEntity
  8
0
100
AcDbSpline
 62
7
  6
CONTINUOUS
 70
0
 71
3
 72
9
 73
5
 74
0
 42
0.0000001
 43
0.0000001
 44
0.0000000001
 40
0.0
 40
0.0
 40
0.0
 40
0.0
 40
0.2494046238
 40
1.0
 40
1.0
 40
1.0
 40
1.0
 10
95.9265941048
 20
142.4024677032
 30
0.0
 10
95.8784288991
 20
142.3033706572
 30
0.0
 10
95.7006975216
 20
141.8987750317
 30
0.0
 10
95.5799995987
 20
141.4688420606
 30
0.0
 10
95.5269004038
 20
141.1415224545
 30
0.0
  0
SPLINE
  5
3BB
100
AcDbEntity
  8
0
100
AcDbSpline
 62
7
  6
CONTINUOUS
 70
0
 71
3
 72
9
 73
5
 74
0
 42
0.0000001
 43
0.0000001
 44
0.0000000001
 40
0.0
 40
0.0
 40
0.0
 40
0.0
 40
0.2468520456
 40
1.0
 40
1.0
 40
1.0
 40
1.0
 10
96.3203473717
 20
141.8012759966
 30
0.0
 10
96.3150343888
 20
141.7052736045
 30
0.0
 10
96.3043335898
 20
141.3158444057
 30
0.0
 10
96.332952501
 20
140.925330013
 30
0.0
 10
96.3767019148
 20
140.6352582422
 30
0.0
  0
SPLINE
  5
3BC
100
AcDbEntity
  8
0
100
AcDbSpline
 62
7
  6
CONTINUOUS
 70
0
 71
3
 72
13
 73
9
 74
0
 42
0.0000001
 43
0.0000001
 44
0.0000000001
 40
0.0
 40
0.0
 40
0.0
 40
0.0
 40
0.2392726723
 40
0.3668587011
 40
0.4971007259
 40
0.62774374
 40
0.7564995392
 40
1.0
 40
1.0
 40
1.0
 40
1.0
 10
131.9913398558
 20
143.2677557028
 30
0.0
 10
129.3652472
 20
144.7285882987
 30
0.0
 10
124.9883354052
 20
146.3786337211
 30
0.0
 10
118.8374098129
 20
147.4934226256
 30
0.0
 10
113.9543165651
 20
147.7830673131
 30
0.0
 10
109.0569086892
 20
147.4916336298
 30
0.0
 10
102.8326548732
 20
146.3715669027
 30
0.0
 10
98.3873506795
 20
144.7216566348
 30
0.0
 10
95.6969032036
 20
143.2677555651
 30
0.0
  0
SPLINE
  5
3BD
100
AcDbEntity
  8
0
100
AcDbSpline
 62
7
  6
CONTINUOUS
 70
0
 71
3
 72
11
 73
7
 74
0
 42
0.0000001
 43
0.0000001
 44
0.0000000001
 40
0.0
 40
0.0
 40
0.0
 40
0.0
 40
0.2737428395
 40
0.5377440052
 40
0.7846507931
 40
1.0
 40
1.0
 40
1.0
 40
1.0
 10
131.8075673571
 20
142.4027352679
 30
0.0
 10
131.839275982
 20
142.477307423
 30
0.0
 10
131.8970191901
 20
142.6263336219
 30
0.0
 10
131.9415372679
 20
142.8552400759
 30
0.0
 10
131.9622835259
 20
143.0692170856
 30
0.0
 10
131.9827663033
 20
143.2045606865
 30
0.0
 10
131.9913162294
 20
143.2677325815
 30
0.0
  0
SPLINE
  5
3BE
100
AcDbEntity
  8
0
100
AcDbSpline
 62
7
  6
CONTINUOUS
 70
0
 71
3
 72
9
 73
5
 74
0
 42
0.0000001
 43
0.0000001
 44
0.0000000001
 40
0.0
 40
0.0
 40
0.0
 40
0.0
 40
0.5103039498
 40
1.0
 40
1.0
 40
1.0
 40
1.0
 10
131.440571741
 20
141.8029184257
 30
0.0
 10
131.5278560991
 20
141.8854766243
 30
0.0
 10
131.661764023
 20
142.0842283396
 30
0.0
 10
131.7635904519
 20
142.2961605966
 30
0.0
 10
131.8075673571
 20
142.4027352679
 30
0.0
  0
SPLINE
  5
3BF
100
AcDbEntity
  8
0
100
AcDbSpline
 62
7
  6
CONTINUOUS
 70
0
 71
3
 72
9
 73
5
 74
0
 42
0.0000001
 43
0.0000001
 44
0.0000000001
 40
0.0
 40
0.0
 40
0.0
 40
0.0
 40
0.2659240476
 40
1.0
 40
1.0
 40
1.0
 40
1.0
 10
129.8830252641
 20
140.5915050643
 30
0.0
 10
130.0286338115
 20
140.6885622863
 30
0.0
 10
130.5685740559
 20
141.0651168022
 30
0.0
 10
131.0768975615
 20
141.4849770551
 30
0.0
 10
131.440571741
 20
141.8029184257
 30
0.0
  0
SPLINE
  5
3C0
100
AcDbEntity
  8
0
100
AcDbSpline
 62
7
  6
CONTINUOUS
 70
0
 71
3
 72
9
 73
5
 74
0
 42
0.0000001
 43
0.0000001
 44
0.0000000001
 40
0.0
 40
0.0
 40
0.0
 40
0.0
 40
0.2354237033
 40
1.0
 40
1.0
 40
1.0
 40
1.0
 10
96.3193337799
 20
141.8023037969
 30
0.0
 10
96.4403068917
 20
141.7018254632
 30
0.0
 10
96.9553551215
 20
141.2766989852
 30
0.0
 10
97.4883113571
 20
140.8713405207
 30
0.0
 10
97.9155537024
 20
140.5915141351
 30
0.0
  0
SPLINE
  5
3C1
100
AcDbEntity
  8
0
100
AcDbSpline
 62
7
  6
CONTINUOUS
 70
0
 71
3
 72
11
 73
7
 74
0
 42
0.0000001
 43
0.0000001
 44
0.0000000001
 40
0.0
 40
0.0
 40
0.0
 40
0.0
 40
0.2395361475
 40
0.4882638076
 40
0.7429961299
 40
1.0
 40
1.0
 40
1.0
 40
1.0
 10
95.9266075
 20
142.4024377048
 30
0.0
 10
95.9511644493
 20
142.3503100963
 30
0.0
 10
96.0050343439
 20
142.2458746189
 30
0.0
 10
96.0900713255
 20
142.0886987751
 30
0.0
 10
96.1880122321
 20
141.9336574339
 30
0.0
 10
96.2725529551
 20
141.8426976154
 30
0.0
 10
96.3192532218
 20
141.8021842715
 30
0.0
  0
SPLINE
  5
3C2
100
AcDbEntity
  8
0
100
AcDbSpline
 62
7
  6
CONTINUOUS
 70
0
 71
3
 72
11
 73
7
 74
0
 42
0.0000001
 43
0.0000001
 44
0.0000000001
 40
0.0
 40
0.0
 40
0.0
 40
0.0
 40
0.2152427466
 40
0.461328903
 40
0.7250993059
 40
1.0
 40
1.0
 40
1.0
 40
1.0
 10
95.6969260526
 20
143.2677324389
 30
0.0
 10
95.7103337806
 20
143.2046751342
 30
0.0
 10
95.7396766969
 20
143.0695789678
 30
0.0
 10
95.7714625946
 20
142.8547347954
 30
0.0
 10
95.8270417224
 20
142.6254743977
 30
0.0
 10
95.8915473261
 20
142.4769349527
 30
0.0
 10
95.9266075
 20
142.4024377048
 30
0.0
  0
SPLINE
  5
3C3
100
AcDbEntity
  8
0
100
AcDbSpline
 62
7
  6
CONTINUOUS
 70
0
 71
3
 72
13
 73
9
 74
0
 42
0.0000001
 43
0.0000001
 44
0.0000000001
 40
0.0
 40
0.0
 40
0.0
 40
0.0
 40
0.2438998796
 40
0.3642505888
 40
0.4909904397
 40
0.6233507171
 40
0.7519794551
 40
1.0
 40
1.0
 40
1.0
 40
1.0
 10
132.2059267626
 20
141.1413512973
 30
0.0
 10
132.2242090571
 20
141.1444623837
 30
0.0
 10
132.2518991805
 20
141.1493153465
 30
0.0
 10
132.2893014667
 20
141.1426450686
 30
0.0
 10
132.3145881475
 20
141.1280798389
 30
0.0
 10
132.338416413
 20
141.1108163996
 30
0.0
 10
132.3721236737
 20
141.0915275675
 30
0.0
 10
132.3990647895
 20
141.0815674889
 30
0.0
 10
132.4165240428
 20
141.074439037
 30
0.0
  0
SPLINE
  5
3C4
100
AcDbEntity
  8
0
100
AcDbSpline
 62
7
  6
CONTINUOUS
 70
0
 71
3
 72
9
 73
5
 74
0
 42
0.0000001
 43
0.0000001
 44
0.0000000001
 40
0.0
 40
0.0
 40
0.0
 40
0.0
 40
0.2524196245
 40
1.0
 40
1.0
 40
1.0
 40
1.0
 10
131.8075666667
 20
142.4027350118
 30
0.0
 10
131.8568350463
 20
142.3026687869
 30
0.0
 10
132.0359467911
 20
141.8985634501
 30
0.0
 10
132.1555968946
 20
141.4678251658
 30
0.0
 10
132.2059579077
 20
141.1413506568
 30
0.0
  0
SPLINE
  5
3C5
100
AcDbEntity
  8
0
100
AcDbSpline
 62
7
  6
CONTINUOUS
 70
0
 71
3
 72
9
 73
5
 74
0
 42
0.0000001
 43
0.0000001
 44
0.0000000001
 40
0.0
 40
0.0
 40
0.0
 40
0.0
 40
0.4835853268
 40
1.0
 40
1.0
 40
1.0
 40
1.0
 10
131.9913053599
 20
143.2677657311
 30
0.0
 10
132.1657050939
 20
142.9484340258
 30
0.0
 10
132.4120178371
 20
142.2229786827
 30
0.0
 10
132.4472895534
 20
141.4617691418
 30
0.0
 10
132.4166255114
 20
141.074428451
 30
0.0
  0
SPLINE
  5
3C6
100
AcDbEntity
  8
0
100
AcDbSpline
 62
7
  6
CONTINUOUS
 70
0
 71
3
 72
12
 73
8
 74
0
 42
0.0000001
 43
0.0000001
 44
0.0000000001
 40
0.0
 40
0.0
 40
0.0
 40
0.0
 40
0.1084534442
 40
0.2152993808
 40
0.4398455252
 40
0.69589107
 40
1.0
 40
1.0
 40
1.0
 40
1.0
 10
134.7745558833
 20
143.4896816042
 30
0.0
 10
134.6964365523
 20
143.4199258975
 30
0.0
 10
134.5252603105
 20
143.298372812
 30
0.0
 10
134.1330708497
 20
143.129363066
 30
0.0
 10
133.5655866262
 20
143.038376005
 30
0.0
 10
132.8055528483
 20
143.0749852971
 30
0.0
 10
132.2742938799
 20
143.1891494477
 30
0.0
 10
131.9913398558
 20
143.2677557028
 30
0.0
  0
SPLINE
  5
3C7
100
AcDbEntity
  8
0
100
AcDbSpline
 62
7
  6
CONTINUOUS
 70
0
 71
3
 72
9
 73
5
 74
0
 42
0.0000001
 43
0.0000001
 44
0.0000000001
 40
0.0
 40
0.0
 40
0.0
 40
0.0
 40
0.5184902614
 40
1.0
 40
1.0
 40
1.0
 40
1.0
 10
134.7745558833
 20
143.4896816042
 30
0.0
 10
135.0367292664
 20
143.1551089444
 30
0.0
 10
135.4705664657
 20
142.4486299673
 30
0.0
 10
135.7103314651
 20
141.6529579486
 30
0.0
 10
135.7693832745
 20
141.2626591281
 30
0.0
  0
SPLINE
  5
3C8
100
AcDbEntity
  8
0
100
AcDbSpline
 62
7
  6
CONTINUOUS
 70
0
 71
3
 72
9
 73
5
 74
0
 42
0.0000001
 43
0.0000001
 44
0.0000000001
 40
0.0
 40
0.0
 40
0.0
 40
0.0
 40
0.2466016489
 40
1.0
 40
1.0
 40
1.0
 40
1.0
 10
131.4403347036
 20
141.8027121389
 30
0.0
 10
131.4467103614
 20
141.7067476416
 30
0.0
 10
131.4609740456
 20
141.3169169986
 30
0.0
 10
131.4329359815
 20
140.925535967
 30
0.0
 10
131.3879702845
 20
140.6351672993
 30
0.0
  0
SPLINE
  5
3C9
100
AcDbEntity
  8
0
100
AcDbSpline
 62
7
  6
CONTINUOUS
 70
0
 71
3
 72
13
 73
9
 74
0
 42
0.0000001
 43
0.0000001
 44
0.0000000001
 40
0.0
 40
0.0
 40
0.0
 40
0.0
 40
0.2482269405
 40
0.3761761606
 40
0.5073415862
 40
0.6337371869
 40
0.754739698
 40
1.0
 40
1.0
 40
1.0
 40
1.0
 10
95.3052177438
 20
141.0744381834
 30
0.0
 10
95.3235806166
 20
141.081653245
 30
0.0
 10
95.3518179002
 20
141.0917008928
 30
0.0
 10
95.3874223842
 20
141.1108911949
 30
0.0
 10
95.4127056233
 20
141.1281120971
 30
0.0
 10
95.4393737742
 20
141.1426881747
 30
0.0
 10
95.4785638615
 20
141.1495418745
 30
0.0
 10
95.5077001654
 20
141.1447305931
 30
0.0
 10
95.52692797
 20
141.1415219816
 30
0.0
  0
SPLINE
  5
3CA
100
AcDbEntity
  8
0
100
AcDbSpline
 62
7
  6
CONTINUOUS
 70
0
 71
3
 72
9
 73
5
 74
0
 42
0.0000001
 43
0.0000001
 44
0.0000000001
 40
0.0
 40
0.0
 40
0.0
 40
0.0
 40
0.2349245212
 40
1.0
 40
1.0
 40
1.0
 40
1.0
 10
95.6969169426
 20
143.2677757396
 30
0.0
 10
95.6162332255
 20
143.1116180036
 30
0.0
 10
95.3294517297
 20
142.4180339261
 30
0.0
 10
95.2574720399
 20
141.6448645837
 30
0.0
 10
95.3050453396
 20
141.0744170385
 30
0.0
  0
SPLINE
  5
3CB
100
AcDbEntity
  8
0
100
AcDbSpline
 62
7
  6
CONTINUOUS
 70
0
 71
3
 72
14
 73
10
 74
0
 42
0.0000001
 43
0.0000001
 44
0.0000000001
 40
0.0
 40
0.0
 40
0.0
 40
0.0
 40
0.2978094058
 40
0.4326298546
 40
0.557599113
 40
0.6733471603
 40
0.781139555
 40
0.8865932464
 40
1.0
 40
1.0
 40
1.0
 40
1.0
 10
95.3051929787
 20
141.074462729
 30
0.0
 10
94.923265428
 20
141.0208249606
 30
0.0
 10
94.3754019414
 20
140.8993274107
 30
0.0
 10
93.6697448801
 20
140.7466767436
 30
0.0
 10
93.1886593603
 20
140.6714005788
 30
0.0
 10
92.7358758289
 20
140.6555939479
 30
0.0
 10
92.3112605762
 20
140.728358048
 30
0.0
 10
91.9284473967
 20
140.9261923534
 30
0.0
 10
91.7334195774
 20
141.1407199763
 30
0.0
 10
91.6515803332
 20
141.2626711922
 30
0.0
  0
SPLINE
  5
3CC
100
AcDbEntity
  8
0
100
AcDbSpline
 62
7
  6
CONTINUOUS
 70
0
 71
3
 72
12
 73
8
 74
0
 42
0.0000001
 43
0.0000001
 44
0.0000000001
 40
0.0
 40
0.0
 40
0.0
 40
0.0
 40
0.0937498653
 40
0.2007414085
 40
0.4448555593
 40
0.7146698683
 40
1.0
 40
1.0
 40
1.0
 40
1.0
 10
93.8837525411
 20
139.4186181396
 30
0.0
 10
93.9597968872
 20
139.4209468085
 30
0.0
 10
94.1204514385
 20
139.4726905333
 30
0.0
 10
94.4169770135
 20
139.6810104433
 30
0.0
 10
94.762973938
 20
140.052567672
 30
0.0
 10
95.1517805768
 20
140.5714491744
 30
0.0
 10
95.4015071295
 20
140.9467951173
 30
0.0
 10
95.5269989336
 20
141.141391794
 30
0.0
  0
SPLINE
  5
3CD
100
AcDbEntity
  8
0
100
AcDbSpline
 62
7
  6
CONTINUOUS
 70
0
 71
3
 72
9
 73
5
 74
0
 42
0.0000001
 43
0.0000001
 44
0.0000000001
 40
0.0
 40
0.0
 40
0.0
 40
0.0
 40
0.1857721943
 40
1.0
 40
1.0
 40
1.0
 40
1.0
 10
91.6512984773
 20
139.3635435212
 30
0.0
 10
91.7895658639
 20
139.3657962495
 30
0.0
 10
92.5338104785
 20
139.3803263913
 30
0.0
 10
93.2779213378
 20
139.4010006742
 30
0.0
 10
93.8837474299
 20
139.419142271
 30
0.0
  0
SPLINE
  5
3CE
100
AcDbEntity
  8
0
100
AcDbSpline
 62
7
  6
CONTINUOUS
 70
0
 71
3
 72
9
 73
5
 74
0
 42
0.0000001
 43
0.0000001
 44
0.0000000001
 40
0.0
 40
0.0
 40
0.0
 40
0.0
 40
0.5160313031
 40
1.0
 40
1.0
 40
1.0
 40
1.0
 10
92.70198909
 20
143.4896816042
 30
0.0
 10
92.4344437654
 20
143.1570841836
 30
0.0
 10
91.9849471832
 20
142.452548209
 30
0.0
 10
91.722459874
 20
141.656663374
 30
0.0
 10
91.6515789117
 20
141.2626591281
 30
0.0
  0
SPLINE
  5
3CF
100
AcDbEntity
  8
0
100
AcDbSpline
 62
7
  6
CONTINUOUS
 70
0
 71
3
 72
8
 73
4
 74
0
 42
0.0000001
 43
0.0000001
 44
0.0000000001
 40
0.0
 40
0.0
 40
0.0
 40
0.0
 40
1.0
 40
1.0
 40
1.0
 40
1.0
 10
90.4956517496
 20
139.3499040115
 30
0.0
 10
90.4939126849
 20
139.2551681612
 30
0.0
 10
90.4955396313
 20
139.1599144154
 30
0.0
 10
90.5072052771
 20
139.0658834716
 30
0.0
  0
SPLINE
  5
3D0
100
AcDbEntity
  8
0
100
AcDbSpline
 62
7
  6
CONTINUOUS
 70
0
 71
3
 72
9
 73
5
 74
0
 42
0.0000001
 43
0.0000001
 44
0.0000000001
 40
0.0
 40
0.0
 40
0.0
 40
0.0
 40
0.5033892926
 40
1.0
 40
1.0
 40
1.0
 40
1.0
 10
90.5085698476
 20
139.0661998227
 30
0.0
 10
90.8064299048
 20
135.9714900003
 30
0.0
 10
91.8874038493
 20
129.8610655284
 30
0.0
 10
93.9166289863
 20
123.9969947915
 30
0.0
 10
95.1483353085
 20
121.1880304757
 30
0.0
  0
SPLINE
  5
3D1
100
AcDbEntity
  8
0
100
AcDbSpline
 62
7
  6
CONTINUOUS
 70
0
 71
3
 72
10
 73
6
 74
0
 42
0.0000001
 43
0.0000001
 44
0.0000000001
 40
0.0
 40
0.0
 40
0.0
 40
0.0
 40
0.2503337195
 40
0.6248103853
 40
1.0
 40
1.0
 40
1.0
 40
1.0
 10
91.6628355025
 20
139.0549600564
 30
0.0
 10
91.5664511723
 20
139.0583915491
 30
0.0
 10
91.3257764822
 20
139.0661279364
 30
0.0
 10
90.9405254283
 20
139.0548703879
 30
0.0
 10
90.6516597732
 20
139.0606771112
 30
0.0
 10
90.5072052771
 20
139.0658834716
 30
0.0
  0
SPLINE
  5
3D2
100
AcDbEntity
  8
0
100
AcDbSpline
 62
7
  6
CONTINUOUS
 70
0
 71
3
 72
19
 73
15
 74
0
 42
0.0000001
 43
0.0000001
 44
0.0000000001
 40
0.0
 40
0.0
 40
0.0
 40
0.0
 40
0.0050490228
 40
0.0132480603
 40
0.0353570101
 40
0.0624505979
 40
0.0955176525
 40
0.1356184986
 40
0.1835132123
 40
0.3034237577
 40
0.4517569841
 40
0.6188156284
 40
0.7954794922
 40
1.0
 40
1.0
 40
1.0
 40
1.0
 10
90.415529754
 20
119.7238948114
 30
0.0
 10
90.4238677597
 20
119.7240246474
 30
0.0
 10
90.4455155816
 20
119.7281198936
 30
0.0
 10
90.5024984387
 20
119.7403492379
 30
0.0
 10
90.5944028239
 20
119.764068136
 30
0.0
 10
90.7255144457
 20
119.799582433
 30
0.0
 10
90.8846221456
 20
119.8455512961
 30
0.0
 10
91.0761622978
 20
119.9029093553
 30
0.0
 10
91.4043681461
 20
120.0038755018
 30
0.0
 10
91.9022791588
 20
120.161084834
 30
0.0
 10
92.5871606972
 20
120.3797760753
 30
0.0
 10
93.3614453832
 20
120.6266348042
 30
0.0
 10
94.2248076202
 20
120.8995980309
 30
0.0
 10
94.8263413913
 20
121.0854097291
 30
0.0
 10
95.148192837
 20
121.187940004
 30
0.0
  0
SPLINE
  5
3D3
100
AcDbEntity
  8
0
100
AcDbSpline
 62
7
  6
CONTINUOUS
 70
0
 71
3
 72
9
 73
5
 74
0
 42
0.0000001
 43
0.0000001
 44
0.0000000001
 40
0.0
 40
0.0
 40
0.0
 40
0.0
 40
0.4999996874
 40
1.0
 40
1.0
 40
1.0
 40
1.0
 10
87.1645040164
 20
139.2029939052
 30
0.0
 10
87.1650284291
 20
135.9003629746
 30
0.0
 10
87.7166570552
 20
129.2843055243
 30
0.0
 10
89.3434847144
 20
122.847693469
 30
0.0
 10
90.415529754
 20
119.7238948114
 30
0.0
  0
SPLINE
  5
3D4
100
AcDbEntity
  8
0
100
AcDbSpline
 62
7
  6
CONTINUOUS
 70
0
 71
3
 72
24
 73
20
 74
0
 42
0.0000001
 43
0.0000001
 44
0.0000000001
 40
0.0
 40
0.0
 40
0.0
 40
0.0
 40
0.0234576609
 40
0.0471414246
 40
0.0960926266
 40
0.146958448
 40
0.1994916191
 40
0.3097917155
 40
0.4271567681
 40
0.4885660403
 40
0.5519409021
 40
0.617514509
 40
0.6855904983
 40
0.7565619934
 40
0.8311971255
 40
0.8702884537
 40
0.9110470911
 40
0.9542141668
 40
1.0
 40
1.0
 40
1.0
 40
1.0
 10
87.5556633974
 20
139.2070567266
 30
0.0
 10
87.5761014676
 20
139.1960880409
 30
0.0
 10
87.6211793593
 20
139.1824649107
 30
0.0
 10
87.712629221
 20
139.1574744327
 30
0.0
 10
87.8323822551
 20
139.1324921267
 30
0.0
 10
87.9812077673
 20
139.1088787298
 30
0.0
 10
88.1917288724
 20
139.0895198385
 30
0.0
 10
88.4683328215
 20
139.0731732072
 30
0.0
 10
88.754052831
 20
139.0637634518
 30
0.0
 10
88.9934670735
 20
139.0597697436
 30
0.0
 10
89.1816974677
 20
139.0592690348
 30
0.0
 10
89.3765131729
 20
139.0569138215
 30
0.0
 10
89.5787696913
 20
139.0516031146
 30
0.0
 10
89.7901973351
 20
139.0541114919
 30
0.0
 10
89.9722657134
 20
139.0692841349
 30
0.0
 10
90.124445067
 20
139.0828512894
 30
0.0
 10
90.2463840228
 20
139.0825903983
 30
0.0
 10
90.3738553408
 20
139.0683237021
 30
0.0
 10
90.461971331
 20
139.0640617273
 30
0.0
 10
90.507208602
 20
139.0658837178
 30
0.0
  0
SPLINE
  5
3D5
100
AcDbEntity
  8
0
100
AcDbSpline
 62
7
  6
CONTINUOUS
 70
0
 71
3
 72
9
 73
5
 74
0
 42
0.0000001
 43
0.0000001
 44
0.0000000001
 40
0.0
 40
0.0
 40
0.0
 40
0.0
 40
0.5040841871
 40
1.0
 40
1.0
 40
1.0
 40
1.0
 10
99.9455757892
 20
100.2526254169
 30
0.0
 10
100.0007356855
 20
100.2749030751
 30
0.0
 10
100.1091349646
 20
100.3218023706
 30
0.0
 10
100.2224328007
 20
100.3559171536
 30
0.0
 10
100.2791831885
 20
100.3702188768
 30
0.0
  0
SPLINE
  5
3D6
100
AcDbEntity
  8
0
100
AcDbSpline
 62
7
  6
CONTINUOUS
 70
0
 71
3
 72
9
 73
5
 74
0
 42
0.0000001
 43
0.0000001
 44
0.0000000001
 40
0.0
 40
0.0
 40
0.0
 40
0.0
 40
0.5000003222
 40
1.0
 40
1.0
 40
1.0
 40
1.0
 10
90.4155050591
 20
119.7238908791
 30
0.0
 10
91.4875640731
 20
116.6000538766
 30
0.0
 10
93.11441233
 20
110.1633620313
 30
0.0
 10
93.6660285923
 20
103.5472194122
 30
0.0
 10
93.6665340081
 20
100.2445477998
 30
0.0
  0
SPLINE
  5
3D7
100
AcDbEntity
  8
0
100
AcDbSpline
 62
7
  6
CONTINUOUS
 70
0
 71
3
 72
17
 73
13
 74
0
 42
0.0000001
 43
0.0000001
 44
0.0000000001
 40
0.0
 40
0.0
 40
0.0
 40
0.0
 40
0.011480149
 40
0.0291361364
 40
0.0535501203
 40
0.0849272479
 40
0.1688133078
 40
0.2807863248
 40
0.4204938004
 40
0.5874191674
 40
0.7809141732
 40
1.0
 40
1.0
 40
1.0
 40
1.0
 10
93.6672207131
 20
30.348075396
 30
0.0
 10
93.6819121608
 20
30.3690542546
 30
0.0
 10
93.7370286855
 20
30.4078026667
 30
0.0
 10
93.8463558631
 20
30.4546373967
 30
0.0
 10
94.0035723212
 20
30.5027609767
 30
0.0
 10
94.3068373383
 20
30.5741186714
 30
0.0
 10
94.8074264544
 20
30.6574694921
 30
0.0
 10
95.550132278
 20
30.7512157185
 30
0.0
 10
96.47952705
 20
30.8439550303
 30
0.0
 10
97.5915580426
 20
30.9352960004
 30
0.0
 10
98.8813646122
 20
31.0243639214
 30
0.0
 10
99.8002167769
 20
31.0786714752
 30
0.0
 10
100.2882379147
 20
31.1056759947
 30
0.0
  0
SPLINE
  5
3D8
100
AcDbEntity
  8
0
100
AcDbSpline
 62
7
  6
CONTINUOUS
 70
0
 71
3
 72
9
 73
5
 74
0
 42
0.0000001
 43
0.0000001
 44
0.0000000001
 40
0.0
 40
0.0
 40
0.0
 40
0.0
 40
0.5030637954
 40
1.0
 40
1.0
 40
1.0
 40
1.0
 10
100.2686675588
 20
100.1475173723
 30
0.0
 10
100.2134809246
 20
100.1617856996
 30
0.0
 10
100.1041535436
 20
100.1922830528
 30
0.0
 10
99.9993722209
 20
100.2361093037
 30
0.0
 10
99.9455374888
 20
100.2526108374
 30
0.0
  0
SPLINE
  5
3D9
100
AcDbEntity
  8
0
100
AcDbSpline
 62
7
  6
CONTINUOUS
 70
0
 71
3
 72
8
 73
4
 74
0
 42
0.0000001
 43
0.0000001
 44
0.0000000001
 40
0.0
 40
0.0
 40
0.0
 40
0.0
 40
1.0
 40
1.0
 40
1.0
 40
1.0
 10
100.5217172819
 20
100.070716188
 30
0.0
 10
100.4434216294
 20
100.0935237766
 30
0.0
 10
100.3660902177
 20
100.1195850606
 30
0.0
 10
100.28765928
 20
100.1419229946
 30
0.0
  0
SPLINE
  5
3DA
100
AcDbEntity
  8
0
100
AcDbSpline
 62
7
  6
CONTINUOUS
 70
0
 71
3
 72
11
 73
7
 74
0
 42
0.0000001
 43
0.0000001
 44
0.0000000001
 40
0.0
 40
0.0
 40
0.0
 40
0.0
 40
0.248145048
 40
0.4963637097
 40
0.7466608453
 40
1.0
 40
1.0
 40
1.0
 40
1.0
 10
109.1063344312
 20
93.5934260094
 30
0.0
 10
109.1245982002
 20
94.1229330219
 30
0.0
 10
109.3558402044
 20
95.1850885901
 30
0.0
 10
110.2363810978
 20
96.5517993331
 30
0.0
 10
111.5309139473
 20
97.5506072198
 30
0.0
 10
112.5733603767
 20
97.8978344475
 30
0.0
 10
113.1075413742
 20
97.9829017206
 30
0.0
  0
SPLINE
  5
3DB
100
AcDbEntity
  8
0
100
AcDbSpline
 62
7
  6
CONTINUOUS
 70
0
 71
3
 72
11
 73
7
 74
0
 42
0.0000001
 43
0.0000001
 44
0.0000000001
 40
0.0
 40
0.0
 40
0.0
 40
0.0
 40
0.253347349
 40
0.5036442793
 40
0.7518554012
 40
1.0
 40
1.0
 40
1.0
 40
1.0
 10
113.1090893866
 20
88.9046911805
 30
0.0
 10
112.5748224902
 20
88.9896005791
 30
0.0
 10
111.5321672288
 20
89.3365162574
 30
0.0
 10
110.2371859062
 20
90.3349614357
 30
0.0
 10
109.3561900013
 20
91.7015280214
 30
0.0
 10
109.1247230423
 20
92.7637145369
 30
0.0
 10
109.1063622297
 20
93.2932589176
 30
0.0
  0
SPLINE
  5
3DC
100
AcDbEntity
  8
0
100
AcDbSpline
 62
7
  6
CONTINUOUS
 70
0
 71
3
 72
11
 73
7
 74
0
 42
0.0000001
 43
0.0000001
 44
0.0000000001
 40
0.0
 40
0.0
 40
0.0
 40
0.0
 40
0.248145048
 40
0.4963637097
 40
0.7466608453
 40
1.0
 40
1.0
 40
1.0
 40
1.0
 10
109.106734532
 20
45.5934291221
 30
0.0
 10
109.124998301
 20
46.1229361346
 30
0.0
 10
109.3562403052
 20
47.1850917028
 30
0.0
 10
110.2367811986
 20
48.5518024457
 30
0.0
 10
111.5313140481
 20
49.5506103325
 30
0.0
 10
112.5737604775
 20
49.8978375602
 30
0.0
 10
113.107941475
 20
49.9829048332
 30
0.0
  0
SPLINE
  5
3DD
100
AcDbEntity
  8
0
100
AcDbSpline
 62
7
  6
CONTINUOUS
 70
0
 71
3
 72
11
 73
7
 74
0
 42
0.0000001
 43
0.0000001
 44
0.0000000001
 40
0.0
 40
0.0
 40
0.0
 40
0.0
 40
0.253347349
 40
0.5036442793
 40
0.7518554012
 40
1.0
 40
1.0
 40
1.0
 40
1.0
 10
113.1094894874
 20
40.9046942932
 30
0.0
 10
112.5752225909
 20
40.9896036917
 30
0.0
 10
111.5325673295
 20
41.3365193701
 30
0.0
 10
110.237586007
 20
42.3349645484
 30
0.0
 10
109.3565901021
 20
43.7015311341
 30
0.0
 10
109.1251231431
 20
44.7637176495
 30
0.0
 10
109.1067623305
 20
45.2932620303
 30
0.0
  0
SPLINE
  5
3DE
100
AcDbEntity
  8
0
100
AcDbSpline
 62
7
  6
CONTINUOUS
 70
0
 71
3
 72
10
 73
6
 74
0
 42
0.0000001
 43
0.0000001
 44
0.0000000001
 40
0.0
 40
0.0
 40
0.0
 40
0.0
 40
0.1874455615
 40
0.427772371
 40
1.0
 40
1.0
 40
1.0
 40
1.0
 10
100.5544631729
 20
31.1224637247
 30
0.0
 10
101.3458267185
 20
31.1549029928
 30
0.0
 10
103.1526840695
 20
31.2068449778
 30
0.0
 10
107.3774041664
 20
31.2821567813
 30
0.0
 10
110.810869269
 20
31.3014381609
 30
0.0
 10
113.2287466434
 20
31.3014381609
 30
0.0
  0
SPLINE
  5
3DF
100
AcDbEntity
  8
0
100
AcDbSpline
 62
7
  6
CONTINUOUS
 70
0
 71
3
 72
20
 73
16
 74
0
 42
0.0000001
 43
0.0000001
 44
0.0000000001
 40
0.0
 40
0.0
 40
0.0
 40
0.0
 40
0.1485362698
 40
0.2949803642
 40
0.4368605652
 40
0.5053410799
 40
0.5718610822
 40
0.6361473764
 40
0.6977690997
 40
0.7565108228
 40
0.8121500316
 40
0.8644608553
 40
0.9132507736
 40
0.9583320751
 40
1.0
 40
1.0
 40
1.0
 40
1.0
 10
113.2281738904
 20
100.0017595769
 30
0.0
 10
112.6005562372
 20
99.9945024136
 30
0.0
 10
111.3540961438
 20
99.9858709342
 30
0.0
 10
109.5081136363
 20
99.9778405912
 30
0.0
 10
108.0004115664
 20
99.96388258
 30
0.0
 10
106.8304184319
 20
99.9707156872
 30
0.0
 10
105.9883356169
 20
99.9764033834
 30
0.0
 10
105.1751449767
 20
99.9731407727
 30
0.0
 10
104.395106174
 20
99.994515506
 30
0.0
 10
103.6514454476
 20
100.0033249615
 30
0.0
 10
102.9470170988
 20
100.0075859499
 30
0.0
 10
102.2849606246
 20
100.0171786833
 30
0.0
 10
101.6665392068
 20
100.0185634176
 30
0.0
 10
101.0961215881
 20
100.0127109737
 30
0.0
 10
100.7242373761
 20
100.0186961967
 30
0.0
 10
100.5538891522
 20
100.0632303965
 30
0.0
  0
SPLINE
  5
3E0
100
AcDbEntity
  8
0
100
AcDbSpline
 62
7
  6
CONTINUOUS
 70
0
 71
3
 72
11
 73
7
 74
0
 42
0.0000001
 43
0.0000001
 44
0.0000000001
 40
0.0
 40
0.0
 40
0.0
 40
0.0
 40
0.2483249374
 40
0.496416102
 40
0.7465993341
 40
1.0
 40
1.0
 40
1.0
 40
1.0
 10
118.5196532606
 20
92.6854085734
 30
0.0
 10
118.4381164936
 20
92.2119588432
 30
0.0
 10
118.1199832021
 20
91.2850413931
 30
0.0
 10
117.2304537375
 20
90.1176730785
 30
0.0
 10
116.0195472654
 20
89.2725745336
 30
0.0
 10
115.0727482929
 20
88.976815037
 30
0.0
 10
114.5882915492
 20
88.901740794
 30
0.0
  0
SPLINE
  5
3E1
100
AcDbEntity
  8
0
100
AcDbSpline
 62
7
  6
CONTINUOUS
 70
0
 71
3
 72
11
 73
7
 74
0
 42
0.0000001
 43
0.0000001
 44
0.0000000001
 40
0.0
 40
0.0
 40
0.0
 40
0.0
 40
0.2533907826
 40
0.5035783225
 40
0.7516768968
 40
1.0
 40
1.0
 40
1.0
 40
1.0
 10
114.5869835225
 20
97.9862759733
 30
0.0
 10
115.0711938069
 20
97.9113653574
 30
0.0
 10
116.0175725679
 20
97.6160388974
 30
0.0
 10
117.2282253254
 20
96.7719312163
 30
0.0
 10
118.1180615204
 20
95.605757903
 30
0.0
 10
118.4368860357
 20
94.6796247575
 30
0.0
 10
118.5188628008
 20
94.2065027401
 30
0.0
  0
SPLINE
  5
3E2
100
AcDbEntity
  8
0
100
AcDbSpline
 62
7
  6
CONTINUOUS
 70
0
 71
3
 72
20
 73
16
 74
0
 42
0.0000001
 43
0.0000001
 44
0.0000000001
 40
0.0
 40
0.0
 40
0.0
 40
0.0
 40
0.0397831131
 40
0.0832150328
 40
0.1305981908
 40
0.181750731
 40
0.2364819247
 40
0.2945757626
 40
0.3558124637
 40
0.41995844
 40
0.4866151561
 40
0.5554972769
 40
0.6989193644
 40
0.8479276131
 40
1.0
 40
1.0
 40
1.0
 40
1.0
 10
126.8301491055
 20
100.0632261422
 30
0.0
 10
126.6726120053
 20
100.0186512629
 30
0.0
 10
126.3243793065
 20
100.0127149812
 30
0.0
 10
125.7894640237
 20
100.0185812806
 30
0.0
 10
125.204429602
 20
100.0171394351
 30
0.0
 10
124.5739776716
 20
100.007587607
 30
0.0
 10
123.8990931686
 20
100.0032531331
 30
0.0
 10
123.1828334778
 20
99.9944003912
 30
0.0
 10
122.4279862338
 20
99.9732737111
 30
0.0
 10
121.6376131606
 20
99.9764877704
 30
0.0
 10
120.8158695307
 20
99.9706230167
 30
0.0
 10
119.6678474089
 20
99.9636820431
 30
0.0
 10
118.1809421576
 20
99.9781171851
 30
0.0
 10
116.3516821484
 20
99.986023785
 30
0.0
 10
115.1126440028
 20
99.9945313074
 30
0.0
 10
114.486852983
 20
100.0017666544
 30
0.0
  0
SPLINE
  5
3E3
100
AcDbEntity
  8
0
100
AcDbSpline
 62
7
  6
CONTINUOUS
 70
0
 71
3
 72
10
 73
6
 74
0
 42
0.0000001
 43
0.0000001
 44
0.0000000001
 40
0.0
 40
0.0
 40
0.0
 40
0.0
 40
0.580409378
 40
0.8186553204
 40
1.0
 40
1.0
 40
1.0
 40
1.0
 10
114.4884091172
 20
31.3014338791
 30
0.0
 10
116.8766494049
 20
31.3014338791
 30
0.0
 10
120.2453463224
 20
31.2830395945
 30
0.0
 10
124.3594102324
 20
31.2074437615
 30
0.0
 10
126.085269014
 20
31.1555318197
 30
0.0
 10
126.830724011
 20
31.1224594443
 30
0.0
  0
SPLINE
  5
3E4
100
AcDbEntity
  8
0
100
AcDbSpline
 62
7
  6
CONTINUOUS
 70
0
 71
3
 72
11
 73
7
 74
0
 42
0.0000001
 43
0.0000001
 44
0.0000000001
 40
0.0
 40
0.0
 40
0.0
 40
0.0
 40
0.2483249374
 40
0.496416102
 40
0.7465993341
 40
1.0
 40
1.0
 40
1.0
 40
1.0
 10
118.5200533613
 20
44.685411686
 30
0.0
 10
118.4385165944
 20
44.2119619558
 30
0.0
 10
118.1203833029
 20
43.2850445057
 30
0.0
 10
117.2308538383
 20
42.1176761911
 30
0.0
 10
116.0199473662
 20
41.2725776463
 30
0.0
 10
115.0731483937
 20
40.9768181497
 30
0.0
 10
114.58869165
 20
40.9017439067
 30
0.0
  0
SPLINE
  5
3E5
100
AcDbEntity
  8
0
100
AcDbSpline
 62
7
  6
CONTINUOUS
 70
0
 71
3
 72
11
 73
7
 74
0
 42
0.0000001
 43
0.0000001
 44
0.0000000001
 40
0.0
 40
0.0
 40
0.0
 40
0.0
 40
0.2533907826
 40
0.5035783225
 40
0.7516768968
 40
1.0
 40
1.0
 40
1.0
 40
1.0
 10
114.5873836233
 20
49.986279086
 30
0.0
 10
115.0715939078
 20
49.9113684701
 30
0.0
 10
116.0179726687
 20
49.6160420101
 30
0.0
 10
117.2286254262
 20
48.7719343289
 30
0.0
 10
118.1184616212
 20
47.6057610156
 30
0.0
 10
118.4372861365
 20
46.6796278702
 30
0.0
 10
118.5192629016
 20
46.2065058528
 30
0.0
  0
SPLINE
  5
3E6
100
AcDbEntity
  8
0
100
AcDbSpline
 62
7
  6
CONTINUOUS
 70
0
 71
3
 72
16
 73
12
 74
0
 42
0.0000001
 43
0.0000001
 44
0.0000000001
 40
0.0
 40
0.0
 40
0.0
 40
0.0
 40
0.0053344022
 40
0.0198409616
 40
0.0441269554
 40
0.0786101435
 40
0.1779943766
 40
0.312377334
 40
0.4734667672
 40
0.649360885
 40
1.0
 40
1.0
 40
1.0
 40
1.0
 10
114.4078922726
 20
89.3823676846
 30
0.0
 10
114.4087846053
 20
89.3823815688
 30
0.0
 10
114.4097592679
 20
89.3778789323
 30
0.0
 10
114.4119689944
 20
89.3720539402
 30
0.0
 10
114.4145377122
 20
89.3593640623
 30
0.0
 10
114.4198318084
 20
89.333874807
 30
0.0
 10
114.4275875696
 20
89.2893431979
 30
0.0
 10
114.4383654994
 20
89.2243192095
 30
0.0
 10
114.4504776837
 20
89.1463417117
 30
0.0
 10
114.4675028536
 20
89.0325900014
 30
0.0
 10
114.4798966424
 20
88.9453683244
 30
0.0
 10
114.4879290965
 20
88.8872592524
 30
0.0
  0
SPLINE
  5
3E7
100
AcDbEntity
  8
0
100
AcDbSpline
 62
7
  6
CONTINUOUS
 70
0
 71
3
 72
16
 73
12
 74
0
 42
0.0000001
 43
0.0000001
 44
0.0000000001
 40
0.0
 40
0.0
 40
0.0
 40
0.0
 40
0.3504409345
 40
0.5262746677
 40
0.6873404101
 40
0.821741825
 40
0.9211849653
 40
0.955711428
 40
0.9800483041
 40
0.9946113168
 40
1.0
 40
1.0
 40
1.0
 40
1.0
 10
114.4878531331
 20
98.0005676104
 30
0.0
 10
114.4798206083
 20
97.9424510173
 30
0.0
 10
114.4674272545
 20
97.8552116778
 30
0.0
 10
114.4504046071
 20
97.7414260085
 30
0.0
 10
114.4382942486
 20
97.6634060885
 30
0.0
 10
114.4275142966
 20
97.5983212388
 30
0.0
 10
114.4197652651
 20
97.5537486913
 30
0.0
 10
114.4144641873
 20
97.5281995453
 30
0.0
 10
114.4119087598
 20
97.5154980865
 30
0.0
 10
114.4096731444
 20
97.5096025768
 30
0.0
 10
114.4087266033
 20
97.5051130824
 30
0.0
 10
114.4078245661
 20
97.5050990472
 30
0.0
  0
SPLINE
  5
3E8
100
AcDbEntity
  8
0
100
AcDbSpline
 62
7
  6
CONTINUOUS
 70
0
 71
3
 72
16
 73
12
 74
0
 42
0.0000001
 43
0.0000001
 44
0.0000000001
 40
0.0
 40
0.0
 40
0.0
 40
0.0
 40
0.0048794753
 40
0.0189276148
 40
0.0428043393
 40
0.0769413676
 40
0.1758580066
 40
0.3100990727
 40
0.4713843349
 40
0.6477673574
 40
1.0
 40
1.0
 40
1.0
 40
1.0
 10
113.2850819449
 20
97.5050990472
 30
0.0
 10
113.2858936552
 20
97.505111677
 30
0.0
 10
113.2858066584
 20
97.5098497709
 30
0.0
 10
113.2862334688
 20
97.5154546521
 30
0.0
 10
113.2853764504
 20
97.528306958
 30
0.0
 10
113.2835598627
 20
97.553792697
 30
0.0
 10
113.2790321613
 20
97.5984577095
 30
0.0
 10
113.2718098194
 20
97.6634876636
 30
0.0
 10
113.2623660406
 20
97.741500611
 30
0.0
 10
113.2479281226
 20
97.8553426393
 30
0.0
 10
113.2362149284
 20
97.9425178999
 30
0.0
 10
113.22819068
 20
98.0005676104
 30
0.0
  0
SPLINE
  5
3E9
100
AcDbEntity
  8
0
100
AcDbSpline
 62
7
  6
CONTINUOUS
 70
0
 71
3
 72
16
 73
12
 74
0
 42
0.0000001
 43
0.0000001
 44
0.0000000001
 40
0.0
 40
0.0
 40
0.0
 40
0.0
 40
0.3524387164
 40
0.5288854196
 40
0.6901967336
 40
0.8244203481
 40
0.9232773715
 40
0.957369905
 40
0.9811937195
 40
0.9951820044
 40
1.0
 40
1.0
 40
1.0
 40
1.0
 10
113.2282666434
 20
88.8872592524
 30
0.0
 10
113.2362888834
 20
88.9453014332
 30
0.0
 10
113.2479995914
 20
89.0324590113
 30
0.0
 10
113.2624368915
 20
89.1462669048
 30
0.0
 10
113.271878241
 20
89.2242378088
 30
0.0
 10
113.2791019878
 20
89.2892054711
 30
0.0
 10
113.2836235472
 20
89.3338321375
 30
0.0
 10
113.2854481572
 20
89.3592545838
 30
0.0
 10
113.286292113
 20
89.3720999024
 30
0.0
 10
113.2858893337
 20
89.377626817
 30
0.0
 10
113.28595056
 20
89.3823801463
 30
0.0
 10
113.2851496513
 20
89.3823676846
 30
0.0
  0
SPLINE
  5
3EA
100
AcDbEntity
  8
0
100
AcDbSpline
 62
7
  6
CONTINUOUS
 70
0
 71
3
 72
12
 73
8
 74
0
 42
0.0000001
 43
0.0000001
 44
0.0000000001
 40
0.0
 40
0.0
 40
0.0
 40
0.0
 40
0.2999441213
 40
0.57368067
 40
0.8157766639
 40
0.919496788
 40
1.0
 40
1.0
 40
1.0
 40
1.0
 10
88.6103823867
 20
219.0176823176
 30
0.0
 10
88.4658328579
 20
219.0006840524
 30
0.0
 10
88.1893970146
 20
218.9678340552
 30
0.0
 10
87.7963057353
 20
218.9214159514
 30
0.0
 10
87.4976808075
 20
218.8861238066
 30
0.0
 10
87.2919713184
 20
218.865186169
 30
0.0
 10
87.20288536
 20
218.8561336445
 30
0.0
 10
87.1638265305
 20
218.8555259125
 30
0.0
  0
SPLINE
  5
3EB
100
AcDbEntity
  8
0
100
AcDbSpline
 62
7
  6
CONTINUOUS
 70
0
 71
3
 72
16
 73
12
 74
0
 42
0.0000001
 43
0.0000001
 44
0.0000000001
 40
0.0
 40
0.0
 40
0.0
 40
0.0
 40
0.0048794753
 40
0.0189276148
 40
0.0428043393
 40
0.0769413676
 40
0.1758580066
 40
0.3100990727
 40
0.4713843349
 40
0.6477673574
 40
1.0
 40
1.0
 40
1.0
 40
1.0
 10
113.2854820456
 20
49.5051021599
 30
0.0
 10
113.286293756
 20
49.5051147896
 30
0.0
 10
113.2862067592
 20
49.5098528835
 30
0.0
 10
113.2866335696
 20
49.5154577648
 30
0.0
 10
113.2857765512
 20
49.5283100706
 30
0.0
 10
113.2839599635
 20
49.5537958097
 30
0.0
 10
113.2794322621
 20
49.5984608222
 30
0.0
 10
113.2722099202
 20
49.6634907763
 30
0.0
 10
113.2627661413
 20
49.7415037237
 30
0.0
 10
113.2483282234
 20
49.8553457519
 30
0.0
 10
113.2366150292
 20
49.9425210125
 30
0.0
 10
113.2285907808
 20
50.0005707231
 30
0.0
  0
SPLINE
  5
3EC
100
AcDbEntity
  8
0
100
AcDbSpline
 62
7
  6
CONTINUOUS
 70
0
 71
3
 72
16
 73
12
 74
0
 42
0.0000001
 43
0.0000001
 44
0.0000000001
 40
0.0
 40
0.0
 40
0.0
 40
0.0
 40
0.3524387164
 40
0.5288854196
 40
0.6901967336
 40
0.8244203481
 40
0.9232773715
 40
0.957369905
 40
0.9811937195
 40
0.9951820044
 40
1.0
 40
1.0
 40
1.0
 40
1.0
 10
113.2286667442
 20
40.8872623651
 30
0.0
 10
113.2366889842
 20
40.9453045459
 30
0.0
 10
113.2483996922
 20
41.032462124
 30
0.0
 10
113.2628369923
 20
41.1462700175
 30
0.0
 10
113.2722783418
 20
41.2242409214
 30
0.0
 10
113.2795020886
 20
41.2892085838
 30
0.0
 10
113.284023648
 20
41.3338352502
 30
0.0
 10
113.285848258
 20
41.3592576965
 30
0.0
 10
113.2866922138
 20
41.372103015
 30
0.0
 10
113.2862894345
 20
41.3776299297
 30
0.0
 10
113.2863506608
 20
41.382383259
 30
0.0
 10
113.2855497521
 20
41.3823707973
 30
0.0
  0
SPLINE
  5
3ED
100
AcDbEntity
  8
0
100
AcDbSpline
 62
7
  6
CONTINUOUS
 70
0
 71
3
 72
16
 73
12
 74
0
 42
0.0000001
 43
0.0000001
 44
0.0000000001
 40
0.0
 40
0.0
 40
0.0
 40
0.0
 40
0.0053344022
 40
0.0198409616
 40
0.0441269554
 40
0.0786101435
 40
0.1779943766
 40
0.312377334
 40
0.4734667672
 40
0.649360885
 40
1.0
 40
1.0
 40
1.0
 40
1.0
 10
114.4082923734
 20
41.3823707973
 30
0.0
 10
114.4091847061
 20
41.3823846815
 30
0.0
 10
114.4101593687
 20
41.377882045
 30
0.0
 10
114.4123690952
 20
41.3720570529
 30
0.0
 10
114.414937813
 20
41.3593671749
 30
0.0
 10
114.4202319092
 20
41.3338779197
 30
0.0
 10
114.4279876704
 20
41.2893463105
 30
0.0
 10
114.4387656002
 20
41.2243223222
 30
0.0
 10
114.4508777845
 20
41.1463448244
 30
0.0
 10
114.4679029544
 20
41.032593114
 30
0.0
 10
114.4802967432
 20
40.9453714371
 30
0.0
 10
114.4883291973
 20
40.8872623651
 30
0.0
  0
SPLINE
  5
3EE
100
AcDbEntity
  8
0
100
AcDbSpline
 62
7
  6
CONTINUOUS
 70
0
 71
3
 72
16
 73
12
 74
0
 42
0.0000001
 43
0.0000001
 44
0.0000000001
 40
0.0
 40
0.0
 40
0.0
 40
0.0
 40
0.3504409345
 40
0.5262746677
 40
0.6873404101
 40
0.821741825
 40
0.9211849653
 40
0.955711428
 40
0.9800483041
 40
0.9946113168
 40
1.0
 40
1.0
 40
1.0
 40
1.0
 10
114.4882532339
 20
50.0005707231
 30
0.0
 10
114.4802207091
 20
49.94245413
 30
0.0
 10
114.4678273553
 20
49.8552147905
 30
0.0
 10
114.4508047079
 20
49.7414291212
 30
0.0
 10
114.4386943494
 20
49.6634092011
 30
0.0
 10
114.4279143974
 20
49.5983243514
 30
0.0
 10
114.4201653659
 20
49.5537518039
 30
0.0
 10
114.4148642881
 20
49.528202658
 30
0.0
 10
114.4123088606
 20
49.5155011992
 30
0.0
 10
114.4100732452
 20
49.5096056895
 30
0.0
 10
114.4091267041
 20
49.5051161951
 30
0.0
 10
114.4082246669
 20
49.5051021599
 30
0.0
  0
SPLINE
  5
3EF
100
AcDbEntity
  8
0
100
AcDbSpline
 62
7
  6
CONTINUOUS
 70
0
 71
3
 72
9
 73
5
 74
0
 42
0.0000001
 43
0.0000001
 44
0.0000000001
 40
0.0
 40
0.0
 40
0.0
 40
0.0
 40
0.2469865092
 40
1.0
 40
1.0
 40
1.0
 40
1.0
 10
91.0775381851
 20
158.3813973991
 30
0.0
 10
91.1301898224
 20
158.7868950007
 30
0.0
 10
91.3338740199
 20
160.4299153885
 30
0.0
 10
91.5122546882
 20
162.0758942898
 30
0.0
 10
91.6513993432
 20
163.314765536
 30
0.0
  0
SPLINE
  5
3F0
100
AcDbEntity
  8
0
100
AcDbSpline
 62
7
  6
CONTINUOUS
 70
0
 71
3
 72
9
 73
5
 74
0
 42
0.0000001
 43
0.0000001
 44
0.0000000001
 40
0.0
 40
0.0
 40
0.0
 40
0.0
 40
0.5084573854
 40
1.0
 40
1.0
 40
1.0
 40
1.0
 10
90.4945794639
 20
150.6464354757
 30
0.0
 10
90.5308749305
 20
151.9610051018
 30
0.0
 10
90.6664300306
 20
154.5447203148
 30
0.0
 10
90.9138251403
 20
157.1206797679
 30
0.0
 10
91.0775251768
 20
158.3814187625
 30
0.0
  0
SPLINE
  5
3F1
100
AcDbEntity
  8
0
100
AcDbSpline
 62
7
  6
CONTINUOUS
 70
0
 71
3
 72
14
 73
10
 74
0
 42
0.0000001
 43
0.0000001
 44
0.0000000001
 40
0.0
 40
0.0
 40
0.0
 40
0.0
 40
0.2560449941
 40
0.39080327
 40
0.5247504212
 40
0.6544785569
 40
0.777734921
 40
0.8928506389
 40
1.0
 40
1.0
 40
1.0
 40
1.0
 10
100.5544631733
 20
31.1224635339
 30
0.0
 10
100.5649521045
 20
30.5063295984
 30
0.0
 10
100.7298670142
 20
29.5586063352
 30
0.0
 10
101.2536196959
 20
28.4042711627
 30
0.0
 10
101.8004295005
 20
27.6089331051
 30
0.0
 10
102.4771098066
 20
26.9599995145
 30
0.0
 10
103.231700458
 20
26.4831595079
 30
0.0
 10
104.020827897
 20
26.2012502443
 30
0.0
 10
104.5557506123
 20
26.130936815
 30
0.0
 10
104.8135617275
 20
26.1251411429
 30
0.0
  0
SPLINE
  5
3F2
100
AcDbEntity
  8
0
100
AcDbSpline
 62
7
  6
CONTINUOUS
 70
0
 71
3
 72
19
 73
15
 74
0
 42
0.0000001
 43
0.0000001
 44
0.0000000001
 40
0.0
 40
0.0
 40
0.0
 40
0.0
 40
0.0075943035
 40
0.0233950866
 40
0.0479606437
 40
0.0817786374
 40
0.1251435068
 40
0.1776261569
 40
0.238615254
 40
0.3074983901
 40
0.4653707784
 40
0.6407162061
 40
0.8222287612
 40
1.0
 40
1.0
 40
1.0
 40
1.0
 10
113.1174021165
 20
26.3032250143
 30
0.0
 10
113.1240012611
 20
26.3140314823
 30
0.0
 10
113.129594855
 20
26.3540521831
 30
0.0
 10
113.1407541975
 20
26.4321713486
 30
0.0
 10
113.1498529479
 20
26.5561465975
 30
0.0
 10
113.1602910227
 20
26.7252123041
 30
0.0
 10
113.1700141383
 20
26.9412963941
 30
0.0
 10
113.1796358855
 20
27.2025796037
 30
0.0
 10
113.1886869346
 20
27.5065023688
 30
0.0
 10
113.2003825364
 20
27.9861170078
 30
0.0
 10
113.2120387689
 20
28.6564544785
 30
0.0
 10
113.2218903756
 20
29.5146174098
 30
0.0
 10
113.2275122571
 20
30.4059981513
 30
0.0
 10
113.2287491168
 20
31.0050375199
 30
0.0
 10
113.2287466462
 20
31.3014379701
 30
0.0
  0
SPLINE
  5
3F3
100
AcDbEntity
  8
0
100
AcDbSpline
 62
7
  6
CONTINUOUS
 70
0
 71
3
 72
14
 73
10
 74
0
 42
0.0000001
 43
0.0000001
 44
0.0000000001
 40
0.0
 40
0.0
 40
0.0
 40
0.0
 40
0.1075285965
 40
0.2229615003
 40
0.3464432715
 40
0.4762784322
 40
0.6101749557
 40
0.7447314363
 40
1.0
 40
1.0
 40
1.0
 40
1.0
 10
104.5473332785
 20
26.1085645764
 30
0.0
 10
104.2886081461
 20
26.114380745
 30
0.0
 10
103.75200578
 20
26.1851555091
 30
0.0
 10
102.9610159716
 20
26.468599382
 30
0.0
 10
102.2057698777
 20
26.9473955179
 30
0.0
 10
101.5295786674
 20
27.5978261863
 30
0.0
 10
100.9840917356
 20
28.3936391806
 30
0.0
 10
100.4627399866
 20
29.546323858
 30
0.0
 10
100.2986910931
 20
30.4916177223
 30
0.0
 10
100.2882347245
 20
31.1058869674
 30
0.0
  0
SPLINE
  5
3F4
100
AcDbEntity
  8
0
100
AcDbSpline
 62
7
  6
CONTINUOUS
 70
0
 71
3
 72
13
 73
9
 74
0
 42
0.0000001
 43
0.0000001
 44
0.0000000001
 40
0.0
 40
0.0
 40
0.0
 40
0.0
 40
0.3090591325
 40
0.5904029885
 40
0.7139607503
 40
0.8237143391
 40
0.918865648
 40
1.0
 40
1.0
 40
1.0
 40
1.0
 10
96.5355804841
 20
160.9077596151
 30
0.0
 10
95.9800521832
 20
161.0370916928
 30
0.0
 10
94.9288504747
 20
161.3299289464
 30
0.0
 10
93.700128799
 20
161.8172158402
 30
0.0
 10
92.8629850599
 20
162.2680877203
 30
0.0
 10
92.3569611379
 20
162.6039538679
 30
0.0
 10
91.9532377753
 20
162.9460908105
 30
0.0
 10
91.7375996828
 20
163.1923283915
 30
0.0
 10
91.6513993432
 20
163.314765536
 30
0.0
  0
SPLINE
  5
3F5
100
AcDbEntity
  8
0
100
AcDbSpline
 62
7
  6
CONTINUOUS
 70
0
 71
3
 72
11
 73
7
 74
0
 42
0.0000001
 43
0.0000001
 44
0.0000000001
 40
0.0
 40
0.0
 40
0.0
 40
0.0
 40
0.2501515381
 40
0.5003331002
 40
0.7504814831
 40
1.0
 40
1.0
 40
1.0
 40
1.0
 10
98.6658305752
 20
25.3447668527
 30
0.0
 10
98.0149919247
 20
25.344765943
 30
0.0
 10
96.6989373265
 20
25.6054958954
 30
0.0
 10
95.0363113761
 20
26.7203145645
 30
0.0
 10
93.9240010268
 20
28.3823238172
 30
0.0
 10
93.6645169915
 20
29.6973513398
 30
0.0
 10
93.6671286686
 20
30.3465377565
 30
0.0
  0
SPLINE
  5
3F6
100
AcDbEntity
  8
0
100
AcDbSpline
 62
7
  6
CONTINUOUS
 70
0
 71
3
 72
14
 73
10
 74
0
 42
0.0000001
 43
0.0000001
 44
0.0000000001
 40
0.0
 40
0.0
 40
0.0
 40
0.0
 40
0.1414812632
 40
0.2108745576
 40
0.2785507878
 40
0.408434218
 40
0.5327306235
 40
0.7700493818
 40
1.0
 40
1.0
 40
1.0
 40
1.0
 10
107.3764376501
 20
176.63097462
 30
0.0
 10
106.3276264176
 20
176.9029354331
 30
0.0
 10
104.6834371846
 20
177.0599429776
 30
0.0
 10
102.5669660329
 20
176.7447362512
 30
0.0
 10
100.6090527436
 20
176.1304887809
 30
0.0
 10
98.4388389662
 20
174.8994255942
 30
0.0
 10
95.6518606847
 20
172.3362620678
 30
0.0
 10
93.1772981206
 20
168.4554654678
 30
0.0
 10
92.0388487802
 20
165.0326390133
 30
0.0
 10
91.6514022499
 20
163.3147715654
 30
0.0
  0
SPLINE
  5
3F7
100
AcDbEntity
  8
0
100
AcDbSpline
 62
7
  6
CONTINUOUS
 70
0
 71
3
 72
9
 73
5
 74
0
 42
0.0000001
 43
0.0000001
 44
0.0000000001
 40
0.0
 40
0.0
 40
0.0
 40
0.0
 40
0.4672652647
 40
1.0
 40
1.0
 40
1.0
 40
1.0
 10
134.7745558833
 20
143.4896816042
 30
0.0
 10
134.8831295904
 20
143.5852635348
 30
0.0
 10
135.0971338575
 20
143.8117252182
 30
0.0
 10
135.2627852164
 20
144.0758841658
 30
0.0
 10
135.3380414144
 20
144.2226318417
 30
0.0
  0
SPLINE
  5
3F8
100
AcDbEntity
  8
0
100
AcDbSpline
 62
7
  6
CONTINUOUS
 70
0
 71
3
 72
13
 73
9
 74
0
 42
0.0000001
 43
0.0000001
 44
0.0000000001
 40
0.0
 40
0.0
 40
0.0
 40
0.0
 40
0.1087836381
 40
0.2168466441
 40
0.3280109347
 40
0.4446053973
 40
0.7008581455
 40
1.0
 40
1.0
 40
1.0
 40
1.0
 10
92.70198909
 20
143.4896816042
 30
0.0
 10
92.7898150602
 20
143.4194489346
 30
0.0
 10
92.9802831355
 20
143.2976676312
 30
0.0
 10
93.2973736381
 20
143.1731603828
 30
0.0
 10
93.6369479861
 20
143.096208645
 30
0.0
 10
94.1354008829
 20
143.0437162238
 30
0.0
 10
94.8332271045
 20
143.0742586023
 30
0.0
 10
95.397994457
 20
143.1885044002
 30
0.0
 10
95.6969032036
 20
143.2677555651
 30
0.0
  0
SPLINE
  5
3F9
100
AcDbEntity
  8
0
100
AcDbSpline
 62
7
  6
CONTINUOUS
 70
0
 71
3
 72
13
 73
9
 74
0
 42
0.0000001
 43
0.0000001
 44
0.0000000001
 40
0.0
 40
0.0
 40
0.0
 40
0.0
 40
0.2417772428
 40
0.3699486824
 40
0.5001027372
 40
0.630294109
 40
0.7584328735
 40
1.0
 40
1.0
 40
1.0
 40
1.0
 10
130.3804436894
 20
228.3829038335
 30
0.0
 10
131.4318198968
 20
228.2037624243
 30
0.0
 10
133.0107340834
 20
227.6461695478
 30
0.0
 10
134.8315117668
 20
226.385724198
 30
0.0
 10
136.0548901223
 20
225.1709369705
 30
0.0
 10
137.0283382802
 20
223.7483500688
 30
0.0
 10
137.942458778
 20
221.7325575836
 30
0.0
 10
138.2155065252
 20
220.0832806066
 30
0.0
 10
138.2126690893
 20
219.0176825006
 30
0.0
  0
SPLINE
  5
3FA
100
AcDbEntity
  8
0
100
AcDbSpline
 62
7
  6
CONTINUOUS
 70
0
 71
3
 72
9
 73
5
 74
0
 42
0.0000001
 43
0.0000001
 44
0.0000000001
 40
0.0
 40
0.0
 40
0.0
 40
0.0
 40
0.5280091828
 40
1.0
 40
1.0
 40
1.0
 40
1.0
 10
92.0691320467
 20
144.222178167
 30
0.0
 10
92.1551741299
 20
144.0742294879
 30
0.0
 10
92.344525707
 20
143.8081130322
 30
0.0
 10
92.5819294042
 20
143.5845079458
 30
0.0
 10
92.70198909
 20
143.4896816042
 30
0.0
  0
SPLINE
  5
3FB
100
AcDbEntity
  8
0
100
AcDbSpline
 62
7
  6
CONTINUOUS
 70
0
 71
3
 72
17
 73
13
 74
0
 42
0.0000001
 43
0.0000001
 44
0.0000000001
 40
0.0
 40
0.0
 40
0.0
 40
0.0
 40
0.1213629364
 40
0.2437423318
 40
0.3674424968
 40
0.4933299044
 40
0.622971338
 40
0.7583529749
 40
0.8276534311
 40
0.8941906874
 40
0.9522306542
 40
1.0
 40
1.0
 40
1.0
 40
1.0
 10
95.3663006179
 20
155.8386475995
 30
0.0
 10
95.1262975172
 20
155.3949260251
 30
0.0
 10
94.635921003
 20
154.5083342121
 30
0.0
 10
93.9121651837
 20
153.1632378542
 30
0.0
 10
93.2223681014
 20
151.7790322788
 30
0.0
 10
92.5933705851
 20
150.332394654
 30
0.0
 10
92.0569156491
 20
148.7969823897
 30
0.0
 10
91.7371913243
 20
147.4392990976
 30
0.0
 10
91.6254662648
 20
146.315478899
 30
0.0
 10
91.6477268125
 20
145.506783723
 30
0.0
 10
91.7915636756
 20
144.8004005609
 30
0.0
 10
91.969308068
 20
144.3938247059
 30
0.0
 10
92.0691320467
 20
144.222178167
 30
0.0
  0
SPLINE
  5
3FC
100
AcDbEntity
  8
0
100
AcDbSpline
 62
7
  6
CONTINUOUS
 70
0
 71
3
 72
15
 73
11
 74
0
 42
0.0000001
 43
0.0000001
 44
0.0000000001
 40
0.0
 40
0.0
 40
0.0
 40
0.0
 40
0.1150541242
 40
0.237722969
 40
0.3658378607
 40
0.4969508057
 40
0.628469376
 40
0.7577820547
 40
0.8823824163
 40
1.0
 40
1.0
 40
1.0
 40
1.0
 10
132.1040707702
 20
155.8662725532
 30
0.0
 10
130.7648349348
 20
156.3849946676
 30
0.0
 10
127.9324189557
 20
157.2923268515
 30
0.0
 10
123.461582868
 20
158.2519946406
 30
0.0
 10
118.7244585387
 20
158.8365191665
 30
0.0
 10
113.8453416393
 20
159.0301890923
 30
0.0
 10
108.9516509647
 20
158.8279442526
 30
0.0
 10
104.1712727451
 20
158.2350353905
 30
0.0
 10
99.6297293088
 20
157.2673608316
 30
0.0
 10
96.7396523664
 20
156.3577493833
 30
0.0
 10
95.3663006179
 20
155.8386475995
 30
0.0
  0
SPLINE
  5
3FD
100
AcDbEntity
  8
0
100
AcDbSpline
 62
7
  6
CONTINUOUS
 70
0
 71
3
 72
16
 73
12
 74
0
 42
0.0000001
 43
0.0000001
 44
0.0000000001
 40
0.0
 40
0.0
 40
0.0
 40
0.0
 40
0.1051706023
 40
0.172350063
 40
0.2422474538
 40
0.3783195128
 40
0.5081114977
 40
0.6338210198
 40
0.7571586021
 40
0.8790927548
 40
1.0
 40
1.0
 40
1.0
 40
1.0
 10
135.3380414144
 20
144.2226318417
 30
0.0
 10
135.5367317222
 20
144.6100728984
 30
0.0
 10
135.7034031298
 20
145.3262698268
 30
0.0
 10
135.7142656038
 20
146.3288797086
 30
0.0
 10
135.5986016722
 20
147.4563992148
 30
0.0
 10
135.2885904003
 20
148.815618738
 30
0.0
 10
134.7722848558
 20
150.3540436496
 30
0.0
 10
134.166919368
 20
151.8020625281
 30
0.0
 10
133.502325664
 20
153.18717365
 30
0.0
 10
132.8050790032
 20
154.5334294115
 30
0.0
 10
132.3337386553
 20
155.4215008365
 30
0.0
 10
132.1040707702
 20
155.8662725532
 30
0.0
  0
SPLINE
  5
3FE
100
AcDbEntity
  8
0
100
AcDbSpline
 62
7
  6
CONTINUOUS
 70
0
 71
3
 72
11
 73
7
 74
0
 42
0.0000001
 43
0.0000001
 44
0.0000000001
 40
0.0
 40
0.0
 40
0.0
 40
0.0
 40
0.2661551547
 40
0.5204293178
 40
0.7628960252
 40
1.0
 40
1.0
 40
1.0
 40
1.0
 10
128.5312598628
 20
178.2451187609
 30
0.0
 10
128.5312607802
 20
178.1350572458
 30
0.0
 10
128.4862618173
 20
177.9172042442
 30
0.0
 10
128.3010648077
 20
177.6518539037
 30
0.0
 10
128.0398184078
 20
177.4835477498
 30
0.0
 10
127.8395094725
 20
177.4452561673
 30
0.0
 10
127.7414613161
 20
177.4452741433
 30
0.0
  0
SPLINE
  5
3FF
100
AcDbEntity
  8
0
100
AcDbSpline
 62
7
  6
CONTINUOUS
 70
0
 71
3
 72
16
 73
12
 74
0
 42
0.0000001
 43
0.0000001
 44
0.0000000001
 40
0.0
 40
0.0
 40
0.0
 40
0.0
 40
0.0719536055
 40
0.1430345573
 40
0.2124725331
 40
0.2799672307
 40
0.4090622166
 40
0.5325106685
 40
0.652189259
 40
0.7695363465
 40
1.0
 40
1.0
 40
1.0
 40
1.0
 10
120.5928964328
 20
176.6309746254
 30
0.0
 10
121.1190861743
 20
176.769327252
 30
0.0
 10
122.190106257
 20
176.9562215126
 30
0.0
 10
123.8030023258
 20
176.9798862441
 30
0.0
 10
125.3657799882
 20
176.7458522436
 30
0.0
 10
127.2891398235
 20
176.1325930709
 30
0.0
 10
129.408964768
 20
174.9011111904
 30
0.0
 10
131.4586740095
 20
172.9449981572
 30
0.0
 10
133.0629765012
 20
170.7257625917
 30
0.0
 10
134.6882610715
 20
167.576679314
 30
0.0
 10
135.4448511342
 20
165.0269628247
 30
0.0
 10
135.7692022249
 20
163.3147715664
 30
0.0
  0
SPLINE
  5
400
100
AcDbEntity
  8
0
100
AcDbSpline
 62
7
  6
CONTINUOUS
 70
0
 71
3
 72
21
 73
17
 74
0
 42
0.0000001
 43
0.0000001
 44
0.0000000001
 40
0.0
 40
0.0
 40
0.0
 40
0.0
 40
0.002227252
 40
0.0071496924
 40
0.0139696245
 40
0.0223384414
 40
0.0443077319
 40
0.0742845665
 40
0.1131962075
 40
0.1616279451
 40
0.2195875181
 40
0.286437937
 40
0.4421913511
 40
0.6155966068
 40
0.7947801936
 40
1.0
 40
1.0
 40
1.0
 40
1.0
 10
135.9101831905
 20
119.7260927764
 30
0.0
 10
135.9111517512
 20
119.728927919
 30
0.0
 10
135.9006683274
 20
119.7365975556
 30
0.0
 10
135.8872279207
 20
119.7457072758
 30
0.0
 10
135.8624806873
 20
119.7593076298
 30
0.0
 10
135.8184965982
 20
119.7818118334
 30
0.0
 10
135.7443094027
 20
119.8157041829
 30
0.0
 10
135.6319426514
 20
119.863308414
 30
0.0
 10
135.4854932082
 20
119.9223309684
 30
0.0
 10
135.3034491134
 20
119.9934158017
 30
0.0
 10
135.0857916163
 20
120.0767062033
 30
0.0
 10
134.7327672635
 20
120.2101414037
 30
0.0
 10
134.233803009
 20
120.3967010175
 30
0.0
 10
133.5935650638
 20
120.6368736248
 30
0.0
 10
132.8919883394
 20
120.9029774191
 30
0.0
 10
132.4103016692
 20
121.0910617111
 30
0.0
 10
132.1518474505
 20
121.1880539617
 30
0.0
  0
SPLINE
  5
401
100
AcDbEntity
  8
0
100
AcDbSpline
 62
7
  6
CONTINUOUS
 70
0
 71
3
 72
11
 73
7
 74
0
 42
0.0000001
 43
0.0000001
 44
0.0000000001
 40
0.0
 40
0.0
 40
0.0
 40
0.0
 40
0.3039633329
 40
0.5810690468
 40
0.8152286637
 40
1.0
 40
1.0
 40
1.0
 40
1.0
 10
95.3663006181
 20
155.8386475997
 30
0.0
 10
94.8734033095
 20
155.9845804437
 30
0.0
 10
93.9432578134
 20
156.3075742607
 30
0.0
 10
92.6985233929
 20
156.9105651323
 30
0.0
 10
91.7262966262
 20
157.5827735722
 30
0.0
 10
91.240035896
 20
158.114526913
 30
0.0
 10
91.0775251768
 20
158.3814187625
 30
0.0
  0
SPLINE
  5
402
100
AcDbEntity
  8
0
100
AcDbSpline
 62
7
  6
CONTINUOUS
 70
0
 71
3
 72
11
 73
7
 74
0
 42
0.0000001
 43
0.0000001
 44
0.0000000001
 40
0.0
 40
0.0
 40
0.0
 40
0.0
 40
0.1893813569
 40
0.4225867641
 40
0.7017349955
 40
1.0
 40
1.0
 40
1.0
 40
1.0
 10
91.6515839978
 20
141.2626873995
 30
0.0
 10
91.493572237
 20
141.6223112396
 30
0.0
 10
91.179808964
 20
142.4426481857
 30
0.0
 10
90.8196930976
 20
143.8563877473
 30
0.0
 10
90.5872067074
 20
145.5243330183
 30
0.0
 10
90.5162063755
 20
146.720712032
 30
0.0
 10
90.4946262653
 20
147.3389838684
 30
0.0
  0
SPLINE
  5
403
100
AcDbEntity
  8
0
100
AcDbSpline
 62
7
  6
CONTINUOUS
 70
0
 71
3
 72
8
 73
4
 74
0
 42
0.0000001
 43
0.0000001
 44
0.0000000001
 40
0.0
 40
0.0
 40
0.0
 40
0.0
 40
1.0
 40
1.0
 40
1.0
 40
1.0
 10
90.494855326
 20
147.3389794276
 30
0.0
 10
90.4695182339
 20
148.4411726052
 30
0.0
 10
90.4744232017
 20
149.544132567
 30
0.0
 10
90.4945879976
 20
150.6464325035
 30
0.0
  0
SPLINE
  5
404
100
AcDbEntity
  8
0
100
AcDbSpline
 62
7
  6
CONTINUOUS
 70
0
 71
3
 72
21
 73
17
 74
0
 42
0.0000001
 43
0.0000001
 44
0.0000000001
 40
0.0
 40
0.0
 40
0.0
 40
0.0
 40
0.0462691114
 40
0.0948598171
 40
0.1450116832
 40
0.1969361631
 40
0.306158762
 40
0.4226745495
 40
0.483743907
 40
0.5468078945
 40
0.6122401977
 40
0.6804173255
 40
0.7514560695
 40
0.8261298621
 40
0.9075222395
 40
1.0
 40
1.0
 40
1.0
 40
1.0
 10
87.5556632052
 20
139.207215423
 30
0.0
 10
87.601084731
 20
139.2107206399
 30
0.0
 10
87.6888525677
 20
139.2483542932
 30
0.0
 10
87.8283710061
 20
139.2780632243
 30
0.0
 10
87.9753070692
 20
139.2995619804
 30
0.0
 10
88.1824148814
 20
139.319470669
 30
0.0
 10
88.4553524853
 20
139.3361910583
 30
0.0
 10
88.737568416
 20
139.3467942509
 30
0.0
 10
88.9745058053
 20
139.3501355414
 30
0.0
 10
89.1610140603
 20
139.3569840549
 30
0.0
 10
89.3547409629
 20
139.3598251821
 30
0.0
 10
89.5559940551
 20
139.351056016
 30
0.0
 10
89.766903379
 20
139.3448638264
 30
0.0
 10
89.9893469174
 20
139.3672383196
 30
0.0
 10
90.2346426258
 20
139.3879724383
 30
0.0
 10
90.4041357629
 20
139.3522890274
 30
0.0
 10
90.4951619287
 20
139.3500532405
 30
0.0
  0
SPLINE
  5
405
100
AcDbEntity
  8
0
100
AcDbSpline
 62
7
  6
CONTINUOUS
 70
0
 71
3
 72
11
 73
7
 74
0
 42
0.0000001
 43
0.0000001
 44
0.0000000001
 40
0.0
 40
0.0
 40
0.0
 40
0.0
 40
0.2512384459
 40
0.5000007851
 40
0.7487625196
 40
1.0
 40
1.0
 40
1.0
 40
1.0
 10
107.376437861
 20
176.6309746233
 30
0.0
 10
108.4029279736
 20
176.1057412606
 30
0.0
 10
110.5406704815
 20
175.223172429
 30
0.0
 10
113.9846757544
 20
174.7165386776
 30
0.0
 10
117.4286778081
 20
175.2231679943
 30
0.0
 10
119.5664119465
 20
176.1057397284
 30
0.0
 10
120.5928962974
 20
176.6309746233
 30
0.0
  0
SPLINE
  5
406
100
AcDbEntity
  8
0
100
AcDbSpline
 62
7
  6
CONTINUOUS
 70
0
 71
3
 72
13
 73
9
 74
0
 42
0.0000001
 43
0.0000001
 44
0.0000000001
 40
0.0
 40
0.0
 40
0.0
 40
0.0
 40
0.3136390673
 40
0.5958278983
 40
0.7185620301
 40
0.826901317
 40
0.9203664094
 40
1.0
 40
1.0
 40
1.0
 40
1.0
 10
131.1147451169
 20
160.9077596992
 30
0.0
 10
131.6586753273
 20
161.036401927
 30
0.0
 10
132.6817195784
 20
161.3269737499
 30
0.0
 10
133.8708926707
 20
161.8146764849
 30
0.0
 10
134.667256131
 20
162.2670323792
 30
0.0
 10
135.1396258885
 20
162.6030890862
 30
0.0
 10
135.5079610365
 20
162.9458172763
 30
0.0
 10
135.6969008538
 20
163.192652181
 30
0.0
 10
135.7691987278
 20
163.3147703283
 30
0.0
  0
SPLINE
  5
407
100
AcDbEntity
  8
0
100
AcDbSpline
 62
7
  6
CONTINUOUS
 70
0
 71
3
 72
22
 73
18
 74
0
 42
0.0000001
 43
0.0000001
 44
0.0000000001
 40
0.0
 40
0.0
 40
0.0
 40
0.0
 40
0.0332798505
 40
0.0663583278
 40
0.0991086676
 40
0.1314752453
 40
0.1634863596
 40
0.1952044898
 40
0.2267072566
 40
0.2580515016
 40
0.3204006249
 40
0.3825220001
 40
0.5063575892
 40
0.6299877651
 40
0.7534675811
 40
0.8768143318
 40
1.0
 40
1.0
 40
1.0
 40
1.0
 10
121.6307295703
 20
174.5862788363
 30
0.0
 10
121.819037378
 20
174.6699482137
 30
0.0
 10
122.2094995514
 20
174.8049030309
 30
0.0
 10
122.8178133145
 20
174.9062340883
 30
0.0
 10
123.42953958
 20
174.8926389135
 30
0.0
 10
124.0204900434
 20
174.765315172
 30
0.0
 10
124.5766792495
 20
174.547596433
 30
0.0
 10
125.0903586561
 20
174.2545309963
 30
0.0
 10
125.5619608494
 20
173.9057324032
 30
0.0
 10
126.1400465275
 20
173.3879165913
 30
0.0
 10
126.7783036312
 20
172.6599699805
 30
0.0
 10
127.6588412318
 20
171.3973487862
 30
0.0
 10
128.5577364002
 20
169.6968931737
 30
0.0
 10
129.4155160457
 20
167.5639215373
 30
0.0
 10
130.1127919374
 20
165.3767753876
 30
0.0
 10
130.6740310585
 20
163.1546126752
 30
0.0
 10
130.9811031735
 20
161.6586903633
 30
0.0
 10
131.1147447613
 20
160.9077596151
 30
0.0
  0
SPLINE
  5
408
100
AcDbEntity
  8
0
100
AcDbSpline
 62
7
  6
CONTINUOUS
 70
0
 71
3
 72
11
 73
7
 74
0
 42
0.0000001
 43
0.0000001
 44
0.0000000001
 40
0.0
 40
0.0
 40
0.0
 40
0.0
 40
0.3093859077
 40
0.5873617594
 40
0.8188655801
 40
1.0
 40
1.0
 40
1.0
 40
1.0
 10
132.1040707702
 20
155.8662725532
 30
0.0
 10
132.5974210886
 20
156.0141035096
 30
0.0
 10
133.5214464074
 20
156.3404139732
 30
0.0
 10
134.7446268137
 20
156.9533617681
 30
0.0
 10
135.6772464053
 20
157.6356144005
 30
0.0
 10
136.1227512804
 20
158.1771102237
 30
0.0
 10
136.2606357529
 20
158.445264497
 30
0.0
  0
SPLINE
  5
409
100
AcDbEntity
  8
0
100
AcDbSpline
 62
7
  6
CONTINUOUS
 70
0
 71
3
 72
9
 73
5
 74
0
 42
0.0000001
 43
0.0000001
 44
0.0000000001
 40
0.0
 40
0.0
 40
0.0
 40
0.0
 40
0.4917635835
 40
1.0
 40
1.0
 40
1.0
 40
1.0
 10
136.2606419426
 20
158.4452765348
 30
0.0
 10
136.3954828571
 20
157.2053413551
 30
0.0
 10
136.5987048039
 20
154.6762313706
 30
0.0
 10
136.7107214259
 20
152.1418814658
 30
0.0
 10
136.7421998278
 20
150.8532408244
 30
0.0
  0
SPLINE
  5
40A
100
AcDbEntity
  8
0
100
AcDbSpline
 62
7
  6
CONTINUOUS
 70
0
 71
3
 72
9
 73
5
 74
0
 42
0.0000001
 43
0.0000001
 44
0.0000000001
 40
0.0
 40
0.0
 40
0.0
 40
0.0
 40
0.2526268867
 40
1.0
 40
1.0
 40
1.0
 40
1.0
 10
135.7691998995
 20
163.3147723075
 30
0.0
 10
135.8079605122
 20
162.9044581439
 30
0.0
 10
135.9635805561
 20
161.2804780064
 30
0.0
 10
136.1288181739
 20
159.6573984702
 30
0.0
 10
136.2606357529
 20
158.445264497
 30
0.0
  0
SPLINE
  5
40B
100
AcDbEntity
  8
0
100
AcDbSpline
 62
7
  6
CONTINUOUS
 70
0
 71
3
 72
9
 73
5
 74
0
 42
0.0000001
 43
0.0000001
 44
0.0000000001
 40
0.0
 40
0.0
 40
0.0
 40
0.0
 40
0.7502338256
 40
1.0
 40
1.0
 40
1.0
 40
1.0
 10
136.7421934802
 20
150.8532380599
 30
0.0
 10
136.7566784997
 20
149.9579983204
 30
0.0
 10
136.7651606083
 20
148.7644124262
 30
0.0
 10
136.7481536471
 20
147.5710696275
 30
0.0
 10
136.7420216978
 20
147.2730524754
 30
0.0
  0
SPLINE
  5
40C
100
AcDbEntity
  8
0
100
AcDbSpline
 62
7
  6
CONTINUOUS
 70
0
 71
3
 72
19
 73
15
 74
0
 42
0.0000001
 43
0.0000001
 44
0.0000000001
 40
0.0
 40
0.0
 40
0.0
 40
0.0
 40
0.0529446794
 40
0.1420610705
 40
0.2052305672
 40
0.2653400035
 40
0.3307548695
 40
0.3948175815
 40
0.461641245
 40
0.5347636984
 40
0.6069573602
 40
0.6831599855
 40
0.8379376406
 40
1.0
 40
1.0
 40
1.0
 40
1.0
 10
87.1644904689
 20
139.2029942167
 30
0.0
 10
87.1714956118
 20
139.2019981434
 30
0.0
 10
87.190057043
 20
139.1990948938
 30
0.0
 10
87.2196910561
 20
139.2047846291
 30
0.0
 10
87.2411257011
 20
139.1776743609
 30
0.0
 10
87.2667900384
 20
139.1919087098
 30
0.0
 10
87.2890820054
 20
139.2038863736
 30
0.0
 10
87.3158669174
 20
139.1983746852
 30
0.0
 10
87.3435222986
 20
139.195235169
 30
0.0
 10
87.3694076644
 20
139.2089860914
 30
0.0
 10
87.3998265229
 20
139.2113588558
 30
0.0
 10
87.4385700033
 20
139.1971540132
 30
0.0
 10
87.492022519
 20
139.2052436329
 30
0.0
 10
87.5340541869
 20
139.205600017
 30
0.0
 10
87.5556633961
 20
139.2070567266
 30
0.0
  0
SPLINE
  5
40D
100
AcDbEntity
  8
0
100
AcDbSpline
 62
7
  6
CONTINUOUS
 70
0
 71
3
 72
17
 73
13
 74
0
 42
0.0000001
 43
0.0000001
 44
0.0000000001
 40
0.0
 40
0.0
 40
0.0
 40
0.0
 40
0.1703377181
 40
0.252042089
 40
0.3301956147
 40
0.4825372043
 40
0.6266248645
 40
0.7423533714
 40
0.8632054833
 40
0.9319933873
 40
0.9721293224
 40
1.0
 40
1.0
 40
1.0
 40
1.0
 10
138.9504356157
 20
139.2070556387
 30
0.0
 10
138.9630085441
 20
139.2057333213
 30
0.0
 10
138.9817840385
 20
139.2051299924
 30
0.0
 10
139.0059429563
 20
139.2015182746
 30
0.0
 10
139.0292589593
 20
139.1984764814
 30
0.0
 10
139.0564016986
 20
139.2202904721
 30
0.0
 10
139.0826100206
 20
139.1886977451
 30
0.0
 10
139.1127874067
 20
139.2107684251
 30
0.0
 10
139.1308972544
 20
139.1738999052
 30
0.0
 10
139.1400897935
 20
139.1945797051
 30
0.0
 10
139.1455262899
 20
139.2046010181
 30
0.0
 10
139.154346345
 20
139.1997824159
 30
0.0
 10
139.1543455981
 20
139.2018509459
 30
0.0
  0
SPLINE
  5
40E
100
AcDbEntity
  8
0
100
AcDbSpline
 62
7
  6
CONTINUOUS
 70
0
 71
3
 72
23
 73
19
 74
0
 42
0.0000001
 43
0.0000001
 44
0.0000000001
 40
0.0
 40
0.0
 40
0.0
 40
0.0
 40
0.0528848168
 40
0.101833846
 40
0.1890066404
 40
0.267642387
 40
0.3414260026
 40
0.4113588783
 40
0.4776386707
 40
0.540827068
 40
0.6013475249
 40
0.7149132322
 40
0.7680680787
 40
0.8188478521
 40
0.8673026014
 40
0.9135541178
 40
0.9582020458
 40
1.0
 40
1.0
 40
1.0
 40
1.0
 10
136.7418860361
 20
139.3499749057
 30
0.0
 10
136.7811634289
 20
139.3511215843
 30
0.0
 10
136.8563472858
 20
139.3606909432
 30
0.0
 10
136.9952499346
 20
139.3844795371
 30
0.0
 10
137.1554540286
 20
139.3672571055
 30
0.0
 10
137.3319942772
 20
139.3448274763
 30
0.0
 10
137.4975957127
 20
139.3509488188
 30
0.0
 10
137.6533200177
 20
139.359702993
 30
0.0
 10
137.8015791334
 20
139.3568606751
 30
0.0
 10
137.9425713915
 20
139.3502215865
 30
0.0
 10
138.118850148
 20
139.3466678534
 30
0.0
 10
138.2875278345
 20
139.3382530147
 30
0.0
 10
138.4486647661
 20
139.3258329709
 30
0.0
 10
138.5613135878
 20
139.3142405835
 30
0.0
 10
138.6684424719
 20
139.2996055158
 30
0.0
 10
138.7699233433
 20
139.2780121276
 30
0.0
 10
138.86389137
 20
139.2485734284
 30
0.0
 10
138.9196011571
 20
139.2108465314
 30
0.0
 10
138.9504356792
 20
139.207140494
 30
0.0
  0
SPLINE
  5
40F
100
AcDbEntity
  8
0
100
AcDbSpline
 62
7
  6
CONTINUOUS
 70
0
 71
3
 72
11
 73
7
 74
0
 42
0.0000001
 43
0.0000001
 44
0.0000000001
 40
0.0
 40
0.0
 40
0.0
 40
0.0
 40
0.300391059
 40
0.5802887623
 40
0.8126829626
 40
1.0
 40
1.0
 40
1.0
 40
1.0
 10
136.742233709
 20
147.273046316
 30
0.0
 10
136.7229850095
 20
146.6610761754
 30
0.0
 10
136.6615126244
 20
145.4793097036
 30
0.0
 10
136.4651541112
 20
143.8326275976
 30
0.0
 10
136.1642362269
 20
142.4363242149
 30
0.0
 10
135.9017108538
 20
141.6207628159
 30
0.0
 10
135.769388183
 20
141.2626266846
 30
0.0
  0
SPLINE
  5
410
100
AcDbEntity
  8
0
100
AcDbSpline
 62
7
  6
CONTINUOUS
 70
0
 71
3
 72
14
 73
10
 74
0
 42
0.0000001
 43
0.0000001
 44
0.0000000001
 40
0.0
 40
0.0
 40
0.0
 40
0.0
 40
0.2833821675
 40
0.4205114267
 40
0.5530893854
 40
0.6797587527
 40
0.7989140573
 40
0.9058587575
 40
1.0
 40
1.0
 40
1.0
 40
1.0
 10
132.2059267626
 20
141.1413512973
 30
0.0
 10
132.3235469554
 20
140.951062883
 30
0.0
 10
132.5003526419
 20
140.6699876138
 30
0.0
 10
132.7475535843
 20
140.3100080123
 30
0.0
 10
132.9347162047
 20
140.0590931095
 30
0.0
 10
133.1272350922
 20
139.8304129414
 30
0.0
 10
133.3215593965
 20
139.6305321643
 30
0.0
 10
133.5263899117
 20
139.478160612
 30
0.0
 10
133.6811697355
 20
139.4281384876
 30
0.0
 10
133.7549095004
 20
139.4188992422
 30
0.0
  0
SPLINE
  5
411
100
AcDbEntity
  8
0
100
AcDbSpline
 62
7
  6
CONTINUOUS
 70
0
 71
3
 72
14
 73
10
 74
0
 42
0.0000001
 43
0.0000001
 44
0.0000000001
 40
0.0
 40
0.0
 40
0.0
 40
0.0
 40
0.114312978
 40
0.2175912424
 40
0.3224924036
 40
0.4363032431
 40
0.5607895038
 40
0.6965978021
 40
1.0
 40
1.0
 40
1.0
 40
1.0
 10
135.7693689268
 20
141.2628038882
 30
0.0
 10
135.7018047625
 20
141.1430791244
 30
0.0
 10
135.5385868261
 20
140.9304467459
 30
0.0
 10
135.1972415573
 20
140.7283229131
 30
0.0
 10
134.8113257931
 20
140.6553408678
 30
0.0
 10
134.3971053614
 20
140.6718724357
 30
0.0
 10
133.9529525486
 20
140.7473210614
 30
0.0
 10
133.2927329835
 20
140.9004486664
 30
0.0
 10
132.7775057296
 20
141.0211576387
 30
0.0
 10
132.4165610477
 20
141.0745553913
 30
0.0
  0
SPLINE
  5
412
100
AcDbEntity
  8
0
100
AcDbSpline
 62
7
  6
CONTINUOUS
 70
0
 71
3
 72
19
 73
15
 74
0
 42
0.0000001
 43
0.0000001
 44
0.0000000001
 40
0.0
 40
0.0
 40
0.0
 40
0.0
 40
0.0067301369
 40
0.0200409628
 40
0.0363032502
 40
0.0549213343
 40
0.0980628582
 40
0.1476268299
 40
0.2018963803
 40
0.2601341185
 40
0.3867341551
 40
0.5250946508
 40
0.6738803676
 40
1.0
 40
1.0
 40
1.0
 40
1.0
 10
139.1533090364
 20
218.8559452783
 30
0.0
 10
139.1522657365
 20
218.8578151865
 30
0.0
 10
139.1440879522
 20
218.8568042328
 30
0.0
 10
139.1340497135
 20
218.860447729
 30
0.0
 10
139.1184875613
 20
218.8628003531
 30
0.0
 10
139.0943093599
 20
218.867638274
 30
0.0
 10
139.059325356
 20
218.8737799545
 30
0.0
 10
139.0133494706
 20
218.8821064594
 30
0.0
 10
138.962576288
 20
218.891174077
 30
0.0
 10
138.8876750347
 20
218.9044592263
 30
0.0
 10
138.7863807542
 20
218.9221745545
 30
0.0
 10
138.6566414527
 20
218.9444482152
 30
0.0
 10
138.4642376565
 20
218.9768793308
 30
0.0
 10
138.3151238739
 20
219.0012852714
 30
0.0
 10
138.2126690892
 20
219.0176825006
 30
0.0
  0
SPLINE
  5
413
100
AcDbEntity
  8
0
100
AcDbSpline
 62
7
  6
CONTINUOUS
 70
0
 71
3
 72
9
 73
5
 74
0
 42
0.0000001
 43
0.0000001
 44
0.0000000001
 40
0.0
 40
0.0
 40
0.0
 40
0.0
 40
0.3208926471
 40
1.0
 40
1.0
 40
1.0
 40
1.0
 10
133.7548932463
 20
139.4190309172
 30
0.0
 10
133.9703715288
 20
139.4121117913
 30
0.0
 10
134.6418904065
 20
139.3913531095
 30
0.0
 10
135.3134805035
 20
139.3722631365
 30
0.0
 10
135.7696481223
 20
139.363424809
 30
0.0
  0
SPLINE
  5
414
100
AcDbEntity
  8
0
100
AcDbSpline
 62
7
  6
CONTINUOUS
 70
0
 71
3
 72
10
 73
6
 74
0
 42
0.0000001
 43
0.0000001
 44
0.0000000001
 40
0.0
 40
0.0
 40
0.0
 40
0.0
 40
0.2362365825
 40
0.6074590474
 40
1.0
 40
1.0
 40
1.0
 40
1.0
 10
132.205961547
 20
141.1413513086
 30
0.0
 10
132.1482698539
 20
141.0919394483
 30
0.0
 10
131.9948399128
 20
140.970585893
 30
0.0
 10
131.721024674
 20
140.8007224156
 30
0.0
 10
131.50235378
 20
140.6884708783
 30
0.0
 10
131.3879475136
 20
140.6351591741
 30
0.0
  0
SPLINE
  5
415
100
AcDbEntity
  8
0
100
AcDbSpline
 62
7
  6
CONTINUOUS
 70
0
 71
3
 72
11
 73
7
 74
0
 42
0.0000001
 43
0.0000001
 44
0.0000000001
 40
0.0
 40
0.0
 40
0.0
 40
0.0
 40
0.2662703807
 40
0.5205211207
 40
0.7629228381
 40
1.0
 40
1.0
 40
1.0
 40
1.0
 10
128.5310582161
 20
202.6451171796
 30
0.0
 10
128.5310572982
 20
202.7552445942
 30
0.0
 10
128.4860565365
 20
202.9731802129
 30
0.0
 10
128.3008019463
 20
203.2385626123
 30
0.0
 10
128.0395968385
 20
203.4069242555
 30
0.0
 10
127.839302384
 20
203.4452544834
 30
0.0
 10
127.7412490655
 20
203.4452724604
 30
0.0
  0
SPLINE
  5
416
100
AcDbEntity
  8
0
100
AcDbSpline
 62
7
  6
CONTINUOUS
 70
0
 71
3
 72
9
 73
5
 74
0
 42
0.0000001
 43
0.0000001
 44
0.0000000001
 40
0.0
 40
0.0
 40
0.0
 40
0.0
 40
0.5033452786
 40
1.0
 40
1.0
 40
1.0
 40
1.0
 10
96.5355804841
 20
160.9077596151
 30
0.0
 10
96.3646423341
 20
160.0517930911
 30
0.0
 10
95.9770965507
 20
158.3610265685
 30
0.0
 10
95.5641377452
 20
156.676883269
 30
0.0
 10
95.3663006179
 20
155.8386475995
 30
0.0
  0
SPLINE
  5
417
100
AcDbEntity
  8
0
100
AcDbSpline
 62
7
  6
CONTINUOUS
 70
0
 71
3
 72
9
 73
5
 74
0
 42
0.0000001
 43
0.0000001
 44
0.0000000001
 40
0.0
 40
0.0
 40
0.0
 40
0.0
 40
0.247311371
 40
1.0
 40
1.0
 40
1.0
 40
1.0
 10
132.1040707702
 20
155.8662725532
 30
0.0
 10
132.0153896844
 20
156.280427995
 30
0.0
 10
131.6645627237
 20
157.9567177532
 30
0.0
 10
131.3432555415
 20
159.6391269562
 30
0.0
 10
131.1147447613
 20
160.9077596151
 30
0.0
  0
SPLINE
  5
418
100
AcDbEntity
  8
0
100
AcDbSpline
 62
7
  6
CONTINUOUS
 70
0
 71
3
 72
13
 73
9
 74
0
 42
0.0000001
 43
0.0000001
 44
0.0000000001
 40
0.0
 40
0.0
 40
0.0
 40
0.0
 40
0.2497864925
 40
0.3748271787
 40
0.4998812365
 40
0.6249528461
 40
0.7500432003
 40
1.0
 40
1.0
 40
1.0
 40
1.0
 10
121.6307295703
 20
174.5862788363
 30
0.0
 10
120.426125054
 20
174.0623248044
 30
0.0
 10
118.5471628932
 20
173.418105505
 30
0.0
 10
115.9529595904
 20
172.9657175181
 30
0.0
 10
113.9787500788
 20
172.8500699219
 30
0.0
 10
112.0042821789
 20
172.9657405812
 30
0.0
 10
109.4088296424
 20
173.4182130511
 30
0.0
 10
107.5286606663
 20
174.0623894298
 30
0.0
 10
106.3230514314
 20
174.5862788363
 30
0.0
  0
SPLINE
  5
419
100
AcDbEntity
  8
0
100
AcDbSpline
 62
7
  6
CONTINUOUS
 70
0
 71
3
 72
22
 73
18
 74
0
 42
0.0000001
 43
0.0000001
 44
0.0000000001
 40
0.0
 40
0.0
 40
0.0
 40
0.0
 40
0.0331006079
 40
0.0660944663
 40
0.0988566939
 40
0.1313135875
 40
0.1634610797
 40
0.1953344516
 40
0.2269918183
 40
0.2584803356
 40
0.3210690595
 40
0.3833593103
 40
0.5073484277
 40
0.6309334264
 40
0.7542158894
 40
0.8772415736
 40
1.0
 40
1.0
 40
1.0
 40
1.0
 10
106.3230514314
 20
174.5862788363
 30
0.0
 10
106.1343137673
 20
174.6700198137
 30
0.0
 10
105.7423742107
 20
174.8051175267
 30
0.0
 10
105.1309721364
 20
174.9063060597
 30
0.0
 10
104.5146229389
 20
174.8924202763
 30
0.0
 10
103.9176595405
 20
174.7649543284
 30
0.0
 10
103.3540703617
 20
174.5475492131
 30
0.0
 10
102.8322115615
 20
174.2543957906
 30
0.0
 10
102.3516210885
 20
173.9057353257
 30
0.0
 10
101.760992823
 20
173.3882899264
 30
0.0
 10
101.1067830768
 20
172.6603305671
 30
0.0
 10
100.1993552775
 20
171.3984494613
 30
0.0
 10
99.2657327862
 20
169.6985554099
 30
0.0
 10
98.3654362555
 20
167.5651794733
 30
0.0
 10
97.6247800434
 20
165.3779605786
 30
0.0
 10
97.0208407684
 20
163.155396245
 30
0.0
 10
96.6841173203
 20
161.6589808752
 30
0.0
 10
96.5355804841
 20
160.9077596151
 30
0.0
  0
SPLINE
  5
41A
100
AcDbEntity
  8
0
100
AcDbSpline
 62
7
  6
CONTINUOUS
 70
0
 71
3
 72
14
 73
10
 74
0
 42
0.0000001
 43
0.0000001
 44
0.0000000001
 40
0.0
 40
0.0
 40
0.0
 40
0.0
 40
0.1316328398
 40
0.2619733468
 40
0.3896323294
 40
0.5143674052
 40
0.757911608
 40
0.8788879963
 40
1.0
 40
1.0
 40
1.0
 40
1.0
 10
100.3691958377
 20
121.2709299033
 30
0.0
 10
100.4507835373
 20
121.0835027506
 30
0.0
 10
100.6363827737
 20
120.7197370691
 30
0.0
 10
100.9921380376
 20
120.2272398053
 30
0.0
 10
101.4141697464
 20
119.8049912564
 30
0.0
 10
102.0390493463
 20
119.3505770515
 30
0.0
 10
102.7340726232
 20
119.0263702451
 30
0.0
 10
103.454311169
 20
118.8020564606
 30
0.0
 10
103.8219616291
 20
118.720036983
 30
0.0
 10
104.0074585567
 20
118.6889910822
 30
0.0
  0
SPLINE
  5
41B
100
AcDbEntity
  8
0
100
AcDbSpline
 62
7
  6
CONTINUOUS
 70
0
 71
3
 72
9
 73
5
 74
0
 42
0.0000001
 43
0.0000001
 44
0.0000000001
 40
0.0
 40
0.0
 40
0.0
 40
0.0
 40
0.2636373965
 40
1.0
 40
1.0
 40
1.0
 40
1.0
 10
104.0074742211
 20
118.6890904912
 30
0.0
 10
104.2056832878
 20
118.6544668662
 30
0.0
 10
104.9510201803
 20
118.4850891121
 30
0.0
 10
105.6663894497
 20
118.2061803753
 30
0.0
 10
106.1792831722
 20
117.9764362855
 30
0.0
  0
SPLINE
  5
41C
100
AcDbEntity
  8
0
100
AcDbSpline
 62
7
  6
CONTINUOUS
 70
0
 71
3
 72
17
 73
13
 74
0
 42
0.0000001
 43
0.0000001
 44
0.0000000001
 40
0.0
 40
0.0
 40
0.0
 40
0.0
 40
0.0606148142
 40
0.1218766827
 40
0.2466698409
 40
0.3739356045
 40
0.5023488577
 40
0.6304439824
 40
0.7567663384
 40
0.8800383553
 40
0.9403655775
 40
1.0
 40
1.0
 40
1.0
 40
1.0
 10
106.1792656621
 20
117.9763963777
 30
0.0
 10
106.4669760647
 20
117.8468962094
 30
0.0
 10
107.0671626557
 20
117.6341056817
 30
0.0
 10
108.3179781701
 20
117.3385810332
 30
0.0
 10
109.9396232193
 20
117.1344806017
 30
0.0
 10
111.9171987484
 20
117.021976587
 30
0.0
 10
113.915015448
 20
116.9895955005
 30
0.0
 10
115.9079599423
 20
117.0218757558
 30
0.0
 10
117.8709472952
 20
117.1343317205
 30
0.0
 10
119.4751512569
 20
117.3372319728
 30
0.0
 10
120.7070489515
 20
117.6348567189
 30
0.0
 10
121.297011319
 20
117.8468220769
 30
0.0
 10
121.5790287163
 20
117.9765125119
 30
0.0
  0
SPLINE
  5
41D
100
AcDbEntity
  8
0
100
AcDbSpline
 62
7
  6
CONTINUOUS
 70
0
 71
3
 72
10
 73
6
 74
0
 42
0.0000001
 43
0.0000001
 44
0.0000000001
 40
0.0
 40
0.0
 40
0.0
 40
0.0
 40
0.2521962653
 40
0.6281381948
 40
1.0
 40
1.0
 40
1.0
 40
1.0
 10
121.5790287163
 20
117.9765125119
 30
0.0
 10
121.7508705234
 20
118.0554267077
 30
0.0
 10
122.1829881269
 20
118.2430269223
 30
0.0
 10
122.8873149021
 20
118.5027860854
 30
0.0
 10
123.4329571507
 20
118.6386804439
 30
0.0
 10
123.7072008301
 20
118.6889890386
 30
0.0
  0
SPLINE
  5
41E
100
AcDbEntity
  8
0
100
AcDbSpline
 62
7
  6
CONTINUOUS
 70
0
 71
3
 72
13
 73
9
 74
0
 42
0.0000001
 43
0.0000001
 44
0.0000000001
 40
0.0
 40
0.0
 40
0.0
 40
0.0
 40
0.1161227915
 40
0.2390331389
 40
0.4969603542
 40
0.7564782115
 40
0.8813096078
 40
1.0
 40
1.0
 40
1.0
 40
1.0
 10
127.2767954042
 20
121.2709299033
 30
0.0
 10
126.2796460954
 20
121.6263922576
 30
0.0
 10
124.1868342029
 20
122.2484495654
 30
0.0
 10
119.7405127628
 20
123.141348615
 30
0.0
 10
113.893485656
 20
123.5745790504
 30
0.0
 10
108.0300483918
 20
123.1371655614
 30
0.0
 10
103.5271340448
 20
122.2459418768
 30
0.0
 10
101.3915541554
 20
121.6252597122
 30
0.0
 10
100.3691958377
 20
121.2709299033
 30
0.0
  0
SPLINE
  5
41F
100
AcDbEntity
  8
0
100
AcDbSpline
 62
7
  6
CONTINUOUS
 70
0
 71
3
 72
8
 73
4
 74
0
 42
0.0000001
 43
0.0000001
 44
0.0000000001
 40
0.0
 40
0.0
 40
0.0
 40
0.0
 40
1.0
 40
1.0
 40
1.0
 40
1.0
 10
113.8624422211
 20
101.8625012846
 30
0.0
 10
113.9908150855
 20
101.8650176544
 30
0.0
 10
114.1201816915
 20
101.8909258051
 30
0.0
 10
114.2407208875
 20
101.9351550564
 30
0.0
  0
SPLINE
  5
420
100
AcDbEntity
  8
0
100
AcDbSpline
 62
7
  6
CONTINUOUS
 70
0
 71
3
 72
14
 73
10
 74
0
 42
0.0000001
 43
0.0000001
 44
0.0000000001
 40
0.0
 40
0.0
 40
0.0
 40
0.0
 40
0.1163088744
 40
0.2343731647
 40
0.3546067285
 40
0.4774351512
 40
0.7334318496
 40
0.8668179891
 40
1.0
 40
1.0
 40
1.0
 40
1.0
 10
114.2407182378
 20
101.9351621621
 30
0.0
 10
114.8750102706
 20
102.1679017274
 30
0.0
 10
116.1195734804
 20
102.7344487046
 30
0.0
 10
117.8530679422
 20
103.8608928825
 30
0.0
 10
119.4276455824
 20
105.2583228265
 30
0.0
 10
121.3297491508
 20
107.4535319972
 30
0.0
 10
122.7836839226
 20
110.1108626751
 30
0.0
 10
123.5845431017
 20
113.0486988143
 30
0.0
 10
123.7813923029
 20
114.5892883628
 30
0.0
 10
123.841045419
 20
115.3606454245
 30
0.0
  0
SPLINE
  5
421
100
AcDbEntity
  8
0
100
AcDbSpline
 62
7
  6
CONTINUOUS
 70
0
 71
3
 72
11
 73
7
 74
0
 42
0.0000001
 43
0.0000001
 44
0.0000000001
 40
0.0
 40
0.0
 40
0.0
 40
0.0
 40
0.2312876332
 40
0.476496465
 40
0.7344627129
 40
1.0
 40
1.0
 40
1.0
 40
1.0
 10
123.8409988839
 20
115.3606213292
 30
0.0
 10
123.1747917739
 20
114.9342127417
 30
0.0
 10
121.6768154372
 20
114.2488472977
 30
0.0
 10
119.2311572166
 20
113.6449456315
 30
0.0
 10
116.6180423598
 20
113.3197480793
 30
0.0
 10
114.8268771266
 20
113.2521737357
 30
0.0
 10
113.9187618607
 20
113.2522274867
 30
0.0
  0
SPLINE
  5
422
100
AcDbEntity
  8
0
100
AcDbSpline
 62
7
  6
CONTINUOUS
 70
0
 71
3
 72
11
 73
7
 74
0
 42
0.0000001
 43
0.0000001
 44
0.0000000001
 40
0.0
 40
0.0
 40
0.0
 40
0.0
 40
0.2629333452
 40
0.5203049553
 40
0.766713295
 40
1.0
 40
1.0
 40
1.0
 40
1.0
 10
113.9187619278
 20
113.2522408674
 30
0.0
 10
113.0072960554
 20
113.2522948165
 30
0.0
 10
111.2028559876
 20
113.320593676
 30
0.0
 10
108.5607949868
 20
113.6464336379
 30
0.0
 10
106.0710984903
 20
114.2508250011
 30
0.0
 10
104.5363770247
 20
114.9341238721
 30
0.0
 10
103.8492986806
 20
115.3606339935
 30
0.0
  0
SPLINE
  5
423
100
AcDbEntity
  8
0
100
AcDbSpline
 62
7
  6
CONTINUOUS
 70
0
 71
3
 72
14
 73
10
 74
0
 42
0.0000001
 43
0.0000001
 44
0.0000000001
 40
0.0
 40
0.0
 40
0.0
 40
0.0
 40
0.1327941236
 40
0.2658430227
 40
0.5219150038
 40
0.6450939796
 40
0.765667683
 40
0.8838953182
 40
1.0
 40
1.0
 40
1.0
 40
1.0
 10
103.8492468053
 20
115.3606492158
 30
0.0
 10
103.901100654
 20
114.5894898624
 30
0.0
 10
104.0854664828
 20
113.0482304321
 30
0.0
 10
104.8811163495
 20
110.105707436
 30
0.0
 10
106.3548897364
 20
107.4498236049
 30
0.0
 10
108.2760955216
 20
105.258375221
 30
0.0
 10
109.8633220541
 20
103.8617809129
 30
0.0
 10
111.6038288347
 20
102.7360240186
 30
0.0
 10
112.8503903634
 20
102.1684079071
 30
0.0
 10
113.4846247527
 20
101.9351638673
 30
0.0
  0
SPLINE
  5
424
100
AcDbEntity
  8
0
100
AcDbSpline
 62
7
  6
CONTINUOUS
 70
0
 71
3
 72
8
 73
4
 74
0
 42
0.0000001
 43
0.0000001
 44
0.0000000001
 40
0.0
 40
0.0
 40
0.0
 40
0.0
 40
1.0
 40
1.0
 40
1.0
 40
1.0
 10
113.4846213357
 20
101.9351549529
 30
0.0
 10
113.6049874908
 20
101.8908894386
 30
0.0
 10
113.7342190657
 20
101.8650159864
 30
0.0
 10
113.8624420086
 20
101.8625012357
 30
0.0
  0
SPLINE
  5
425
100
AcDbEntity
  8
0
100
AcDbSpline
 62
7
  6
CONTINUOUS
 70
0
 71
3
 72
9
 73
5
 74
0
 42
0.0000001
 43
0.0000001
 44
0.0000000001
 40
0.0
 40
0.0
 40
0.0
 40
0.0
 40
0.5023094269
 40
1.0
 40
1.0
 40
1.0
 40
1.0
 10
103.8493188606
 20
115.3606418704
 30
0.0
 10
103.7398769528
 20
115.5904744172
 30
0.0
 10
103.5114048174
 20
116.0424406539
 30
0.0
 10
103.2247910083
 20
116.4665726405
 30
0.0
 10
103.0525848572
 20
116.6508532389
 30
0.0
  0
SPLINE
  5
426
100
AcDbEntity
  8
0
100
AcDbSpline
 62
7
  6
CONTINUOUS
 70
0
 71
3
 72
21
 73
17
 74
0
 42
0.0000001
 43
0.0000001
 44
0.0000000001
 40
0.0
 40
0.0
 40
0.0
 40
0.0
 40
0.0980581115
 40
0.183342444
 40
0.2619346035
 40
0.3355839135
 40
0.4054035581
 40
0.4717587504
 40
0.5351666659
 40
0.5959925491
 40
0.7105039286
 40
0.8156020481
 40
0.8649090259
 40
0.9118977648
 40
0.9564663997
 40
1.0
 40
1.0
 40
1.0
 40
1.0
 10
136.7300976969
 20
139.0658830975
 30
0.0
 10
136.8033783845
 20
139.0675267786
 30
0.0
 10
136.9391137628
 20
139.097998645
 30
0.0
 10
137.1351768752
 20
139.0749053542
 30
0.0
 10
137.3108647997
 20
139.0498233808
 30
0.0
 10
137.4773298982
 20
139.0508717196
 30
0.0
 10
137.6339274467
 20
139.0577463453
 30
0.0
 10
137.7831450009
 20
139.0604909572
 30
0.0
 10
137.925601645
 20
139.0584016957
 30
0.0
 10
138.1040767741
 20
139.062192034
 30
0.0
 10
138.3132891617
 20
139.0744763379
 30
0.0
 10
138.5141220946
 20
139.0879593686
 30
0.0
 10
138.6627661422
 20
139.1117798004
 30
0.0
 10
138.7661780069
 20
139.133168702
 30
0.0
 10
138.8624693442
 20
139.1610200983
 30
0.0
 10
138.9259039262
 20
139.1856744212
 30
0.0
 10
138.9504356144
 20
139.2070556387
 30
0.0
  0
SPLINE
  5
427
100
AcDbEntity
  8
0
100
AcDbSpline
 62
7
  6
CONTINUOUS
 70
0
 71
3
 72
13
 73
9
 74
0
 42
0.0000001
 43
0.0000001
 44
0.0000000001
 40
0.0
 40
0.0
 40
0.0
 40
0.0
 40
0.252808975
 40
0.3865360171
 40
0.5201527797
 40
0.6504031498
 40
0.7749539359
 40
1.0
 40
1.0
 40
1.0
 40
1.0
 10
127.0767073784
 20
31.1058869674
 30
0.0
 10
127.0670498918
 20
30.4912759988
 30
0.0
 10
126.8993656182
 20
29.5438135422
 30
0.0
 10
126.3655264381
 20
28.3919022704
 30
0.0
 10
125.8059421856
 20
27.5958697497
 30
0.0
 10
125.1112514556
 20
26.9457677768
 30
0.0
 10
124.1141215407
 20
26.32909489
 30
0.0
 10
123.2564450758
 20
26.1205337558
 30
0.0
 10
122.7093926814
 20
26.1085645763
 30
0.0
  0
SPLINE
  5
428
100
AcDbEntity
  8
0
100
AcDbSpline
 62
7
  6
CONTINUOUS
 70
0
 71
3
 72
19
 73
15
 74
0
 42
0.0000001
 43
0.0000001
 44
0.0000000001
 40
0.0
 40
0.0
 40
0.0
 40
0.0
 40
0.177771238
 40
0.3592837945
 40
0.534629221
 40
0.6925016104
 40
0.7613847472
 40
0.8223738439
 40
0.8748564933
 40
0.9182213625
 40
0.9520393564
 40
0.9766049136
 40
0.9924056967
 40
1.0
 40
1.0
 40
1.0
 40
1.0
 10
114.4884090993
 20
31.3014379701
 30
0.0
 10
114.48841157
 20
31.0050375211
 30
0.0
 10
114.48717471
 20
30.4059981513
 30
0.0
 10
114.4815528288
 20
29.5146174108
 30
0.0
 10
114.4717012221
 20
28.6564544776
 30
0.0
 10
114.4600449893
 20
27.986117006
 30
0.0
 10
114.4483493878
 20
27.5065023645
 30
0.0
 10
114.4392983387
 20
27.2025795999
 30
0.0
 10
114.4296765914
 20
26.9412963925
 30
0.0
 10
114.4199534757
 20
26.7252123038
 30
0.0
 10
114.4095154009
 20
26.556146597
 30
0.0
 10
114.4004166506
 20
26.4321713475
 30
0.0
 10
114.3892573079
 20
26.3540521824
 30
0.0
 10
114.3836637145
 20
26.3140314817
 30
0.0
 10
114.3770645696
 20
26.3032250143
 30
0.0
  0
SPLINE
  5
429
100
AcDbEntity
  8
0
100
AcDbSpline
 62
7
  6
CONTINUOUS
 70
0
 71
3
 72
13
 73
9
 74
0
 42
0.0000001
 43
0.0000001
 44
0.0000000001
 40
0.0
 40
0.0
 40
0.0
 40
0.0
 40
0.2243500413
 40
0.3486765904
 40
0.4788236173
 40
0.6124944037
 40
0.7464236584
 40
1.0
 40
1.0
 40
1.0
 40
1.0
 10
122.4634093578
 20
26.1251411429
 30
0.0
 10
123.0087721601
 20
26.1370734606
 30
0.0
 10
123.8641420536
 20
26.3444581072
 30
0.0
 10
124.8600286551
 20
26.9583810614
 30
0.0
 10
125.5552137714
 20
27.6069768737
 30
0.0
 10
126.1161571935
 20
28.4025287607
 30
0.0
 10
126.6524572839
 20
29.5560759121
 30
0.0
 10
126.8210372238
 20
30.5059843594
 30
0.0
 10
126.8307240548
 20
31.1224635339
 30
0.0
  0
SPLINE
  5
42A
100
AcDbEntity
  8
0
100
AcDbSpline
 62
7
  6
CONTINUOUS
 70
0
 71
3
 72
16
 73
12
 74
0
 42
0.0000001
 43
0.0000001
 44
0.0000000001
 40
0.0
 40
0.0
 40
0.0
 40
0.0
 40
0.2201460978
 40
0.4143627227
 40
0.581663259
 40
0.721398748
 40
0.8330589153
 40
0.916306638
 40
0.9712112473
 40
0.9885274366
 40
1.0
 40
1.0
 40
1.0
 40
1.0
 10
104.5473305226
 20
26.1085646383
 30
0.0
 10
104.1104649361
 20
26.0813632621
 30
0.0
 10
103.2883927644
 20
26.0266618851
 30
0.0
 10
102.1353697482
 20
25.9368482436
 30
0.0
 10
101.1428814781
 20
25.8448455335
 30
0.0
 10
100.3157938935
 20
25.7511657999
 30
0.0
 10
99.6564675014
 20
25.6571766774
 30
0.0
 10
99.1696407284
 20
25.5629707961
 30
0.0
 10
98.8691727727
 20
25.4796691587
 30
0.0
 10
98.7208571834
 20
25.405152761
 30
0.0
 10
98.6762761128
 20
25.3651839169
 30
0.0
 10
98.6661041434
 20
25.3447668527
 30
0.0
  0
SPLINE
  5
42B
100
AcDbEntity
  8
0
100
AcDbSpline
 62
7
  6
CONTINUOUS
 70
0
 71
3
 72
10
 73
6
 74
0
 42
0.0000001
 43
0.0000001
 44
0.0000000001
 40
0.0
 40
0.0
 40
0.0
 40
0.0
 40
0.5721699047
 40
0.8124963302
 40
1.0
 40
1.0
 40
1.0
 40
1.0
 10
113.1160909476
 20
26.3032250142
 30
0.0
 10
111.5320470097
 20
26.3032184141
 30
0.0
 10
109.2824874178
 20
26.2840221449
 30
0.0
 10
106.5149942132
 20
26.2090843172
 30
0.0
 10
105.3315244608
 20
26.1573865744
 30
0.0
 10
104.8134263186
 20
26.1251327118
 30
0.0
  0
SPLINE
  5
42C
100
AcDbEntity
  8
0
100
AcDbSpline
 62
7
  6
CONTINUOUS
 70
0
 71
3
 72
10
 73
6
 74
0
 42
0.0000001
 43
0.0000001
 44
0.0000000001
 40
0.0
 40
0.0
 40
0.0
 40
0.0
 40
0.1814127472
 40
0.4196580909
 40
1.0
 40
1.0
 40
1.0
 40
1.0
 10
122.4635358263
 20
26.1251326203
 30
0.0
 10
121.9755484134
 20
26.1580122538
 30
0.0
 10
120.8451258129
 20
26.2096844164
 30
0.0
 10
118.1501360489
 20
26.2849032985
 30
0.0
 10
115.9430002358
 20
26.303218493
 30
0.0
 10
114.3783822153
 20
26.3032250142
 30
0.0
  0
SPLINE
  5
42D
100
AcDbEntity
  8
0
100
AcDbSpline
 62
7
  6
CONTINUOUS
 70
0
 71
3
 72
20
 73
16
 74
0
 42
0.0000001
 43
0.0000001
 44
0.0000000001
 40
0.0
 40
0.0
 40
0.0
 40
0.0
 40
0.0101791803
 40
0.0215231178
 40
0.0388589216
 40
0.06376688
 40
0.0967621367
 40
0.1380099726
 40
0.1875553523
 40
0.2453972108
 40
0.3115088044
 40
0.3858392359
 40
0.5589039227
 40
0.7639667726
 40
1.0
 40
1.0
 40
1.0
 40
1.0
 10
127.6577881803
 20
25.3447668527
 30
0.0
 10
127.6679456043
 20
25.3588161136
 30
0.0
 10
127.6812285439
 20
25.3986839272
 30
0.0
 10
127.637485442
 20
25.4564289919
 30
0.0
 10
127.5594503098
 20
25.5026846627
 30
0.0
 10
127.4400570969
 20
25.5512999006
 30
0.0
 10
127.278139723
 20
25.5991433829
 30
0.0
 10
127.0728041409
 20
25.6475369533
 30
0.0
 10
126.8242562741
 20
25.6957054731
 30
0.0
 10
126.532654959
 20
25.7437150598
 30
0.0
 10
126.1983143796
 20
25.7913895627
 30
0.0
 10
125.6685006855
 20
25.8578392342
 30
0.0
 10
124.9019804822
 20
25.937733517
 30
0.0
 10
123.8597929657
 20
26.0273297525
 30
0.0
 10
123.1104823959
 20
26.0815356316
 30
0.0
 10
122.709395561
 20
26.1085646393
 30
0.0
  0
SPLINE
  5
42E
100
AcDbEntity
  8
0
100
AcDbSpline
 62
7
  6
CONTINUOUS
 70
0
 71
3
 72
8
 73
4
 74
0
 42
0.0000001
 43
0.0000001
 44
0.0000000001
 40
0.0
 40
0.0
 40
0.0
 40
0.0
 40
1.0
 40
1.0
 40
1.0
 40
1.0
 10
127.0761319301
 20
100.1419230223
 30
0.0
 10
127.0036063231
 20
100.119566802
 30
0.0
 10
126.9322550388
 20
100.0935363226
 30
0.0
 10
126.8598740538
 20
100.0707162158
 30
0.0
  0
SPLINE
  5
42F
100
AcDbEntity
  8
0
100
AcDbSpline
 62
7
  6
CONTINUOUS
 70
0
 71
3
 72
18
 73
14
 74
0
 42
0.0000001
 43
0.0000001
 44
0.0000000001
 40
0.0
 40
0.0
 40
0.0
 40
0.0
 40
0.2271365847
 40
0.4261322439
 40
0.5960651709
 40
0.7363474675
 40
0.8465502385
 40
0.8902932796
 40
0.9264552394
 40
0.9550806289
 40
0.9763473662
 40
0.9907656123
 40
1.0
 40
1.0
 40
1.0
 40
1.0
 10
127.076709115
 20
31.1060115841
 30
0.0
 10
127.5063422666
 20
31.0802813055
 30
0.0
 10
128.3121872959
 20
31.0286419482
 30
0.0
 10
129.4385045946
 20
30.9437201767
 30
0.0
 10
130.3995542019
 20
30.8568492286
 30
0.0
 10
131.1913443806
 20
30.7685171487
 30
0.0
 10
131.7434991473
 20
30.6898225632
 30
0.0
 10
132.0976637434
 20
30.6235784029
 30
0.0
 10
132.298171899
 20
30.5775484954
 30
0.0
 10
132.4549584243
 20
30.5322500717
 30
0.0
 10
132.5681098177
 20
30.4858701361
 30
0.0
 10
132.6415868271
 20
30.4426017373
 30
0.0
 10
132.6678719234
 20
30.4005802514
 30
0.0
 10
132.6680659566
 20
30.3830830116
 30
0.0
  0
SPLINE
  5
430
100
AcDbEntity
  8
0
100
AcDbSpline
 62
7
  6
CONTINUOUS
 70
0
 71
3
 72
9
 73
5
 74
0
 42
0.0000001
 43
0.0000001
 44
0.0000000001
 40
0.0
 40
0.0
 40
0.0
 40
0.0
 40
0.4974238117
 40
1.0
 40
1.0
 40
1.0
 40
1.0
 10
127.391760674
 20
100.2526143817
 30
0.0
 10
127.3419918763
 20
100.2361205214
 30
0.0
 10
127.2457997347
 20
100.1923026969
 30
0.0
 10
127.1446812966
 20
100.1618248036
 30
0.0
 10
127.0936750075
 20
100.1475215657
 30
0.0
  0
SPLINE
  5
431
100
AcDbEntity
  8
0
100
AcDbSpline
 62
7
  6
CONTINUOUS
 70
0
 71
3
 72
8
 73
4
 74
0
 42
0.0000001
 43
0.0000001
 44
0.0000000001
 40
0.0
 40
0.0
 40
0.0
 40
0.0
 40
1.0
 40
1.0
 40
1.0
 40
1.0
 10
136.7414721812
 20
139.3499040115
 30
0.0
 10
136.742937138
 20
139.255165771
 30
0.0
 10
136.7410217999
 20
139.1600009594
 30
0.0
 10
136.7301011178
 20
139.0658828473
 30
0.0
  0
SPLINE
  5
432
100
AcDbEntity
  8
0
100
AcDbSpline
 62
7
  6
CONTINUOUS
 70
0
 71
3
 72
9
 73
5
 74
0
 42
0.0000001
 43
0.0000001
 44
0.0000000001
 40
0.0
 40
0.0
 40
0.0
 40
0.0
 40
0.5035059757
 40
1.0
 40
1.0
 40
1.0
 40
1.0
 10
136.7289475086
 20
139.0661664356
 30
0.0
 10
136.4422577086
 20
135.9722976001
 30
0.0
 10
135.3833634923
 20
129.8631968902
 30
0.0
 10
133.3742315634
 20
123.9975620186
 30
0.0
 10
132.1520436087
 20
121.1880335396
 30
0.0
  0
SPLINE
  5
433
100
AcDbEntity
  8
0
100
AcDbSpline
 62
7
  6
CONTINUOUS
 70
0
 71
3
 72
9
 73
5
 74
0
 42
0.0000001
 43
0.0000001
 44
0.0000000001
 40
0.0
 40
0.0
 40
0.0
 40
0.0
 40
0.4948797511
 40
1.0
 40
1.0
 40
1.0
 40
1.0
 10
127.0842801703
 20
100.3702187988
 30
0.0
 10
127.1367158736
 20
100.3558769317
 30
0.0
 10
127.2414373257
 20
100.3216544014
 30
0.0
 10
127.3409910474
 20
100.2749873091
 30
0.0
 10
127.3917720114
 20
100.2526254166
 30
0.0
  0
SPLINE
  5
434
100
AcDbEntity
  8
0
100
AcDbSpline
 62
7
  6
CONTINUOUS
 70
0
 71
3
 72
9
 73
5
 74
0
 42
0.0000001
 43
0.0000001
 44
0.0000000001
 40
0.0
 40
0.0
 40
0.0
 40
0.0
 40
0.4967805466
 40
1.0
 40
1.0
 40
1.0
 40
1.0
 10
132.1514784575
 20
121.188354809
 30
0.0
 10
130.7311571917
 20
117.9229828358
 30
0.0
 10
128.4384431028
 20
111.0903176872
 30
0.0
 10
127.3320660195
 20
103.9687952043
 30
0.0
 10
127.0838276409
 20
100.3702994865
 30
0.0
  0
SPLINE
  5
435
100
AcDbEntity
  8
0
100
AcDbSpline
 62
7
  6
CONTINUOUS
 70
0
 71
3
 72
23
 73
19
 74
0
 42
0.0000001
 43
0.0000001
 44
0.0000000001
 40
0.0
 40
0.0
 40
0.0
 40
0.0
 40
0.0189728788
 40
0.0391051744
 40
0.0603585696
 40
0.0826605501
 40
0.1301650129
 40
0.1813921126
 40
0.2361851634
 40
0.2943089722
 40
0.3555331266
 40
0.4196124647
 40
0.4862664538
 40
0.5552021986
 40
0.6261414759
 40
0.6987830699
 40
0.84789656
 40
1.0
 40
1.0
 40
1.0
 40
1.0
 10
126.8221893648
 20
100.4580239553
 30
0.0
 10
126.7446528281
 20
100.4667856458
 30
0.0
 10
126.5855368517
 20
100.4906344611
 30
0.0
 10
126.3376642119
 20
100.5086366168
 30
0.0
 10
126.0756355413
 20
100.5090834273
 30
0.0
 10
125.7012447426
 20
100.500232085
 30
0.0
 10
125.2033952363
 20
100.5016464954
 30
0.0
 10
124.572082809
 20
100.5113673472
 30
0.0
 10
123.8970472671
 20
100.5192214959
 30
0.0
 10
123.1809655208
 20
100.5327123841
 30
0.0
 10
122.4265619459
 20
100.5336903631
 30
0.0
 10
121.6371100938
 20
100.5374699418
 30
0.0
 10
120.815942809
 20
100.5431985189
 30
0.0
 10
119.9665440362
 20
100.5421637084
 30
0.0
 10
119.0925262365
 20
100.5413636214
 30
0.0
 10
117.8887571378
 20
100.5396004372
 30
0.0
 10
116.3512176549
 20
100.5281829028
 30
0.0
 10
115.1124561086
 20
100.5164630655
 30
0.0
 10
114.4869218637
 20
100.5110350501
 30
0.0
  0
SPLINE
  5
436
100
AcDbEntity
  8
0
100
AcDbSpline
 62
7
  6
CONTINUOUS
 70
0
 71
3
 72
8
 73
4
 74
0
 42
0.0000001
 43
0.0000001
 44
0.0000000001
 40
0.0
 40
0.0
 40
0.0
 40
0.0
 40
1.0
 40
1.0
 40
1.0
 40
1.0
 10
114.4858695138
 20
100.0017660787
 30
0.0
 10
114.4883294688
 20
100.1715049476
 30
0.0
 10
114.4871695272
 20
100.3412785591
 30
0.0
 10
114.486921857
 20
100.5110350719
 30
0.0
  0
LINE
  5
437
100
AcDbEntity
  8
0
100
AcDbLine
 62
7
  6
CONTINUOUS
 10
113.8580047021
 20
100.0095802559
 11
113.859411892
 21
100.5032996147
  0
SPLINE
  5
438
100
AcDbEntity
  8
0
100
AcDbSpline
 62
7
  6
CONTINUOUS
 70
0
 71
3
 72
8
 73
4
 74
0
 42
0.0000001
 43
0.0000001
 44
0.0000000001
 40
0.0
 40
0.0
 40
0.0
 40
0.0
 40
1.0
 40
1.0
 40
1.0
 40
1.0
 10
113.228170826
 20
100.0017504309
 30
0.0
 10
113.2286090292
 20
100.1715091465
 30
0.0
 10
113.2291968979
 20
100.3412675428
 30
0.0
 10
113.2299356121
 20
100.5110252167
 30
0.0
  0
SPLINE
  5
439
100
AcDbEntity
  8
0
100
AcDbSpline
 62
7
  6
CONTINUOUS
 70
0
 71
3
 72
8
 73
4
 74
0
 42
0.0000001
 43
0.0000001
 44
0.0000000001
 40
0.0
 40
0.0
 40
0.0
 40
0.0
 40
1.0
 40
1.0
 40
1.0
 40
1.0
 10
100.3027814457
 20
100.3782444017
 30
0.0
 10
100.3827782072
 20
100.404347045
 30
0.0
 10
100.4625443555
 20
100.4312742927
 30
0.0
 10
100.5433370877
 20
100.4547979884
 30
0.0
  0
SPLINE
  5
43A
100
AcDbEntity
  8
0
100
AcDbSpline
 62
7
  6
CONTINUOUS
 70
0
 71
3
 72
9
 73
5
 74
0
 42
0.0000001
 43
0.0000001
 44
0.0000000001
 40
0.0
 40
0.0
 40
0.0
 40
0.0
 40
0.4969154751
 40
1.0
 40
1.0
 40
1.0
 40
1.0
 10
95.1487357356
 20
121.1889404845
 30
0.0
 10
96.5800464238
 20
117.9244522699
 30
0.0
 10
98.8946105692
 20
111.0935310859
 30
0.0
 10
100.0217812334
 20
103.9697955173
 30
0.0
 10
100.2796792336
 20
100.3702884849
 30
0.0
  0
SPLINE
  5
43B
100
AcDbEntity
  8
0
100
AcDbSpline
 62
7
  6
CONTINUOUS
 70
0
 71
3
 72
8
 73
4
 74
0
 42
0.0000001
 43
0.0000001
 44
0.0000000001
 40
0.0
 40
0.0
 40
0.0
 40
0.0
 40
1.0
 40
1.0
 40
1.0
 40
1.0
 10
126.8408445182
 20
100.45479799
 30
0.0
 10
126.9153828084
 20
100.4312387219
 30
0.0
 10
126.9888216629
 20
100.4043222184
 30
0.0
 10
127.0625165968
 20
100.3782444016
 30
0.0
  0
SPLINE
  5
43C
100
AcDbEntity
  8
0
100
AcDbSpline
 62
7
  6
CONTINUOUS
 70
0
 71
3
 72
9
 73
5
 74
0
 42
0.0000001
 43
0.0000001
 44
0.0000000001
 40
0.0
 40
0.0
 40
0.0
 40
0.0
 40
0.4977308421
 40
1.0
 40
1.0
 40
1.0
 40
1.0
 10
131.5784564342
 20
121.4039355307
 30
0.0
 10
130.2125642525
 20
118.0989241704
 30
0.0
 10
128.0332189848
 20
111.2122580209
 30
0.0
 10
127.0354864851
 20
104.0582839897
 30
0.0
 10
126.840628286
 20
100.4548035573
 30
0.0
  0
SPLINE
  5
43D
100
AcDbEntity
  8
0
100
AcDbSpline
 62
7
  6
CONTINUOUS
 70
0
 71
3
 72
9
 73
5
 74
0
 42
0.0000001
 43
0.0000001
 44
0.0000000001
 40
0.0
 40
0.0
 40
0.0
 40
0.0
 40
0.5026697027
 40
1.0
 40
1.0
 40
1.0
 40
1.0
 10
135.7580940813
 20
139.0549623746
 30
0.0
 10
135.5322679341
 20
136.0143076682
 30
0.0
 10
134.6003741576
 20
129.9915949095
 30
0.0
 10
132.730792218
 20
124.1911147808
 30
0.0
 10
131.5785290733
 20
121.4032089761
 30
0.0
  0
SPLINE
  5
43E
100
AcDbEntity
  8
0
100
AcDbSpline
 62
7
  6
CONTINUOUS
 70
0
 71
3
 72
10
 73
6
 74
0
 42
0.0000001
 43
0.0000001
 44
0.0000000001
 40
0.0
 40
0.0
 40
0.0
 40
0.0
 40
0.2503765754
 40
0.6247342015
 40
1.0
 40
1.0
 40
1.0
 40
1.0
 10
136.7301011178
 20
139.0658828473
 30
0.0
 10
136.6490271039
 20
139.0624105355
 30
0.0
 10
136.4465989368
 20
139.054677232
 30
0.0
 10
136.1225129076
 20
139.0660213135
 30
0.0
 10
135.8795079423
 20
139.0601007908
 30
0.0
 10
135.7579910545
 20
139.0549600564
 30
0.0
  0
SPLINE
  5
43F
100
AcDbEntity
  8
0
100
AcDbSpline
 62
7
  6
CONTINUOUS
 70
0
 71
3
 72
16
 73
12
 74
0
 42
0.0000001
 43
0.0000001
 44
0.0000000001
 40
0.0
 40
0.0
 40
0.0
 40
0.0
 40
0.0317539635
 40
0.0681766047
 40
0.1557415405
 40
0.2624658834
 40
0.3867631018
 40
0.5261416491
 40
0.6774156731
 40
0.8368424202
 40
1.0
 40
1.0
 40
1.0
 40
1.0
 10
91.65103442
 20
207.4432338103
 30
0.0
 10
91.780171639
 20
207.330419811
 30
0.0
 10
92.0780476136
 20
207.111682346
 30
0.0
 10
92.8086050088
 20
206.6930582886
 30
0.0
 10
93.9616073372
 20
206.2099097958
 30
0.0
 10
95.610953667
 20
205.7144316168
 30
0.0
 10
97.566398552
 20
205.2862171373
 30
0.0
 10
99.7806738337
 20
204.936058437
 30
0.0
 10
102.1983273891
 20
204.6778564509
 30
0.0
 10
104.7528943677
 20
204.5183104312
 30
0.0
 10
106.4951425386
 20
204.4806297525
 30
0.0
 10
107.3762054937
 20
204.4827809359
 30
0.0
  0
SPLINE
  5
440
100
AcDbEntity
  8
0
100
AcDbSpline
 62
7
  6
CONTINUOUS
 70
0
 71
3
 72
9
 73
5
 74
0
 42
0.0000001
 43
0.0000001
 44
0.0000000001
 40
0.0
 40
0.0
 40
0.0
 40
0.0
 40
0.487645418
 40
1.0
 40
1.0
 40
1.0
 40
1.0
 10
103.3634737904
 20
215.9304447639
 30
0.0
 10
102.6844954521
 20
215.8392263589
 30
0.0
 10
101.3028316175
 20
215.5653177284
 30
0.0
 10
99.9630338162
 20
215.1293291597
 30
0.0
 10
99.294186233
 20
214.863354034
 30
0.0
  0
SPLINE
  5
441
100
AcDbEntity
  8
0
100
AcDbSpline
 62
7
  6
CONTINUOUS
 70
0
 71
3
 72
14
 73
10
 74
0
 42
0.0000001
 43
0.0000001
 44
0.0000000001
 40
0.0
 40
0.0
 40
0.0
 40
0.0
 40
0.0758294611
 40
0.1609914081
 40
0.2599001461
 40
0.3747298656
 40
0.5063493848
 40
0.6548300615
 40
1.0
 40
1.0
 40
1.0
 40
1.0
 10
97.6150401936
 20
228.5508567172
 30
0.0
 10
97.7373320313
 20
228.5660563673
 30
0.0
 10
98.0037518038
 20
228.5521002148
 30
0.0
 10
98.4058699077
 20
228.4106335957
 30
0.0
 10
98.8230494871
 20
228.1568266101
 30
0.0
 10
99.2537413261
 20
227.794494284
 30
0.0
 10
99.6946871878
 20
227.3265882526
 30
0.0
 10
100.3218026185
 20
226.5257227135
 30
0.0
 10
100.7424612399
 20
225.8394217655
 30
0.0
 10
101.0162256062
 20
225.3498159478
 30
0.0
  0
SPLINE
  5
442
100
AcDbEntity
  8
0
100
AcDbSpline
 62
7
  6
CONTINUOUS
 70
0
 71
3
 72
14
 73
10
 74
0
 42
0.0000001
 43
0.0000001
 44
0.0000000001
 40
0.0
 40
0.0
 40
0.0
 40
0.0
 40
0.3569926639
 40
0.5087007153
 40
0.6415535985
 40
0.7554679571
 40
0.851207687
 40
0.9310242465
 40
1.0
 40
1.0
 40
1.0
 40
1.0
 10
126.2161545015
 20
225.3498155466
 30
0.0
 10
126.4647607579
 20
225.8346202548
 30
0.0
 10
126.8434884772
 20
226.5147659502
 30
0.0
 10
127.4067936307
 20
227.3166555277
 30
0.0
 10
127.7978178011
 20
227.7836247755
 30
0.0
 10
128.176191484
 20
228.1462606816
 30
0.0
 10
128.5392482165
 20
228.4020250271
 30
0.0
 10
128.886899087
 20
228.5483212462
 30
0.0
 10
129.1192323986
 20
228.5661441077
 30
0.0
 10
129.2235883442
 20
228.5523124116
 30
0.0
  0
SPLINE
  5
443
100
AcDbEntity
  8
0
100
AcDbSpline
 62
7
  6
CONTINUOUS
 70
0
 71
3
 72
13
 73
9
 74
0
 42
0.0000001
 43
0.0000001
 44
0.0000000001
 40
0.0
 40
0.0
 40
0.0
 40
0.0
 40
0.2396982903
 40
0.3674596886
 40
0.4976667022
 40
0.628247278
 40
0.7570406026
 40
1.0
 40
1.0
 40
1.0
 40
1.0
 10
96.644324564
 20
228.4244780178
 30
0.0
 10
95.5798135261
 20
228.2741586276
 30
0.0
 10
93.9703346324
 20
227.7487756433
 30
0.0
 10
92.1049573727
 20
226.5068483565
 30
0.0
 10
90.8430355996
 20
225.28926948
 30
0.0
 10
89.8356495855
 20
223.8484617014
 30
0.0
 10
88.8885982929
 20
221.7944894551
 30
0.0
 10
88.6064119087
 20
220.1073730133
 30
0.0
 10
88.6103825304
 20
219.017681904
 30
0.0
  0
SPLINE
  5
444
100
AcDbEntity
  8
0
100
AcDbSpline
 62
7
  6
CONTINUOUS
 70
0
 71
3
 72
11
 73
7
 74
0
 42
0.0000001
 43
0.0000001
 44
0.0000000001
 40
0.0
 40
0.0
 40
0.0
 40
0.0
 40
0.2828496813
 40
0.546532945
 40
0.7849414636
 40
1.0
 40
1.0
 40
1.0
 40
1.0
 10
92.2552334405
 20
223.3143679044
 30
0.0
 10
92.4767407952
 20
224.0242332184
 30
0.0
 10
93.0526496858
 20
225.3570864736
 30
0.0
 10
94.3325244061
 20
227.0080884758
 30
0.0
 10
95.892041826
 20
228.1194438484
 30
0.0
 10
97.0546474687
 20
228.4759000819
 30
0.0
 10
97.6149430237
 20
228.5516799793
 30
0.0
  0
SPLINE
  5
445
100
AcDbEntity
  8
0
100
AcDbSpline
 62
7
  6
CONTINUOUS
 70
0
 71
3
 72
13
 73
9
 74
0
 42
0.0000001
 43
0.0000001
 44
0.0000000001
 40
0.0
 40
0.0
 40
0.0
 40
0.0
 40
0.2417982653
 40
0.3701405897
 40
0.5005114808
 40
0.6308077912
 40
0.758943355
 40
1.0
 40
1.0
 40
1.0
 40
1.0
 10
95.2445696443
 20
228.2492500935
 30
0.0
 10
94.172155613
 20
228.0874363485
 30
0.0
 10
92.5554423515
 20
227.549701761
 30
0.0
 10
90.680393799
 20
226.2994493659
 30
0.0
 10
89.4148321091
 20
225.0829233889
 30
0.0
 10
88.4037893526
 20
223.6490311505
 30
0.0
 10
87.4523892905
 20
221.611160301
 30
0.0
 10
87.1638175164
 20
219.9367521944
 30
0.0
 10
87.16382653
 20
218.855525478
 30
0.0
  0
SPLINE
  5
446
100
AcDbEntity
  8
0
100
AcDbSpline
 62
7
  6
CONTINUOUS
 70
0
 71
3
 72
14
 73
10
 74
0
 42
0.0000001
 43
0.0000001
 44
0.0000000001
 40
0.0
 40
0.0
 40
0.0
 40
0.0
 40
0.243729375
 40
0.3668872402
 40
0.4910388273
 40
0.6163533077
 40
0.7428783858
 40
0.8706800706
 40
1.0
 40
1.0
 40
1.0
 40
1.0
 10
133.7317294538
 20
139.0013780421
 30
0.0
 10
133.7872324677
 20
137.5634976638
 30
0.0
 10
133.7793353364
 20
135.3932816457
 30
0.0
 10
133.5468017702
 20
132.5024537969
 30
0.0
 10
133.2459554268
 20
130.321841517
 30
0.0
 10
132.8052221549
 20
128.144517045
 30
0.0
 10
132.2018448853
 20
125.9836553834
 30
0.0
 10
131.4017011597
 20
123.8601224938
 30
0.0
 10
130.6689542134
 20
122.5219088086
 30
0.0
 10
130.2470122642
 20
121.8856048162
 30
0.0
  0
SPLINE
  5
447
100
AcDbEntity
  8
0
100
AcDbSpline
 62
7
  6
CONTINUOUS
 70
0
 71
3
 72
9
 73
5
 74
0
 42
0.0000001
 43
0.0000001
 44
0.0000000001
 40
0.0
 40
0.0
 40
0.0
 40
0.0
 40
0.1770233971
 40
1.0
 40
1.0
 40
1.0
 40
1.0
 10
135.7580542759
 20
139.0544207152
 30
0.0
 10
135.6384708551
 20
139.052243564
 30
0.0
 10
134.9629842782
 20
139.0379513939
 30
0.0
 10
134.2876266996
 20
139.018214794
 30
0.0
 10
133.7318475638
 20
139.0014489835
 30
0.0
  0
SPLINE
  5
448
100
AcDbEntity
  8
0
100
AcDbSpline
 62
7
  6
CONTINUOUS
 70
0
 71
3
 72
11
 73
7
 74
0
 42
0.0000001
 43
0.0000001
 44
0.0000000001
 40
0.0
 40
0.0
 40
0.0
 40
0.0
 40
0.2536097898
 40
0.531570427
 40
0.7858533634
 40
1.0
 40
1.0
 40
1.0
 40
1.0
 10
100.1560990077
 20
212.0634351114
 30
0.0
 10
100.1302009372
 20
211.4803315144
 30
0.0
 10
99.8278549542
 20
210.2566626943
 30
0.0
 10
98.693385917
 20
208.7779581302
 30
0.0
 10
97.1602381855
 20
207.9147466482
 30
0.0
 10
96.076633124
 20
207.7350431129
 30
0.0
 10
95.5837986648
 20
207.7305778508
 30
0.0
  0
SPLINE
  5
449
100
AcDbEntity
  8
0
100
AcDbSpline
 62
7
  6
CONTINUOUS
 70
0
 71
3
 72
9
 73
5
 74
0
 42
0.0000001
 43
0.0000001
 44
0.0000000001
 40
0.0
 40
0.0
 40
0.0
 40
0.0
 40
0.6005792211
 40
1.0
 40
1.0
 40
1.0
 40
1.0
 10
95.5837941953
 20
207.7306115221
 30
0.0
 10
94.8101583928
 20
207.7236019702
 30
0.0
 10
93.5220318566
 20
207.7102549955
 30
0.0
 10
92.2339376398
 20
207.6915246958
 30
0.0
 10
91.7195412286
 20
207.6795926639
 30
0.0
  0
SPLINE
  5
44A
100
AcDbEntity
  8
0
100
AcDbSpline
 62
7
  6
CONTINUOUS
 70
0
 71
3
 72
9
 73
5
 74
0
 42
0.0000001
 43
0.0000001
 44
0.0000000001
 40
0.0
 40
0.0
 40
0.0
 40
0.0
 40
0.4431680721
 40
1.0
 40
1.0
 40
1.0
 40
1.0
 10
107.294640361
 20
212.966796004
 30
0.0
 10
107.3236256711
 20
211.7137737962
 30
0.0
 10
107.3633437713
 20
208.8857806441
 30
0.0
 10
107.3758933665
 20
206.057599783
 30
0.0
 10
107.3758833319
 20
204.4827809549
 30
0.0
  0
SPLINE
  5
44B
100
AcDbEntity
  8
0
100
AcDbSpline
 62
7
  6
CONTINUOUS
 70
0
 71
3
 72
15
 73
11
 74
0
 42
0.0000001
 43
0.0000001
 44
0.0000000001
 40
0.0
 40
0.0
 40
0.0
 40
0.0
 40
0.1280198363
 40
0.2554735205
 40
0.3816542083
 40
0.5055039892
 40
0.6272579818
 40
0.7483540851
 40
0.8710225138
 40
1.0
 40
1.0
 40
1.0
 40
1.0
 10
129.355836611
 20
120.484804285
 30
0.0
 10
129.2228684345
 20
120.2534491365
 30
0.0
 10
128.92845325
 20
119.8089799229
 30
0.0
 10
128.4598401671
 20
119.1652477841
 30
0.0
 10
127.929207586
 20
118.5823242502
 30
0.0
 10
127.3608994096
 20
118.054149173
 30
0.0
 10
126.7513685835
 20
117.590619633
 30
0.0
 10
126.0985500429
 20
117.1950998626
 30
0.0
 10
125.3924006895
 20
116.8667952401
 30
0.0
 10
124.8890901255
 20
116.7117382802
 30
0.0
 10
124.627267306
 20
116.6507149839
 30
0.0
  0
SPLINE
  5
44C
100
AcDbEntity
  8
0
100
AcDbSpline
 62
7
  6
CONTINUOUS
 70
0
 71
3
 72
11
 73
7
 74
0
 42
0.0000001
 43
0.0000001
 44
0.0000000001
 40
0.0
 40
0.0
 40
0.0
 40
0.0
 40
0.2635261169
 40
0.5215154422
 40
0.7677870426
 40
1.0
 40
1.0
 40
1.0
 40
1.0
 10
134.8366401451
 20
223.3143255164
 30
0.0
 10
134.6450853357
 20
223.8949231187
 30
0.0
 10
134.1618182726
 20
225.0134564485
 30
0.0
 10
133.1293623081
 20
226.4823411635
 30
0.0
 10
131.8371893444
 20
227.6258406462
 30
0.0
 10
130.8303019123
 20
228.1296398655
 30
0.0
 10
130.3194970403
 20
228.3008509404
 30
0.0
  0
SPLINE
  5
44D
100
AcDbEntity
  8
0
100
AcDbSpline
 62
7
  6
CONTINUOUS
 70
0
 71
3
 72
8
 73
4
 74
0
 42
0.0000001
 43
0.0000001
 44
0.0000000001
 40
0.0
 40
0.0
 40
0.0
 40
0.0
 40
1.0
 40
1.0
 40
1.0
 40
1.0
 10
130.2471467314
 20
121.8854360746
 30
0.0
 10
129.9355888632
 20
121.4280794304
 30
0.0
 10
129.6315702698
 20
120.9646166522
 30
0.0
 10
129.3558150957
 20
120.4848224368
 30
0.0
  0
SPLINE
  5
44E
100
AcDbEntity
  8
0
100
AcDbSpline
 62
7
  6
CONTINUOUS
 70
0
 71
3
 72
9
 73
5
 74
0
 42
0.0000001
 43
0.0000001
 44
0.0000000001
 40
0.0
 40
0.0
 40
0.0
 40
0.0
 40
0.1975418987
 40
1.0
 40
1.0
 40
1.0
 40
1.0
 10
131.5784355174
 20
121.4030409223
 30
0.0
 10
131.4911394137
 20
121.4358016687
 30
0.0
 10
131.0482717812
 20
121.5990893159
 30
0.0
 10
130.6038097227
 20
121.7579975965
 30
0.0
 10
130.2470005413
 20
121.8850808436
 30
0.0
  0
SPLINE
  5
44F
100
AcDbEntity
  8
0
100
AcDbSpline
 62
7
  6
CONTINUOUS
 70
0
 71
3
 72
9
 73
5
 74
0
 42
0.0000001
 43
0.0000001
 44
0.0000000001
 40
0.0
 40
0.0
 40
0.0
 40
0.0
 40
0.5017024084
 40
1.0
 40
1.0
 40
1.0
 40
1.0
 10
87.1644904694
 20
139.2029942166
 30
0.0
 10
87.1609170238
 20
139.1995251734
 30
0.0
 10
87.1494075751
 20
139.1974189815
 30
0.0
 10
87.1405044604
 20
139.2026432935
 30
0.0
 10
87.1355585195
 20
139.2025663376
 30
0.0
  0
SPLINE
  5
450
100
AcDbEntity
  8
0
100
AcDbSpline
 62
7
  6
CONTINUOUS
 70
0
 71
3
 72
9
 73
5
 74
0
 42
0.0000001
 43
0.0000001
 44
0.0000000001
 40
0.0
 40
0.0
 40
0.0
 40
0.0
 40
0.4147011666
 40
1.0
 40
1.0
 40
1.0
 40
1.0
 10
90.0759855674
 20
216.5274583669
 30
0.0
 10
90.6493448156
 20
216.5544381825
 30
0.0
 10
92.0327179076
 20
216.6022876689
 30
0.0
 10
93.4165438313
 20
216.6316963686
 30
0.0
 10
94.226553388
 20
216.6450902614
 30
0.0
  0
SPLINE
  5
451
100
AcDbEntity
  8
0
100
AcDbSpline
 62
7
  6
CONTINUOUS
 70
0
 71
3
 72
9
 73
5
 74
0
 42
0.0000001
 43
0.0000001
 44
0.0000000001
 40
0.0
 40
0.0
 40
0.0
 40
0.0
 40
0.5034238716
 40
1.0
 40
1.0
 40
1.0
 40
1.0
 10
88.6103825284
 20
219.0176818964
 30
0.0
 10
88.7893147862
 20
218.055966739
 30
0.0
 10
89.164825379
 20
216.1493415003
 30
0.0
 10
89.5941739903
 20
214.25359575
 30
0.0
 10
89.8317723238
 20
213.3183928992
 30
0.0
  0
SPLINE
  5
452
100
AcDbEntity
  8
0
100
AcDbSpline
 62
7
  6
CONTINUOUS
 70
0
 71
3
 72
11
 73
7
 74
0
 42
0.0000001
 43
0.0000001
 44
0.0000000001
 40
0.0
 40
0.0
 40
0.0
 40
0.0
 40
0.2895078264
 40
0.5520987285
 40
0.7877847999
 40
1.0
 40
1.0
 40
1.0
 40
1.0
 10
92.2551541889
 20
223.314315612
 30
0.0
 10
91.786567742
 20
223.0164551356
 30
0.0
 10
90.9268093255
 20
222.3919480627
 30
0.0
 10
89.8417494537
 20
221.3314420425
 30
0.0
 10
89.0468207796
 20
220.2143233983
 30
0.0
 10
88.7132999901
 20
219.4114589221
 30
0.0
 10
88.6103825284
 20
219.0176818964
 30
0.0
  0
SPLINE
  5
453
100
AcDbEntity
  8
0
100
AcDbSpline
 62
7
  6
CONTINUOUS
 70
0
 71
3
 72
11
 73
7
 74
0
 42
0.0000001
 43
0.0000001
 44
0.0000000001
 40
0.0
 40
0.0
 40
0.0
 40
0.0
 40
0.2632769749
 40
0.5204281283
 40
0.7671096102
 40
1.0
 40
1.0
 40
1.0
 40
1.0
 10
101.0162291408
 20
225.3499700615
 30
0.0
 10
100.2165934736
 20
225.3964665402
 30
0.0
 10
98.627400261
 20
225.3744198682
 30
0.0
 10
96.3124408368
 20
225.0240266332
 30
0.0
 10
94.1626669579
 20
224.3585214567
 30
0.0
 10
92.8532934914
 20
223.6941273842
 30
0.0
 10
92.2551541889
 20
223.314315612
 30
0.0
  0
SPLINE
  5
454
100
AcDbEntity
  8
0
100
AcDbSpline
 62
7
  6
CONTINUOUS
 70
0
 71
3
 72
11
 73
7
 74
0
 42
0.0000001
 43
0.0000001
 44
0.0000000001
 40
0.0
 40
0.0
 40
0.0
 40
0.0
 40
0.2184327853
 40
0.4487811771
 40
0.7079913549
 40
1.0
 40
1.0
 40
1.0
 40
1.0
 10
94.4857330183
 20
216.0716144679
 30
0.0
 10
94.4337992234
 20
216.071688346
 30
0.0
 10
94.3262691209
 20
216.1171630044
 30
0.0
 10
94.2293058706
 20
216.2612088573
 30
0.0
 10
94.1870200172
 20
216.4454601486
 30
0.0
 10
94.2039043936
 20
216.5794669894
 30
0.0
 10
94.2265684923
 20
216.6450905111
 30
0.0
  0
SPLINE
  5
455
100
AcDbEntity
  8
0
100
AcDbSpline
 62
7
  6
CONTINUOUS
 70
0
 71
3
 72
11
 73
7
 74
0
 42
0.0000001
 43
0.0000001
 44
0.0000000001
 40
0.0
 40
0.0
 40
0.0
 40
0.0
 40
0.2501880274
 40
0.5003178735
 40
0.7501919275
 40
1.0
 40
1.0
 40
1.0
 40
1.0
 10
90.49399772
 20
216.0692237874
 30
0.0
 10
90.4356903419
 20
216.0692350221
 30
0.0
 10
90.3177264272
 20
216.0924626614
 30
0.0
 10
90.169499053
 20
216.1941821192
 30
0.0
 10
90.076349414
 20
216.3488007833
 30
0.0
 10
90.0670801324
 20
216.4699307264
 30
0.0
 10
90.0759724661
 20
216.5274664411
 30
0.0
  0
SPLINE
  5
456
100
AcDbEntity
  8
0
100
AcDbSpline
 62
7
  6
CONTINUOUS
 70
0
 71
3
 72
9
 73
5
 74
0
 42
0.0000001
 43
0.0000001
 44
0.0000000001
 40
0.0
 40
0.0
 40
0.0
 40
0.0
 40
0.4890565097
 40
1.0
 40
1.0
 40
1.0
 40
1.0
 10
124.3052654276
 20
215.9304470599
 30
0.0
 10
124.9864909207
 20
215.839492939
 30
0.0
 10
126.3688643629
 20
215.5668204622
 30
0.0
 10
127.709032053
 20
215.1300582346
 30
0.0
 10
128.37568677
 20
214.8633446371
 30
0.0
  0
SPLINE
  5
457
100
AcDbEntity
  8
0
100
AcDbSpline
 62
7
  6
CONTINUOUS
 70
0
 71
3
 72
11
 73
7
 74
0
 42
0.0000001
 43
0.0000001
 44
0.0000000001
 40
0.0
 40
0.0
 40
0.0
 40
0.0
 40
0.2434883821
 40
0.4907832158
 40
0.7429756607
 40
1.0
 40
1.0
 40
1.0
 40
1.0
 10
128.3756772879
 20
214.8633443182
 30
0.0
 10
128.5696405925
 20
215.1413947689
 30
0.0
 10
129.0313162273
 20
215.6560015304
 30
0.0
 10
129.8968534181
 20
216.240732078
 30
0.0
 10
130.8963352044
 20
216.6044894111
 30
0.0
 10
131.6100475876
 20
216.6779494208
 30
0.0
 10
131.967846654
 20
216.6710503688
 30
0.0
  0
SPLINE
  5
458
100
AcDbEntity
  8
0
100
AcDbSpline
 62
7
  6
CONTINUOUS
 70
0
 71
3
 72
11
 73
7
 74
0
 42
0.0000001
 43
0.0000001
 44
0.0000000001
 40
0.0
 40
0.0
 40
0.0
 40
0.0
 40
0.2499837152
 40
0.5000238572
 40
0.7500363358
 40
1.0
 40
1.0
 40
1.0
 40
1.0
 10
90.2395679973
 20
208.0692242953
 30
0.0
 10
90.1870485295
 20
208.0692145748
 30
0.0
 10
90.0809040297
 20
208.0488414368
 30
0.0
 10
89.9454701584
 20
207.9609577609
 30
0.0
 10
89.853585144
 20
207.8279837446
 30
0.0
 10
89.8318993939
 20
207.7217395774
 30
0.0
 10
89.8318998316
 20
207.6692243212
 30
0.0
  0
SPLINE
  5
459
100
AcDbEntity
  8
0
100
AcDbSpline
 62
7
  6
CONTINUOUS
 70
0
 71
3
 72
10
 73
6
 74
0
 42
0.0000001
 43
0.0000001
 44
0.0000000001
 40
0.0
 40
0.0
 40
0.0
 40
0.0
 40
0.2493241811
 40
0.5114466209
 40
1.0
 40
1.0
 40
1.0
 40
1.0
 10
90.4941126799
 20
207.6701843489
 30
0.0
 10
90.4941122607
 20
207.7204742174
 30
0.0
 10
90.5158063911
 20
207.8240123674
 30
0.0
 10
90.6204159644
 20
208.0007480301
 30
0.0
 10
90.7794364346
 20
208.0701566105
 30
0.0
 10
90.8779799652
 20
208.0701470394
 30
0.0
  0
SPLINE
  5
45A
100
AcDbEntity
  8
0
100
AcDbSpline
 62
7
  6
CONTINUOUS
 70
0
 71
3
 72
8
 73
4
 74
0
 42
0.0000001
 43
0.0000001
 44
0.0000000001
 40
0.0
 40
0.0
 40
0.0
 40
0.0
 40
1.0
 40
1.0
 40
1.0
 40
1.0
 10
126.8221893648
 20
100.4580239553
 30
0.0
 10
126.8282637876
 20
100.4564455809
 30
0.0
 10
126.8344888488
 20
100.4553313247
 30
0.0
 10
126.8407449639
 20
100.454830423
 30
0.0
  0
SPLINE
  5
45B
100
AcDbEntity
  8
0
100
AcDbSpline
 62
7
  6
CONTINUOUS
 70
0
 71
3
 72
9
 73
5
 74
0
 42
0.0000001
 43
0.0000001
 44
0.0000000001
 40
0.0
 40
0.0
 40
0.0
 40
0.0
 40
0.2584653216
 40
1.0
 40
1.0
 40
1.0
 40
1.0
 10
123.7072296628
 20
118.6889929219
 30
0.0
 10
123.7972249609
 20
118.5185627231
 30
0.0
 10
124.1353074899
 20
117.8539377509
 30
0.0
 10
124.4345101796
 20
117.1691010532
 30
0.0
 10
124.6272963549
 20
116.6508510785
 30
0.0
  0
SPLINE
  5
45C
100
AcDbEntity
  8
0
100
AcDbSpline
 62
7
  6
CONTINUOUS
 70
0
 71
3
 72
14
 73
10
 74
0
 42
0.0000001
 43
0.0000001
 44
0.0000000001
 40
0.0
 40
0.0
 40
0.0
 40
0.0
 40
0.133233496
 40
0.264692196
 40
0.3928561181
 40
0.5175101076
 40
0.7597649922
 40
0.8798349687
 40
1.0
 40
1.0
 40
1.0
 40
1.0
 10
127.2767954042
 20
121.2709299033
 30
0.0
 10
127.1950463418
 20
121.083726406
 30
0.0
 10
127.0104645505
 20
120.7206893417
 30
0.0
 10
126.6594881647
 20
120.2283022465
 30
0.0
 10
126.2451045951
 20
119.8058897973
 30
0.0
 10
125.6339265398
 20
119.351660283
 30
0.0
 10
124.9537581925
 20
119.0266429879
 30
0.0
 10
124.2486557687
 20
118.8020852015
 30
0.0
 10
123.8888032893
 20
118.7200392982
 30
0.0
 10
123.7072008301
 20
118.6889890386
 30
0.0
  0
SPLINE
  5
45D
100
AcDbEntity
  8
0
100
AcDbSpline
 62
7
  6
CONTINUOUS
 70
0
 71
3
 72
11
 73
7
 74
0
 42
0.0000001
 43
0.0000001
 44
0.0000000001
 40
0.0
 40
0.0
 40
0.0
 40
0.0
 40
0.2451830064
 40
0.4931401222
 40
0.7451753818
 40
1.0
 40
1.0
 40
1.0
 40
1.0
 10
91.9684281857
 20
208.0714964318
 30
0.0
 10
91.9184316892
 20
208.0715012877
 30
0.0
 10
91.8167107297
 20
208.0503979496
 30
0.0
 10
91.6891223404
 20
207.9608005265
 30
0.0
 10
91.6042784252
 20
207.8279199455
 30
0.0
 10
91.5845604672
 20
207.7234963074
 30
0.0
 10
91.5845609004
 20
207.6715337413
 30
0.0
  0
SPLINE
  5
45E
100
AcDbEntity
  8
0
100
AcDbSpline
 62
7
  6
CONTINUOUS
 70
0
 71
3
 72
10
 73
6
 74
0
 42
0.0000001
 43
0.0000001
 44
0.0000000001
 40
0.0
 40
0.0
 40
0.0
 40
0.0
 40
0.487734532
 40
0.7499237189
 40
1.0
 40
1.0
 40
1.0
 40
1.0
 10
92.1011361143
 20
208.0716550681
 30
0.0
 10
92.004250283
 20
208.0716933767
 30
0.0
 10
91.8480435611
 20
208.0038486565
 30
0.0
 10
91.7433181794
 20
207.8309786033
 30
0.0
 10
91.7204619735
 20
207.7292430295
 30
0.0
 10
91.7195295279
 20
207.6795754747
 30
0.0
  0
SPLINE
  5
45F
100
AcDbEntity
  8
0
100
AcDbSpline
 62
7
  6
CONTINUOUS
 70
0
 71
3
 72
8
 73
4
 74
0
 42
0.0000001
 43
0.0000001
 44
0.0000000001
 40
0.0
 40
0.0
 40
0.0
 40
0.0
 40
1.0
 40
1.0
 40
1.0
 40
1.0
 10
95.8610504628
 20
208.0737785384
 30
0.0
 10
95.815919058
 20
208.073803093
 30
0.0
 10
95.7694212811
 20
208.0564172899
 30
0.0
 10
95.7330183846
 20
208.029740082
 30
0.0
  0
SPLINE
  5
460
100
AcDbEntity
  8
0
100
AcDbSpline
 62
7
  6
CONTINUOUS
 70
0
 71
3
 72
9
 73
5
 74
0
 42
0.0000001
 43
0.0000001
 44
0.0000000001
 40
0.0
 40
0.0
 40
0.0
 40
0.0
 40
0.2096237915
 40
1.0
 40
1.0
 40
1.0
 40
1.0
 10
95.7330183846
 20
208.029740082
 30
0.0
 10
95.7138709412
 20
208.0157082225
 30
0.0
 10
95.6316649021
 20
207.936274365
 30
0.0
 10
95.5927966371
 20
207.8196390434
 30
0.0
 10
95.5837997303
 20
207.730587419
 30
0.0
  0
SPLINE
  5
461
100
AcDbEntity
  8
0
100
AcDbSpline
 62
7
  6
CONTINUOUS
 70
0
 71
3
 72
12
 73
8
 74
0
 42
0.0000001
 43
0.0000001
 44
0.0000000001
 40
0.0
 40
0.0
 40
0.0
 40
0.0
 40
0.2967039995
 40
0.5622394987
 40
0.7918641199
 40
0.8995757846
 40
1.0
 40
1.0
 40
1.0
 40
1.0
 10
95.5188021933
 20
216.6710502991
 30
0.0
 10
95.4941545422
 20
216.6041486577
 30
0.0
 10
95.4739559891
 20
216.4667586331
 30
0.0
 10
95.5061868719
 20
216.2769485169
 30
0.0
 10
95.5804911798
 20
216.1462224024
 30
0.0
 10
95.6674997569
 20
216.0836459723
 30
0.0
 10
95.7179924389
 20
216.0720712274
 30
0.0
 10
95.7421242111
 20
216.0720451873
 30
0.0
  0
SPLINE
  5
462
100
AcDbEntity
  8
0
100
AcDbSpline
 62
7
  6
CONTINUOUS
 70
0
 71
3
 72
11
 73
7
 74
0
 42
0.0000001
 43
0.0000001
 44
0.0000000001
 40
0.0
 40
0.0
 40
0.0
 40
0.0
 40
0.2075089021
 40
0.4211651703
 40
0.6907600864
 40
1.0
 40
1.0
 40
1.0
 40
1.0
 10
99.0969775204
 20
214.3847649479
 30
0.0
 10
99.0748986174
 20
214.4172538785
 30
0.0
 10
99.051761287
 20
214.4988873863
 30
0.0
 10
99.0795709466
 20
214.62973267
 30
0.0
 10
99.159993629
 20
214.759414525
 30
0.0
 10
99.2446628073
 20
214.8321157006
 30
0.0
 10
99.2942381992
 20
214.8632454037
 30
0.0
  0
SPLINE
  5
463
100
AcDbEntity
  8
0
100
AcDbSpline
 62
7
  6
CONTINUOUS
 70
0
 71
3
 72
9
 73
5
 74
0
 42
0.0000001
 43
0.0000001
 44
0.0000000001
 40
0.0
 40
0.0
 40
0.0
 40
0.0
 40
0.2802417452
 40
1.0
 40
1.0
 40
1.0
 40
1.0
 10
127.2767954042
 20
121.2709299033
 30
0.0
 10
127.4703225376
 20
121.1957109915
 30
0.0
 10
128.1614630988
 20
120.9287840812
 30
0.0
 10
128.8546068886
 20
120.6669332171
 30
0.0
 10
129.3558161903
 20
120.4848215119
 30
0.0
  0
SPLINE
  5
464
100
AcDbEntity
  8
0
100
AcDbSpline
 62
7
  6
CONTINUOUS
 70
0
 71
3
 72
12
 73
8
 74
0
 42
0.0000001
 43
0.0000001
 44
0.0000000001
 40
0.0
 40
0.0
 40
0.0
 40
0.0
 40
0.2217932648
 40
0.3425797974
 40
0.4686032836
 40
0.7301250011
 40
1.0
 40
1.0
 40
1.0
 40
1.0
 10
133.7318800721
 20
139.0012669518
 30
0.0
 10
133.517272397
 20
138.9691694463
 30
0.0
 10
133.1711943335
 20
139.0767550635
 30
0.0
 10
132.781663319
 20
139.3115941915
 30
0.0
 10
132.383571998
 20
139.6128525532
 30
0.0
 10
131.9143284793
 20
140.0537942407
 30
0.0
 10
131.5622374552
 20
140.4367964648
 30
0.0
 10
131.3878793668
 20
140.6350749633
 30
0.0
  0
SPLINE
  5
465
100
AcDbEntity
  8
0
100
AcDbSpline
 62
7
  6
CONTINUOUS
 70
0
 71
3
 72
9
 73
5
 74
0
 42
0.0000001
 43
0.0000001
 44
0.0000000001
 40
0.0
 40
0.0
 40
0.0
 40
0.0
 40
0.4784178467
 40
1.0
 40
1.0
 40
1.0
 40
1.0
 10
131.7324631916
 20
216.0720454997
 30
0.0
 10
131.7733739226
 20
216.0720846662
 30
0.0
 10
131.8596181766
 20
216.1037507501
 30
0.0
 10
131.9153379646
 20
216.1722816093
 30
0.0
 10
131.9378611747
 20
216.2107787425
 30
0.0
  0
SPLINE
  5
466
100
AcDbEntity
  8
0
100
AcDbSpline
 62
7
  6
CONTINUOUS
 70
0
 71
3
 72
9
 73
5
 74
0
 42
0.0000001
 43
0.0000001
 44
0.0000000001
 40
0.0
 40
0.0
 40
0.0
 40
0.0
 40
0.2176787645
 40
1.0
 40
1.0
 40
1.0
 40
1.0
 10
131.9378611747
 20
216.2107787425
 30
0.0
 10
131.9550453392
 20
216.2401502693
 30
0.0
 10
132.0167027082
 20
216.3844702351
 30
0.0
 10
132.0121183636
 20
216.5570490845
 30
0.0
 10
131.9678458473
 20
216.6710525404
 30
0.0
  0
SPLINE
  5
467
100
AcDbEntity
  8
0
100
AcDbSpline
 62
7
  6
CONTINUOUS
 70
0
 71
3
 72
9
 73
5
 74
0
 42
0.0000001
 43
0.0000001
 44
0.0000000001
 40
0.0
 40
0.0
 40
0.0
 40
0.0
 40
0.2879572783
 40
1.0
 40
1.0
 40
1.0
 40
1.0
 10
127.9825304192
 20
122.860997004
 30
0.0
 10
128.1994719627
 20
122.7663645104
 30
0.0
 10
128.9532058791
 20
122.4385456542
 30
0.0
 10
129.7080437914
 20
122.1132282534
 30
0.0
 10
130.2471484063
 20
121.8854342261
 30
0.0
  0
SPLINE
  5
468
100
AcDbEntity
  8
0
100
AcDbSpline
 62
7
  6
CONTINUOUS
 70
0
 71
3
 72
9
 73
5
 74
0
 42
0.0000001
 43
0.0000001
 44
0.0000000001
 40
0.0
 40
0.0
 40
0.0
 40
0.0
 40
0.2375118367
 40
1.0
 40
1.0
 40
1.0
 40
1.0
 10
131.3879399697
 20
140.6351833561
 30
0.0
 10
131.2687822632
 20
140.6322796722
 30
0.0
 10
130.7670883386
 20
140.6202628899
 30
0.0
 10
130.2654172724
 20
140.6063352977
 30
0.0
 10
129.8830558453
 20
140.5915415118
 30
0.0
  0
SPLINE
  5
469
100
AcDbEntity
  8
0
100
AcDbSpline
 62
7
  6
CONTINUOUS
 70
0
 71
3
 72
13
 73
9
 74
0
 42
0.0000001
 43
0.0000001
 44
0.0000000001
 40
0.0
 40
0.0
 40
0.0
 40
0.0
 40
0.2468272243
 40
0.495268777
 40
0.6204616971
 40
0.746344248
 40
0.8728951829
 40
1.0
 40
1.0
 40
1.0
 40
1.0
 10
97.9155187234
 20
140.5915222141
 30
0.0
 10
97.682548026
 20
139.1245774156
 30
0.0
 10
97.3640402189
 20
136.1545943563
 30
0.0
 10
97.4116301113
 20
132.4099787562
 30
0.0
 10
97.7585590927
 20
129.4218980977
 30
0.0
 10
98.186447867
 20
127.1876537179
 30
0.0
 10
98.7962308221
 20
124.984272492
 30
0.0
 10
99.3428306511
 20
123.5545498691
 30
0.0
 10
99.6653694362
 20
122.8610041811
 30
0.0
  0
SPLINE
  5
46A
100
AcDbEntity
  8
0
100
AcDbSpline
 62
7
  6
CONTINUOUS
 70
0
 71
3
 72
13
 73
9
 74
0
 42
0.0000001
 43
0.0000001
 44
0.0000000001
 40
0.0
 40
0.0
 40
0.0
 40
0.0
 40
0.2427636912
 40
0.3693354253
 40
0.4976185516
 40
0.626228964
 40
0.75375278
 40
1.0
 40
1.0
 40
1.0
 40
1.0
 10
129.8830392589
 20
140.5914977439
 30
0.0
 10
127.5074228844
 20
141.8341426862
 30
0.0
 10
123.6338533867
 20
143.2715472151
 30
0.0
 10
118.2166423407
 20
144.2431049626
 30
0.0
 10
113.9786515285
 20
144.4978789292
 30
0.0
 10
109.7303718945
 20
144.2418773419
 30
0.0
 10
104.2603048939
 20
143.2666338788
 30
0.0
 10
100.33686429
 20
141.8294962452
 30
0.0
 10
97.9155342607
 20
140.5914977195
 30
0.0
  0
SPLINE
  5
46B
100
AcDbEntity
  8
0
100
AcDbSpline
 62
7
  6
CONTINUOUS
 70
0
 71
3
 72
11
 73
7
 74
0
 42
0.0000001
 43
0.0000001
 44
0.0000000001
 40
0.0
 40
0.0
 40
0.0
 40
0.0
 40
0.2579499988
 40
0.5108394239
 40
0.7580289653
 40
1.0
 40
1.0
 40
1.0
 40
1.0
 10
95.5188022242
 20
216.6710502997
 30
0.0
 10
95.8914615145
 20
216.6779531277
 30
0.0
 10
96.6341016902
 20
216.6045167365
 30
0.0
 10
97.6778840184
 20
216.2414054734
 30
0.0
 10
98.5888194299
 20
215.6578734586
 30
0.0
 10
99.0837106585
 20
215.1424499434
 30
0.0
 10
99.2942100234
 20
214.8632827713
 30
0.0
  0
SPLINE
  5
46C
100
AcDbEntity
  8
0
100
AcDbSpline
 62
7
  6
CONTINUOUS
 70
0
 71
3
 72
10
 73
6
 74
0
 42
0.0000001
 43
0.0000001
 44
0.0000000001
 40
0.0
 40
0.0
 40
0.0
 40
0.0
 40
0.2536243769
 40
0.6335025019
 40
1.0
 40
1.0
 40
1.0
 40
1.0
 10
102.2065383787
 20
219.9043083094
 30
0.0
 10
101.4767298619
 20
219.8085525404
 30
0.0
 10
99.6680271619
 20
219.4491767259
 30
0.0
 10
96.9296488025
 20
218.4377851647
 30
0.0
 10
95.0659917502
 20
217.2982906462
 30
0.0
 10
94.2264894706
 20
216.645167643
 30
0.0
  0
SPLINE
  5
46D
100
AcDbEntity
  8
0
100
AcDbSpline
 62
7
  6
CONTINUOUS
 70
0
 71
3
 72
11
 73
7
 74
0
 42
0.0000001
 43
0.0000001
 44
0.0000000001
 40
0.0
 40
0.0
 40
0.0
 40
0.0
 40
0.2660535266
 40
0.5214404058
 40
0.7648357965
 40
1.0
 40
1.0
 40
1.0
 40
1.0
 10
120.5112428846
 20
212.9668131864
 30
0.0
 10
120.9694848711
 20
212.9668397331
 30
0.0
 10
121.8756858019
 20
213.1244372262
 30
0.0
 10
123.0412924688
 20
213.7909755427
 30
0.0
 10
123.8839005629
 20
214.7625047669
 30
0.0
 10
124.2089183179
 20
215.5370365523
 30
0.0
 10
124.3052449502
 20
215.9304548371
 30
0.0
  0
SPLINE
  5
46E
100
AcDbEntity
  8
0
100
AcDbSpline
 62
7
  6
CONTINUOUS
 70
0
 71
3
 72
12
 73
8
 74
0
 42
0.0000001
 43
0.0000001
 44
0.0000000001
 40
0.0
 40
0.0
 40
0.0
 40
0.0
 40
0.235036791
 40
0.4797363612
 40
0.6068010621
 40
0.736543837
 40
1.0
 40
1.0
 40
1.0
 40
1.0
 10
103.3634932858
 20
215.9304548428
 30
0.0
 10
103.4786812994
 20
215.534844678
 30
0.0
 10
103.8411246096
 20
214.7597106699
 30
0.0
 10
104.5710293139
 20
213.9614426211
 30
0.0
 10
105.3041007316
 20
213.4694168222
 30
0.0
 10
106.1363629744
 20
213.0892842685
 30
0.0
 10
106.8329245524
 20
212.9668391507
 30
0.0
 10
107.2947844483
 20
212.9668133489
 30
0.0
  0
SPLINE
  5
46F
100
AcDbEntity
  8
0
100
AcDbSpline
 62
7
  6
CONTINUOUS
 70
0
 71
3
 72
11
 73
7
 74
0
 42
0.0000001
 43
0.0000001
 44
0.0000000001
 40
0.0
 40
0.0
 40
0.0
 40
0.0
 40
0.2550178933
 40
0.5091294735
 40
0.7623182954
 40
1.0
 40
1.0
 40
1.0
 40
1.0
 10
101.0178602945
 20
225.3501052504
 30
0.0
 10
101.1056663299
 20
224.8843808895
 30
0.0
 10
101.2849459566
 20
223.9553381107
 30
0.0
 10
101.5707939762
 20
222.5676702474
 30
0.0
 10
101.8687038215
 20
221.2157759019
 30
0.0
 10
102.0830613592
 20
220.3284569054
 30
0.0
 10
102.2065256969
 20
219.9043511997
 30
0.0
  0
SPLINE
  5
470
100
AcDbEntity
  8
0
100
AcDbSpline
 62
7
  6
CONTINUOUS
 70
0
 71
3
 72
9
 73
5
 74
0
 42
0.0000001
 43
0.0000001
 44
0.0000000001
 40
0.0
 40
0.0
 40
0.0
 40
0.0
 40
0.5006728423
 40
1.0
 40
1.0
 40
1.0
 40
1.0
 10
126.2161580956
 20
225.3499697399
 30
0.0
 10
122.0320976303
 20
225.8410359819
 30
0.0
 10
113.6106112477
 20
226.327184209
 30
0.0
 10
105.1887333439
 20
225.8423552726
 30
0.0
 10
101.0162291426
 20
225.3499701413
 30
0.0
  0
SPLINE
  5
471
100
AcDbEntity
  8
0
100
AcDbSpline
 62
7
  6
CONTINUOUS
 70
0
 71
3
 72
11
 73
7
 74
0
 42
0.0000001
 43
0.0000001
 44
0.0000000001
 40
0.0
 40
0.0
 40
0.0
 40
0.0
 40
0.2373251581
 40
0.4905000945
 40
0.7447276666
 40
1.0
 40
1.0
 40
1.0
 40
1.0
 10
125.2781358246
 20
219.9043496001
 30
0.0
 10
125.3819989967
 20
220.3290650484
 30
0.0
 10
125.5553678766
 20
221.216568049
 30
0.0
 10
125.7905332922
 20
222.5681346892
 30
0.0
 10
126.0121141411
 20
223.9557521742
 30
0.0
 10
126.148304295
 20
224.8844943581
 30
0.0
 10
126.214520784
 20
225.3501048427
 30
0.0
  0
SPLINE
  5
472
100
AcDbEntity
  8
0
100
AcDbSpline
 62
7
  6
CONTINUOUS
 70
0
 71
3
 72
9
 73
5
 74
0
 42
0.0000001
 43
0.0000001
 44
0.0000000001
 40
0.0
 40
0.0
 40
0.0
 40
0.0
 40
0.2457282661
 40
1.0
 40
1.0
 40
1.0
 40
1.0
 10
132.1413570022
 20
207.7306075652
 30
0.0
 10
132.1150332405
 20
207.7300260593
 30
0.0
 10
132.0078716045
 20
207.7293574191
 30
0.0
 10
131.90071395
 20
207.7350682107
 30
0.0
 10
131.8202056134
 20
207.7421755033
 30
0.0
  0
SPLINE
  5
473
100
AcDbEntity
  8
0
100
AcDbSpline
 62
7
  6
CONTINUOUS
 70
0
 71
3
 72
9
 73
5
 74
0
 42
0.0000001
 43
0.0000001
 44
0.0000000001
 40
0.0
 40
0.0
 40
0.0
 40
0.0
 40
0.246353947
 40
1.0
 40
1.0
 40
1.0
 40
1.0
 10
131.8202056134
 20
207.7421755033
 30
0.0
 10
131.7967464818
 20
207.7442464803
 30
0.0
 10
131.7016074302
 20
207.7536236702
 30
0.0
 10
131.6068424583
 20
207.7666371479
 30
0.0
 10
131.5357068089
 20
207.7780495568
 30
0.0
  0
SPLINE
  5
474
100
AcDbEntity
  8
0
100
AcDbSpline
 62
7
  6
CONTINUOUS
 70
0
 71
3
 72
13
 73
9
 74
0
 42
0.0000001
 43
0.0000001
 44
0.0000000001
 40
0.0
 40
0.0
 40
0.0
 40
0.0
 40
0.1055153747
 40
0.2199805294
 40
0.3440981955
 40
0.4765025086
 40
0.7485535268
 40
1.0
 40
1.0
 40
1.0
 40
1.0
 10
131.5357068089
 20
207.7780495568
 30
0.0
 10
131.323458839
 20
207.8121008467
 30
0.0
 10
130.8845491519
 20
207.9103052176
 30
0.0
 10
130.2289537896
 20
208.1666382337
 30
0.0
 10
129.5758421857
 20
208.554053219
 30
0.0
 10
128.7505552729
 20
209.2529549878
 30
0.0
 10
127.9765511755
 20
210.3784692543
 30
0.0
 10
127.6912953379
 20
211.428341856
 30
0.0
 10
127.6400350917
 20
211.9380320896
 30
0.0
  0
SPLINE
  5
475
100
AcDbEntity
  8
0
100
AcDbSpline
 62
7
  6
CONTINUOUS
 70
0
 71
3
 72
10
 73
6
 74
0
 42
0.0000001
 43
0.0000001
 44
0.0000000001
 40
0.0
 40
0.0
 40
0.0
 40
0.0
 40
0.5211032543
 40
0.7643784797
 40
1.0
 40
1.0
 40
1.0
 40
1.0
 10
127.6266069365
 20
212.1002560601
 30
0.0
 10
127.5977407854
 20
212.5444561898
 30
0.0
 10
127.6503893489
 20
213.2086635517
 30
0.0
 10
127.9111828211
 20
214.0240063056
 30
0.0
 10
128.0879019039
 20
214.3948338687
 30
0.0
 10
128.1878997135
 20
214.569508276
 30
0.0
  0
SPLINE
  5
476
100
AcDbEntity
  8
0
100
AcDbSpline
 62
7
  6
CONTINUOUS
 70
0
 71
3
 72
8
 73
4
 74
0
 42
0.0000001
 43
0.0000001
 44
0.0000000001
 40
0.0
 40
0.0
 40
0.0
 40
0.0
 40
1.0
 40
1.0
 40
1.0
 40
1.0
 10
128.1878997135
 20
214.569508276
 30
0.0
 10
128.2456495961
 20
214.6703847507
 30
0.0
 10
128.3081203006
 20
214.7687535048
 30
0.0
 10
128.3756598736
 20
214.8633553977
 30
0.0
  0
SPLINE
  5
477
100
AcDbEntity
  8
0
100
AcDbSpline
 62
7
  6
CONTINUOUS
 70
0
 71
3
 72
9
 73
5
 74
0
 42
0.0000001
 43
0.0000001
 44
0.0000000001
 40
0.0
 40
0.0
 40
0.0
 40
0.0
 40
0.3881341841
 40
1.0
 40
1.0
 40
1.0
 40
1.0
 10
135.7104645155
 20
207.6795446936
 30
0.0
 10
135.2488220112
 20
207.6921206594
 30
0.0
 10
134.0590881633
 20
207.7104592114
 30
0.0
 10
132.8693450583
 20
207.7236459275
 30
0.0
 10
132.1413614996
 20
207.7305627527
 30
0.0
  0
SPLINE
  5
478
100
AcDbEntity
  8
0
100
AcDbSpline
 62
7
  6
CONTINUOUS
 70
0
 71
3
 72
17
 73
13
 74
0
 42
0.0000001
 43
0.0000001
 44
0.0000000001
 40
0.0
 40
0.0
 40
0.0
 40
0.0
 40
0.1677496773
 40
0.3303427616
 40
0.4833891096
 40
0.6231384078
 40
0.7464284705
 40
0.8509482216
 40
0.8957271307
 40
0.9353788809
 40
0.9700084931
 40
1.0
 40
1.0
 40
1.0
 40
1.0
 10
120.5926642757
 20
204.4827809413
 30
0.0
 10
121.4699971061
 20
204.4790398216
 30
0.0
 10
123.1979457323
 20
204.5196539796
 30
0.0
 10
125.7219189322
 20
204.6758782603
 30
0.0
 10
128.0904985634
 20
204.9348120056
 30
0.0
 10
130.2398017594
 20
205.283273683
 30
0.0
 10
132.1155041813
 20
205.7104907935
 30
0.0
 10
133.4769455518
 20
206.1432524335
 30
0.0
 10
134.3871901492
 20
206.5297250147
 30
0.0
 10
134.9416379024
 20
206.814825252
 30
0.0
 10
135.4012732506
 20
207.1100825765
 30
0.0
 10
135.6600557258
 20
207.3302230375
 30
0.0
 10
135.768834395
 20
207.4432338113
 30
0.0
  0
SPLINE
  5
479
100
AcDbEntity
  8
0
100
AcDbSpline
 62
7
  6
CONTINUOUS
 70
0
 71
3
 72
9
 73
5
 74
0
 42
0.0000001
 43
0.0000001
 44
0.0000000001
 40
0.0
 40
0.0
 40
0.0
 40
0.0
 40
0.4431682486
 40
1.0
 40
1.0
 40
1.0
 40
1.0
 10
120.5114080907
 20
212.9667960014
 30
0.0
 10
120.5404838338
 20
211.7137747185
 30
0.0
 10
120.5803659903
 20
208.8857820625
 30
0.0
 10
120.5930372463
 20
206.0576001287
 30
0.0
 10
120.5930840313
 20
204.4827809576
 30
0.0
  0
SPLINE
  5
47A
100
AcDbEntity
  8
0
100
AcDbSpline
 62
7
  6
CONTINUOUS
 70
0
 71
3
 72
11
 73
7
 74
0
 42
0.0000001
 43
0.0000001
 44
0.0000000001
 40
0.0
 40
0.0
 40
0.0
 40
0.0
 40
0.2182322686
 40
0.4443300759
 40
0.7006264332
 40
1.0
 40
1.0
 40
1.0
 40
1.0
 10
128.5597624193
 20
214.384745483
 30
0.0
 10
128.5841989887
 20
214.4179534956
 30
0.0
 10
128.611890483
 20
214.5032283619
 30
0.0
 10
128.5842937093
 20
214.6364907137
 30
0.0
 10
128.5049404737
 20
214.7638184574
 30
0.0
 10
128.4235207289
 20
214.833204936
 30
0.0
 10
128.3755956371
 20
214.8632416723
 30
0.0
  0
SPLINE
  5
47B
100
AcDbEntity
  8
0
100
AcDbSpline
 62
7
  6
CONTINUOUS
 70
0
 71
3
 72
10
 73
6
 74
0
 42
0.0000001
 43
0.0000001
 44
0.0000000001
 40
0.0
 40
0.0
 40
0.0
 40
0.0
 40
0.2485236405
 40
0.5099557341
 40
1.0
 40
1.0
 40
1.0
 40
1.0
 10
135.7104626281
 20
207.6795704073
 30
0.0
 10
135.7095165283
 20
207.7292337579
 30
0.0
 10
135.6863202333
 20
207.8311297128
 30
0.0
 10
135.5796802976
 20
208.0043986679
 30
0.0
 10
135.4220108573
 20
208.0715803207
 30
0.0
 10
135.3240658539
 20
208.071655044
 30
0.0
  0
SPLINE
  5
47C
100
AcDbEntity
  8
0
100
AcDbSpline
 62
7
  6
CONTINUOUS
 70
0
 71
3
 72
10
 73
6
 74
0
 42
0.0000001
 43
0.0000001
 44
0.0000000001
 40
0.0
 40
0.0
 40
0.0
 40
0.0
 40
0.4520492833
 40
0.7245697908
 40
1.0
 40
1.0
 40
1.0
 40
1.0
 10
131.8509658789
 20
208.0738910976
 30
0.0
 10
131.9236921876
 20
208.0740483118
 30
0.0
 10
132.0404747501
 20
208.0047014973
 30
0.0
 10
132.1150743382
 20
207.8614619252
 30
0.0
 10
132.1367390051
 20
207.7746907482
 30
0.0
 10
132.1413554114
 20
207.7306201803
 30
0.0
  0
SPLINE
  5
47D
100
AcDbEntity
  8
0
100
AcDbSpline
 62
7
  6
CONTINUOUS
 70
0
 71
3
 72
10
 73
6
 74
0
 42
0.0000001
 43
0.0000001
 44
0.0000000001
 40
0.0
 40
0.0
 40
0.0
 40
0.0
 40
0.2479058375
 40
0.5093299723
 40
1.0
 40
1.0
 40
1.0
 40
1.0
 10
135.8247221238
 20
207.6715337413
 30
0.0
 10
135.8247217029
 20
207.7218466375
 30
0.0
 10
135.8027047203
 20
207.825601644
 30
0.0
 10
135.6961797229
 20
208.0027789097
 30
0.0
 10
135.5356380472
 20
208.0715061737
 30
0.0
 10
135.436055761
 20
208.0714964318
 30
0.0
  0
SPLINE
  5
47E
100
AcDbEntity
  8
0
100
AcDbSpline
 62
7
  6
CONTINUOUS
 70
0
 71
3
 72
13
 73
9
 74
0
 42
0.0000001
 43
0.0000001
 44
0.0000000001
 40
0.0
 40
0.0
 40
0.0
 40
0.0
 40
0.1271678009
 40
0.2538443298
 40
0.3798518349
 40
0.5051309054
 40
0.7535419067
 40
1.0
 40
1.0
 40
1.0
 40
1.0
 10
127.9825340526
 20
122.8610041811
 30
0.0
 10
128.3057196156
 20
123.5549503882
 30
0.0
 10
128.8560451776
 20
124.9847859409
 30
0.0
 10
129.4770570871
 20
127.1876636293
 30
0.0
 10
129.9207072191
 20
129.4215639636
 30
0.0
 10
130.2933523749
 20
132.408557982
 30
0.0
 10
130.3805816729
 20
136.1514473481
 30
0.0
 10
130.0979309186
 20
139.1235594988
 30
0.0
 10
129.8830550736
 20
140.5915222363
 30
0.0
  0
SPLINE
  5
47F
100
AcDbEntity
  8
0
100
AcDbSpline
 62
7
  6
CONTINUOUS
 70
0
 71
3
 72
9
 73
5
 74
0
 42
0.0000001
 43
0.0000001
 44
0.0000000001
 40
0.0
 40
0.0
 40
0.0
 40
0.0
 40
0.2593188778
 40
1.0
 40
1.0
 40
1.0
 40
1.0
 10
97.9155187232
 20
140.5915222139
 30
0.0
 10
97.7825422149
 20
140.5967089885
 30
0.0
 10
97.2696932614
 20
140.6153545379
 30
0.0
 10
96.7566134694
 20
140.6264736095
 30
0.0
 10
96.3766112715
 20
140.6352605825
 30
0.0
  0
SPLINE
  5
480
100
AcDbEntity
  8
0
100
AcDbSpline
 62
7
  6
CONTINUOUS
 70
0
 71
3
 72
10
 73
6
 74
0
 42
0.0000001
 43
0.0000001
 44
0.0000000001
 40
0.0
 40
0.0
 40
0.0
 40
0.0
 40
0.4906699751
 40
0.7520941362
 40
1.0
 40
1.0
 40
1.0
 40
1.0
 10
136.3530535235
 20
208.0701470394
 30
0.0
 10
136.4526357968
 20
208.0701565921
 30
0.0
 10
136.6131775021
 20
208.0014295992
 30
0.0
 10
136.7197024026
 20
207.8242522351
 30
0.0
 10
136.7417194669
 20
207.7204972493
 30
0.0
 10
136.7417198863
 20
207.6701843489
 30
0.0
  0
SPLINE
  5
481
100
AcDbEntity
  8
0
100
AcDbSpline
 62
7
  6
CONTINUOUS
 70
0
 71
3
 72
11
 73
7
 74
0
 42
0.0000001
 43
0.0000001
 44
0.0000000001
 40
0.0
 40
0.0
 40
0.0
 40
0.0
 40
0.2499752704
 40
0.4999654111
 40
0.749993276
 40
1.0
 40
1.0
 40
1.0
 40
1.0
 10
137.2805310968
 20
207.6692243212
 30
0.0
 10
137.2805306591
 20
207.7217421674
 30
0.0
 10
137.2588418652
 20
207.8279839022
 30
0.0
 10
137.1669591654
 20
207.9609529592
 30
0.0
 10
137.0315288231
 20
208.0488370347
 30
0.0
 10
136.9253819654
 20
208.0692144081
 30
0.0
 10
136.8728575119
 20
208.0692242953
 30
0.0
  0
SPLINE
  5
482
100
AcDbEntity
  8
0
100
AcDbSpline
 62
7
  6
CONTINUOUS
 70
0
 71
3
 72
9
 73
5
 74
0
 42
0.0000001
 43
0.0000001
 44
0.0000000001
 40
0.0
 40
0.0
 40
0.0
 40
0.0
 40
0.2828621329
 40
1.0
 40
1.0
 40
1.0
 40
1.0
 10
99.6653728324
 20
122.8609970116
 30
0.0
 10
99.4427623893
 20
122.7666954305
 30
0.0
 10
98.6549624775
 20
122.4352460838
 30
0.0
 10
97.8644994276
 20
122.1099455683
 30
0.0
 10
97.294164251
 20
121.8854342282
 30
0.0
  0
SPLINE
  5
483
100
AcDbEntity
  8
0
100
AcDbSpline
 62
7
  6
CONTINUOUS
 70
0
 71
3
 72
9
 73
5
 74
0
 42
0.0000001
 43
0.0000001
 44
0.0000000001
 40
0.0
 40
0.0
 40
0.0
 40
0.0
 40
0.2770658762
 40
1.0
 40
1.0
 40
1.0
 40
1.0
 10
100.3691958377
 20
121.2709299033
 30
0.0
 10
100.1698611497
 20
121.1956331446
 30
0.0
 10
99.449568411
 20
120.9261390611
 30
0.0
 10
98.7262222829
 20
120.6645807887
 30
0.0
 10
98.2000997672
 20
120.4848215119
 30
0.0
  0
SPLINE
  5
484
100
AcDbEntity
  8
0
100
AcDbSpline
 62
7
  6
CONTINUOUS
 70
0
 71
3
 72
9
 73
5
 74
0
 42
0.0000001
 43
0.0000001
 44
0.0000000001
 40
0.0
 40
0.0
 40
0.0
 40
0.0
 40
0.2562219664
 40
1.0
 40
1.0
 40
1.0
 40
1.0
 10
104.0075192185
 20
118.6889644981
 30
0.0
 10
103.916420621
 20
118.5196252136
 30
0.0
 10
103.5699220479
 20
117.8539345067
 30
0.0
 10
103.2583485438
 20
117.1697146063
 30
0.0
 10
103.0525784045
 20
116.6508396649
 30
0.0
  0
SPLINE
  5
485
100
AcDbEntity
  8
0
100
AcDbSpline
 62
7
  6
CONTINUOUS
 70
0
 71
3
 72
9
 73
5
 74
0
 42
0.0000001
 43
0.0000001
 44
0.0000000001
 40
0.0
 40
0.0
 40
0.0
 40
0.0
 40
0.4961131434
 40
1.0
 40
1.0
 40
1.0
 40
1.0
 10
137.2806052494
 20
213.3175618813
 30
0.0
 10
137.4680370704
 20
214.2542548712
 30
0.0
 10
137.8018081216
 20
216.1511496146
 30
0.0
 10
138.0811909871
 20
218.0564023903
 30
0.0
 10
138.2126691043
 20
219.0176823267
 30
0.0
  0
SPLINE
  5
486
100
AcDbEntity
  8
0
100
AcDbSpline
 62
7
  6
CONTINUOUS
 70
0
 71
3
 72
9
 73
5
 74
0
 42
0.0000001
 43
0.0000001
 44
0.0000000001
 40
0.0
 40
0.0
 40
0.0
 40
0.0
 40
0.5948143072
 40
1.0
 40
1.0
 40
1.0
 40
1.0
 10
133.2058664634
 20
216.645041407
 30
0.0
 10
133.965604077
 20
216.6319755552
 30
0.0
 10
135.2427515859
 20
216.6030444662
 30
0.0
 10
136.5194416132
 20
216.5553118148
 30
0.0
 10
137.0362989998
 20
216.5274561169
 30
0.0
  0
SPLINE
  5
487
100
AcDbEntity
  8
0
100
AcDbSpline
 62
7
  6
CONTINUOUS
 70
0
 71
3
 72
9
 73
5
 74
0
 42
0.0000001
 43
0.0000001
 44
0.0000000001
 40
0.0
 40
0.0
 40
0.0
 40
0.0
 40
0.2567430422
 40
1.0
 40
1.0
 40
1.0
 40
1.0
 10
125.2779930802
 20
219.9038178929
 30
0.0
 10
126.0101386392
 20
219.8080679856
 30
0.0
 10
128.8318734366
 20
219.2506202958
 30
0.0
 10
131.5335933247
 20
217.976524715
 30
0.0
 10
133.2058749385
 20
216.645105041
 30
0.0
  0
SPLINE
  5
488
100
AcDbEntity
  8
0
100
AcDbSpline
 62
7
  6
CONTINUOUS
 70
0
 71
3
 72
11
 73
7
 74
0
 42
0.0000001
 43
0.0000001
 44
0.0000000001
 40
0.0
 40
0.0
 40
0.0
 40
0.0
 40
0.2308807379
 40
0.4766507794
 40
0.73440457
 40
1.0
 40
1.0
 40
1.0
 40
1.0
 10
134.8365539987
 20
223.3142975832
 30
0.0
 10
134.2582820998
 20
223.6948575364
 30
0.0
 10
132.9825719867
 20
224.3607379255
 30
0.0
 10
130.873462937
 20
225.0255636331
 30
0.0
 10
128.5862114437
 20
225.3750673962
 30
0.0
 10
127.011154697
 20
225.396324765
 30
0.0
 10
126.2161580938
 20
225.3499696601
 30
0.0
  0
SPLINE
  5
489
100
AcDbEntity
  8
0
100
AcDbSpline
 62
7
  6
CONTINUOUS
 70
0
 71
3
 72
11
 73
7
 74
0
 42
0.0000001
 43
0.0000001
 44
0.0000000001
 40
0.0
 40
0.0
 40
0.0
 40
0.0
 40
0.2134113663
 40
0.4486142186
 40
0.7104460297
 40
1.0
 40
1.0
 40
1.0
 40
1.0
 10
138.2126691043
 20
219.0176823267
 30
0.0
 10
138.1375673077
 20
219.4087331546
 30
0.0
 10
137.8595697955
 20
220.2102409
 30
0.0
 10
137.1342934585
 20
221.331234649
 30
0.0
 10
136.1113412845
 20
222.3936265352
 30
0.0
 10
135.2877351669
 20
223.017100076
 30
0.0
 10
134.8365539987
 20
223.3142975832
 30
0.0
  0
SPLINE
  5
48A
100
AcDbEntity
  8
0
100
AcDbSpline
 62
7
  6
CONTINUOUS
 70
0
 71
3
 72
11
 73
7
 74
0
 42
0.0000001
 43
0.0000001
 44
0.0000000001
 40
0.0
 40
0.0
 40
0.0
 40
0.0
 40
0.2885269064
 40
0.5450607826
 40
0.7760623579
 40
1.0
 40
1.0
 40
1.0
 40
1.0
 10
133.2058760984
 20
216.6450316939
 30
0.0
 10
133.2294306482
 20
216.5796693873
 30
0.0
 10
133.2472034679
 20
216.4452489608
 30
0.0
 10
133.2026761526
 20
216.2600444961
 30
0.0
 10
133.1000869661
 20
216.1158432961
 30
0.0
 10
132.9892649132
 20
216.0716789718
 30
0.0
 10
132.9353410184
 20
216.0716119657
 30
0.0
  0
SPLINE
  5
48B
100
AcDbEntity
  8
0
100
AcDbSpline
 62
7
  6
CONTINUOUS
 70
0
 71
3
 72
11
 73
7
 74
0
 42
0.0000001
 43
0.0000001
 44
0.0000000001
 40
0.0
 40
0.0
 40
0.0
 40
0.0
 40
0.2500610924
 40
0.5001894107
 40
0.7501718505
 40
1.0
 40
1.0
 40
1.0
 40
1.0
 10
136.6182882819
 20
216.0692237879
 30
0.0
 10
136.6765675924
 20
216.0692332236
 30
0.0
 10
136.7944701474
 20
216.0924968931
 30
0.0
 10
136.9428503022
 20
216.194025326
 30
0.0
 10
137.0358648012
 20
216.348787083
 30
0.0
 10
137.0452073211
 20
216.4699228497
 30
0.0
 10
137.0363131412
 20
216.527464545
 30
0.0
  0
SPLINE
  5
48C
100
AcDbEntity
  8
0
100
AcDbSpline
 62
7
  6
CONTINUOUS
 70
0
 71
3
 72
9
 73
5
 74
0
 42
0.0000001
 43
0.0000001
 44
0.0000000001
 40
0.0
 40
0.0
 40
0.0
 40
0.0
 40
0.5227106922
 40
1.0
 40
1.0
 40
1.0
 40
1.0
 10
106.1790632016
 20
117.9766293867
 30
0.0
 10
105.7385061385
 20
117.5534221835
 30
0.0
 10
104.9240614847
 20
116.713632388
 30
0.0
 10
104.1796992266
 20
115.8100704015
 30
0.0
 10
103.8492942506
 20
115.360640535
 30
0.0
  0
SPLINE
  5
48D
100
AcDbEntity
  8
0
100
AcDbSpline
 62
7
  6
CONTINUOUS
 70
0
 71
3
 72
9
 73
5
 74
0
 42
0.0000001
 43
0.0000001
 44
0.0000000001
 40
0.0
 40
0.0
 40
0.0
 40
0.0
 40
0.5243902417
 40
1.0
 40
1.0
 40
1.0
 40
1.0
 10
121.5789923849
 20
117.9764696973
 30
0.0
 10
122.013047758
 20
117.5547934442
 30
0.0
 10
122.8097288091
 20
116.7179646947
 30
0.0
 10
123.5278490207
 20
115.8114103247
 30
0.0
 10
123.8409608787
 20
115.3606200562
 30
0.0
  0
SPLINE
  5
48E
100
AcDbEntity
  8
0
100
AcDbSpline
 62
7
  6
CONTINUOUS
 70
0
 71
3
 72
9
 73
5
 74
0
 42
0.0000001
 43
0.0000001
 44
0.0000000001
 40
0.0
 40
0.0
 40
0.0
 40
0.0
 40
0.4638258049
 40
1.0
 40
1.0
 40
1.0
 40
1.0
 10
124.6272016511
 20
116.6508984881
 30
0.0
 10
124.4657033227
 20
116.481275698
 30
0.0
 10
124.1845225612
 20
116.0551941339
 30
0.0
 10
123.9566536029
 20
115.6054234838
 30
0.0
 10
123.8409670172
 20
115.3606436863
 30
0.0
  0
ELLIPSE
  5
48F
100
AcDbEntity
  8
0
100
AcDbEllipse
 62
7
  6
CONTINUOUS
 10
98.1551187088
 20
30.3851318623
 30
0.0
 11
-0.0371924345
 21
4.9998900331
 31
0.0
 40
0.9099011924
 41
1.5626304407
 42
1.5937844633
  0
ENDSEC
  0
SECTION
  2
OBJECTS
  0
DICTIONARY
  5
C
100
AcDbDictionary
280
0
281
1
  3
ACAD_GROUP
350
D
  3
ACAD_MLINESTYLE
350
17
  3
ACAD_LAYOUT
350
1A
  3
ACAD_PLOTSETTINGS
350
19
  3
ACAD_PLOTSTYLENAME
350
E
  0
DICTIONARY
  5
D
102
{ACAD_REACTORS
330
C
102
}
100
AcDbDictionary
280
0
281
1
  0
ACDBDICTIONARYWDFLT
  5
E
102
{ACAD_REACTORS
330
C
102
}
100
AcDbDictionary
281
1
  3
Normal
350
F
100
AcDbDictionaryWithDefault
340
F
  0
DICTIONARY
  5
17
102
{ACAD_REACTORS
330
C
102
}
100
AcDbDictionary
280
0
281
1
  3
Standard
350
18
  0
DICTIONARY
  5
19
102
{ACAD_REACTORS
330
C
102
}
100
AcDbDictionary
281
1
  0
DICTIONARY
  5
1A
102
{ACAD_REACTORS
330
C
102
}
100
AcDbDictionary
281
1
  3
Model
350
490
  3
Layout1
350
491
  0
ACDBPLACEHOLDER
  5
F
102
{ACAD_REACTORS
330
E
102
}
  0
MLINESTYLE
  5
18
102
{ACAD_REACTORS
330
17
102
}
100
AcDbMlineStyle
  2
STANDARD
 70
0
  3

 62
256
 51
90.0
 52
90.0
 71
2
 49
0.5
 62
256
  6
BYLAYER
 49
-0.5
 62
256
  6
BYLAYER
  0
LAYOUT
  5
490
102
{ACAD_REACTORS
330
1A
102
}
100
AcDbPlotSettings
  1

  2
none_device
  4

  6

 40
0.0
 41
0.0
 42
0.0
 43
0.0
 44
210.0
 45
297.0
 46
0.0
 47
0.0
 48
0.0
 49
0.0
140
0.0
141
0.0
142
1.0
143
1.0
 70
1024
 72
1
 73
0
 74
0
  7

 75
0
147
1.0
148
0.0
149
0.0
100
AcDbLayout
  1
Model
 70
0
 71
0
 10
0.0
 20
0.0
 11
210.0
 21
297.0
 12
0.0
 22
0.0
 32
0.0
 14
0.0
 24
0.0
 34
0.0
 15
0.0
 25
0.0
 35
0.0
146
0.0
 13
0.0
 23
0.0
 33
0.0
 16
1.0
 26
0.0
 36
0.0
 17
0.0
 27
1.0
 37
0.0
 76
0
330
210
345
0
346
0
  0
LAYOUT
  5
491
102
{ACAD_REACTORS
330
1A
102
}
100
AcDbPlotSettings
  1

  2
none_device
  4

  6

 40
0.0
 41
0.0
 42
0.0
 43
0.0
 44
210.0
 45
297.0
 46
0.0
 47
0.0
 48
0.0
 49
0.0
140
0.0
141
0.0
142
1.0
143
1.0
 70
0
 72
1
 73
0
 74
0
  7

 75
0
147
1.0
148
0.0
149
0.0
100
AcDbLayout
  1
Layout1
 70
0
 71
1
 10
0.0
 20
0.0
 11
210.0
 21
297.0
 12
0.0
 22
0.0
 32
0.0
 14
0.0
 24
0.0
 34
0.0
 15
0.0
 25
0.0
 35
0.0
146
0.0
 13
0.0
 23
0.0
 33
0.0
 16
1.0
 26
0.0
 36
0.0
 17
0.0
 27
1.0
 37
0.0
 76
0
330
211
345
0
346
0
  0
ENDSEC
  0
EOF
