999
DXF file: C:\Users\sesa63760\Dev\_Creo\CAD\MCADPP0003371_3D-CAD\drw0001_1.dxf
999
Pro/ENGINEER 2019471 by Parametric Technology Corporation
  0
SECTION
  2
HEADER
  9
$ACADVER
  1
AC1024
  9
$DWGCODEPAGE
  3
ANSI_1252
  9
$EXTMAX
 10
125.6260019113
 20
177.6710598459
 30
0.0
  9
$EXTMIN
 10
0.0
 20
0.0
 30
0.0
  9
$LIMMIN
 10
0.0
 20
0.0
  9
$LIMMAX
 10
125.6260019113
 20
177.6710598459
  9
$VIEWCTR
 10
62.8130009556
 20
88.835529923
  9
$VIEWSIZE
 40
177.6710598459
  9
$CLAYER
  8
0
  9
$LTSCALE
 40
11.5815209381
  9
$CELTYPE
  6
BYLAYER
  9
$DIMSCALE
 40
1.0
  9
$DIMASZ
 40
1.4955476418
  9
$DIMEXO
 40
1.0
  9
$DIMDLI
 40
8.0017781027
  9
$DIMEXE
 40
1.0
  9
$DIMCEN
 40
1.8951579717
  9
$DIMLFAC
 40
1.0
  9
$DIMBLK
  1
_FILLED
  9
$DIMALT
 70
0
  9
$DIMALTF
 40
0.0393700787
  9
$DIMTXT
 40
2.0937666985
  9
$DIMTOL
 70
1
  9
$DIMLIM
 70
0
  9
$DIMTFAC
 40
1.0
  9
$DIMTP
 40
0.01
  9
$DIMTM
 40
0.01
  9
$DIMGAP
 40
0.625
  9
$DIMDSEP
 70
46
  9
$AUNITS
 70
0
  9
$PDMODE
 70
3
  9
$PDSIZE
 40
0.3125
  9
$HANDSEED
  5
34C
  9
$TILEMODE
 70
1
  9
$MEASUREMENT
 70
1
  9
$INSUNITS
 70
4
  0
ENDSEC
  0
SECTION
  2
CLASSES
  0
CLASS
  1
ACDBDICTIONARYWDFLT
  2
AcDbDictionaryWithDefault
  3
AutoCAD 2000
 90
0
 91
1
280
0
281
0
  0
CLASS
  1
ACDBPLACEHOLDER
  2
AcDbPlaceHolder
  3
AutoCAD 2000
 90
0
 91
1
280
0
281
0
  0
CLASS
  1
LAYOUT
  2
AcDbLayout
  3
AutoCAD 2000
 90
0
 91
0
280
0
281
0
  0
ENDSEC
  0
SECTION
  2
TABLES
  0
TABLE
  2
VPORT
  5
8
100
AcDbSymbolTable
 70
2
  0
VPORT
  5
1F4
100
AcDbSymbolTableRecord
100
AcDbViewportTableRecord
  2
*ACTIVE
 70
0
 10
0.0
 20
0.0
 11
1.0
 21
1.0
 12
62.8130009556
 22
88.835529923
 13
0.0
 23
0.0
 14
1.0
 24
1.0
 15
0.0
 25
0.0
 16
0.0
 26
0.0
 36
1.0
 17
0.0
 27
0.0
 37
0.0
 40
177.6710598459
 41
0.7070707071
 42
50.0
 43
0.0
 44
0.0
 50
0.0
 51
0.0
 71
0
 72
100
 73
1
 74
1
 75
0
 76
0
 77
0
 78
0
  0
ENDTAB
  0
TABLE
  2
LTYPE
  5
5
100
AcDbSymbolTable
 70
6
  0
LTYPE
  5
14
100
AcDbSymbolTableRecord
100
AcDbLinetypeTableRecord
  2
BYBLOCK
 70
0
  3

 72
65
 73
0
 40
0.0
  0
LTYPE
  5
15
100
AcDbSymbolTableRecord
100
AcDbLinetypeTableRecord
  2
BYLAYER
 70
0
  3

 72
65
 73
0
 40
0.0
  0
LTYPE
  5
16
100
AcDbSymbolTableRecord
100
AcDbLinetypeTableRecord
  2
CONTINUOUS
 70
64
  3
Solid line
 72
65
 73
0
 40
0.0
  0
LTYPE
  5
1F5
100
AcDbSymbolTableRecord
100
AcDbLinetypeTableRecord
  2
CENTER
 70
64
  3
____ _ ____ _ ____ _ ____ _ ____ _ ____ _ ____
 72
65
 73
4
 40
0.6
 49
0.375
 74
0
 49
-0.075
 74
0
 49
0.075
 74
0
 49
-0.075
 74
0
  0
LTYPE
  5
1F6
100
AcDbSymbolTableRecord
100
AcDbLinetypeTableRecord
  2
HIDDEN
 70
64
  3
- - - - - - - - - - - - - - - - - - - -
 72
65
 73
2
 40
0.2
 49
0.1
 74
0
 49
-0.1
 74
0
  0
LTYPE
  5
1F7
100
AcDbSymbolTableRecord
100
AcDbLinetypeTableRecord
  2
PHANTOM
 70
64
  3
_____ _ _ _____ _ _ _____ _ _ _____
 72
65
 73
6
 40
0.8
 49
0.45
 74
0
 49
-0.05
 74
0
 49
0.1
 74
0
 49
-0.05
 74
0
 49
0.1
 74
0
 49
-0.05
 74
0
  0
LTYPE
  5
1F8
100
AcDbSymbolTableRecord
100
AcDbLinetypeTableRecord
  2
DOT
 70
64
  3
. . . . . . . . . . . . . . . . . . . .
 72
65
 73
2
 40
0.2
 49
0.1
 74
0
 49
-0.1
 74
0
  0
LTYPE
  5
1F9
100
AcDbSymbolTableRecord
100
AcDbLinetypeTableRecord
  2
DASHED
 70
64
  3
- - - - - - - - - - - - - - - - - - - -
 72
65
 73
2
 40
0.2
 49
0.1
 74
0
 49
-0.1
 74
0
  0
ENDTAB
  0
TABLE
  2
LAYER
  5
2
100
AcDbSymbolTable
 70
36
  0
LAYER
  5
10
100
AcDbSymbolTableRecord
100
AcDbLayerTableRecord
  2
0
 70
0
 62
7
  6
CONTINUOUS
370
-3
390
F
  0
LAYER
  5
1FA
100
AcDbSymbolTableRecord
100
AcDbLayerTableRecord
  2
DEFAULT_1
 70
0
 62
7
  6
CENTER
370
-3
390
F
  0
LAYER
  5
1FB
100
AcDbSymbolTableRecord
100
AcDbLayerTableRecord
  2
DEFAULT_2
 70
0
 62
8
  6
HIDDEN
370
-3
390
F
  0
LAYER
  5
1FC
100
AcDbSymbolTableRecord
100
AcDbLayerTableRecord
  2
DEFAULT_3
 70
0
 62
7
  6
PHANTOM
370
-3
390
F
  0
LAYER
  5
1FD
100
AcDbSymbolTableRecord
100
AcDbLayerTableRecord
  2
00_COMPONENTS
 70
0
 62
7
  6
CONTINUOUS
370
-3
390
F
  0
LAYER
  5
1FE
100
AcDbSymbolTableRecord
100
AcDbLayerTableRecord
  2
00_COMPONENTS_1
 70
0
 62
7
  6
CONTINUOUS
370
-3
390
F
  0
LAYER
  5
1FF
100
AcDbSymbolTableRecord
100
AcDbLayerTableRecord
  2
01_1_DEFAULT_DATUMS
 70
0
 62
7
  6
CONTINUOUS
370
-3
390
F
  0
LAYER
  5
200
100
AcDbSymbolTableRecord
100
AcDbLayerTableRecord
  2
01_PLANES
 70
0
 62
7
  6
CONTINUOUS
370
-3
390
F
  0
LAYER
  5
201
100
AcDbSymbolTableRecord
100
AcDbLayerTableRecord
  2
02_COORD_SYS
 70
0
 62
7
  6
CONTINUOUS
370
-3
390
F
  0
LAYER
  5
202
100
AcDbSymbolTableRecord
100
AcDbLayerTableRecord
  2
03_AXES
 70
0
 62
7
  6
CONTINUOUS
370
-3
390
F
  0
LAYER
  5
203
100
AcDbSymbolTableRecord
100
AcDbLayerTableRecord
  2
03_AXES_1
 70
0
 62
7
  6
CONTINUOUS
370
-3
390
F
  0
LAYER
  5
204
100
AcDbSymbolTableRecord
100
AcDbLayerTableRecord
  2
04_POINTS
 70
0
 62
7
  6
CONTINUOUS
370
-3
390
F
  0
LAYER
  5
205
100
AcDbSymbolTableRecord
100
AcDbLayerTableRecord
  2
05_CURVES
 70
0
 62
7
  6
CONTINUOUS
370
-3
390
F
  0
LAYER
  5
206
100
AcDbSymbolTableRecord
100
AcDbLayerTableRecord
  2
06_SURFS
 70
0
 62
7
  6
CONTINUOUS
370
-3
390
F
  0
LAYER
  5
207
100
AcDbSymbolTableRecord
100
AcDbLayerTableRecord
  2
07_COSMETICS
 70
0
 62
7
  6
CONTINUOUS
370
-3
390
F
  0
LAYER
  5
208
100
AcDbSymbolTableRecord
100
AcDbLayerTableRecord
  2
10_NOTES
 70
0
 62
7
  6
CONTINUOUS
370
-3
390
F
  0
LAYER
  5
209
100
AcDbSymbolTableRecord
100
AcDbLayerTableRecord
  2
11_NOTES_PUB
 70
0
 62
7
  6
CONTINUOUS
370
-3
390
F
  0
LAYER
  5
20A
100
AcDbSymbolTableRecord
100
AcDbLayerTableRecord
  2
13_REF_GTOL
 70
0
 62
7
  6
CONTINUOUS
370
-3
390
F
  0
LAYER
  5
20B
100
AcDbSymbolTableRecord
100
AcDbLayerTableRecord
  2
16_MISC
 70
0
 62
7
  6
CONTINUOUS
370
-3
390
F
  0
LAYER
  5
20C
100
AcDbSymbolTableRecord
100
AcDbLayerTableRecord
  2
17_NO_PRINT
 70
0
 62
7
  6
CONTINUOUS
370
-3
390
F
  0
LAYER
  5
20D
100
AcDbSymbolTableRecord
100
AcDbLayerTableRecord
  2
18_DATUM_CAMS_JOINTS
 70
0
 62
7
  6
CONTINUOUS
370
-3
390
F
  0
LAYER
  5
20E
100
AcDbSymbolTableRecord
100
AcDbLayerTableRecord
  2
19_DATUM_FUNCTIONAL
 70
0
 62
7
  6
CONTINUOUS
370
-3
390
F
  0
LAYER
  5
20F
100
AcDbSymbolTableRecord
100
AcDbLayerTableRecord
  2
20_DATUM_KINEMATIC_SCHEME
 70
0
 62
7
  6
CONTINUOUS
370
-3
390
F
  0
LAYER
  5
210
100
AcDbSymbolTableRecord
100
AcDbLayerTableRecord
  2
INTFCLR_31
 70
0
 62
7
  6
CONTINUOUS
370
-3
390
F
  0
LAYER
  5
211
100
AcDbSymbolTableRecord
100
AcDbLayerTableRecord
  2
INTFCLR_71
 70
0
 62
7
  6
CONTINUOUS
370
-3
390
F
  0
LAYER
  5
212
100
AcDbSymbolTableRecord
100
AcDbLayerTableRecord
  2
INTF_BLANK
 70
0
 62
7
  6
CONTINUOUS
370
-3
390
F
  0
LAYER
  5
213
100
AcDbSymbolTableRecord
100
AcDbLayerTableRecord
  2
_BLACK_HOLE
 70
0
 62
7
  6
CONTINUOUS
370
-3
390
F
  0
ENDTAB
  0
TABLE
  2
STYLE
  5
3
100
AcDbSymbolTable
 70
1
  0
STYLE
  5
11
100
AcDbSymbolTableRecord
100
AcDbTextStyleTableRecord
  2
STANDARD
 70
0
 40
0.0
 41
0.8
 50
0.0
 71
0
 42
0.2
  3
txt
  4

  0
STYLE
  5
214
100
AcDbSymbolTableRecord
100
AcDbTextStyleTableRecord
  2
TEXTSTYLE_1
 70
0
 40
0.0
 41
0.8
 50
0.0
 71
0
 42
0.2
  3
gdt
  4

  0
ENDTAB
  0
TABLE
  2
VIEW
  5
6
100
AcDbSymbolTable
 70
0
  0
ENDTAB
  0
TABLE
  2
UCS
  5
7
100
AcDbSymbolTable
 70
0
  0
ENDTAB
  0
TABLE
  2
APPID
  5
9
100
AcDbSymbolTable
 70
1
  0
APPID
  5
215
100
AcDbSymbolTableRecord
100
AcDbRegAppTableRecord
  2
ACAD
 70
0
  0
ENDTAB
  0
TABLE
  2
BLOCK_RECORD
  5
1
100
AcDbSymbolTable
 70
0
  0
BLOCK_RECORD
  5
216
100
AcDbSymbolTableRecord
100
AcDbBlockTableRecord
  2
*Model_Space
  0
BLOCK_RECORD
  5
217
100
AcDbSymbolTableRecord
100
AcDbBlockTableRecord
  2
*Paper_Space
  0
BLOCK_RECORD
  5
218
100
AcDbSymbolTableRecord
100
AcDbBlockTableRecord
  2
_FILLED
  0
ENDTAB
  0
TABLE
  2
DIMSTYLE
  5
A
100
AcDbSymbolTable
 70
1
100
AcDbDimStyleTable
 71
0
  0
DIMSTYLE
105
219
100
AcDbSymbolTableRecord
100
AcDbDimStyleTableRecord
  2
STANDARD
 70
0
  3

  4

 40
1.0
 41
1.4955476418
 42
1.0
 43
0.38
 44
1.0
 45
0.0
 46
0.0
 47
0.01
 48
0.01
140
2.0937666985
141
0.09
142
0.0
143
25.4
144
1.0
145
0.0
146
1.0
147
0.625
 71
1
 72
0
 73
0
 74
0
 75
0
 76
0
 77
1
 78
8
 79
2
170
0
171
1
172
0
173
0
174
0
175
0
176
0
177
0
178
0
270
2
179
2
271
2
272
2
273
2
274
2
275
0
280
0
281
0
282
0
283
1
284
8
285
0
286
0
287
3
288
0
340
11
278
46
341
218
342
218
343
218
344
218
  0
ENDTAB
  0
ENDSEC
  0
SECTION
  2
BLOCKS
  0
BLOCK
  5
20
100
AcDbEntity
  8
0
100
AcDbBlockBegin
  2
*Model_Space
 70
0
 10
0.0
 20
0.0
 30
0.0
  3
*Model_Space
  1

  0
ENDBLK
  5
21
100
AcDbEntity
  8
0
100
AcDbBlockEnd
  0
BLOCK
  5
1C
100
AcDbEntity
  8
0
100
AcDbBlockBegin
  2
*Paper_Space
 70
0
 10
0.0
 20
0.0
 30
0.0
  3
*Paper_Space
  1

  0
ENDBLK
  5
1D
100
AcDbEntity
  8
0
100
AcDbBlockEnd
  0
BLOCK
  5
21A
100
AcDbEntity
  8
0
100
AcDbBlockBegin
  2
_FILLED
 70
64
 10
0.0
 20
0.0
  3
_FILLED
  1

  0
SOLID
  5
21B
100
AcDbEntity
  8
0
  6
BYBLOCK
 62
0
100
AcDbTrace
 10
0.0
 20
0.0
 11
-1.0
 21
0.25
 12
-1.0
 22
-0.25
 13
-1.0
 23
-0.25
  0
ENDBLK
  5
21C
100
AcDbEntity
  8
0
  6
BYBLOCK
 62
0
100
AcDbBlockEnd
  0
ENDSEC
  0
SECTION
  2
ENTITIES
  0
LINE
  5
21D
100
AcDbEntity
  8
00_COMPONENTS_1
100
AcDbLine
 62
7
  6
CONTINUOUS
 10
14.5740615832
 20
66.1598323008
 11
14.5740615832
 21
83.6533965878
  0
LINE
  5
21E
100
AcDbEntity
  8
00_COMPONENTS_1
100
AcDbLine
 62
7
  6
CONTINUOUS
 10
54.9337214594
 20
40.5330756343
 11
62.7634506911
 21
36.8885207591
  0
LINE
  5
21F
100
AcDbEntity
  8
00_COMPONENTS_1
100
AcDbLine
 62
7
  6
CONTINUOUS
 10
35.2569832833
 20
47.4621114575
 11
52.3690242841
 21
39.0523558685
  0
LINE
  5
220
100
AcDbEntity
  8
00_COMPONENTS_1
100
AcDbLine
 62
7
  6
CONTINUOUS
 10
43.2120054516
 20
46.3600720742
 11
17.4025004838
 21
61.2608596142
  0
LINE
  5
221
100
AcDbEntity
  8
00_COMPONENTS_1
100
AcDbLine
 62
7
  6
CONTINUOUS
 10
20.6905085975
 20
57.341541671
 11
35.2569832833
 21
47.4621114575
  0
LINE
  5
222
100
AcDbEntity
  8
00_COMPONENTS_1
100
AcDbLine
 62
7
  6
CONTINUOUS
 10
19.2409457312
 20
87.7006493534
 11
19.2409457312
 21
89.8995900161
  0
LINE
  5
223
100
AcDbEntity
  8
00_COMPONENTS_1
100
AcDbLine
 62
7
  6
CONTINUOUS
 10
20.6905085975
 20
57.341541671
 11
20.6905085975
 21
59.3625701897
  0
LINE
  5
224
100
AcDbEntity
  8
00_COMPONENTS_1
100
AcDbLine
 62
7
  6
CONTINUOUS
 10
20.6905085975
 20
90.7364905316
 11
20.6905085975
 21
99.7996673617
  0
LINE
  5
225
100
AcDbEntity
  8
00_COMPONENTS_1
100
AcDbLine
 62
7
  6
CONTINUOUS
 10
50.9194614178
 20
47.2786321832
 11
49.0327725446
 21
48.3678878697
  0
LINE
  5
226
100
AcDbEntity
  8
00_COMPONENTS_1
100
AcDbLine
 62
7
  6
CONTINUOUS
 10
37.1308853542
 20
54.4229298079
 11
37.1308618154
 21
54.4229435386
  0
LINE
  5
227
100
AcDbEntity
  8
00_COMPONENTS_1
100
AcDbLine
 62
7
  6
CONTINUOUS
 10
54.4547168245
 20
127.4583498804
 11
31.0849350045
 21
113.9658805949
  0
LINE
  5
228
100
AcDbEntity
  8
00_COMPONENTS_1
100
AcDbLine
 62
7
  6
CONTINUOUS
 10
76.3749357781
 20
138.3584384536
 11
81.3246626386
 21
141.2161475307
  0
LINE
  5
229
100
AcDbEntity
  8
00_COMPONENTS_1
100
AcDbLine
 62
7
  6
CONTINUOUS
 10
34.1334413898
 20
113.480583257
 11
38.8984485696
 21
116.2316450133
  0
LINE
  5
22A
100
AcDbEntity
  8
00_COMPONENTS_1
100
AcDbLine
 62
7
  6
CONTINUOUS
 10
34.3149617903
 20
113.3404327584
 11
38.8984485696
 21
115.9866942882
  0
LINE
  5
22B
100
AcDbEntity
  8
00_COMPONENTS_1
100
AcDbLine
 62
7
  6
CONTINUOUS
 10
41.6561576843
 20
117.2522577613
 11
43.494627661
 21
118.3136925614
  0
LINE
  5
22C
100
AcDbEntity
  8
00_COMPONENTS_1
100
AcDbLine
 62
7
  6
CONTINUOUS
 10
76.3749357781
 20
135.5006799936
 11
58.4499558102
 21
125.1517497587
  0
LINE
  5
22D
100
AcDbEntity
  8
00_COMPONENTS_1
100
AcDbLine
 62
7
  6
CONTINUOUS
 10
31.0849350045
 20
105.8008564236
 11
31.0849350045
 21
113.9658805949
  0
LINE
  5
22E
100
AcDbEntity
  8
00_COMPONENTS_1
100
AcDbLine
 62
7
  6
CONTINUOUS
 10
31.0849350045
 20
105.8008564236
 11
20.6905085975
 21
99.7996673617
  0
LINE
  5
22F
100
AcDbEntity
  8
00_COMPONENTS_1
100
AcDbLine
 62
7
  6
CONTINUOUS
 10
63.2481079536
 20
122.3815979964
 11
81.1730879214
 21
132.7305282313
  0
LINE
  5
230
100
AcDbEntity
  8
00_COMPONENTS_1
100
AcDbLine
 62
7
  6
CONTINUOUS
 10
50.49501394
 20
114.2721090917
 11
48.6565439632
 21
113.2106742916
  0
LINE
  5
231
100
AcDbEntity
  8
03_AXES_1
100
AcDbLine
 62
7
420
15788975
  6
CONTINUOUS
 10
37.547866612
 20
106.3479685456
 11
35.9371952171
 21
105.418052533
  0
LINE
  5
232
100
AcDbEntity
  8
00_COMPONENTS_1
100
AcDbLine
 62
7
  6
CONTINUOUS
 10
36.1762115782
 20
91.6756972548
 11
36.1762115782
 21
90.8591948377
  0
LINE
  5
233
100
AcDbEntity
  8
00_COMPONENTS_1
100
AcDbLine
 62
7
  6
CONTINUOUS
 10
36.8833213034
 20
91.2674565003
 11
36.8833213034
 21
90.4509540832
  0
LINE
  5
234
100
AcDbEntity
  8
00_COMPONENTS_1
100
AcDbLine
 62
7
  6
CONTINUOUS
 10
36.9610435517
 20
96.448039032
 11
36.9610435517
 21
98.7015342695
  0
LINE
  5
235
100
AcDbEntity
  8
00_COMPONENTS_1
100
AcDbLine
 62
7
  6
CONTINUOUS
 10
38.8984485696
 20
115.9866942882
 11
38.8984485696
 21
116.2316450133
  0
LINE
  5
236
100
AcDbEntity
  8
00_COMPONENTS_1
100
AcDbLine
 62
7
  6
CONTINUOUS
 10
46.8887884918
 20
111.6185244711
 11
41.2181417625
 21
108.3445945982
  0
LINE
  5
237
100
AcDbEntity
  8
00_COMPONENTS_1
100
AcDbLine
 62
7
  6
CONTINUOUS
 10
41.6149044617
 20
108.0837712974
 11
53.606278478
 21
115.0069529878
  0
LINE
  5
238
100
AcDbEntity
  8
00_COMPONENTS_1
100
AcDbLine
 62
7
  6
CONTINUOUS
 10
93.2748169936
 20
136.7751336836
 11
91.5777677843
 21
135.7953477143
  0
LINE
  5
239
100
AcDbEntity
  8
00_COMPONENTS_1
100
AcDbLine
 62
7
  6
CONTINUOUS
 10
54.6669430657
 20
114.394591856
 11
42.6158093184
 21
107.4369080747
  0
LINE
  5
23A
100
AcDbEntity
  8
00_COMPONENTS_1
100
AcDbLine
 62
7
  6
CONTINUOUS
 10
62.5238100277
 20
118.7266069574
 11
66.0513163169
 21
120.7632015062
  0
LINE
  5
23B
100
AcDbEntity
  8
00_COMPONENTS_1
100
AcDbLine
 62
7
  6
CONTINUOUS
 10
43.0197660562
 20
107.1802382413
 11
48.7979847392
 21
110.5162744399
  0
LINE
  5
23C
100
AcDbEntity
  8
00_COMPONENTS_1
100
AcDbLine
 62
7
  6
CONTINUOUS
 10
43.2251785071
 20
107.053881742
 11
48.7979847392
 21
110.2713237148
  0
LINE
  5
23D
100
AcDbEntity
  8
00_COMPONENTS_1
100
AcDbLine
 62
7
  6
CONTINUOUS
 10
51.5556938363
 20
111.5368871981
 11
53.3941638131
 21
112.5983219981
  0
LINE
  5
23E
100
AcDbEntity
  8
00_COMPONENTS_1
100
AcDbLine
 62
7
  6
CONTINUOUS
 10
63.9380539164
 20
117.9101113391
 11
66.0513163169
 21
119.130196672
  0
LINE
  5
23F
100
AcDbEntity
  8
00_COMPONENTS_1
100
AcDbLine
 62
7
  6
CONTINUOUS
 10
17.4025004838
 20
85.2864432383
 11
43.2120054516
 21
70.3856556983
  0
LINE
  5
240
100
AcDbEntity
  8
00_COMPONENTS_1
100
AcDbLine
 62
7
  6
CONTINUOUS
 10
43.494627661
 20
116.1908406378
 11
43.494627661
 21
118.3136925614
  0
LINE
  5
241
100
AcDbEntity
  8
00_COMPONENTS_1
100
AcDbLine
 62
7
  6
CONTINUOUS
 10
43.6715746648
 20
87.3483452569
 11
43.6715746648
 21
86.5318428398
  0
LINE
  5
242
100
AcDbEntity
  8
00_COMPONENTS_1
100
AcDbLine
 62
7
  6
CONTINUOUS
 10
44.3786843899
 20
86.9401045024
 11
44.3786843899
 21
86.1236020853
  0
LINE
  5
243
100
AcDbEntity
  8
00_COMPONENTS_1
100
AcDbLine
 62
7
  6
CONTINUOUS
 10
44.4564066383
 20
92.1206870341
 11
44.4564066383
 21
94.3741822715
  0
LINE
  5
244
100
AcDbEntity
  8
00_COMPONENTS_1
100
AcDbLine
 62
7
  6
CONTINUOUS
 10
20.6905085975
 20
90.7364905316
 11
19.2409457312
 21
89.8995900161
  0
LINE
  5
245
100
AcDbEntity
  8
00_COMPONENTS_1
100
AcDbLine
 62
7
  6
CONTINUOUS
 10
36.9610435517
 20
98.7015342695
 11
29.7973617146
 21
94.5656053206
  0
LINE
  5
246
100
AcDbEntity
  8
00_COMPONENTS_1
100
AcDbLine
 62
7
  6
CONTINUOUS
 10
29.9970418258
 20
94.4359392732
 11
35.2215681122
 21
97.4523029258
  0
LINE
  5
247
100
AcDbEntity
  8
00_COMPONENTS_1
100
AcDbLine
 62
7
  6
CONTINUOUS
 10
15.4025094375
 20
85.4845403543
 11
20.1401051469
 21
88.2197761853
  0
LINE
  5
248
100
AcDbEntity
  8
00_COMPONENTS_1
100
AcDbLine
 62
7
  6
CONTINUOUS
 10
22.1400961931
 20
88.0216790692
 11
17.4025004838
 21
85.2864432383
  0
LINE
  5
249
100
AcDbEntity
  8
00_COMPONENTS_1
100
AcDbLine
 62
7
  6
CONTINUOUS
 10
49.787990473
 20
102.7188459382
 11
50.237036732
 21
102.9781013692
  0
LINE
  5
24A
100
AcDbEntity
  8
00_COMPONENTS_1
100
AcDbLine
 62
7
  6
CONTINUOUS
 10
99.3559747609
 20
131.3046994146
 11
101.0530239702
 21
132.2844853839
  0
LINE
  5
24B
100
AcDbEntity
  8
00_COMPONENTS_1
100
AcDbLine
 62
7
  6
CONTINUOUS
 10
50.237036732
 20
102.733150644
 11
51.3436189149
 21
103.3720323516
  0
LINE
  5
24C
100
AcDbEntity
  8
00_COMPONENTS_1
100
AcDbLine
 62
7
  6
CONTINUOUS
 10
60.394550092
 20
108.5567385284
 11
58.5560801153
 21
107.4953037283
  0
LINE
  5
24D
100
AcDbEntity
  8
00_COMPONENTS_1
100
AcDbLine
 62
7
  6
CONTINUOUS
 10
22.1400961931
 20
88.0216790692
 11
47.949601161
 21
73.1208915292
  0
LINE
  5
24E
100
AcDbEntity
  8
00_COMPONENTS_1
100
AcDbLine
 62
7
  6
CONTINUOUS
 10
50.9194614178
 20
71.6104042136
 11
19.2409457312
 21
89.8995900161
  0
LINE
  5
24F
100
AcDbEntity
  8
00_COMPONENTS_1
100
AcDbLine
 62
7
  6
CONTINUOUS
 10
45.8642390895
 20
95.6360584337
 11
45.8642390895
 21
96.4525608508
  0
LINE
  5
250
100
AcDbEntity
  8
00_COMPONENTS_1
100
AcDbLine
 62
7
  6
CONTINUOUS
 10
46.0404443522
 20
65.4866830117
 11
46.0404443522
 21
47.9931187247
  0
LINE
  5
251
100
AcDbEntity
  8
00_COMPONENTS_1
100
AcDbLine
 62
7
  6
CONTINUOUS
 10
48.7979847392
 20
110.2713237148
 11
48.7979847392
 21
110.5162744399
  0
LINE
  5
252
100
AcDbEntity
  8
00_COMPONENTS_1
100
AcDbLine
 62
7
  6
CONTINUOUS
 10
49.3341882243
 20
78.8308842447
 11
49.3341882243
 21
77.858669244
  0
LINE
  5
253
100
AcDbEntity
  8
00_COMPONENTS_1
100
AcDbLine
 62
7
  6
CONTINUOUS
 10
49.3341882243
 20
47.3137050845
 11
49.3341882243
 21
46.3416759428
  0
LINE
  5
254
100
AcDbEntity
  8
03_AXES_1
100
AcDbLine
 62
7
420
15788975
  6
CONTINUOUS
 10
47.0700341385
 20
100.4147254053
 11
45.5098677625
 21
99.5139683049
  0
LINE
  5
255
100
AcDbEntity
  8
00_COMPONENTS_1
100
AcDbLine
 62
7
  6
CONTINUOUS
 10
56.7883246438
 20
105.9031539078
 11
52.0860841263
 21
103.1883302845
  0
LINE
  5
256
100
AcDbEntity
  8
00_COMPONENTS_1
100
AcDbLine
 62
7
  6
CONTINUOUS
 10
71.0091267294
 20
113.8277179032
 11
74.5366330186
 21
115.864312452
  0
LINE
  5
257
100
AcDbEntity
  8
00_COMPONENTS_1
100
AcDbLine
 62
7
  6
CONTINUOUS
 10
50.8486733896
 20
102.1064742245
 11
51.3436189149
 21
102.3922294511
  0
LINE
  5
258
100
AcDbEntity
  8
00_COMPONENTS_1
100
AcDbLine
 62
7
  6
CONTINUOUS
 10
52.5103499614
 20
102.9433858318
 11
63.5058146301
 21
109.2915824245
  0
LINE
  5
259
100
AcDbEntity
  8
00_COMPONENTS_1
100
AcDbLine
 62
7
  6
CONTINUOUS
 10
52.5103499614
 20
101.7186322061
 11
64.5664792178
 21
108.6792212927
  0
LINE
  5
25A
100
AcDbEntity
  8
00_COMPONENTS_1
100
AcDbLine
 62
7
  6
CONTINUOUS
 10
53.9952803842
 20
102.0860802473
 11
58.6975209017
 21
104.8009038706
  0
LINE
  5
25B
100
AcDbEntity
  8
00_COMPONENTS_1
100
AcDbLine
 62
7
  6
CONTINUOUS
 10
36.1762115782
 20
91.6756972548
 11
45.1571293643
 21
96.8608016053
  0
LINE
  5
25C
100
AcDbEntity
  8
00_COMPONENTS_1
100
AcDbLine
 62
7
  6
CONTINUOUS
 10
53.9952803842
 20
101.8411295222
 11
58.6975209017
 21
104.5559531454
  0
LINE
  5
25D
100
AcDbEntity
  8
00_COMPONENTS_1
100
AcDbLine
 62
7
  6
CONTINUOUS
 10
35.5779788605
 20
90.9628756481
 11
36.1762115782
 21
91.308263407
  0
LINE
  5
25E
100
AcDbEntity
  8
00_COMPONENTS_1
100
AcDbLine
 62
7
  6
CONTINUOUS
 10
61.4552299884
 20
105.8215166348
 11
63.2936999651
 21
106.8829514348
  0
LINE
  5
25F
100
AcDbEntity
  8
00_COMPONENTS_1
100
AcDbLine
 62
7
  6
CONTINUOUS
 10
53.8224268613
 20
101.1289710918
 11
53.1821171538
 21
100.7592903165
  0
LINE
  5
260
100
AcDbEntity
  8
00_COMPONENTS_1
100
AcDbLine
 62
7
  6
CONTINUOUS
 10
45.8642390895
 20
96.4525608508
 11
36.8833213034
 21
91.2674565003
  0
LINE
  5
261
100
AcDbEntity
  8
00_COMPONENTS_1
100
AcDbLine
 62
7
  6
CONTINUOUS
 10
54.0535869431
 20
101.0174799055
 11
54.7377455956
 21
101.4124767299
  0
LINE
  5
262
100
AcDbEntity
  8
00_COMPONENTS_1
100
AcDbLine
 62
7
  6
CONTINUOUS
 10
45.8642390895
 20
95.6360584337
 11
36.8833213034
 21
90.4509540832
  0
LINE
  5
263
100
AcDbEntity
  8
00_COMPONENTS_1
100
AcDbLine
 62
7
  6
CONTINUOUS
 10
44.4564066383
 20
94.3741822715
 11
37.0629092816
 21
90.1055700646
  0
LINE
  5
264
100
AcDbEntity
  8
03_AXES_1
100
AcDbLine
 62
7
420
15788975
  6
CONTINUOUS
 10
33.1039691943
 20
87.6564985033
 11
31.5198904115
 21
86.7419356508
  0
LINE
  5
265
100
AcDbEntity
  8
00_COMPONENTS_1
100
AcDbLine
 62
7
  6
CONTINUOUS
 10
37.2788187309
 20
89.985273974
 11
42.7169311979
 21
93.1249509284
  0
LINE
  5
266
100
AcDbEntity
  8
00_COMPONENTS_1
100
AcDbLine
 62
7
  6
CONTINUOUS
 10
109.2383811207
 20
77.8671825328
 11
109.5383695228
 21
77.8968879915
  0
LINE
  5
267
100
AcDbEntity
  8
00_COMPONENTS_1
100
AcDbLine
 62
7
  6
CONTINUOUS
 10
50.237036732
 20
102.733150644
 11
50.237036732
 21
102.9781013692
  0
LINE
  5
268
100
AcDbEntity
  8
00_COMPONENTS_1
100
AcDbLine
 62
7
  6
CONTINUOUS
 10
50.7780400616
 20
68.2219188426
 11
50.7780400616
 21
50.7283545556
  0
LINE
  5
269
100
AcDbEntity
  8
00_COMPONENTS_1
100
AcDbLine
 62
7
  6
CONTINUOUS
 10
50.9194614178
 20
71.6104042136
 11
50.9194614178
 21
47.2786321832
  0
LINE
  5
26A
100
AcDbEntity
  8
00_COMPONENTS_1
100
AcDbLine
 62
7
  6
CONTINUOUS
 10
51.3436189149
 20
102.3922294511
 11
51.3436189149
 21
103.3720323516
  0
LINE
  5
26B
100
AcDbEntity
  8
00_COMPONENTS_1
100
AcDbLine
 62
7
  6
CONTINUOUS
 10
51.9517697248
 20
87.7933350362
 11
51.9517697248
 21
90.0468302736
  0
LINE
  5
26C
100
AcDbEntity
  8
00_COMPONENTS_1
100
AcDbLine
 62
7
  6
CONTINUOUS
 10
52.0860841263
 20
102.9433795594
 11
52.0860841263
 21
103.1883302845
  0
LINE
  5
26D
100
AcDbEntity
  8
00_COMPONENTS_1
100
AcDbLine
 62
7
  6
CONTINUOUS
 10
52.3690242841
 20
81.5104815592
 11
52.3690242841
 21
72.4473047291
  0
LINE
  5
26E
100
AcDbEntity
  8
00_COMPONENTS_1
100
AcDbLine
 62
7
  6
CONTINUOUS
 10
52.3690242841
 20
48.1155326986
 11
52.3690242841
 21
39.0523558685
  0
LINE
  5
26F
100
AcDbEntity
  8
00_COMPONENTS_1
100
AcDbLine
 62
7
  6
CONTINUOUS
 10
52.5103499614
 20
101.7186322061
 11
52.5103499614
 21
102.9433858318
  0
LINE
  5
270
100
AcDbEntity
  8
00_COMPONENTS_1
100
AcDbLine
 62
7
  6
CONTINUOUS
 10
53.3941638131
 20
110.4754700745
 11
53.3941638131
 21
112.5983219981
  0
LINE
  5
271
100
AcDbEntity
  8
00_COMPONENTS_1
100
AcDbLine
 62
7
  6
CONTINUOUS
 10
53.5710145491
 20
101.1062710743
 11
53.5710145491
 21
102.3310247
  0
LINE
  5
272
100
AcDbEntity
  8
00_COMPONENTS_1
100
AcDbLine
 62
7
  6
CONTINUOUS
 10
53.606278478
 20
113.7821993621
 11
53.606278478
 21
115.0069529878
  0
LINE
  5
273
100
AcDbEntity
  8
00_COMPONENTS_1
100
AcDbLine
 62
7
  6
CONTINUOUS
 10
53.7040896669
 20
91.5075951941
 11
53.7040896669
 21
92.3240976113
  0
LINE
  5
274
100
AcDbEntity
  8
00_COMPONENTS_1
100
AcDbLine
 62
7
  6
CONTINUOUS
 10
53.9952803842
 20
101.8411295222
 11
53.9952803842
 21
102.0860802473
  0
LINE
  5
275
100
AcDbEntity
  8
00_COMPONENTS_1
100
AcDbLine
 62
7
  6
CONTINUOUS
 10
101.0691127677
 20
125.9091522066
 11
102.3636404857
 21
126.6565436718
  0
LINE
  5
276
100
AcDbEntity
  8
00_COMPONENTS_1
100
AcDbLine
 62
7
  6
CONTINUOUS
 10
104.4414703753
 20
127.856172157
 11
106.0188396282
 21
128.7668612837
  0
LINE
  5
277
100
AcDbEntity
  8
00_COMPONENTS_1
100
AcDbLine
 62
7
  6
CONTINUOUS
 10
102.3950003648
 20
126.6022264437
 11
107.3045184593
 21
129.4367211175
  0
LINE
  5
278
100
AcDbEntity
  8
00_COMPONENTS_1
100
AcDbLine
 62
7
  6
CONTINUOUS
 10
103.0640081927
 20
126.6129499069
 11
108.0137350532
 21
129.470658984
  0
LINE
  5
279
100
AcDbEntity
  8
03_AXES_1
100
AcDbLine
 62
7
420
15788975
  6
CONTINUOUS
 10
104.5886138115
 20
123.0494352488
 11
105.6937336553
 21
123.6874726795
  0
LWPOLYLINE
  5
27A
100
AcDbEntity
  8
00_COMPONENTS_1
100
AcDbPolyline
 62
7
  6
CONTINUOUS
 90
3
 70
0
 10
50.385880743
 20
82.4851024403
 10
35.2569832833
 20
89.9202371483
 10
35.122742762
 20
90.01128319
  0
LINE
  5
27B
100
AcDbEntity
  8
00_COMPONENTS_1
100
AcDbLine
 62
7
  6
CONTINUOUS
 10
44.3786843899
 20
86.1236020853
 11
43.6715746648
 21
86.5318428398
  0
LINE
  5
27C
100
AcDbEntity
  8
00_COMPONENTS_1
100
AcDbLine
 62
7
  6
CONTINUOUS
 10
36.8833213034
 20
90.4509540832
 11
36.1762115782
 21
90.8591948377
  0
LINE
  5
27D
100
AcDbEntity
  8
00_COMPONENTS_1
100
AcDbLine
 62
7
  6
CONTINUOUS
 10
44.3786843899
 20
86.9401045024
 11
43.6715746648
 21
87.3483452569
  0
LINE
  5
27E
100
AcDbEntity
  8
00_COMPONENTS_1
100
AcDbLine
 62
7
  6
CONTINUOUS
 10
36.8833213034
 20
91.2674565003
 11
36.1762115782
 21
91.6756972548
  0
LINE
  5
27F
100
AcDbEntity
  8
00_COMPONENTS_1
100
AcDbLine
 62
7
  6
CONTINUOUS
 10
58.6975209017
 20
104.5559531454
 11
58.6975209017
 21
104.8009038706
  0
LINE
  5
280
100
AcDbEntity
  8
00_COMPONENTS_1
100
AcDbLine
 62
7
  6
CONTINUOUS
 10
70.2940862441
 20
102.8413679651
 11
68.4556162673
 21
101.779933165
  0
LINE
  5
281
100
AcDbEntity
  8
00_COMPONENTS_1
100
AcDbLine
 62
7
  6
CONTINUOUS
 10
43.6715746648
 20
87.3483452569
 11
52.9374905465
 21
92.6979923525
  0
LINE
  5
282
100
AcDbEntity
  8
03_AXES_1
100
AcDbLine
 62
7
420
15788975
  6
CONTINUOUS
 10
57.6913233307
 20
95.1160566666
 11
55.7362675213
 21
93.9873114065
  0
LINE
  5
283
100
AcDbEntity
  8
00_COMPONENTS_1
100
AcDbLine
 62
7
  6
CONTINUOUS
 10
43.3031574632
 20
86.7682069103
 11
43.6715746648
 21
86.980911411
  0
LINE
  5
284
100
AcDbEntity
  8
00_COMPONENTS_1
100
AcDbLine
 62
7
  6
CONTINUOUS
 10
66.6878607959
 20
100.1877833445
 11
61.9228535961
 21
97.4367215766
  0
LINE
  5
285
100
AcDbEntity
  8
00_COMPONENTS_1
100
AcDbLine
 62
7
  6
CONTINUOUS
 10
53.7040896669
 20
92.3240976113
 11
44.3786843899
 21
86.9401045024
  0
LINE
  5
286
100
AcDbEntity
  8
00_COMPONENTS_1
100
AcDbLine
 62
7
  6
CONTINUOUS
 10
53.7040896669
 20
91.5075951941
 11
44.3786843899
 21
86.1236020853
  0
LINE
  5
287
100
AcDbEntity
  8
00_COMPONENTS_1
100
AcDbLine
 62
7
  6
CONTINUOUS
 10
113.0031783252
 20
125.6706172722
 11
108.0534514647
 21
122.8129081951
  0
LINE
  5
288
100
AcDbEntity
  8
00_COMPONENTS_1
100
AcDbLine
 62
7
  6
CONTINUOUS
 10
103.2552993214
 20
119.9816459534
 11
85.3303193535
 21
109.6327157186
  0
LINE
  5
289
100
AcDbEntity
  8
00_COMPONENTS_1
100
AcDbLine
 62
7
  6
CONTINUOUS
 10
51.9517697248
 20
90.0468302736
 11
44.9018431673
 21
85.9765775751
  0
LINE
  5
28A
100
AcDbEntity
  8
03_AXES_1
100
AcDbLine
 62
7
420
15788975
  6
CONTINUOUS
 10
40.7180613014
 20
83.3976943282
 11
39.0152534981
 21
82.4145836529
  0
LINE
  5
28B
100
AcDbEntity
  8
00_COMPONENTS_1
100
AcDbLine
 62
7
  6
CONTINUOUS
 10
45.1340486221
 20
85.8656899315
 11
50.2122942848
 21
88.7975989302
  0
LINE
  5
28C
100
AcDbEntity
  8
00_COMPONENTS_1
100
AcDbLine
 62
7
  6
CONTINUOUS
 10
86.133232511
 20
109.1691640779
 11
62.7634506911
 21
95.6766947924
  0
LINE
  5
28D
100
AcDbEntity
  8
00_COMPONENTS_1
100
AcDbLine
 62
7
  6
CONTINUOUS
 10
108.0534514647
 20
64.8736892531
 11
105.0523424602
 21
65.9987669642
  0
LINE
  5
28E
100
AcDbEntity
  8
00_COMPONENTS_1
100
AcDbLine
 62
7
  6
CONTINUOUS
 10
56.0105903654
 20
85.4500268595
 11
50.2122942848
 21
88.7975989302
  0
LINE
  5
28F
100
AcDbEntity
  8
00_COMPONENTS_1
100
AcDbLine
 62
7
  6
CONTINUOUS
 10
48.1970156836
 20
89.9610942514
 11
42.7169311979
 21
93.1249509284
  0
LINE
  5
290
100
AcDbEntity
  8
00_COMPONENTS_1
100
AcDbLine
 62
7
  6
CONTINUOUS
 10
40.7016525971
 20
94.2884462493
 11
35.2215681122
 21
97.4523029258
  0
LINE
  5
291
100
AcDbEntity
  8
00_COMPONENTS_1
100
AcDbLine
 62
7
  6
CONTINUOUS
 10
36.9610435517
 20
98.7015342695
 11
42.6532646199
 21
95.4152032502
  0
LINE
  5
292
100
AcDbEntity
  8
00_COMPONENTS_1
100
AcDbLine
 62
7
  6
CONTINUOUS
 10
44.4564066383
 20
94.3741822715
 11
50.1486277065
 21
91.0878512523
  0
LINE
  5
293
100
AcDbEntity
  8
00_COMPONENTS_1
100
AcDbLine
 62
7
  6
CONTINUOUS
 10
51.9517697248
 20
90.0468302736
 11
57.9622023886
 21
86.5767838602
  0
LINE
  5
294
100
AcDbEntity
  8
00_COMPONENTS_1
100
AcDbLine
 62
7
  6
CONTINUOUS
 10
62.7634506911
 20
95.6766947924
 11
62.7634506911
 21
87.5116706211
  0
LINE
  5
295
100
AcDbEntity
  8
00_COMPONENTS_1
100
AcDbLine
 62
7
  6
CONTINUOUS
 10
62.7634506911
 20
45.0535449304
 11
62.7634506911
 21
36.8885207591
  0
LINE
  5
296
100
AcDbEntity
  8
00_COMPONENTS_1
100
AcDbLine
 62
7
  6
CONTINUOUS
 10
63.2936999651
 20
104.7600995113
 11
63.2936999651
 21
106.8829514348
  0
LINE
  5
297
100
AcDbEntity
  8
00_COMPONENTS_1
100
AcDbLine
 62
7
  6
CONTINUOUS
 10
63.5058146301
 20
108.0668287988
 11
63.5058146301
 21
109.2915824245
  0
LINE
  5
298
100
AcDbEntity
  8
00_COMPONENTS_1
100
AcDbLine
 62
7
  6
CONTINUOUS
 10
102.1300371515
 20
126.3705547938
 11
102.3547980048
 21
126.5790009497
  0
LINE
  5
299
100
AcDbEntity
  8
00_COMPONENTS_1
100
AcDbLine
 62
7
  6
CONTINUOUS
 10
101.679756437
 20
125.7857292425
 11
101.7921742423
 21
125.8898877874
  0
LINE
  5
29A
100
AcDbEntity
  8
00_COMPONENTS_1
100
AcDbLine
 62
7
  6
CONTINUOUS
 10
108.0534514647
 20
117.2114941911
 11
86.133232511
 21
104.5559254211
  0
LINE
  5
29B
100
AcDbEntity
  8
00_COMPONENTS_1
100
AcDbLine
 62
7
  6
CONTINUOUS
 10
51.6057939605
 20
82.9069316503
 11
57.9622023886
 21
86.5767838602
  0
LINE
  5
29C
100
AcDbEntity
  8
00_COMPONENTS_1
100
AcDbLine
 62
7
  6
CONTINUOUS
 10
66.0513163169
 20
119.130196672
 11
66.0513163169
 21
120.7632015062
  0
LINE
  5
29D
100
AcDbEntity
  8
00_COMPONENTS_1
100
AcDbLine
 62
7
  6
CONTINUOUS
 10
62.7634506911
 20
87.5116706211
 11
52.3690242841
 21
81.5104815592
  0
LINE
  5
29E
100
AcDbEntity
  8
03_AXES_1
100
AcDbLine
 62
7
420
15788975
  6
CONTINUOUS
 10
48.9018632208
 20
79.4678103031
 11
46.9041633935
 21
78.3144446548
  0
LINE
  5
29F
100
AcDbEntity
  8
00_COMPONENTS_1
100
AcDbLine
 62
7
  6
CONTINUOUS
 10
49.3341882243
 20
77.858669244
 11
49.5621979152
 21
77.9903099146
  0
LINE
  5
2A0
100
AcDbEntity
  8
00_COMPONENTS_1
100
AcDbLine
 62
7
  6
CONTINUOUS
 10
113.0031783252
 20
111.4142776466
 11
108.6191345344
 21
108.8831638926
  0
LINE
  5
2A1
100
AcDbEntity
  8
00_COMPONENTS_1
100
AcDbLine
 62
7
  6
CONTINUOUS
 10
110.5283148949
 20
80.428035608
 11
113.0031783252
 21
79.8558661305
  0
LINE
  5
2A2
100
AcDbEntity
  8
00_COMPONENTS_1
100
AcDbLine
 62
7
  6
CONTINUOUS
 10
53.1821171538
 20
100.7592903165
 11
49.787990473
 21
102.7188459382
  0
LINE
  5
2A3
100
AcDbEntity
  8
00_COMPONENTS_1
100
AcDbLine
 62
7
  6
CONTINUOUS
 10
51.3436189149
 20
102.3922294511
 11
52.5103499614
 21
101.7186322061
  0
LINE
  5
2A4
100
AcDbEntity
  8
00_COMPONENTS_1
100
AcDbLine
 62
7
  6
CONTINUOUS
 10
53.5710145491
 20
101.1062710743
 11
53.677062679
 21
101.0450455431
  0
LINE
  5
2A5
100
AcDbEntity
  8
00_COMPONENTS_1
100
AcDbLine
 62
7
  6
CONTINUOUS
 10
101.7921742423
 20
125.8898877874
 11
102.1300371515
 21
126.3705547938
  0
LINE
  5
2A6
100
AcDbEntity
  8
00_COMPONENTS_1
100
AcDbLine
 62
7
  6
CONTINUOUS
 10
109.6444141962
 20
109.1892799137
 11
108.6191345344
 21
108.5973379584
  0
LINE
  5
2A7
100
AcDbEntity
  8
00_COMPONENTS_1
100
AcDbLine
 62
7
  6
CONTINUOUS
 10
43.2120054516
 20
70.3856556983
 11
47.949601161
 21
73.1208915292
  0
LINE
  5
2A8
100
AcDbEntity
  8
00_COMPONENTS_1
100
AcDbLine
 62
7
  6
CONTINUOUS
 10
108.6191345344
 20
106.4336566412
 11
108.9998827545
 21
106.6534804164
  0
LINE
  5
2A9
100
AcDbEntity
  8
00_COMPONENTS_1
100
AcDbLine
 62
7
  6
CONTINUOUS
 10
52.3690242841
 20
72.4473047291
 11
50.9194614178
 21
71.6104042136
  0
LINE
  5
2AA
100
AcDbEntity
  8
00_COMPONENTS_1
100
AcDbLine
 62
7
  6
CONTINUOUS
 10
62.7634506911
 20
95.6766947924
 11
51.239144994
 21
101.0409881503
  0
LINE
  5
2AB
100
AcDbEntity
  8
00_COMPONENTS_1
100
AcDbLine
 62
7
  6
CONTINUOUS
 10
53.8224268613
 20
101.1289710919
 11
53.9182732252
 21
101.0827432798
  0
LINE
  5
2AC
100
AcDbEntity
  8
00_COMPONENTS_1
100
AcDbLine
 62
7
  6
CONTINUOUS
 10
53.8224268613
 20
101.1289710919
 11
53.9171900388
 21
101.0820139094
  0
LINE
  5
2AD
100
AcDbEntity
  8
00_COMPONENTS_1
100
AcDbLine
 62
7
  6
CONTINUOUS
 10
51.3436189149
 20
103.3720323516
 11
52.0860841263
 21
102.9433795594
  0
LINE
  5
2AE
100
AcDbEntity
  8
00_COMPONENTS_1
100
AcDbLine
 62
7
  6
CONTINUOUS
 10
53.9952803842
 20
101.8411295222
 11
54.7377455956
 21
101.4124767299
  0
LINE
  5
2AF
100
AcDbEntity
  8
00_COMPONENTS_1
100
AcDbLine
 62
7
  6
CONTINUOUS
 10
52.0860841263
 20
103.1883302845
 11
52.5103499614
 21
102.9433858318
  0
LINE
  5
2B0
100
AcDbEntity
  8
00_COMPONENTS_1
100
AcDbLine
 62
7
  6
CONTINUOUS
 10
53.5710145491
 20
102.3310247
 11
53.9952803842
 21
102.0860802473
  0
LINE
  5
2B1
100
AcDbEntity
  8
00_COMPONENTS_1
100
AcDbLine
 62
7
  6
CONTINUOUS
 10
76.3749357781
 20
138.3584384536
 11
76.3749357781
 21
135.5006799936
  0
LINE
  5
2B2
100
AcDbEntity
  8
00_COMPONENTS_1
100
AcDbLine
 62
7
  6
CONTINUOUS
 10
50.7780400616
 20
68.2219188426
 11
46.0404443522
 21
65.4866830117
  0
LINE
  5
2B3
100
AcDbEntity
  8
00_COMPONENTS_1
100
AcDbLine
 62
7
  6
CONTINUOUS
 10
38.8984485696
 20
115.9866942882
 11
46.6766519085
 21
111.4960480887
  0
LINE
  5
2B4
100
AcDbEntity
  8
00_COMPONENTS_1
100
AcDbLine
 62
7
  6
CONTINUOUS
 10
48.7979847392
 20
110.2713237148
 11
56.5761880605
 21
105.7806775254
  0
LINE
  5
2B5
100
AcDbEntity
  8
00_COMPONENTS_1
100
AcDbLine
 62
7
  6
CONTINUOUS
 10
58.6975209017
 20
104.5559531454
 11
66.4757242126
 21
100.0653069621
  0
LINE
  5
2B6
100
AcDbEntity
  8
00_COMPONENTS_1
100
AcDbLine
 62
7
  6
CONTINUOUS
 10
38.8984485696
 20
116.2316450133
 11
46.8887884918
 21
111.6185244711
  0
LINE
  5
2B7
100
AcDbEntity
  8
00_COMPONENTS_1
100
AcDbLine
 62
7
  6
CONTINUOUS
 10
48.7979847392
 20
110.5162744399
 11
56.7883246438
 21
105.9031539078
  0
LINE
  5
2B8
100
AcDbEntity
  8
00_COMPONENTS_1
100
AcDbLine
 62
7
  6
CONTINUOUS
 10
58.6975209017
 20
104.8009038706
 11
66.6878607959
 21
100.1877833445
  0
LINE
  5
2B9
100
AcDbEntity
  8
00_COMPONENTS_1
100
AcDbLine
 62
7
  6
CONTINUOUS
 10
109.1141017885
 20
78.1418335407
 11
109.5383695228
 21
77.8968879915
  0
LINE
  5
2BA
100
AcDbEntity
  8
00_COMPONENTS_1
100
AcDbLine
 62
7
  6
CONTINUOUS
 10
109.6090799065
 20
77.9377124068
 11
109.1141072205
 21
78.2234785555
  0
LINE
  5
2BB
100
AcDbEntity
  8
00_COMPONENTS_1
100
AcDbLine
 62
7
  6
CONTINUOUS
 10
68.4556162673
 20
101.779933165
 11
61.4552299884
 21
105.8215166348
  0
LINE
  5
2BC
100
AcDbEntity
  8
00_COMPONENTS_1
100
AcDbLine
 62
7
  6
CONTINUOUS
 10
58.5560801153
 20
107.4953037283
 11
51.5556938363
 21
111.5368871981
  0
LINE
  5
2BD
100
AcDbEntity
  8
00_COMPONENTS_1
100
AcDbLine
 62
7
  6
CONTINUOUS
 10
48.6565439632
 20
113.2106742916
 11
41.6561576843
 21
117.2522577613
  0
LINE
  5
2BE
100
AcDbEntity
  8
00_COMPONENTS_1
100
AcDbLine
 62
7
  6
CONTINUOUS
 10
109.1141072205
 20
79.2032689112
 11
110.0333422089
 21
78.6725603494
  0
LINE
  5
2BF
100
AcDbEntity
  8
03_AXES_1
100
AcDbLine
 62
7
420
15788975
  6
CONTINUOUS
 10
37.7588183442
 20
53.7240391032
 11
37.5551241177
 21
53.6064368887
  0
LINE
  5
2C0
100
AcDbEntity
  8
00_COMPONENTS_1
100
AcDbLine
 62
7
  6
CONTINUOUS
 10
110.0333422089
 20
79.8156637334
 11
109.1141072205
 21
80.3463722952
  0
LINE
  5
2C1
100
AcDbEntity
  8
00_COMPONENTS_1
100
AcDbLine
 62
7
  6
CONTINUOUS
 10
43.494627661
 20
118.3136925614
 11
50.49501394
 21
114.2721090917
  0
LINE
  5
2C2
100
AcDbEntity
  8
00_COMPONENTS_1
100
AcDbLine
 62
7
  6
CONTINUOUS
 10
53.3941638131
 20
112.5983219981
 11
60.394550092
 21
108.5567385284
  0
LINE
  5
2C3
100
AcDbEntity
  8
00_COMPONENTS_1
100
AcDbLine
 62
7
  6
CONTINUOUS
 10
63.2936999651
 20
106.8829514348
 11
70.2940862441
 21
102.8413679651
  0
LINE
  5
2C4
100
AcDbEntity
  8
00_COMPONENTS_1
100
AcDbLine
 62
7
  6
CONTINUOUS
 10
110.3161837438
 20
80.3055623618
 11
109.1141072205
 21
80.9995658657
  0
LINE
  5
2C5
100
AcDbEntity
  8
00_COMPONENTS_1
100
AcDbLine
 62
7
  6
CONTINUOUS
 10
110.5283148949
 20
80.428035608
 11
109.1141072205
 21
81.2445103184
  0
LINE
  5
2C6
100
AcDbEntity
  8
00_COMPONENTS_1
100
AcDbLine
 62
7
  6
CONTINUOUS
 10
113.0031783252
 20
79.8558661305
 11
109.1141072205
 21
82.1011715841
  0
LINE
  5
2C7
100
AcDbEntity
  8
00_COMPONENTS_1
100
AcDbLine
 62
7
  6
CONTINUOUS
 10
53.606278478
 20
115.0069529878
 11
54.6669430657
 21
114.394591856
  0
LINE
  5
2C8
100
AcDbEntity
  8
00_COMPONENTS_1
100
AcDbLine
 62
7
  6
CONTINUOUS
 10
63.5058146301
 20
109.2915824245
 11
64.5664792178
 21
108.6792212927
  0
LINE
  5
2C9
100
AcDbEntity
  8
00_COMPONENTS_1
100
AcDbLine
 62
7
  6
CONTINUOUS
 10
86.133232511
 20
109.1691640779
 11
86.133232511
 21
104.5559254211
  0
LINE
  5
2CA
100
AcDbEntity
  8
00_COMPONENTS_1
100
AcDbLine
 62
7
  6
CONTINUOUS
 10
86.133232511
 20
55.075878943
 11
86.133232511
 21
50.3809900445
  0
LINE
  5
2CB
100
AcDbEntity
  8
00_COMPONENTS_1
100
AcDbLine
 62
7
  6
CONTINUOUS
 10
46.0404443522
 20
47.9931187247
 11
50.7780400616
 21
50.7283545556
  0
LINE
  5
2CC
100
AcDbEntity
  8
00_COMPONENTS_1
100
AcDbLine
 62
7
  6
CONTINUOUS
 10
45.2119964979
 20
46.1619749582
 11
49.9495922072
 21
48.8972107891
  0
LINE
  5
2CD
100
AcDbEntity
  8
03_AXES_1
100
AcDbLine
 62
7
420
15788975
  6
CONTINUOUS
 10
48.9010553341
 20
47.9503505711
 11
46.9041633935
 21
46.7974513536
  0
LINE
  5
2CE
100
AcDbEntity
  8
00_COMPONENTS_1
100
AcDbLine
 62
7
  6
CONTINUOUS
 10
71.0091267294
 20
113.8277179032
 11
62.5238100277
 21
118.7266069574
  0
LINE
  5
2CF
100
AcDbEntity
  8
00_COMPONENTS_1
100
AcDbLine
 62
7
  6
CONTINUOUS
 10
66.0513163169
 20
119.130196672
 11
73.1223891299
 21
115.047803236
  0
LINE
  5
2D0
100
AcDbEntity
  8
00_COMPONENTS_1
100
AcDbLine
 62
7
  6
CONTINUOUS
 10
86.133232511
 20
109.1691640779
 11
74.5366330186
 21
115.864312452
  0
LINE
  5
2D1
100
AcDbEntity
  8
00_COMPONENTS_1
100
AcDbLine
 62
7
  6
CONTINUOUS
 10
66.0513163169
 20
120.7632015062
 11
54.4547168245
 21
127.4583498804
  0
LINE
  5
2D2
100
AcDbEntity
  8
00_COMPONENTS_1
100
AcDbLine
 62
7
  6
CONTINUOUS
 10
93.2748169936
 20
134.9055265499
 11
93.2748169936
 21
136.7751336836
  0
LINE
  5
2D3
100
AcDbEntity
  8
00_COMPONENTS_1
100
AcDbLine
 62
7
  6
CONTINUOUS
 10
109.8919439165
 20
109.6180163455
 11
109.6444141962
 21
109.1892799137
  0
LINE
  5
2D4
100
AcDbEntity
  8
00_COMPONENTS_1
100
AcDbLine
 62
7
  6
CONTINUOUS
 10
52.3690242841
 20
48.1155326986
 11
50.9194614178
 21
47.2786321832
  0
LINE
  5
2D5
100
AcDbEntity
  8
00_COMPONENTS_1
100
AcDbLine
 62
7
  6
CONTINUOUS
 10
49.3341882243
 20
46.3416759428
 11
49.5622614717
 21
46.4733533076
  0
LINE
  5
2D6
100
AcDbEntity
  8
00_COMPONENTS_1
100
AcDbLine
 62
7
  6
CONTINUOUS
 10
110.3161837438
 20
80.3055623618
 11
110.5283148949
 21
80.428035608
  0
LINE
  5
2D7
100
AcDbEntity
  8
00_COMPONENTS_1
100
AcDbLine
 62
7
  6
CONTINUOUS
 10
109.5383695228
 20
77.8968879915
 11
109.6090799065
 21
77.9377124068
  0
LINE
  5
2D8
100
AcDbEntity
  8
03_AXES_1
100
AcDbLine
 62
7
420
15788975
  6
CONTINUOUS
 10
101.9722883982
 20
126.7232306992
 11
101.9722883982
 21
128.559909495
  0
LINE
  5
2D9
100
AcDbEntity
  8
00_COMPONENTS_1
100
AcDbLine
 62
7
  6
CONTINUOUS
 10
104.472288398
 20
128.1149860749
 11
104.4414703753
 21
127.8561721571
  0
LINE
  5
2DA
100
AcDbEntity
  8
00_COMPONENTS_1
100
AcDbLine
 62
7
  6
CONTINUOUS
 10
62.7634506911
 20
45.0535449304
 11
52.3690242841
 21
39.0523558685
  0
LINE
  5
2DB
100
AcDbEntity
  8
00_COMPONENTS_1
100
AcDbLine
 62
7
  6
CONTINUOUS
 10
108.9998827545
 20
106.6534804164
 11
108.6191345344
 21
106.8733005307
  0
LINE
  5
2DC
100
AcDbEntity
  8
00_COMPONENTS_1
100
AcDbLine
 62
7
  6
CONTINUOUS
 10
109.1141072205
 20
78.1418429494
 11
109.2383811207
 21
77.8671825328
  0
LINE
  5
2DD
100
AcDbEntity
  8
00_COMPONENTS_1
100
AcDbLine
 62
7
  6
CONTINUOUS
 10
108.0534514647
 20
67.731447713
 11
86.133232511
 21
55.075878943
  0
LINE
  5
2DE
100
AcDbEntity
  8
00_COMPONENTS_1
100
AcDbLine
 62
7
  6
CONTINUOUS
 10
108.0534514647
 20
64.8736892531
 11
113.0031783252
 21
67.7313983302
  0
LINE
  5
2DF
100
AcDbEntity
  8
00_COMPONENTS_1
100
AcDbLine
 62
7
  6
CONTINUOUS
 10
108.0534514647
 20
64.8736892531
 11
108.0534514647
 21
67.731447713
  0
LINE
  5
2E0
100
AcDbEntity
  8
00_COMPONENTS_1
100
AcDbLine
 62
7
  6
CONTINUOUS
 10
108.0534514647
 20
117.2114941911
 11
108.0534514647
 21
122.8129081951
  0
LINE
  5
2E1
100
AcDbEntity
  8
00_COMPONENTS_1
100
AcDbLine
 62
7
  6
CONTINUOUS
 10
108.6191345344
 20
108.8831638926
 11
108.6191345344
 21
106.4336566412
  0
LINE
  5
2E2
100
AcDbEntity
  8
00_COMPONENTS_1
100
AcDbLine
 62
7
  6
CONTINUOUS
 10
109.1141072205
 20
105.9845753735
 11
109.1141072205
 21
78.1418429494
  0
LINE
  5
2E3
100
AcDbEntity
  8
00_COMPONENTS_1
100
AcDbLine
 62
7
  6
CONTINUOUS
 10
110.0333422089
 20
78.6725603494
 11
110.0333422089
 21
79.8156637334
  0
LINE
  5
2E4
100
AcDbEntity
  8
00_COMPONENTS_1
100
AcDbLine
 62
7
  6
CONTINUOUS
 10
110.0333422089
 20
79.8156637334
 11
110.3161837438
 21
80.3055623618
  0
LINE
  5
2E5
100
AcDbEntity
  8
00_COMPONENTS_1
100
AcDbLine
 62
7
  6
CONTINUOUS
 10
86.133232511
 20
50.3809900445
 11
62.7634506911
 21
36.8885207591
  0
LINE
  5
2E6
100
AcDbEntity
  8
00_COMPONENTS_1
100
AcDbLine
 62
7
  6
CONTINUOUS
 10
76.3749357781
 20
135.5006799936
 11
81.1730879214
 21
132.7305282313
  0
LINE
  5
2E7
100
AcDbEntity
  8
00_COMPONENTS_1
100
AcDbLine
 62
7
  6
CONTINUOUS
 10
103.2552993214
 20
119.9816459534
 11
108.0534514647
 21
117.2114941911
  0
LINE
  5
2E8
100
AcDbEntity
  8
00_COMPONENTS_1
100
AcDbLine
 62
7
  6
CONTINUOUS
 10
108.9998827545
 20
106.6534804164
 11
109.1141072205
 21
105.9845753735
  0
LINE
  5
2E9
100
AcDbEntity
  8
00_COMPONENTS_1
100
AcDbLine
 62
7
  6
CONTINUOUS
 10
113.0031783252
 20
125.6706172722
 11
113.0031783252
 21
111.4142776466
  0
LINE
  5
2EA
100
AcDbEntity
  8
00_COMPONENTS_1
100
AcDbLine
 62
7
  6
CONTINUOUS
 10
113.0031783252
 20
79.8558661305
 11
113.0031783252
 21
67.7313983302
  0
LWPOLYLINE
  5
2EB
100
AcDbEntity
  8
00_COMPONENTS_1
100
AcDbPolyline
 62
7
  6
CONTINUOUS
 90
4
 70
0
 10
102.2092414642
 20
120.8662263308
 10
95.9594046408
 20
126.1512906108
 10
88.468982602
 20
130.475789958
 10
81.1730879214
 20
132.7305282313
  0
ARC
  5
2EC
100
AcDbEntity
  8
00_COMPONENTS_1
100
AcDbCircle
 62
7
  6
CONTINUOUS
 10
115.193793361
 20
232.3302454933
 40
163.3816170893
100
AcDbArc
 50
246.7515515522
 51
247.3855731457
  0
ARC
  5
2ED
100
AcDbEntity
  8
00_COMPONENTS_1
100
AcDbCircle
 62
7
  6
CONTINUOUS
 10
114.3932534298
 20
230.45736387
 40
161.3448216379
100
AcDbArc
 50
246.5843869
 51
246.7502289993
  0
ARC
  5
2EE
100
AcDbEntity
  8
00_COMPONENTS_1
100
AcDbCircle
 62
7
  6
CONTINUOUS
 10
111.8308172127
 20
223.2906906033
 40
152.7568433933
100
AcDbArc
 50
244.0146962443
 51
246.7805330221
  0
ARC
  5
2EF
100
AcDbEntity
  8
00_COMPONENTS_1
100
AcDbCircle
 62
7
  6
CONTINUOUS
 10
104.9461901658
 20
209.5319424932
 40
137.3710240736
100
AcDbArc
 50
240.3856174733
 51
243.3375199842
  0
ARC
  5
2F0
100
AcDbEntity
  8
00_COMPONENTS_1
100
AcDbCircle
 62
7
  6
CONTINUOUS
 10
112.2087523048
 20
213.2494642406
 40
134.334432834
100
AcDbArc
 50
243.8181459971
 51
244.1819303409
  0
ARC
  5
2F1
100
AcDbEntity
  8
00_COMPONENTS_1
100
AcDbCircle
 62
7
  6
CONTINUOUS
 10
100.4055625598
 20
202.7735318758
 40
130.308104892
100
AcDbArc
 50
238.9310173987
 51
239.928687723
  0
ARC
  5
2F2
100
AcDbEntity
  8
00_COMPONENTS_1
100
AcDbCircle
 62
7
  6
CONTINUOUS
 10
97.4181218778
 20
196.6249217857
 40
122.4282291074
100
AcDbArc
 50
236.4730052495
 51
239.6611174578
  0
ARC
  5
2F3
100
AcDbEntity
  8
00_COMPONENTS_1
100
AcDbCircle
 62
7
  6
CONTINUOUS
 10
105.1731088691
 20
199.997369837
 40
119.3275722644
100
AcDbArc
 50
239.8045385475
 51
240.1965839788
  0
ARC
  5
2F4
100
AcDbEntity
  8
00_COMPONENTS_1
100
AcDbCircle
 62
7
  6
CONTINUOUS
 10
100.4148172475
 20
197.9683016842
 40
107.4088383071
100
AcDbArc
 50
236.8084253857
 51
237.4441457188
  0
ARC
  5
2F5
100
AcDbEntity
  8
00_COMPONENTS_1
100
AcDbCircle
 62
7
  6
CONTINUOUS
 10
57.3073894843
 20
73.5240443421
 40
65.3415577246
100
AcDbArc
 50
45.3160297574
 51
46.5535424363
  0
ARC
  5
2F6
100
AcDbEntity
  8
00_COMPONENTS_1
100
AcDbCircle
 62
7
  6
CONTINUOUS
 10
102.334761636
 20
128.511400645
 40
1.8550817715
100
AcDbArc
 50
270.8919838842
 51
275.9936545519
  0
ARC
  5
2F7
100
AcDbEntity
  8
00_COMPONENTS_1
100
AcDbCircle
 62
7
  6
CONTINUOUS
 10
106.6732425514
 20
129.62545529
 40
1.0795493752
100
AcDbArc
 50
232.6860860224
 51
237.3743816136
  0
SPLINE
  5
2F8
100
AcDbEntity
  8
00_COMPONENTS_1
100
AcDbSpline
 62
7
  6
CONTINUOUS
 70
0
 71
3
 72
9
 73
5
 74
0
 42
0.0000001
 43
0.0000001
 44
0.0000000001
 40
0.0
 40
0.0
 40
0.0
 40
0.0
 40
0.4848157533
 40
1.0
 40
1.0
 40
1.0
 40
1.0
 10
37.9051062906
 20
53.0002463651
 30
0.0
 10
37.9267232025
 20
53.0127268231
 30
0.0
 10
37.9673272746
 20
53.0459649184
 30
0.0
 10
37.9958643141
 20
53.0897113046
 30
0.0
 10
38.0076048901
 20
53.1134959919
 30
0.0
  0
SPLINE
  5
2F9
100
AcDbEntity
  8
00_COMPONENTS_1
100
AcDbSpline
 62
7
  6
CONTINUOUS
 70
0
 71
3
 72
13
 73
9
 74
0
 42
0.0000001
 43
0.0000001
 44
0.0000000001
 40
0.0
 40
0.0
 40
0.0
 40
0.0
 40
0.2894511012
 40
0.4228163301
 40
0.5488374872
 40
0.7817349557
 40
0.8918868606
 40
1.0
 40
1.0
 40
1.0
 40
1.0
 10
14.5740615832
 20
83.6533965878
 30
0.0
 10
14.5740615832
 20
83.8561403064
 30
0.0
 10
14.597698744
 20
84.1537137808
 30
0.0
 10
14.6892812394
 20
84.527873556
 30
0.0
 10
14.8099258377
 20
84.8514050052
 30
0.0
 10
14.9846571348
 20
85.136228292
 30
0.0
 10
15.2108519586
 20
85.3586407465
 30
0.0
 10
15.3369312592
 20
85.4466711162
 30
0.0
 10
15.4025128519
 20
85.4845344404
 30
0.0
  0
SPLINE
  5
2FA
100
AcDbEntity
  8
00_COMPONENTS_1
100
AcDbSpline
 62
7
  6
CONTINUOUS
 70
0
 71
3
 72
15
 73
11
 74
0
 42
0.0000001
 43
0.0000001
 44
0.0000000001
 40
0.0
 40
0.0
 40
0.0
 40
0.0
 40
0.1141546703
 40
0.2373261017
 40
0.3669753162
 40
0.4999989361
 40
0.6330227034
 40
0.7626723508
 40
0.8858444607
 40
1.0
 40
1.0
 40
1.0
 40
1.0
 10
17.4025004838
 20
61.2608596142
 30
0.0
 10
17.2088712003
 20
61.3726490042
 30
0.0
 10
16.8264186007
 20
61.6407414375
 30
0.0
 10
16.3001843356
 20
62.1330695928
 30
0.0
 10
15.8152310287
 20
62.715038885
 30
0.0
 10
15.3898247002
 20
63.3648177804
 30
0.0
 10
15.0397991839
 20
64.0581190176
 30
0.0
 10
14.7782710905
 20
64.7690864775
 30
0.0
 10
14.6150142152
 20
65.4709855133
 30
0.0
 10
14.5740615832
 20
65.9362480252
 30
0.0
 10
14.5740615832
 20
66.1598323008
 30
0.0
  0
SPLINE
  5
2FB
100
AcDbEntity
  8
00_COMPONENTS_1
100
AcDbSpline
 62
7
  6
CONTINUOUS
 70
0
 71
3
 72
15
 73
11
 74
0
 42
0.0000001
 43
0.0000001
 44
0.0000000001
 40
0.0
 40
0.0
 40
0.0
 40
0.0
 40
0.1141238356
 40
0.2373475942
 40
0.3669723881
 40
0.4999993846
 40
0.6330264647
 40
0.7626514977
 40
0.8858756426
 40
1.0
 40
1.0
 40
1.0
 40
1.0
 10
38.0501044581
 20
52.8307774155
 30
0.0
 10
38.0501044581
 20
52.9034207891
 30
0.0
 10
38.0367663519
 20
53.054637301
 30
0.0
 10
37.9837513456
 20
53.2827567967
 30
0.0
 10
37.8987216761
 20
53.5138253394
 30
0.0
 10
37.7849950032
 20
53.7391457043
 30
0.0
 10
37.6467272273
 20
53.9502975968
 30
0.0
 10
37.489132504
 20
54.1394716959
 30
0.0
 10
37.3180839357
 20
54.2994461432
 30
0.0
 10
37.1937961898
 20
54.3866073005
 30
0.0
 10
37.1308853542
 20
54.4229299484
 30
0.0
  0
SPLINE
  5
2FC
100
AcDbEntity
  8
00_COMPONENTS_1
100
AcDbSpline
 62
7
  6
CONTINUOUS
 70
0
 71
3
 72
13
 73
9
 74
0
 42
0.0000001
 43
0.0000001
 44
0.0000000001
 40
0.0
 40
0.0
 40
0.0
 40
0.0
 40
0.2894501207
 40
0.4228150777
 40
0.548836145
 40
0.7817340211
 40
0.8918863542
 40
1.0
 40
1.0
 40
1.0
 40
1.0
 10
22.1400961931
 20
88.0216790692
 30
0.0
 10
21.9645192845
 20
88.1230461514
 30
0.0
 10
21.6950013302
 20
88.2513561114
 30
0.0
 10
21.3251881304
 20
88.3591169807
 30
0.0
 10
20.9846880426
 20
88.416397405
 30
0.0
 10
20.6506668295
 20
88.4074858277
 30
0.0
 10
20.3449619362
 20
88.3228035194
 30
0.0
 10
20.205688709
 20
88.2576327533
 30
0.0
 10
20.1401085613
 20
88.2197702713
 30
0.0
  0
SPLINE
  5
2FD
100
AcDbEntity
  8
00_COMPONENTS_1
100
AcDbSpline
 62
7
  6
CONTINUOUS
 70
0
 71
3
 72
13
 73
9
 74
0
 42
0.0000001
 43
0.0000001
 44
0.0000000001
 40
0.0
 40
0.0
 40
0.0
 40
0.0
 40
0.1081131453
 40
0.2182650547
 40
0.4511625307
 40
0.5771836882
 40
0.7105489075
 40
1.0
 40
1.0
 40
1.0
 40
1.0
 10
49.9495887928
 20
48.8972167031
 30
0.0
 10
50.0151703926
 20
48.9350800234
 30
0.0
 10
50.1412496941
 20
49.0231104062
 30
0.0
 10
50.3674445301
 20
49.2455228652
 30
0.0
 10
50.5421758215
 20
49.530346168
 30
0.0
 10
50.6628204148
 20
49.8538776174
 30
0.0
 10
50.7544029074
 20
50.2280373807
 30
0.0
 10
50.7780400616
 20
50.525610843
 30
0.0
 10
50.7780400616
 20
50.7283545556
 30
0.0
  0
SPLINE
  5
2FE
100
AcDbEntity
  8
00_COMPONENTS_1
100
AcDbSpline
 62
7
  6
CONTINUOUS
 70
0
 71
3
 72
13
 73
9
 74
0
 42
0.0000001
 43
0.0000001
 44
0.0000000001
 40
0.0
 40
0.0
 40
0.0
 40
0.0
 40
0.1081136517
 40
0.2182659892
 40
0.4511638729
 40
0.5771849406
 40
0.7105498879
 40
1.0
 40
1.0
 40
1.0
 40
1.0
 10
45.2119930835
 20
46.1619808721
 30
0.0
 10
45.1464129355
 20
46.124118382
 30
0.0
 10
45.0071396965
 20
46.0589476218
 30
0.0
 10
44.7014347933
 20
45.9742653052
 30
0.0
 10
44.367413569
 20
45.9653537408
 30
0.0
 10
44.0269134837
 20
46.0226341696
 30
0.0
 10
43.6571002955
 20
46.1303950353
 30
0.0
 10
43.3875823552
 20
46.2587049949
 30
0.0
 10
43.2120054516
 20
46.3600720742
 30
0.0
  0
SPLINE
  5
2FF
100
AcDbEntity
  8
00_COMPONENTS_1
100
AcDbSpline
 62
7
  6
CONTINUOUS
 70
0
 71
3
 72
15
 73
11
 74
0
 42
0.0000001
 43
0.0000001
 44
0.0000000001
 40
0.0
 40
0.0
 40
0.0
 40
0.0
 40
0.1141555516
 40
0.2373276756
 40
0.3669773296
 40
0.5000011
 40
0.6330247168
 40
0.7626739247
 40
0.885845342
 40
1.0
 40
1.0
 40
1.0
 40
1.0
 10
50.7780400616
 20
68.2219188426
 30
0.0
 10
50.7780400616
 20
68.4455031423
 30
0.0
 10
50.7370874161
 20
68.9107657054
 30
0.0
 10
50.5738305171
 20
69.6126648024
 30
0.0
 10
50.3123023838
 20
70.3236322976
 30
0.0
 10
49.9622768441
 20
71.0169335372
 30
0.0
 10
49.5368705058
 20
71.6667124111
 30
0.0
 10
49.0519172095
 20
72.248681651
 30
0.0
 10
48.5256829856
 20
72.7410097552
 30
0.0
 10
48.1432304236
 20
73.0091021513
 30
0.0
 10
47.949601161
 20
73.1208915292
 30
0.0
  0
SPLINE
  5
300
100
AcDbEntity
  8
00_COMPONENTS_1
100
AcDbSpline
 62
7
  6
CONTINUOUS
 70
0
 71
3
 72
9
 73
5
 74
0
 42
0.0000001
 43
0.0000001
 44
0.0000000001
 40
0.0
 40
0.0
 40
0.0
 40
0.0
 40
0.5151842296
 40
1.0
 40
1.0
 40
1.0
 40
1.0
 10
37.3544682381
 20
54.2447682336
 30
0.0
 10
37.3279998537
 20
54.2464930562
 30
0.0
 10
37.2758459176
 20
54.2436526882
 30
0.0
 10
37.2267588261
 20
54.2251078526
 30
0.0
 10
37.2051419448
 20
54.2126274122
 30
0.0
  0
SPLINE
  5
301
100
AcDbEntity
  8
00_COMPONENTS_1
100
AcDbSpline
 62
7
  6
CONTINUOUS
 70
0
 71
3
 72
13
 73
9
 74
0
 42
0.0000001
 43
0.0000001
 44
0.0000000001
 40
0.0
 40
0.0
 40
0.0
 40
0.0
 40
0.2894511012
 40
0.4228163301
 40
0.5488374872
 40
0.7817349557
 40
0.8918868606
 40
1.0
 40
1.0
 40
1.0
 40
1.0
 10
46.0404443522
 20
47.9931187247
 30
0.0
 10
46.0404443522
 20
47.7903750061
 30
0.0
 10
46.0168071914
 20
47.4928015316
 30
0.0
 10
45.925224696
 20
47.1186417565
 30
0.0
 10
45.8045800977
 20
46.7951103073
 30
0.0
 10
45.6298488007
 20
46.5102870205
 30
0.0
 10
45.4036539768
 20
46.287874566
 30
0.0
 10
45.2775746762
 20
46.1998441963
 30
0.0
 10
45.2119930835
 20
46.1619808721
 30
0.0
  0
SPLINE
  5
302
100
AcDbEntity
  8
00_COMPONENTS_1
100
AcDbSpline
 62
7
  6
CONTINUOUS
 70
0
 71
3
 72
11
 73
7
 74
0
 42
0.0000001
 43
0.0000001
 44
0.0000000001
 40
0.0
 40
0.0
 40
0.0
 40
0.0
 40
0.2177498853
 40
0.4508926472
 40
0.7104640911
 40
1.0
 40
1.0
 40
1.0
 40
1.0
 10
37.2051419448
 20
54.2126274122
 30
0.0
 10
37.1820550727
 20
54.1992982771
 30
0.0
 10
37.13881608
 20
54.1630298935
 30
0.0
 10
37.0928242241
 20
54.0877897066
 30
0.0
 10
37.065557505
 20
53.9951016396
 30
0.0
 10
37.0601473101
 20
53.9276523235
 30
0.0
 10
37.0601473101
 20
53.892205417
 30
0.0
  0
SPLINE
  5
303
100
AcDbEntity
  8
00_COMPONENTS_1
100
AcDbSpline
 62
7
  6
CONTINUOUS
 70
0
 71
3
 72
15
 73
11
 74
0
 42
0.0000001
 43
0.0000001
 44
0.0000000001
 40
0.0
 40
0.0
 40
0.0
 40
0.0
 40
0.1141546703
 40
0.2373261017
 40
0.3669753162
 40
0.4999989361
 40
0.6330227034
 40
0.7626723508
 40
0.8858444607
 40
1.0
 40
1.0
 40
1.0
 40
1.0
 10
43.2120054516
 20
70.3856556983
 30
0.0
 10
43.4056347352
 20
70.2738663083
 30
0.0
 10
43.7880873347
 20
70.005773875
 30
0.0
 10
44.3143215998
 20
69.5134457197
 30
0.0
 10
44.7992749067
 20
68.9314764275
 30
0.0
 10
45.2246812353
 20
68.2816975321
 30
0.0
 10
45.5747067515
 20
67.5883962949
 30
0.0
 10
45.8362348449
 20
66.877428835
 30
0.0
 10
45.9994917202
 20
66.1755297992
 30
0.0
 10
46.0404443522
 20
65.7102672873
 30
0.0
 10
46.0404443522
 20
65.4866830117
 30
0.0
  0
SPLINE
  5
304
100
AcDbEntity
  8
00_COMPONENTS_1
100
AcDbSpline
 62
7
  6
CONTINUOUS
 70
0
 71
3
 72
15
 73
11
 74
0
 42
0.0000001
 43
0.0000001
 44
0.0000000001
 40
0.0
 40
0.0
 40
0.0
 40
0.0
 40
0.1448507167
 40
0.2745430649
 40
0.3911062128
 40
0.4999979614
 40
0.608890072
 40
0.7254541868
 40
0.8551478877
 40
1.0
 40
1.0
 40
1.0
 40
1.0
 10
37.1308618154
 20
54.4229435386
 30
0.0
 10
37.0738187581
 20
54.455876618
 30
0.0
 10
36.9603331029
 20
54.5098547727
 30
0.0
 10
36.7859509422
 20
54.5519923896
 30
0.0
 10
36.6221890906
 20
54.5477848977
 30
0.0
 10
36.4764433543
 20
54.4949697585
 30
0.0
 10
36.357833411
 20
54.3951546028
 30
0.0
 10
36.2723109418
 20
54.2554336954
 30
0.0
 10
36.2216142786
 20
54.0833431576
 30
0.0
 10
36.2116191727
 20
53.9580712883
 30
0.0
 10
36.2116191727
 20
53.8922033772
 30
0.0
  0
SPLINE
  5
305
100
AcDbEntity
  8
00_COMPONENTS_1
100
AcDbSpline
 62
7
  6
CONTINUOUS
 70
0
 71
3
 72
13
 73
9
 74
0
 42
0.0000001
 43
0.0000001
 44
0.0000000001
 40
0.0
 40
0.0
 40
0.0
 40
0.0
 40
0.1081136517
 40
0.2182659892
 40
0.4511638729
 40
0.5771849406
 40
0.7105498879
 40
1.0
 40
1.0
 40
1.0
 40
1.0
 10
15.4025128519
 20
85.4845344404
 30
0.0
 10
15.4680929999
 20
85.5223969304
 30
0.0
 10
15.6073662389
 20
85.5875676907
 30
0.0
 10
15.9130711421
 20
85.6722500073
 30
0.0
 10
16.2470923664
 20
85.6811615717
 30
0.0
 10
16.5875924517
 20
85.6238811429
 30
0.0
 10
16.9574056399
 20
85.5161202772
 30
0.0
 10
17.2269235803
 20
85.3878103175
 30
0.0
 10
17.4025004838
 20
85.2864432383
 30
0.0
  0
SPLINE
  5
306
100
AcDbEntity
  8
00_COMPONENTS_1
100
AcDbSpline
 62
7
  6
CONTINUOUS
 70
0
 71
3
 72
15
 73
11
 74
0
 42
0.0000001
 43
0.0000001
 44
0.0000000001
 40
0.0
 40
0.0
 40
0.0
 40
0.0
 40
0.1141241597
 40
0.2373483675
 40
0.3669736385
 40
0.5000010132
 40
0.6330282465
 40
0.7626531028
 40
0.8858766831
 40
1.0
 40
1.0
 40
1.0
 40
1.0
 10
36.2116191727
 20
53.8922033772
 30
0.0
 10
36.2116191726
 20
53.8195587662
 30
0.0
 10
36.2249577324
 20
53.668339613
 30
0.0
 10
36.2779744414
 20
53.4402162656
 30
0.0
 10
36.3630067465
 20
53.2091440658
 30
0.0
 10
36.4767367868
 20
52.9838206496
 30
0.0
 10
36.6150084017
 20
52.7726666969
 30
0.0
 10
36.7726071384
 20
52.5834918429
 30
0.0
 10
36.9436595459
 20
52.4235182544
 30
0.0
 10
37.0679498456
 20
52.336358675
 30
0.0
 10
37.1308618154
 20
52.3000372541
 30
0.0
  0
SPLINE
  5
307
100
AcDbEntity
  8
00_COMPONENTS_1
100
AcDbSpline
 62
7
  6
CONTINUOUS
 70
0
 71
3
 72
15
 73
11
 74
0
 42
0.0000001
 43
0.0000001
 44
0.0000000001
 40
0.0
 40
0.0
 40
0.0
 40
0.0
 40
0.1448507167
 40
0.2745430649
 40
0.3911062128
 40
0.4999979614
 40
0.608890072
 40
0.7254541868
 40
0.8551478877
 40
1.0
 40
1.0
 40
1.0
 40
1.0
 10
37.1308618154
 20
52.3000372541
 30
0.0
 10
37.1879048727
 20
52.2671041746
 30
0.0
 10
37.3013905279
 20
52.21312602
 30
0.0
 10
37.4757726885
 20
52.1709884031
 30
0.0
 10
37.6395345401
 20
52.175195895
 30
0.0
 10
37.7852802764
 20
52.2280110341
 30
0.0
 10
37.9038902197
 20
52.3278261898
 30
0.0
 10
37.989412689
 20
52.4675470973
 30
0.0
 10
38.0401093521
 20
52.6396376351
 30
0.0
 10
38.050104458
 20
52.7649095044
 30
0.0
 10
38.0501044581
 20
52.8307774155
 30
0.0
  0
SPLINE
  5
308
100
AcDbEntity
  8
00_COMPONENTS_1
100
AcDbSpline
 62
7
  6
CONTINUOUS
 70
0
 71
3
 72
11
 73
7
 74
0
 42
0.0000001
 43
0.0000001
 44
0.0000000001
 40
0.0
 40
0.0
 40
0.0
 40
0.0
 40
0.2372480941
 40
0.5000010917
 40
0.7627534955
 40
1.0
 40
1.0
 40
1.0
 40
1.0
 10
37.0601473101
 20
53.892205417
 30
0.0
 10
37.0601473101
 20
53.8110591496
 30
0.0
 10
37.0905690776
 20
53.6399275312
 30
0.0
 10
37.1966919726
 20
53.3994904256
 30
0.0
 10
37.3518558041
 20
53.1873678931
 30
0.0
 10
37.4848494621
 20
53.0754573701
 30
0.0
 10
37.5551241177
 20
53.0348851967
 30
0.0
  0
SPLINE
  5
309
100
AcDbEntity
  8
00_COMPONENTS_1
100
AcDbSpline
 62
7
  6
CONTINUOUS
 70
0
 71
3
 72
11
 73
7
 74
0
 42
0.0000001
 43
0.0000001
 44
0.0000000001
 40
0.0
 40
0.0
 40
0.0
 40
0.0
 40
0.289534906
 40
0.5491059963
 40
0.7822491665
 40
1.0
 40
1.0
 40
1.0
 40
1.0
 10
37.5551241177
 20
53.0348851967
 30
0.0
 10
37.5858212859
 20
53.0171625793
 30
0.0
 10
37.646937693
 20
52.9881247216
 30
0.0
 10
37.7408388217
 20
52.9653957638
 30
0.0
 10
37.8289923808
 20
52.9676061922
 30
0.0
 10
37.882019935
 20
52.9869175283
 30
0.0
 10
37.9051062906
 20
53.0002463651
 30
0.0
  0
SPLINE
  5
30A
100
AcDbEntity
  8
00_COMPONENTS_1
100
AcDbSpline
 62
7
  6
CONTINUOUS
 70
0
 71
3
 72
11
 73
7
 74
0
 42
0.0000001
 43
0.0000001
 44
0.0000000001
 40
0.0
 40
0.0
 40
0.0
 40
0.0
 40
0.2177660095
 40
0.4508968553
 40
0.7103699668
 40
1.0
 40
1.0
 40
1.0
 40
1.0
 10
105.7135850648
 20
121.1009159462
 30
0.0
 10
105.7877817166
 20
121.1437924548
 30
0.0
 10
105.9267188518
 20
121.2604192122
 30
0.0
 10
106.0745342486
 20
121.5022136836
 30
0.0
 10
106.1622858549
 20
121.8001080721
 30
0.0
 10
106.179610693
 20
122.0169194493
 30
0.0
 10
106.179610693
 20
122.1308935511
 30
0.0
  0
SPLINE
  5
30B
100
AcDbEntity
  8
00_COMPONENTS_1
100
AcDbSpline
 62
7
  6
CONTINUOUS
 70
0
 71
3
 72
11
 73
7
 74
0
 42
0.0000001
 43
0.0000001
 44
0.0000000001
 40
0.0
 40
0.0
 40
0.0
 40
0.0
 40
0.2075545784
 40
0.4376777594
 40
0.7009358306
 40
1.0
 40
1.0
 40
1.0
 40
1.0
 10
37.5965716036
 20
102.6808448126
 30
0.0
 10
37.6936070908
 20
102.7367970589
 30
0.0
 10
37.8756580883
 20
102.8966838829
 30
0.0
 10
38.0650512269
 20
103.2299309691
 30
0.0
 10
38.1779073234
 20
103.6459212391
 30
0.0
 10
38.1999463376
 20
103.9502856426
 30
0.0
 10
38.1999463376
 20
104.1116821186
 30
0.0
  0
SPLINE
  5
30C
100
AcDbEntity
  8
00_COMPONENTS_1
100
AcDbSpline
 62
7
  6
CONTINUOUS
 70
0
 71
3
 72
11
 73
7
 74
0
 42
0.0000001
 43
0.0000001
 44
0.0000000001
 40
0.0
 40
0.0
 40
0.0
 40
0.0
 40
0.2300719342
 40
0.4676026036
 40
0.7224392969
 40
1.0
 40
1.0
 40
1.0
 40
1.0
 10
57.7522319821
 20
91.4559698422
 30
0.0
 10
57.8697587984
 20
91.5237579844
 30
0.0
 10
58.0888133052
 20
91.6995047578
 30
0.0
 10
58.329494683
 20
92.0579243003
 30
0.0
 10
58.4742178778
 20
92.4931710613
 30
0.0
 10
58.5033639482
 20
92.8084433473
 30
0.0
 10
58.5033639482
 20
92.9721231523
 30
0.0
  0
SPLINE
  5
30D
100
AcDbEntity
  8
00_COMPONENTS_1
100
AcDbSpline
 62
7
  6
CONTINUOUS
 70
0
 71
3
 72
11
 73
7
 74
0
 42
0.0000001
 43
0.0000001
 44
0.0000000001
 40
0.0
 40
0.0
 40
0.0
 40
0.0
 40
0.2196074552
 40
0.4536140227
 40
0.7123690778
 40
1.0
 40
1.0
 40
1.0
 40
1.0
 10
47.1244027832
 20
96.750835224
 30
0.0
 10
47.2317731354
 20
96.8127845591
 30
0.0
 10
47.4325455232
 20
96.9805349061
 30
0.0
 10
47.6475268619
 20
97.326774429
 30
0.0
 10
47.7758911402
 20
97.7523388454
 30
0.0
 10
47.801374
 20
98.0618427592
 30
0.0
 10
47.801374
 20
98.2241995659
 30
0.0
  0
SPLINE
  5
30E
100
AcDbEntity
  8
00_COMPONENTS_1
100
AcDbSpline
 62
7
  6
CONTINUOUS
 70
0
 71
3
 72
9
 73
5
 74
0
 42
0.0000001
 43
0.0000001
 44
0.0000000001
 40
0.0
 40
0.0
 40
0.0
 40
0.0
 40
0.5152083127
 40
1.0
 40
1.0
 40
1.0
 40
1.0
 10
93.2748169936
 20
136.7751336836
 30
0.0
 10
91.3116914343
 20
137.7523050108
 30
0.0
 10
87.4065011488
 20
139.4663766404
 30
0.0
 10
83.3308545289
 20
140.7335609886
 30
0.0
 10
81.3246626386
 20
141.2161475307
 30
0.0
  0
SPLINE
  5
30F
100
AcDbEntity
  8
00_COMPONENTS_1
100
AcDbSpline
 62
7
  6
CONTINUOUS
 70
0
 71
3
 72
11
 73
7
 74
0
 42
0.0000001
 43
0.0000001
 44
0.0000000001
 40
0.0
 40
0.0
 40
0.0
 40
0.0
 40
0.2756766405
 40
0.5368903986
 40
0.7792300618
 40
1.0
 40
1.0
 40
1.0
 40
1.0
 10
113.0031783252
 20
125.6706172722
 30
0.0
 10
112.637718921
 20
126.1252509141
 30
0.0
 10
111.8775670375
 20
126.9732956765
 30
0.0
 10
110.6357852335
 20
128.0645625836
 30
0.0
 10
109.3547912362
 20
128.9149496561
 30
0.0
 10
108.4567098105
 20
129.3223802792
 30
0.0
 10
108.0137350532
 20
129.4706589841
 30
0.0
  0
SPLINE
  5
310
100
AcDbEntity
  8
00_COMPONENTS_1
100
AcDbSpline
 62
7
  6
CONTINUOUS
 70
0
 71
3
 72
11
 73
7
 74
0
 42
0.0000001
 43
0.0000001
 44
0.0000000001
 40
0.0
 40
0.0
 40
0.0
 40
0.0
 40
0.2764402947
 40
0.5319388883
 40
0.7705278885
 40
1.0
 40
1.0
 40
1.0
 40
1.0
 10
108.0137350532
 20
129.4706589841
 30
0.0
 10
107.9498842292
 20
129.4920320247
 30
0.0
 10
107.8235840599
 20
129.5239579867
 30
0.0
 10
107.6350712919
 20
129.5361921628
 30
0.0
 10
107.4593797767
 20
129.5092398927
 30
0.0
 10
107.3529135796
 20
129.4646840812
 30
0.0
 10
107.3045293376
 20
129.4367022848
 30
0.0
  0
SPLINE
  5
311
100
AcDbEntity
  8
00_COMPONENTS_1
100
AcDbSpline
 62
7
  6
CONTINUOUS
 70
0
 71
3
 72
9
 73
5
 74
0
 42
0.0000001
 43
0.0000001
 44
0.0000000001
 40
0.0
 40
0.0
 40
0.0
 40
0.0
 40
0.2536232172
 40
1.0
 40
1.0
 40
1.0
 40
1.0
 10
106.0188396282
 20
128.7668612837
 30
0.0
 10
105.6092587012
 20
129.0782833811
 30
0.0
 10
103.9842493312
 20
130.2928259169
 30
0.0
 10
102.318571592
 20
131.4531327417
 30
0.0
 10
101.0530239702
 20
132.2844853839
 30
0.0
  0
SPLINE
  5
312
100
AcDbEntity
  8
00_COMPONENTS_1
100
AcDbSpline
 62
7
  6
CONTINUOUS
 70
0
 71
3
 72
11
 73
7
 74
0
 42
0.0000001
 43
0.0000001
 44
0.0000000001
 40
0.0
 40
0.0
 40
0.0
 40
0.0
 40
0.3007457951
 40
0.5648479095
 40
0.7943976016
 40
1.0
 40
1.0
 40
1.0
 40
1.0
 10
88.890758483
 20
136.1123634536
 30
0.0
 10
88.9998484166
 20
136.1753461802
 30
0.0
 10
89.1967966375
 20
136.3087291271
 30
0.0
 10
89.434155251
 20
136.5454716111
 30
0.0
 10
89.5859265347
 20
136.800596609
 30
0.0
 10
89.6227704608
 20
136.9839701383
 30
0.0
 10
89.6227981782
 20
137.0700857693
 30
0.0
  0
SPLINE
  5
313
100
AcDbEntity
  8
00_COMPONENTS_1
100
AcDbSpline
 62
7
  6
CONTINUOUS
 70
0
 71
3
 72
9
 73
5
 74
0
 42
0.0000001
 43
0.0000001
 44
0.0000000001
 40
0.0
 40
0.0
 40
0.0
 40
0.0
 40
0.2458120123
 40
1.0
 40
1.0
 40
1.0
 40
1.0
 10
104.4094736785
 20
127.7521489606
 30
0.0
 10
104.4126255477
 20
127.7604942873
 30
0.0
 10
104.4249117284
 20
127.7946450468
 30
0.0
 10
104.4350274618
 20
127.8295712783
 30
0.0
 10
104.4414703753
 20
127.856172157
 30
0.0
  0
SPLINE
  5
314
100
AcDbEntity
  8
00_COMPONENTS_1
100
AcDbSpline
 62
7
  6
CONTINUOUS
 70
0
 71
3
 72
17
 73
13
 74
0
 42
0.0000001
 43
0.0000001
 44
0.0000000001
 40
0.0
 40
0.0
 40
0.0
 40
0.0
 40
0.128688864
 40
0.2702797703
 40
0.4174318348
 40
0.5617733576
 40
0.6954455149
 40
0.8127096012
 40
0.8646749146
 40
0.9125085807
 40
0.9571389861
 40
1.0
 40
1.0
 40
1.0
 40
1.0
 10
106.179610693
 20
122.1308935511
 30
0.0
 10
106.179610693
 20
122.3232120994
 30
0.0
 10
106.1258064412
 20
122.7275910641
 30
0.0
 10
105.9250007929
 20
123.3213318871
 30
0.0
 10
105.6155595389
 20
123.8932875962
 30
0.0
 10
105.2223713192
 20
124.396564313
 30
0.0
 10
104.7775581657
 20
124.79051115
 30
0.0
 10
104.3749404617
 20
125.0106626752
 30
0.0
 10
104.0599930512
 20
125.0944362746
 30
0.0
 10
103.8432315773
 20
125.1103973917
 30
0.0
 10
103.6413907933
 20
125.0808159619
 30
0.0
 10
103.5191018444
 20
125.030003175
 30
0.0
 10
103.4636425581
 20
124.9979545513
 30
0.0
  0
SPLINE
  5
315
100
AcDbEntity
  8
00_COMPONENTS_1
100
AcDbSpline
 62
7
  6
CONTINUOUS
 70
0
 71
3
 72
11
 73
7
 74
0
 42
0.0000001
 43
0.0000001
 44
0.0000000001
 40
0.0
 40
0.0
 40
0.0
 40
0.0
 40
0.2301566968
 40
0.4676909416
 40
0.7224955905
 40
1.0
 40
1.0
 40
1.0
 40
1.0
 10
48.9633261997
 20
75.7503256553
 30
0.0
 10
49.082773798
 20
75.8192162401
 30
0.0
 10
49.3054019851
 20
75.9977413279
 30
0.0
 10
49.5500437197
 20
76.3618431764
 30
0.0
 10
49.697107919
 20
76.8039694744
 30
0.0
 10
49.7267540734
 20
77.1242148055
 30
0.0
 10
49.7267540734
 20
77.2904714159
 30
0.0
  0
SPLINE
  5
316
100
AcDbEntity
  8
00_COMPONENTS_1
100
AcDbSpline
 62
7
  6
CONTINUOUS
 70
0
 71
3
 72
9
 73
5
 74
0
 42
0.0000001
 43
0.0000001
 44
0.0000000001
 40
0.0
 40
0.0
 40
0.0
 40
0.0
 40
0.2453262828
 40
1.0
 40
1.0
 40
1.0
 40
1.0
 10
34.1334413898
 20
113.480583257
 30
0.0
 10
34.6930997716
 20
113.0344607214
 30
0.0
 10
36.9957919766
 20
111.2429324437
 30
0.0
 10
39.3811024919
 20
109.5581252969
 30
0.0
 10
41.2181417625
 20
108.3445945982
 30
0.0
  0
SPLINE
  5
317
100
AcDbEntity
  8
00_COMPONENTS_1
100
AcDbSpline
 62
7
  6
CONTINUOUS
 70
0
 71
3
 72
9
 73
5
 74
0
 42
0.0000001
 43
0.0000001
 44
0.0000000001
 40
0.0
 40
0.0
 40
0.0
 40
0.0
 40
0.2461290674
 40
1.0
 40
1.0
 40
1.0
 40
1.0
 10
43.0197660562
 20
107.1802382413
 30
0.0
 10
43.598955167
 20
106.8140075432
 30
0.0
 10
45.9660903623
 20
105.3481724849
 30
0.0
 10
48.3872351985
 20
103.9698694473
 30
0.0
 10
50.237036732
 20
102.9781013692
 30
0.0
  0
SPLINE
  5
318
100
AcDbEntity
  8
00_COMPONENTS_1
100
AcDbSpline
 62
7
  6
CONTINUOUS
 70
0
 71
3
 72
9
 73
5
 74
0
 42
0.0000001
 43
0.0000001
 44
0.0000000001
 40
0.0
 40
0.0
 40
0.0
 40
0.0
 40
0.2466490254
 40
1.0
 40
1.0
 40
1.0
 40
1.0
 10
53.9171900388
 20
101.0820139094
 30
0.0
 10
54.5654041018
 20
100.7611359822
 30
0.0
 10
57.2042292531
 20
99.4819680363
 30
0.0
 10
59.8846939728
 20
98.2889691283
 30
0.0
 10
61.9228535961
 20
97.4367215766
 30
0.0
  0
SPLINE
  5
319
100
AcDbEntity
  8
00_COMPONENTS_1
100
AcDbSpline
 62
7
  6
CONTINUOUS
 70
0
 71
3
 72
17
 73
13
 74
0
 42
0.0000001
 43
0.0000001
 44
0.0000000001
 40
0.0
 40
0.0
 40
0.0
 40
0.0
 40
0.1288059587
 40
0.2704778068
 40
0.4179147215
 40
0.5627664698
 40
0.6970161254
 40
0.8144428188
 40
0.866224609
 40
0.9136960086
 40
0.9577920276
 40
1.0
 40
1.0
 40
1.0
 40
1.0
 10
47.801374
 20
98.2241995659
 30
0.0
 10
47.801374
 20
98.4973579494
 30
0.0
 10
47.7228308459
 20
99.0716485615
 30
0.0
 10
47.4303176439
 20
99.9128453586
 30
0.0
 10
46.9817353067
 20
100.7215174958
 30
0.0
 10
46.4146403276
 20
101.4319745582
 30
0.0
 10
45.7792130472
 20
101.9897453451
 30
0.0
 10
45.2073658647
 20
102.3030887004
 30
0.0
 10
44.7618365682
 20
102.4237536751
 30
0.0
 10
44.4567436018
 20
102.4484124642
 30
0.0
 10
44.1732844523
 20
102.4089780211
 30
0.0
 10
44.00172019
 20
102.3385340698
 30
0.0
 10
43.9241948152
 20
102.2937913367
 30
0.0
  0
SPLINE
  5
31A
100
AcDbEntity
  8
00_COMPONENTS_1
100
AcDbSpline
 62
7
  6
CONTINUOUS
 70
0
 71
3
 72
17
 73
13
 74
0
 42
0.0000001
 43
0.0000001
 44
0.0000000001
 40
0.0
 40
0.0
 40
0.0
 40
0.0
 40
0.1243764861
 40
0.2608334607
 40
0.4036445497
 40
0.5456772362
 40
0.6799094214
 40
0.8007266878
 40
0.855406525
 40
0.9063601717
 40
0.9542087963
 40
1.0
 40
1.0
 40
1.0
 40
1.0
 10
58.5033639482
 20
92.9721231523
 30
0.0
 10
58.5033639482
 20
93.2447180429
 30
0.0
 10
58.4159728446
 20
93.817374913
 30
0.0
 10
58.0879948785
 20
94.6450153356
 30
0.0
 10
57.5866976132
 20
95.4270191165
 30
0.0
 10
56.954637514
 20
96.1006593672
 30
0.0
 10
56.2466847479
 20
96.6160261782
 30
0.0
 10
55.615204609
 20
96.8875251277
 30
0.0
 10
55.1252060724
 20
96.9776989418
 30
0.0
 10
54.7869536604
 20
96.9822122858
 30
0.0
 10
54.4731509755
 20
96.9245158422
 30
0.0
 10
54.282371627
 20
96.8431986272
 30
0.0
 10
54.1954489003
 20
96.7930328225
 30
0.0
  0
SPLINE
  5
31B
100
AcDbEntity
  8
00_COMPONENTS_1
100
AcDbSpline
 62
7
  6
CONTINUOUS
 70
0
 71
3
 72
18
 73
14
 74
0
 42
0.0000001
 43
0.0000001
 44
0.0000000001
 40
0.0
 40
0.0
 40
0.0
 40
0.0
 40
0.1339056103
 40
0.2814907646
 40
0.4339908003
 40
0.581714006
 40
0.7157409323
 40
0.7754844197
 40
0.8296450688
 40
0.8782559877
 40
0.9218875003
 40
0.9618021156
 40
1.0
 40
1.0
 40
1.0
 40
1.0
 10
38.1999463376
 20
104.1116821186
 30
0.0
 10
38.1999463376
 20
104.3875219611
 30
0.0
 10
38.1290214186
 20
104.9678417654
 30
0.0
 10
37.8680859093
 20
105.8263268728
 30
0.0
 10
37.4685902591
 20
106.6618313653
 30
0.0
 10
36.9655855011
 20
107.405292684
 30
0.0
 10
36.4797043566
 20
107.9204382153
 30
0.0
 10
36.0722473877
 20
108.2302238652
 30
0.0
 10
35.7807091172
 20
108.3970972903
 30
0.0
 10
35.4972433163
 20
108.5044466625
 30
0.0
 10
35.2264568539
 20
108.5493579123
 30
0.0
 10
34.9736140143
 20
108.5285597209
 30
0.0
 10
34.8211384236
 20
108.468944332
 30
0.0
 10
34.7529775775
 20
108.4296303714
 30
0.0
  0
SPLINE
  5
31C
100
AcDbEntity
  8
00_COMPONENTS_1
100
AcDbSpline
 62
7
  6
CONTINUOUS
 70
0
 71
3
 72
17
 73
13
 74
0
 42
0.0000001
 43
0.0000001
 44
0.0000000001
 40
0.0
 40
0.0
 40
0.0
 40
0.0
 40
0.1304638222
 40
0.2740683316
 40
0.4231648106
 40
0.5689549984
 40
0.7031198587
 40
0.8192888851
 40
0.870036683
 40
0.9162747505
 40
0.9590453239
 40
1.0
 40
1.0
 40
1.0
 40
1.0
 10
33.8179970182
 20
85.4151531987
 30
0.0
 10
33.8179970182
 20
85.693298545
 30
0.0
 10
33.7411963123
 20
86.2782249063
 30
0.0
 10
33.4558624848
 20
87.1383164811
 30
0.0
 10
33.0184063722
 20
87.9692162146
 30
0.0
 10
32.4651783003
 20
88.7030554835
 30
0.0
 10
31.8455415461
 20
89.2832578778
 30
0.0
 10
31.2862190979
 20
89.615368774
 30
0.0
 10
30.849415684
 20
89.7482831271
 30
0.0
 10
30.5509712985
 20
89.7801814366
 30
0.0
 10
30.2732861815
 20
89.746274889
 30
0.0
 10
30.1054434289
 20
89.6782963672
 30
0.0
 10
30.029821472
 20
89.6346489128
 30
0.0
  0
SPLINE
  5
31D
100
AcDbEntity
  8
00_COMPONENTS_1
100
AcDbSpline
 62
7
  6
CONTINUOUS
 70
0
 71
3
 72
17
 73
13
 74
0
 42
0.0000001
 43
0.0000001
 44
0.0000000001
 40
0.0
 40
0.0
 40
0.0
 40
0.0
 40
0.1272151029
 40
0.2670269707
 40
0.4128100938
 40
0.556642862
 40
0.6908654718
 40
0.8094736706
 40
0.862289353
 40
0.911016714
 40
0.9564772627
 40
1.0
 40
1.0
 40
1.0
 40
1.0
 10
41.4871844747
 20
81.1881581485
 30
0.0
 10
41.4871844747
 20
81.4651866855
 30
0.0
 10
41.404755524
 20
82.047480046
 30
0.0
 10
41.0964343781
 20
82.8970058354
 30
0.0
 10
40.6239302472
 20
83.7096409214
 30
0.0
 10
40.0262848554
 20
84.419319361
 30
0.0
 10
39.3559957554
 20
84.9720338196
 30
0.0
 10
38.7540645499
 20
85.2760174365
 30
0.0
 10
38.2857664133
 20
85.3878515406
 30
0.0
 10
37.96408749
 20
85.4058069789
 30
0.0
 10
37.6654071405
 20
85.3591797784
 30
0.0
 10
37.4843673237
 20
85.2837175669
 30
0.0
 10
37.4022825075
 20
85.2363390424
 30
0.0
  0
SPLINE
  5
31E
100
AcDbEntity
  8
00_COMPONENTS_1
100
AcDbSpline
 62
7
  6
CONTINUOUS
 70
0
 71
3
 72
17
 73
13
 74
0
 42
0.0000001
 43
0.0000001
 44
0.0000000001
 40
0.0
 40
0.0
 40
0.0
 40
0.0
 40
0.1242707
 40
0.2606131819
 40
0.4032993893
 40
0.545223315
 40
0.6794142813
 40
0.8002877207
 40
0.8550456214
 40
0.9061058566
 40
0.9540783165
 40
1.0
 40
1.0
 40
1.0
 40
1.0
 10
49.7267540734
 20
77.2904714159
 30
0.0
 10
49.7267540734
 20
77.5673640802
 30
0.0
 10
49.6380122235
 20
78.149072965
 30
0.0
 10
49.3044737708
 20
78.9896244995
 30
0.0
 10
48.7948227204
 20
79.7837168857
 30
0.0
 10
48.1518365071
 20
80.4673754942
 30
0.0
 10
47.4313497312
 20
80.9899779079
 30
0.0
 10
46.7885072914
 20
81.2645654627
 30
0.0
 10
46.2896323331
 20
81.3552064466
 30
0.0
 10
45.9450631274
 20
81.3591718761
 30
0.0
 10
45.625343203
 20
81.2998938954
 30
0.0
 10
45.4309402085
 20
81.2168732535
 30
0.0
 10
45.34232268
 20
81.1657233286
 30
0.0
  0
SPLINE
  5
31F
100
AcDbEntity
  8
00_COMPONENTS_1
100
AcDbSpline
 62
7
  6
CONTINUOUS
 70
0
 71
3
 72
11
 73
7
 74
0
 42
0.0000001
 43
0.0000001
 44
0.0000000001
 40
0.0
 40
0.0
 40
0.0
 40
0.0
 40
0.2279489723
 40
0.4742874079
 40
0.7338339536
 40
1.0
 40
1.0
 40
1.0
 40
1.0
 10
49.7267540734
 20
45.7734781147
 30
0.0
 10
49.7267540734
 20
45.9770387416
 30
0.0
 10
49.6788034219
 20
46.4012008169
 30
0.0
 10
49.4895595938
 20
47.0314827342
 30
0.0
 10
49.1903298841
 20
47.6553721856
 30
0.0
 10
48.9280983164
 20
48.0469516896
 30
0.0
 10
48.7824706962
 20
48.2348042429
 30
0.0
  0
SPLINE
  5
320
100
AcDbEntity
  8
00_COMPONENTS_1
100
AcDbSpline
 62
7
  6
CONTINUOUS
 70
0
 71
3
 72
11
 73
7
 74
0
 42
0.0000001
 43
0.0000001
 44
0.0000000001
 40
0.0
 40
0.0
 40
0.0
 40
0.0
 40
0.2231975652
 40
0.4583719326
 40
0.7157641851
 40
1.0
 40
1.0
 40
1.0
 40
1.0
 10
40.7753630592
 20
79.677787899
 30
0.0
 10
40.8877960997
 20
79.7426358149
 30
0.0
 10
41.097769275
 20
79.9156346987
 30
0.0
 10
41.3245599055
 20
80.2713495055
 30
0.0
 10
41.4601759119
 20
80.7067234473
 30
0.0
 10
41.4871844747
 20
81.0228693483
 30
0.0
 10
41.4871844747
 20
81.1881581485
 30
0.0
  0
SPLINE
  5
321
100
AcDbEntity
  8
00_COMPONENTS_1
100
AcDbSpline
 62
7
  6
CONTINUOUS
 70
0
 71
3
 72
11
 73
7
 74
0
 42
0.0000001
 43
0.0000001
 44
0.0000000001
 40
0.0
 40
0.0
 40
0.0
 40
0.0
 40
0.2155349326
 40
0.4481959772
 40
0.708473345
 40
1.0
 40
1.0
 40
1.0
 40
1.0
 10
33.1571113687
 20
83.9341594482
 30
0.0
 10
33.2624561109
 20
83.9949385988
 30
0.0
 10
33.459676434
 20
84.1624450922
 30
0.0
 10
33.6687490124
 20
84.5095171598
 30
0.0
 10
33.7933884604
 20
84.9382510172
 30
0.0
 10
33.8179970182
 20
85.2506522261
 30
0.0
 10
33.8179970182
 20
85.4151531987
 30
0.0
  0
SPLINE
  5
322
100
AcDbEntity
  8
00_COMPONENTS_1
100
AcDbSpline
 62
7
  6
CONTINUOUS
 70
0
 71
3
 72
11
 73
7
 74
0
 42
0.0000001
 43
0.0000001
 44
0.0000000001
 40
0.0
 40
0.0
 40
0.0
 40
0.0
 40
0.2301562623
 40
0.4676731857
 40
0.7225017849
 40
1.0
 40
1.0
 40
1.0
 40
1.0
 10
48.9632841674
 20
44.2333945047
 30
0.0
 10
49.082714232
 20
44.3023164987
 30
0.0
 10
49.3054172139
 20
44.4807093908
 30
0.0
 10
49.550106782
 20
44.8448199458
 30
0.0
 10
49.6970928379
 20
45.28697161
 30
0.0
 10
49.7267540734
 20
45.6072242887
 30
0.0
 10
49.7267540734
 20
45.7734781147
 30
0.0
  0
SPLINE
  5
323
100
AcDbEntity
  8
00_COMPONENTS_1
100
AcDbSpline
 62
7
  6
CONTINUOUS
 70
0
 71
3
 72
9
 73
5
 74
0
 42
0.0000001
 43
0.0000001
 44
0.0000000001
 40
0.0
 40
0.0
 40
0.0
 40
0.0
 40
0.4876920106
 40
1.0
 40
1.0
 40
1.0
 40
1.0
 10
57.7522462279
 20
41.6493012743
 30
0.0
 10
57.8938917241
 20
41.7310179195
 30
0.0
 10
58.1550442178
 20
41.9549669918
 30
0.0
 10
58.3190078008
 20
42.2554537889
 30
0.0
 10
58.3785964108
 20
42.4165682236
 30
0.0
  0
SPLINE
  5
324
100
AcDbEntity
  8
00_COMPONENTS_1
100
AcDbSpline
 62
7
  6
CONTINUOUS
 70
0
 71
3
 72
14
 73
10
 74
0
 42
0.0000001
 43
0.0000001
 44
0.0000000001
 40
0.0
 40
0.0
 40
0.0
 40
0.0
 40
0.0947164736
 40
0.1971473061
 40
0.3105161896
 40
0.4351777772
 40
0.5696782812
 40
0.7111710993
 40
1.0
 40
1.0
 40
1.0
 40
1.0
 10
99.4725818369
 20
128.4970233601
 30
0.0
 10
99.472709203
 20
128.3790650365
 30
0.0
 10
99.5159652385
 20
128.1321891064
 30
0.0
 10
99.6968886074
 20
127.7851159454
 30
0.0
 10
99.9810378131
 20
127.4657941975
 30
0.0
 10
100.3530399119
 20
127.184521441
 30
0.0
 10
100.7974606619
 20
126.9529330216
 30
0.0
 10
101.4633481034
 20
126.7216622101
 30
0.0
 10
102.003975391
 20
126.6513268374
 30
0.0
 10
102.3636404857
 20
126.6565436718
 30
0.0
  0
SPLINE
  5
325
100
AcDbEntity
  8
00_COMPONENTS_1
100
AcDbSpline
 62
7
  6
CONTINUOUS
 70
0
 71
3
 72
18
 73
14
 74
0
 42
0.0000001
 43
0.0000001
 44
0.0000000001
 40
0.0
 40
0.0
 40
0.0
 40
0.0
 40
0.135016789
 40
0.2838739041
 40
0.4374880164
 40
0.5858771921
 40
0.7198899196
 40
0.7793717015
 40
0.8330992236
 40
0.8810653493
 40
0.9238486003
 40
0.9627783817
 40
1.0
 40
1.0
 40
1.0
 40
1.0
 10
88.890758483
 20
136.1123634536
 30
0.0
 10
88.703640512
 20
136.0043314875
 30
0.0
 10
88.2826064713
 20
135.8243198165
 30
0.0
 10
87.5990805139
 20
135.6618614742
 30
0.0
 10
86.8775654477
 20
135.5997234729
 30
0.0
 10
86.1787134326
 20
135.6406009069
 30
0.0
 10
85.6409936353
 20
135.7590687843
 30
0.0
 10
85.2725443991
 20
135.9054047621
 30
0.0
 10
85.0460706429
 20
136.0306141985
 30
0.0
 10
84.8628275157
 20
136.1735243904
 30
0.0
 10
84.7266476612
 20
136.3324772224
 30
0.0
 10
84.6420284524
 20
136.5055943749
 30
0.0
 10
84.6229802315
 20
136.6282429345
 30
0.0
 10
84.6229842687
 20
136.6878080098
 30
0.0
  0
SPLINE
  5
326
100
AcDbEntity
  8
00_COMPONENTS_1
100
AcDbSpline
 62
7
  6
CONTINUOUS
 70
0
 71
3
 72
9
 73
5
 74
0
 42
0.0000001
 43
0.0000001
 44
0.0000000001
 40
0.0
 40
0.0
 40
0.0
 40
0.0
 40
0.2564614786
 40
1.0
 40
1.0
 40
1.0
 40
1.0
 10
99.3559747609
 20
131.3046994146
 30
0.0
 10
98.714042968
 20
131.7263917183
 30
0.0
 10
96.1884780407
 20
133.335908993
 30
0.0
 10
93.5712111695
 20
134.8030852943
 30
0.0
 10
91.5777677843
 20
135.7953477143
 30
0.0
  0
SPLINE
  5
327
100
AcDbEntity
  8
00_COMPONENTS_1
100
AcDbSpline
 62
7
  6
CONTINUOUS
 70
0
 71
3
 72
9
 73
5
 74
0
 42
0.0000001
 43
0.0000001
 44
0.0000000001
 40
0.0
 40
0.0
 40
0.0
 40
0.0
 40
0.4871125001
 40
1.0
 40
1.0
 40
1.0
 40
1.0
 10
49.3341882243
 20
46.3416759428
 30
0.0
 10
49.0928513617
 20
46.5430431302
 30
0.0
 10
48.6473000054
 20
47.0175521789
 30
0.0
 10
48.302045841
 20
47.5676092281
 30
0.0
 10
48.1533731466
 20
47.8632783271
 30
0.0
  0
SPLINE
  5
328
100
AcDbEntity
  8
00_COMPONENTS_1
100
AcDbSpline
 62
7
  6
CONTINUOUS
 70
0
 71
3
 72
11
 73
7
 74
0
 42
0.0000001
 43
0.0000001
 44
0.0000000001
 40
0.0
 40
0.0
 40
0.0
 40
0.0
 40
0.2433208418
 40
0.499965046
 40
0.7566236055
 40
1.0
 40
1.0
 40
1.0
 40
1.0
 10
49.3341882243
 20
77.858669244
 30
0.0
 10
49.130175391
 20
78.0288939249
 30
0.0
 10
48.7467974487
 20
78.4227382628
 30
0.0
 10
48.2759685872
 20
79.1058130448
 30
0.0
 10
47.9196519634
 20
79.8550756623
 30
0.0
 10
47.7700840635
 20
80.3840531275
 30
0.0
 10
47.7246659471
 20
80.6459063552
 30
0.0
  0
SPLINE
  5
329
100
AcDbEntity
  8
00_COMPONENTS_1
100
AcDbSpline
 62
7
  6
CONTINUOUS
 70
0
 71
3
 72
11
 73
7
 74
0
 42
0.0000001
 43
0.0000001
 44
0.0000000001
 40
0.0
 40
0.0
 40
0.0
 40
0.0
 40
0.2796790259
 40
0.5352117664
 40
0.771660751
 40
1.0
 40
1.0
 40
1.0
 40
1.0
 10
100.2045140854
 20
129.5805113813
 30
0.0
 10
100.0941198698
 20
129.5167756316
 30
0.0
 10
99.8931016865
 20
129.3751800917
 30
0.0
 10
99.6547766194
 20
129.111923884
 30
0.0
 10
99.5049979203
 20
128.814574881
 30
0.0
 10
99.4724694642
 20
128.6010957326
 30
0.0
 10
99.4725818369
 20
128.4970233601
 30
0.0
  0
SPLINE
  5
32A
100
AcDbEntity
  8
00_COMPONENTS_1
100
AcDbSpline
 62
7
  6
CONTINUOUS
 70
0
 71
3
 72
11
 73
7
 74
0
 42
0.0000001
 43
0.0000001
 44
0.0000000001
 40
0.0
 40
0.0
 40
0.0
 40
0.0
 40
0.2177660095
 40
0.4508968553
 40
0.7103699668
 40
1.0
 40
1.0
 40
1.0
 40
1.0
 10
103.4636425581
 20
124.9979545513
 30
0.0
 10
103.3894459063
 20
124.9550780427
 30
0.0
 10
103.2505087711
 20
124.8384512853
 30
0.0
 10
103.1026933743
 20
124.5966568139
 30
0.0
 10
103.014941768
 20
124.2987624254
 30
0.0
 10
102.9976169299
 20
124.0819510482
 30
0.0
 10
102.9976169299
 20
123.9679769464
 30
0.0
  0
SPLINE
  5
32B
100
AcDbEntity
  8
00_COMPONENTS_1
100
AcDbSpline
 62
7
  6
CONTINUOUS
 70
0
 71
3
 72
17
 73
13
 74
0
 42
0.0000001
 43
0.0000001
 44
0.0000000001
 40
0.0
 40
0.0
 40
0.0
 40
0.0
 40
0.1302297039
 40
0.2736459102
 40
0.4221688243
 40
0.5669786578
 40
0.7001526718
 40
0.8160096083
 40
0.8670767229
 40
0.914005456
 40
0.9578076666
 40
1.0
 40
1.0
 40
1.0
 40
1.0
 10
29.3956081747
 20
88.1690750508
 30
0.0
 10
29.3956081747
 20
87.8902313557
 30
0.0
 10
29.4689709261
 20
87.3037891419
 30
0.0
 10
29.7409370081
 20
86.437853725
 30
0.0
 10
30.1621887519
 20
85.5983491956
 30
0.0
 10
30.7012208053
 20
84.8556179559
 30
0.0
 10
31.3141785833
 20
84.2693607526
 30
0.0
 10
31.875352422
 20
83.9375265768
 30
0.0
 10
32.3169697646
 20
83.8081732207
 30
0.0
 10
32.621525598
 20
83.7798380337
 30
0.0
 10
32.9062150607
 20
83.8181371124
 30
0.0
 10
33.0788604731
 20
83.8890122213
 30
0.0
 10
33.1571113687
 20
83.9341594482
 30
0.0
  0
SPLINE
  5
32C
100
AcDbEntity
  8
00_COMPONENTS_1
100
AcDbSpline
 62
7
  6
CONTINUOUS
 70
0
 71
3
 72
17
 73
13
 74
0
 42
0.0000001
 43
0.0000001
 44
0.0000000001
 40
0.0
 40
0.0
 40
0.0
 40
0.0
 40
0.1270190119
 40
0.2667053713
 40
0.4120138955
 40
0.554955407
 40
0.6882118162
 40
0.8064650753
 40
0.8595552486
 40
0.9089112681
 40
0.9553248882
 40
1.0
 40
1.0
 40
1.0
 40
1.0
 10
36.7171468913
 20
83.7413661051
 30
0.0
 10
36.7171468913
 20
83.4636773656
 30
0.0
 10
36.7961538819
 20
82.8799218285
 30
0.0
 10
37.091096633
 20
82.0241168652
 30
0.0
 10
37.5478636306
 20
81.2020941096
 30
0.0
 10
38.1321819365
 20
80.4829614487
 30
0.0
 10
38.7965811938
 20
79.924468987
 30
0.0
 10
39.4002463786
 20
79.6215557106
 30
0.0
 10
39.8727656383
 20
79.5137398905
 30
0.0
 10
40.2000070598
 20
79.4996224046
 30
0.0
 10
40.5051879403
 20
79.5506878051
 30
0.0
 10
40.6907582478
 20
79.6289904487
 30
0.0
 10
40.7753630592
 20
79.677787899
 30
0.0
  0
SPLINE
  5
32D
100
AcDbEntity
  8
00_COMPONENTS_1
100
AcDbSpline
 62
7
  6
CONTINUOUS
 70
0
 71
3
 72
17
 73
13
 74
0
 42
0.0000001
 43
0.0000001
 44
0.0000000001
 40
0.0
 40
0.0
 40
0.0
 40
0.0
 40
0.1241144518
 40
0.2603934086
 40
0.4026963218
 40
0.5438177378
 40
0.677071514
 40
0.7975449563
 40
0.8525310814
 40
0.9041588095
 40
0.9530066711
 40
1.0
 40
1.0
 40
1.0
 40
1.0
 10
44.6060567868
 20
79.641227107
 30
0.0
 10
44.6060567868
 20
79.3636850541
 30
0.0
 10
44.6913161502
 20
78.7805187691
 30
0.0
 10
45.0112136719
 20
77.9330557803
 30
0.0
 10
45.5054345272
 20
77.1285656966
 30
0.0
 10
46.1360107958
 20
76.4348650464
 30
0.0
 10
46.8513959105
 20
75.9068840904
 30
0.0
 10
47.4957862845
 20
75.6341456117
 30
0.0
 10
47.9983038567
 20
75.5480245129
 30
0.0
 10
48.3479006742
 20
75.5482055635
 30
0.0
 10
48.6736378138
 20
75.6119894087
 30
0.0
 10
48.8722955954
 20
75.6978243772
 30
0.0
 10
48.9633261997
 20
75.7503256553
 30
0.0
  0
SPLINE
  5
32E
100
AcDbEntity
  8
00_COMPONENTS_1
100
AcDbSpline
 62
7
  6
CONTINUOUS
 70
0
 71
3
 72
11
 73
7
 74
0
 42
0.0000001
 43
0.0000001
 44
0.0000000001
 40
0.0
 40
0.0
 40
0.0
 40
0.0
 40
0.2348704789
 40
0.4800561016
 40
0.7352661598
 40
1.0
 40
1.0
 40
1.0
 40
1.0
 10
20.6905085975
 20
90.7364905316
 30
0.0
 10
22.9333543876
 20
88.9418571534
 30
0.0
 10
27.673507003
 20
85.4653874683
 30
0.0
 10
35.310387364
 20
80.7038854787
 30
0.0
 10
43.5804409837
 20
76.3110885397
 30
0.0
 10
49.3802735967
 20
73.6923125195
 30
0.0
 10
52.3690242841
 20
72.4473047291
 30
0.0
  0
SPLINE
  5
32F
100
AcDbEntity
  8
00_COMPONENTS_1
100
AcDbSpline
 62
7
  6
CONTINUOUS
 70
0
 71
3
 72
17
 73
13
 74
0
 42
0.0000001
 43
0.0000001
 44
0.0000000001
 40
0.0
 40
0.0
 40
0.0
 40
0.0
 40
0.1234583358
 40
0.2589992004
 40
0.4005571585
 40
0.5410680552
 40
0.674104782
 40
0.7950166836
 40
0.8504814963
 40
0.9027175299
 40
0.9522624299
 40
1.0
 40
1.0
 40
1.0
 40
1.0
 10
100.2045140854
 20
129.5805113813
 30
0.0
 10
100.389587328
 20
129.6873628299
 30
0.0
 10
100.8115722214
 20
129.8545665459
 30
0.0
 10
101.5005073583
 20
129.9642773679
 30
0.0
 10
102.2273693075
 20
129.9390512475
 30
0.0
 10
102.9324598263
 20
129.7785921988
 30
0.0
 10
103.5587851237
 20
129.4944673609
 30
0.0
 10
103.9869004099
 20
129.1607861775
 30
0.0
 10
104.2367870938
 20
128.8519400172
 30
0.0
 10
104.3708328282
 20
128.6133346814
 30
0.0
 10
104.4532897282
 20
128.3662817845
 30
0.0
 10
104.4722503641
 20
128.197383248
 30
0.0
 10
104.472235139
 20
128.114750492
 30
0.0
  0
SPLINE
  5
330
100
AcDbEntity
  8
00_COMPONENTS_1
100
AcDbSpline
 62
7
  6
CONTINUOUS
 70
0
 71
3
 72
14
 73
10
 74
0
 42
0.0000001
 43
0.0000001
 44
0.0000000001
 40
0.0
 40
0.0
 40
0.0
 40
0.0
 40
0.2907016448
 40
0.4311999679
 40
0.5641268576
 40
0.6872953984
 40
0.8000339497
 40
0.9032943708
 40
1.0
 40
1.0
 40
1.0
 40
1.0
 10
45.1823543469
 20
46.1569768689
 30
0.0
 10
45.4052634226
 20
45.766653037
 30
0.0
 10
45.8158821332
 20
45.2276836652
 30
0.0
 10
46.4775983406
 20
44.6561210398
 30
0.0
 10
46.9990231748
 20
44.3280064071
 30
0.0
 10
47.5304470329
 20
44.1119772252
 30
0.0
 10
48.0506739527
 20
44.0168365726
 30
0.0
 10
48.538721317
 20
44.0480217186
 30
0.0
 10
48.8337740794
 20
44.1586554216
 30
0.0
 10
48.9632841674
 20
44.2333945047
 30
0.0
  0
SPLINE
  5
331
100
AcDbEntity
  8
00_COMPONENTS_1
100
AcDbSpline
 62
7
  6
CONTINUOUS
 70
0
 71
3
 72
13
 73
9
 74
0
 42
0.0000001
 43
0.0000001
 44
0.0000000001
 40
0.0
 40
0.0
 40
0.0
 40
0.0
 40
0.2911079014
 40
0.429024506
 40
0.5597357102
 40
0.6822045926
 40
0.7962109041
 40
1.0
 40
1.0
 40
1.0
 40
1.0
 10
37.7166991143
 20
49.4953501128
 30
0.0
 10
37.8996144636
 20
49.2505715657
 30
0.0
 10
38.201935481
 20
48.9119910667
 30
0.0
 10
38.6551013256
 20
48.5367369021
 30
0.0
 10
38.9987975231
 20
48.3105256997
 30
0.0
 10
39.3466458158
 20
48.1411018431
 30
0.0
 10
39.787108164
 20
47.9997917002
 30
0.0
 10
40.1304278755
 20
47.9749413405
 30
0.0
 10
40.3416158218
 20
48.0089895184
 30
0.0
  0
SPLINE
  5
332
100
AcDbEntity
  8
00_COMPONENTS_1
100
AcDbSpline
 62
7
  6
CONTINUOUS
 70
0
 71
3
 72
13
 73
9
 74
0
 42
0.0000001
 43
0.0000001
 44
0.0000000001
 40
0.0
 40
0.0
 40
0.0
 40
0.0
 40
0.3018007367
 40
0.5723380428
 40
0.6930161895
 40
0.8037202581
 40
0.9053761922
 40
1.0
 40
1.0
 40
1.0
 40
1.0
 10
30.4231858903
 20
53.7331128349
 30
0.0
 10
30.5988311833
 20
53.4889522734
 30
0.0
 10
30.971018123
 20
53.0526439927
 30
0.0
 10
31.5178761392
 20
52.6193226434
 30
0.0
 10
31.9677153412
 20
52.3965621825
 30
0.0
 10
32.2862417934
 20
52.2975682431
 30
0.0
 10
32.5921756545
 20
52.2623329965
 30
0.0
 10
32.7888173514
 20
52.2843114935
 30
0.0
 10
32.8803946427
 20
52.3068172894
 30
0.0
  0
SPLINE
  5
333
100
AcDbEntity
  8
00_COMPONENTS_1
100
AcDbSpline
 62
7
  6
CONTINUOUS
 70
0
 71
3
 72
11
 73
7
 74
0
 42
0.0000001
 43
0.0000001
 44
0.0000000001
 40
0.0
 40
0.0
 40
0.0
 40
0.0
 40
0.2282411279
 40
0.4711585577
 40
0.7286559894
 40
1.0
 40
1.0
 40
1.0
 40
1.0
 10
76.3749357781
 20
138.3586192387
 30
0.0
 10
78.4340311897
 20
137.8633068316
 30
0.0
 10
82.6189207247
 20
136.5539433819
 30
0.0
 10
88.8096931431
 20
133.805917518
 30
0.0
 10
95.0367227977
 20
130.2477901338
 30
0.0
 10
99.0648836207
 20
127.4330543303
 30
0.0
 10
101.0691127677
 20
125.9091522066
 30
0.0
  0
SPLINE
  5
334
100
AcDbEntity
  8
00_COMPONENTS_1
100
AcDbSpline
 62
7
  6
CONTINUOUS
 70
0
 71
3
 72
11
 73
7
 74
0
 42
0.0000001
 43
0.0000001
 44
0.0000000001
 40
0.0
 40
0.0
 40
0.0
 40
0.0
 40
0.2977289052
 40
0.5606042422
 40
0.7905090677
 40
1.0
 40
1.0
 40
1.0
 40
1.0
 10
101.0691127677
 20
125.9091522066
 30
0.0
 10
101.1210178022
 20
125.8696865635
 30
0.0
 10
101.2252529166
 20
125.8031762587
 30
0.0
 10
101.3893906155
 20
125.7429370695
 30
0.0
 10
101.5455064939
 20
125.7324153593
 30
0.0
 10
101.6400717654
 20
125.7627050487
 30
0.0
 10
101.6797870793
 20
125.7856762003
 30
0.0
  0
SPLINE
  5
335
100
AcDbEntity
  8
00_COMPONENTS_1
100
AcDbSpline
 62
7
  6
CONTINUOUS
 70
0
 71
3
 72
11
 73
7
 74
0
 42
0.0000001
 43
0.0000001
 44
0.0000000001
 40
0.0
 40
0.0
 40
0.0
 40
0.0
 40
0.2199666559
 40
0.4536356798
 40
0.7121523005
 40
1.0
 40
1.0
 40
1.0
 40
1.0
 10
37.4022825075
 20
85.2363390424
 30
0.0
 10
37.2932012842
 20
85.1733784652
 30
0.0
 10
37.0894449658
 20
85.0032841184
 30
0.0
 10
36.8717902556
 20
84.6518834554
 30
0.0
 10
36.7426049091
 20
84.2201057032
 30
0.0
 10
36.7171468913
 20
83.9061804911
 30
0.0
 10
36.7171468913
 20
83.7413661051
 30
0.0
  0
SPLINE
  5
336
100
AcDbEntity
  8
00_COMPONENTS_1
100
AcDbSpline
 62
7
  6
CONTINUOUS
 70
0
 71
3
 72
11
 73
7
 74
0
 42
0.0000001
 43
0.0000001
 44
0.0000000001
 40
0.0
 40
0.0
 40
0.0
 40
0.0
 40
0.2207699382
 40
0.4631096014
 40
0.7243233595
 40
1.0
 40
1.0
 40
1.0
 40
1.0
 10
103.0640081927
 20
126.612949907
 30
0.0
 10
103.50698295
 20
126.4646712021
 30
0.0
 10
104.4050643757
 20
126.057240579
 30
0.0
 10
105.6860583731
 20
125.2068535065
 30
0.0
 10
106.927840177
 20
124.1155865994
 30
0.0
 10
107.6879920605
 20
123.267541837
 30
0.0
 10
108.0534514647
 20
122.8129081951
 30
0.0
  0
SPLINE
  5
337
100
AcDbEntity
  8
00_COMPONENTS_1
100
AcDbSpline
 62
7
  6
CONTINUOUS
 70
0
 71
3
 72
11
 73
7
 74
0
 42
0.0000001
 43
0.0000001
 44
0.0000000001
 40
0.0
 40
0.0
 40
0.0
 40
0.0
 40
0.2159040707
 40
0.448231248
 40
0.7082625362
 40
1.0
 40
1.0
 40
1.0
 40
1.0
 10
43.9241948152
 20
102.2937913367
 30
0.0
 10
43.8204306438
 20
102.2339052331
 30
0.0
 10
43.6263939765
 20
102.0692164282
 30
0.0
 10
43.4212778697
 20
101.7276884967
 30
0.0
 10
43.2997085125
 20
101.3060044382
 30
0.0
 10
43.275871759
 20
100.9988259093
 30
0.0
 10
43.275871759
 20
100.8369403948
 30
0.0
  0
SPLINE
  5
338
100
AcDbEntity
  8
00_COMPONENTS_1
100
AcDbSpline
 62
7
  6
CONTINUOUS
 70
0
 71
3
 72
17
 73
13
 74
0
 42
0.0000001
 43
0.0000001
 44
0.0000000001
 40
0.0
 40
0.0
 40
0.0
 40
0.0
 40
0.128688864
 40
0.2702797703
 40
0.4174318348
 40
0.5617733576
 40
0.6954455149
 40
0.8127096012
 40
0.8646749146
 40
0.9125085807
 40
0.9571389861
 40
1.0
 40
1.0
 40
1.0
 40
1.0
 10
102.9976169299
 20
123.9679769464
 30
0.0
 10
102.9976169299
 20
123.7756583981
 30
0.0
 10
103.0514211817
 20
123.3712794334
 30
0.0
 10
103.25222683
 20
122.7775386104
 30
0.0
 10
103.561668084
 20
122.2055829013
 30
0.0
 10
103.9548563037
 20
121.7023061845
 30
0.0
 10
104.3996694572
 20
121.3083593475
 30
0.0
 10
104.8022871612
 20
121.0882078223
 30
0.0
 10
105.1172345717
 20
121.0044342229
 30
0.0
 10
105.3339960456
 20
120.9884731058
 30
0.0
 10
105.5358368296
 20
121.0180545357
 30
0.0
 10
105.6581257785
 20
121.0688673225
 30
0.0
 10
105.7135850648
 20
121.1009159462
 30
0.0
  0
SPLINE
  5
339
100
AcDbEntity
  8
00_COMPONENTS_1
100
AcDbSpline
 62
7
  6
CONTINUOUS
 70
0
 71
3
 72
17
 73
13
 74
0
 42
0.0000001
 43
0.0000001
 44
0.0000000001
 40
0.0
 40
0.0
 40
0.0
 40
0.0
 40
0.0390682397
 40
0.0795158538
 40
0.1233553893
 40
0.1718536583
 40
0.2845102047
 40
0.4172589684
 40
0.5641987492
 40
0.7168714643
 40
0.8653605303
 40
1.0
 40
1.0
 40
1.0
 40
1.0
 10
89.6227981782
 20
137.0700857693
 30
0.0
 10
89.6228184295
 20
137.1330044657
 30
0.0
 10
89.604159228
 20
137.2618533641
 30
0.0
 10
89.5196952946
 20
137.4443202391
 30
0.0
 10
89.3825493267
 20
137.6108875709
 30
0.0
 10
89.1238535456
 20
137.8188646468
 30
0.0
 10
88.6854215838
 20
138.0149586617
 30
0.0
 10
88.0632087468
 20
138.1414776951
 30
0.0
 10
87.364353107
 20
138.1646170565
 30
0.0
 10
86.6448357299
 20
138.0828642997
 30
0.0
 10
85.9635527052
 20
137.9052643016
 30
0.0
 10
85.5429942816
 20
137.7212050418
 30
0.0
 10
85.3552098573
 20
137.612788301
 30
0.0
  0
SPLINE
  5
33A
100
AcDbEntity
  8
00_COMPONENTS_1
100
AcDbSpline
 62
7
  6
CONTINUOUS
 70
0
 71
3
 72
11
 73
7
 74
0
 42
0.0000001
 43
0.0000001
 44
0.0000000001
 40
0.0
 40
0.0
 40
0.0
 40
0.0
 40
0.2272440636
 40
0.463366091
 40
0.7191657868
 40
1.0
 40
1.0
 40
1.0
 40
1.0
 10
45.34232268
 20
81.1657233286
 30
0.0
 10
45.2262138009
 20
81.0987054311
 30
0.0
 10
45.0097936456
 20
80.9231048154
 30
0.0
 10
44.774387386
 20
80.563204496
 30
0.0
 10
44.6340123116
 20
80.1247322481
 30
0.0
 10
44.6060567868
 20
79.8069046989
 30
0.0
 10
44.6060567868
 20
79.641227107
 30
0.0
  0
SPLINE
  5
33B
100
AcDbEntity
  8
00_COMPONENTS_1
100
AcDbSpline
 62
7
  6
CONTINUOUS
 70
0
 71
3
 72
11
 73
7
 74
0
 42
0.0000001
 43
0.0000001
 44
0.0000000001
 40
0.0
 40
0.0
 40
0.0
 40
0.0
 40
0.1999930246
 40
0.4271084602
 40
0.6931120615
 40
1.0
 40
1.0
 40
1.0
 40
1.0
 10
84.6229842687
 20
136.6878080098
 30
0.0
 10
84.6229898201
 20
136.7697143114
 30
0.0
 10
84.6609740178
 20
136.945580383
 30
0.0
 10
84.8131446247
 20
137.1896652891
 30
0.0
 10
85.0503374555
 20
137.4190193748
 30
0.0
 10
85.246363583
 20
137.5499462503
 30
0.0
 10
85.3552098573
 20
137.612788301
 30
0.0
  0
SPLINE
  5
33C
100
AcDbEntity
  8
00_COMPONENTS_1
100
AcDbSpline
 62
7
  6
CONTINUOUS
 70
0
 71
3
 72
9
 73
5
 74
0
 42
0.0000001
 43
0.0000001
 44
0.0000000001
 40
0.0
 40
0.0
 40
0.0
 40
0.0
 40
0.5157236297
 40
1.0
 40
1.0
 40
1.0
 40
1.0
 10
51.1150349128
 20
100.9600316275
 30
0.0
 10
47.4536311946
 20
102.8310116924
 30
0.0
 10
40.5195561309
 20
106.7964233041
 30
0.0
 10
34.054732906
 20
111.4985341868
 30
0.0
 10
31.0849350045
 20
113.9658805949
 30
0.0
  0
SPLINE
  5
33D
100
AcDbEntity
  8
00_COMPONENTS_1
100
AcDbSpline
 62
7
  6
CONTINUOUS
 70
0
 71
3
 72
9
 73
5
 74
0
 42
0.0000001
 43
0.0000001
 44
0.0000000001
 40
0.0
 40
0.0
 40
0.0
 40
0.0
 40
0.5195715195
 40
1.0
 40
1.0
 40
1.0
 40
1.0
 10
56.7419988043
 20
41.4672774126
 30
0.0
 10
56.9208860603
 20
41.4463690927
 30
0.0
 10
57.2730009392
 20
41.4491972869
 30
0.0
 10
57.6079939611
 20
41.5660807581
 30
0.0
 10
57.7522462279
 20
41.6493012743
 30
0.0
  0
SPLINE
  5
33E
100
AcDbEntity
  8
00_COMPONENTS_1
100
AcDbSpline
 62
7
  6
CONTINUOUS
 70
0
 71
3
 72
11
 73
7
 74
0
 42
0.0000001
 43
0.0000001
 44
0.0000000001
 40
0.0
 40
0.0
 40
0.0
 40
0.0
 40
0.2119517292
 40
0.4429976469
 40
0.70451601
 40
1.0
 40
1.0
 40
1.0
 40
1.0
 10
30.029821472
 20
89.6346489128
 30
0.0
 10
29.9278666976
 20
89.5758026921
 30
0.0
 10
29.7369767601
 20
89.4111744715
 30
0.0
 10
29.5370698031
 20
89.0686241135
 30
0.0
 10
29.4187009415
 20
88.6435002315
 30
0.0
 10
29.3956081747
 20
88.3331876193
 30
0.0
 10
29.3956081747
 20
88.1690750508
 30
0.0
  0
SPLINE
  5
33F
100
AcDbEntity
  8
00_COMPONENTS_1
100
AcDbSpline
 62
7
  6
CONTINUOUS
 70
0
 71
3
 72
11
 73
7
 74
0
 42
0.0000001
 43
0.0000001
 44
0.0000000001
 40
0.0
 40
0.0
 40
0.0
 40
0.0
 40
0.2031783491
 40
0.4314010779
 40
0.6961855842
 40
1.0
 40
1.0
 40
1.0
 40
1.0
 10
34.7529775775
 20
108.4296303714
 30
0.0
 10
34.6596868747
 20
108.3758219576
 30
0.0
 10
34.4846678392
 20
108.2190333305
 30
0.0
 10
34.3054502142
 20
107.8908613103
 30
0.0
 10
34.1992833302
 20
107.4788479046
 30
0.0
 10
34.1787894031
 20
107.1766444081
 30
0.0
 10
34.1787894031
 20
107.0156051078
 30
0.0
  0
SPLINE
  5
340
100
AcDbEntity
  8
00_COMPONENTS_1
100
AcDbSpline
 62
7
  6
CONTINUOUS
 70
0
 71
3
 72
11
 73
7
 74
0
 42
0.0000001
 43
0.0000001
 44
0.0000000001
 40
0.0
 40
0.0
 40
0.0
 40
0.0
 40
0.2294721115
 40
0.4680611117
 40
0.7235597053
 40
1.0
 40
1.0
 40
1.0
 40
1.0
 10
102.3548024771
 20
126.5789932077
 30
0.0
 10
102.4031867191
 20
126.6069750041
 30
0.0
 10
102.5096529162
 20
126.6515308156
 30
0.0
 10
102.6853444314
 20
126.6784830857
 30
0.0
 10
102.8738571994
 20
126.6662489096
 30
0.0
 10
103.0001573687
 20
126.6343229476
 30
0.0
 10
103.0640081927
 20
126.612949907
 30
0.0
  0
SPLINE
  5
341
100
AcDbEntity
  8
00_COMPONENTS_1
100
AcDbSpline
 62
7
  6
CONTINUOUS
 70
0
 71
3
 72
11
 73
7
 74
0
 42
0.0000001
 43
0.0000001
 44
0.0000000001
 40
0.0
 40
0.0
 40
0.0
 40
0.0
 40
0.2268680955
 40
0.4628559877
 40
0.7187885928
 40
1.0
 40
1.0
 40
1.0
 40
1.0
 10
54.1954489003
 20
96.7930328225
 30
0.0
 10
54.0815113797
 20
96.7272759415
 30
0.0
 10
53.8691393084
 20
96.5546641394
 30
0.0
 10
53.6384369041
 20
96.2007407598
 30
0.0
 10
53.5008945766
 20
95.7694252404
 30
0.0
 10
53.4735164008
 20
95.4567444423
 30
0.0
 10
53.4735164008
 20
95.2936818209
 30
0.0
  0
SPLINE
  5
342
100
AcDbEntity
  8
00_COMPONENTS_1
100
AcDbSpline
 62
7
  6
CONTINUOUS
 70
0
 71
3
 72
17
 73
13
 74
0
 42
0.0000001
 43
0.0000001
 44
0.0000000001
 40
0.0
 40
0.0
 40
0.0
 40
0.0
 40
0.128574785
 40
0.2700775743
 40
0.4169433492
 40
0.5607717888
 40
0.6939537106
 40
0.8110114363
 40
0.8631188985
 40
0.9113122698
 40
0.9564895046
 40
1.0
 40
1.0
 40
1.0
 40
1.0
 10
43.275871759
 20
100.8369403948
 30
0.0
 10
43.275871759
 20
100.5630466352
 30
0.0
 10
43.3506618691
 20
99.9871327989
 30
0.0
 10
43.6289750707
 20
99.1394750392
 30
0.0
 10
44.06031858
 20
98.3211116415
 30
0.0
 10
44.6126528363
 20
97.6008200582
 30
0.0
 10
45.2412969378
 20
97.0366584448
 30
0.0
 10
45.8151033131
 20
96.7240802271
 30
0.0
 10
46.2654815099
 20
96.6075018047
 30
0.0
 10
46.5768451402
 20
96.5867586609
 30
0.0
 10
46.8675604781
 20
96.6309572598
 30
0.0
 10
47.0441199427
 20
96.704514536
 30
0.0
 10
47.1244027832
 20
96.750835224
 30
0.0
  0
SPLINE
  5
343
100
AcDbEntity
  8
00_COMPONENTS_1
100
AcDbSpline
 62
7
  6
CONTINUOUS
 70
0
 71
3
 72
17
 73
13
 74
0
 42
0.0000001
 43
0.0000001
 44
0.0000000001
 40
0.0
 40
0.0
 40
0.0
 40
0.0
 40
0.1241976998
 40
0.260581021
 40
0.4029615524
 40
0.5441019141
 40
0.677316189
 40
0.7977037752
 40
0.8526383402
 40
0.9042168307
 40
0.9530285788
 40
1.0
 40
1.0
 40
1.0
 40
1.0
 10
53.4735164008
 20
95.2936818209
 30
0.0
 10
53.4735164008
 20
95.0204027244
 30
0.0
 10
53.5570482423
 20
94.4461750567
 30
0.0
 10
53.8705207635
 20
93.6112183419
 30
0.0
 10
54.355105722
 20
92.8180794768
 30
0.0
 10
54.973716363
 20
92.1336446015
 30
0.0
 10
55.6761000514
 20
91.6123791094
 30
0.0
 10
56.3093405016
 20
91.3429448548
 30
0.0
 10
56.803289218
 20
91.2575809332
 30
0.0
 10
57.1469940697
 20
91.2574092058
 30
0.0
 10
57.4673162941
 20
91.3199740398
 30
0.0
 10
57.6627031809
 20
91.4043306394
 30
0.0
 10
57.7522319821
 20
91.4559698422
 30
0.0
  0
SPLINE
  5
344
100
AcDbEntity
  8
00_COMPONENTS_1
100
AcDbSpline
 62
7
  6
CONTINUOUS
 70
0
 71
3
 72
11
 73
7
 74
0
 42
0.0000001
 43
0.0000001
 44
0.0000000001
 40
0.0
 40
0.0
 40
0.0
 40
0.0
 40
0.2372423294
 40
0.4999983821
 40
0.7627553152
 40
1.0
 40
1.0
 40
1.0
 40
1.0
 10
109.6090799065
 20
77.9377124068
 30
0.0
 10
109.669313831
 20
77.9724882718
 30
0.0
 10
109.783293096
 20
78.0684255368
 30
0.0
 10
109.916325383
 20
78.2502209705
 30
0.0
 10
110.0072479071
 20
78.4563291374
 30
0.0
 10
110.0333422089
 20
78.6030076177
 30
0.0
 10
110.0333422089
 20
78.6725603494
 30
0.0
  0
SPLINE
  5
345
100
AcDbEntity
  8
00_COMPONENTS_1
100
AcDbSpline
 62
7
  6
CONTINUOUS
 70
0
 71
3
 72
17
 73
13
 74
0
 42
0.0000001
 43
0.0000001
 44
0.0000000001
 40
0.0
 40
0.0
 40
0.0
 40
0.0
 40
0.1336379778
 40
0.2809763197
 40
0.4327605825
 40
0.579350557
 40
0.7123229452
 40
0.8257227131
 40
0.8747416691
 40
0.9192021499
 40
0.9603371945
 40
1.0
 40
1.0
 40
1.0
 40
1.0
 10
34.1787894031
 20
107.0156051078
 30
0.0
 10
34.1787894031
 20
106.7389538252
 30
0.0
 10
34.2458433918
 20
106.1569133298
 30
0.0
 10
34.4922712237
 20
105.2924685453
 30
0.0
 10
34.8734293729
 20
104.4484583727
 30
0.0
 10
35.3606521441
 20
103.6955210954
 30
0.0
 10
35.914128686
 20
103.0937811306
 30
0.0
 10
36.4242028065
 20
102.7404976629
 30
0.0
 10
36.8286165175
 20
102.5926612417
 30
0.0
 10
37.1065972851
 20
102.5513340899
 30
0.0
 10
37.3675446024
 20
102.5769265487
 30
0.0
 10
37.5254412722
 20
102.639829902
 30
0.0
 10
37.5965716036
 20
102.6808448126
 30
0.0
  0
SPLINE
  5
346
100
AcDbEntity
  8
00_COMPONENTS_1
100
AcDbSpline
 62
7
  6
CONTINUOUS
 70
0
 71
3
 72
9
 73
5
 74
0
 42
0.0000001
 43
0.0000001
 44
0.0000000001
 40
0.0
 40
0.0
 40
0.0
 40
0.0
 40
0.2469348959
 40
1.0
 40
1.0
 40
1.0
 40
1.0
 10
45.8642390895
 20
95.6360584337
 30
0.0
 10
46.3756476423
 20
95.3431292087
 30
0.0
 10
48.4553986624
 20
94.172148833
 30
0.0
 10
50.5691634899
 20
93.0617229254
 30
0.0
 10
52.1770010257
 20
92.258413427
 30
0.0
  0
SPLINE
  5
347
100
AcDbEntity
  8
00_COMPONENTS_1
100
AcDbSpline
 62
7
  6
CONTINUOUS
 70
0
 71
3
 72
9
 73
5
 74
0
 42
0.0000001
 43
0.0000001
 44
0.0000000001
 40
0.0
 40
0.0
 40
0.0
 40
0.0
 40
0.2463868326
 40
1.0
 40
1.0
 40
1.0
 40
1.0
 10
53.7040896669
 20
91.5075951941
 30
0.0
 10
54.4361955624
 20
91.1533887353
 30
0.0
 10
57.4204960944
 20
89.7426231152
 30
0.0
 10
60.4547454179
 20
88.4379113511
 30
0.0
 10
62.7634506911
 20
87.5116706211
 30
0.0
  0
SPLINE
  5
348
100
AcDbEntity
  8
00_COMPONENTS_1
100
AcDbSpline
 62
7
  6
CONTINUOUS
 70
0
 71
3
 72
9
 73
5
 74
0
 42
0.0000001
 43
0.0000001
 44
0.0000000001
 40
0.0
 40
0.0
 40
0.0
 40
0.0
 40
0.2570871035
 40
1.0
 40
1.0
 40
1.0
 40
1.0
 10
33.1574969044
 20
91.1585693207
 30
0.0
 10
32.0436616618
 20
91.8297546695
 30
0.0
 10
27.7513580869
 20
94.5061883387
 30
0.0
 10
23.6247040055
 20
97.4518443234
 30
0.0
 10
20.6905085975
 20
99.7996673617
 30
0.0
  0
SPLINE
  5
349
100
AcDbEntity
  8
00_COMPONENTS_1
100
AcDbSpline
 62
7
  6
CONTINUOUS
 70
0
 71
3
 72
9
 73
5
 74
0
 42
0.0000001
 43
0.0000001
 44
0.0000000001
 40
0.0
 40
0.0
 40
0.0
 40
0.0
 40
0.4887424005
 40
1.0
 40
1.0
 40
1.0
 40
1.0
 10
31.0849350045
 20
105.8008564236
 30
0.0
 10
33.1306581385
 20
104.1012432533
 30
0.0
 10
37.4726356941
 20
100.8089418572
 30
0.0
 10
42.0604715836
 20
97.871796169
 30
0.0
 10
44.4553935612
 20
96.4558996999
 30
0.0
  0
ENDSEC
  0
SECTION
  2
OBJECTS
  0
DICTIONARY
  5
C
100
AcDbDictionary
280
0
281
1
  3
ACAD_GROUP
350
D
  3
ACAD_MLINESTYLE
350
17
  3
ACAD_LAYOUT
350
1A
  3
ACAD_PLOTSETTINGS
350
19
  3
ACAD_PLOTSTYLENAME
350
E
  0
DICTIONARY
  5
D
102
{ACAD_REACTORS
330
C
102
}
100
AcDbDictionary
280
0
281
1
  0
ACDBDICTIONARYWDFLT
  5
E
102
{ACAD_REACTORS
330
C
102
}
100
AcDbDictionary
281
1
  3
Normal
350
F
100
AcDbDictionaryWithDefault
340
F
  0
DICTIONARY
  5
17
102
{ACAD_REACTORS
330
C
102
}
100
AcDbDictionary
280
0
281
1
  3
Standard
350
18
  0
DICTIONARY
  5
19
102
{ACAD_REACTORS
330
C
102
}
100
AcDbDictionary
281
1
  0
DICTIONARY
  5
1A
102
{ACAD_REACTORS
330
C
102
}
100
AcDbDictionary
281
1
  3
Model
350
34A
  3
Layout1
350
34B
  0
ACDBPLACEHOLDER
  5
F
102
{ACAD_REACTORS
330
E
102
}
  0
MLINESTYLE
  5
18
102
{ACAD_REACTORS
330
17
102
}
100
AcDbMlineStyle
  2
STANDARD
 70
0
  3

 62
256
 51
90.0
 52
90.0
 71
2
 49
0.5
 62
256
  6
BYLAYER
 49
-0.5
 62
256
  6
BYLAYER
  0
LAYOUT
  5
34A
102
{ACAD_REACTORS
330
1A
102
}
100
AcDbPlotSettings
  1

  2
none_device
  4

  6

 40
0.0
 41
0.0
 42
0.0
 43
0.0
 44
210.0
 45
297.0
 46
0.0
 47
0.0
 48
0.0
 49
0.0
140
0.0
141
0.0
142
1.0
143
1.0
 70
1024
 72
1
 73
0
 74
0
  7

 75
0
147
1.0
148
0.0
149
0.0
100
AcDbLayout
  1
Model
 70
0
 71
0
 10
0.0
 20
0.0
 11
210.0
 21
297.0
 12
0.0
 22
0.0
 32
0.0
 14
0.0
 24
0.0
 34
0.0
 15
0.0
 25
0.0
 35
0.0
146
0.0
 13
0.0
 23
0.0
 33
0.0
 16
1.0
 26
0.0
 36
0.0
 17
0.0
 27
1.0
 37
0.0
 76
0
330
216
345
0
346
0
  0
LAYOUT
  5
34B
102
{ACAD_REACTORS
330
1A
102
}
100
AcDbPlotSettings
  1

  2
none_device
  4

  6

 40
0.0
 41
0.0
 42
0.0
 43
0.0
 44
210.0
 45
297.0
 46
0.0
 47
0.0
 48
0.0
 49
0.0
140
0.0
141
0.0
142
1.0
143
1.0
 70
0
 72
1
 73
0
 74
0
  7

 75
0
147
1.0
148
0.0
149
0.0
100
AcDbLayout
  1
Layout1
 70
0
 71
1
 10
0.0
 20
0.0
 11
210.0
 21
297.0
 12
0.0
 22
0.0
 32
0.0
 14
0.0
 24
0.0
 34
0.0
 15
0.0
 25
0.0
 35
0.0
146
0.0
 13
0.0
 23
0.0
 33
0.0
 16
1.0
 26
0.0
 36
0.0
 17
0.0
 27
1.0
 37
0.0
 76
0
330
217
345
0
346
0
  0
ENDSEC
  0
EOF
