999
DXF file: C:\Users\sesa63760\Dev\_Creo\CAD\MCADUE0002391_3D-CAD\drw0001_5.dxf
999
Pro/ENGINEER 2019471 by Parametric Technology Corporation
  0
SECTION
  2
HEADER
  9
$ACADVER
  1
AC1024
  9
$DWGCODEPAGE
  3
ANSI_1252
  9
$EXTMAX
 10
606.7671734666
 20
858.1421453313
 30
0.0
  9
$EXTMIN
 10
0.0
 20
0.0
 30
0.0
  9
$LIMMIN
 10
0.0
 20
0.0
  9
$LIMMAX
 10
606.7671734666
 20
858.1421453313
  9
$VIEWCTR
 10
303.3835867333
 20
429.0710726657
  9
$VIEWSIZE
 40
858.1421453313
  9
$CLAYER
  8
0
  9
$LTSCALE
 40
55.9381546586
  9
$CELTYPE
  6
BYLAYER
  9
$DIMSCALE
 40
1.0
  9
$DIMASZ
 40
7.2234187317
  9
$DIMEXO
 40
1.0
  9
$DIMDLI
 40
38.6481795823
  9
$DIMEXE
 40
1.0
  9
$DIMCEN
 40
9.1535162169
  9
$DIMLFAC
 40
1.0
  9
$DIMBLK
  1
_FILLED
  9
$DIMALT
 70
0
  9
$DIMALTF
 40
0.0393700787
  9
$DIMTXT
 40
10.1127862244
  9
$DIMTOL
 70
1
  9
$DIMLIM
 70
0
  9
$DIMTFAC
 40
1.0
  9
$DIMTP
 40
0.01
  9
$DIMTM
 40
0.01
  9
$DIMGAP
 40
0.625
  9
$DIMDSEP
 70
46
  9
$AUNITS
 70
0
  9
$PDMODE
 70
3
  9
$PDSIZE
 40
0.3125
  9
$HANDSEED
  5
4EA
  9
$TILEMODE
 70
1
  9
$MEASUREMENT
 70
1
  9
$INSUNITS
 70
4
  0
ENDSEC
  0
SECTION
  2
CLASSES
  0
CLASS
  1
ACDBDICTIONARYWDFLT
  2
AcDbDictionaryWithDefault
  3
AutoCAD 2000
 90
0
 91
1
280
0
281
0
  0
CLASS
  1
ACDBPLACEHOLDER
  2
AcDbPlaceHolder
  3
AutoCAD 2000
 90
0
 91
1
280
0
281
0
  0
CLASS
  1
LAYOUT
  2
AcDbLayout
  3
AutoCAD 2000
 90
0
 91
0
280
0
281
0
  0
ENDSEC
  0
SECTION
  2
TABLES
  0
TABLE
  2
VPORT
  5
8
100
AcDbSymbolTable
 70
2
  0
VPORT
  5
1F4
100
AcDbSymbolTableRecord
100
AcDbViewportTableRecord
  2
*ACTIVE
 70
0
 10
0.0
 20
0.0
 11
1.0
 21
1.0
 12
303.3835867333
 22
429.0710726657
 13
0.0
 23
0.0
 14
1.0
 24
1.0
 15
0.0
 25
0.0
 16
0.0
 26
0.0
 36
1.0
 17
0.0
 27
0.0
 37
0.0
 40
858.1421453313
 41
0.7070707071
 42
50.0
 43
0.0
 44
0.0
 50
0.0
 51
0.0
 71
0
 72
100
 73
1
 74
1
 75
0
 76
0
 77
0
 78
0
  0
ENDTAB
  0
TABLE
  2
LTYPE
  5
5
100
AcDbSymbolTable
 70
6
  0
LTYPE
  5
14
100
AcDbSymbolTableRecord
100
AcDbLinetypeTableRecord
  2
BYBLOCK
 70
0
  3

 72
65
 73
0
 40
0.0
  0
LTYPE
  5
15
100
AcDbSymbolTableRecord
100
AcDbLinetypeTableRecord
  2
BYLAYER
 70
0
  3

 72
65
 73
0
 40
0.0
  0
LTYPE
  5
16
100
AcDbSymbolTableRecord
100
AcDbLinetypeTableRecord
  2
CONTINUOUS
 70
64
  3
Solid line
 72
65
 73
0
 40
0.0
  0
LTYPE
  5
1F5
100
AcDbSymbolTableRecord
100
AcDbLinetypeTableRecord
  2
CENTER
 70
64
  3
____ _ ____ _ ____ _ ____ _ ____ _ ____ _ ____
 72
65
 73
4
 40
0.6
 49
0.375
 74
0
 49
-0.075
 74
0
 49
0.075
 74
0
 49
-0.075
 74
0
  0
LTYPE
  5
1F6
100
AcDbSymbolTableRecord
100
AcDbLinetypeTableRecord
  2
HIDDEN
 70
64
  3
- - - - - - - - - - - - - - - - - - - -
 72
65
 73
2
 40
0.2
 49
0.1
 74
0
 49
-0.1
 74
0
  0
LTYPE
  5
1F7
100
AcDbSymbolTableRecord
100
AcDbLinetypeTableRecord
  2
PHANTOM
 70
64
  3
_____ _ _ _____ _ _ _____ _ _ _____
 72
65
 73
6
 40
0.8
 49
0.45
 74
0
 49
-0.05
 74
0
 49
0.1
 74
0
 49
-0.05
 74
0
 49
0.1
 74
0
 49
-0.05
 74
0
  0
LTYPE
  5
1F8
100
AcDbSymbolTableRecord
100
AcDbLinetypeTableRecord
  2
DOT
 70
64
  3
. . . . . . . . . . . . . . . . . . . .
 72
65
 73
2
 40
0.2
 49
0.1
 74
0
 49
-0.1
 74
0
  0
LTYPE
  5
1F9
100
AcDbSymbolTableRecord
100
AcDbLinetypeTableRecord
  2
DASHED
 70
64
  3
- - - - - - - - - - - - - - - - - - - -
 72
65
 73
2
 40
0.2
 49
0.1
 74
0
 49
-0.1
 74
0
  0
ENDTAB
  0
TABLE
  2
LAYER
  5
2
100
AcDbSymbolTable
 70
36
  0
LAYER
  5
10
100
AcDbSymbolTableRecord
100
AcDbLayerTableRecord
  2
0
 70
0
 62
7
  6
CONTINUOUS
370
-3
390
F
  0
LAYER
  5
1FA
100
AcDbSymbolTableRecord
100
AcDbLayerTableRecord
  2
DEFAULT_1
 70
0
 62
7
  6
CENTER
370
-3
390
F
  0
LAYER
  5
1FB
100
AcDbSymbolTableRecord
100
AcDbLayerTableRecord
  2
DEFAULT_2
 70
0
 62
8
  6
HIDDEN
370
-3
390
F
  0
LAYER
  5
1FC
100
AcDbSymbolTableRecord
100
AcDbLayerTableRecord
  2
DEFAULT_3
 70
0
 62
7
  6
PHANTOM
370
-3
390
F
  0
LAYER
  5
1FD
100
AcDbSymbolTableRecord
100
AcDbLayerTableRecord
  2
00_COMPONENTS
 70
0
 62
7
  6
CONTINUOUS
370
-3
390
F
  0
LAYER
  5
1FE
100
AcDbSymbolTableRecord
100
AcDbLayerTableRecord
  2
01_1_DEFAULT_DATUMS
 70
0
 62
7
  6
CONTINUOUS
370
-3
390
F
  0
LAYER
  5
1FF
100
AcDbSymbolTableRecord
100
AcDbLayerTableRecord
  2
01_PLANES
 70
0
 62
7
  6
CONTINUOUS
370
-3
390
F
  0
LAYER
  5
200
100
AcDbSymbolTableRecord
100
AcDbLayerTableRecord
  2
02_COORD_SYS
 70
0
 62
7
  6
CONTINUOUS
370
-3
390
F
  0
LAYER
  5
201
100
AcDbSymbolTableRecord
100
AcDbLayerTableRecord
  2
03_AXES
 70
0
 62
7
  6
CONTINUOUS
370
-3
390
F
  0
LAYER
  5
202
100
AcDbSymbolTableRecord
100
AcDbLayerTableRecord
  2
04_POINTS
 70
0
 62
7
  6
CONTINUOUS
370
-3
390
F
  0
LAYER
  5
203
100
AcDbSymbolTableRecord
100
AcDbLayerTableRecord
  2
05_CURVES
 70
0
 62
7
  6
CONTINUOUS
370
-3
390
F
  0
LAYER
  5
204
100
AcDbSymbolTableRecord
100
AcDbLayerTableRecord
  2
06_SURFS
 70
0
 62
7
  6
CONTINUOUS
370
-3
390
F
  0
LAYER
  5
205
100
AcDbSymbolTableRecord
100
AcDbLayerTableRecord
  2
07_COSMETICS
 70
0
 62
7
  6
CONTINUOUS
370
-3
390
F
  0
LAYER
  5
206
100
AcDbSymbolTableRecord
100
AcDbLayerTableRecord
  2
10_NOTES
 70
0
 62
7
  6
CONTINUOUS
370
-3
390
F
  0
LAYER
  5
207
100
AcDbSymbolTableRecord
100
AcDbLayerTableRecord
  2
11_NOTES_PUB
 70
0
 62
7
  6
CONTINUOUS
370
-3
390
F
  0
LAYER
  5
208
100
AcDbSymbolTableRecord
100
AcDbLayerTableRecord
  2
13_REF_GTOL
 70
0
 62
7
  6
CONTINUOUS
370
-3
390
F
  0
LAYER
  5
209
100
AcDbSymbolTableRecord
100
AcDbLayerTableRecord
  2
16_MISC
 70
0
 62
7
  6
CONTINUOUS
370
-3
390
F
  0
LAYER
  5
20A
100
AcDbSymbolTableRecord
100
AcDbLayerTableRecord
  2
17_NO_PRINT
 70
0
 62
7
  6
CONTINUOUS
370
-3
390
F
  0
LAYER
  5
20B
100
AcDbSymbolTableRecord
100
AcDbLayerTableRecord
  2
18_DATUM_CAMS_JOINTS
 70
0
 62
7
  6
CONTINUOUS
370
-3
390
F
  0
LAYER
  5
20C
100
AcDbSymbolTableRecord
100
AcDbLayerTableRecord
  2
19_DATUM_FUNCTIONAL
 70
0
 62
7
  6
CONTINUOUS
370
-3
390
F
  0
LAYER
  5
20D
100
AcDbSymbolTableRecord
100
AcDbLayerTableRecord
  2
20_DATUM_KINEMATIC_SCHEME
 70
0
 62
7
  6
CONTINUOUS
370
-3
390
F
  0
ENDTAB
  0
TABLE
  2
STYLE
  5
3
100
AcDbSymbolTable
 70
1
  0
STYLE
  5
11
100
AcDbSymbolTableRecord
100
AcDbTextStyleTableRecord
  2
STANDARD
 70
0
 40
0.0
 41
0.8
 50
0.0
 71
0
 42
0.2
  3
txt
  4

  0
STYLE
  5
20E
100
AcDbSymbolTableRecord
100
AcDbTextStyleTableRecord
  2
TEXTSTYLE_1
 70
0
 40
0.0
 41
0.8
 50
0.0
 71
0
 42
0.2
  3
gdt
  4

  0
ENDTAB
  0
TABLE
  2
VIEW
  5
6
100
AcDbSymbolTable
 70
0
  0
ENDTAB
  0
TABLE
  2
UCS
  5
7
100
AcDbSymbolTable
 70
0
  0
ENDTAB
  0
TABLE
  2
APPID
  5
9
100
AcDbSymbolTable
 70
1
  0
APPID
  5
20F
100
AcDbSymbolTableRecord
100
AcDbRegAppTableRecord
  2
ACAD
 70
0
  0
ENDTAB
  0
TABLE
  2
BLOCK_RECORD
  5
1
100
AcDbSymbolTable
 70
0
  0
BLOCK_RECORD
  5
210
100
AcDbSymbolTableRecord
100
AcDbBlockTableRecord
  2
*Model_Space
  0
BLOCK_RECORD
  5
211
100
AcDbSymbolTableRecord
100
AcDbBlockTableRecord
  2
*Paper_Space
  0
BLOCK_RECORD
  5
212
100
AcDbSymbolTableRecord
100
AcDbBlockTableRecord
  2
_FILLED
  0
ENDTAB
  0
TABLE
  2
DIMSTYLE
  5
A
100
AcDbSymbolTable
 70
1
100
AcDbDimStyleTable
 71
0
  0
DIMSTYLE
105
213
100
AcDbSymbolTableRecord
100
AcDbDimStyleTableRecord
  2
STANDARD
 70
0
  3

  4

 40
1.0
 41
7.2234187317
 42
1.0
 43
0.38
 44
1.0
 45
0.0
 46
0.0
 47
0.01
 48
0.01
140
10.1127862244
141
0.09
142
0.0
143
25.4
144
1.0
145
0.0
146
1.0
147
0.625
 71
1
 72
0
 73
0
 74
0
 75
0
 76
0
 77
1
 78
8
 79
2
170
0
171
1
172
0
173
0
174
0
175
0
176
0
177
0
178
0
270
2
179
2
271
2
272
2
273
2
274
2
275
0
280
0
281
0
282
0
283
1
284
8
285
0
286
0
287
3
288
0
340
11
278
46
341
212
342
212
343
212
344
212
  0
ENDTAB
  0
ENDSEC
  0
SECTION
  2
BLOCKS
  0
BLOCK
  5
20
100
AcDbEntity
  8
0
100
AcDbBlockBegin
  2
*Model_Space
 70
0
 10
0.0
 20
0.0
 30
0.0
  3
*Model_Space
  1

  0
ENDBLK
  5
21
100
AcDbEntity
  8
0
100
AcDbBlockEnd
  0
BLOCK
  5
1C
100
AcDbEntity
  8
0
100
AcDbBlockBegin
  2
*Paper_Space
 70
0
 10
0.0
 20
0.0
 30
0.0
  3
*Paper_Space
  1

  0
ENDBLK
  5
1D
100
AcDbEntity
  8
0
100
AcDbBlockEnd
  0
BLOCK
  5
214
100
AcDbEntity
  8
0
100
AcDbBlockBegin
  2
_FILLED
 70
64
 10
0.0
 20
0.0
  3
_FILLED
  1

  0
SOLID
  5
215
100
AcDbEntity
  8
0
  6
BYBLOCK
 62
0
100
AcDbTrace
 10
0.0
 20
0.0
 11
-1.0
 21
0.25
 12
-1.0
 22
-0.25
 13
-1.0
 23
-0.25
  0
ENDBLK
  5
216
100
AcDbEntity
  8
0
  6
BYBLOCK
 62
0
100
AcDbBlockEnd
  0
ENDSEC
  0
SECTION
  2
ENTITIES
  0
LINE
  5
217
100
AcDbEntity
  8
0
100
AcDbLine
 62
7
  6
CONTINUOUS
 10
94.7130107596
 20
633.6386136521
 11
94.7193617295
 21
633.6459093438
  0
LINE
  5
218
100
AcDbEntity
  8
0
100
AcDbLine
 62
7
  6
CONTINUOUS
 10
127.6614329009
 20
631.3214302487
 11
128.9293820933
 21
632.0534810563
  0
LINE
  5
219
100
AcDbEntity
  8
0
100
AcDbLine
 62
7
  6
CONTINUOUS
 10
92.8231447825
 20
226.9666545636
 11
92.8541858907
 21
226.9584618755
  0
LINE
  5
21A
100
AcDbEntity
  8
0
100
AcDbLine
 62
7
  6
CONTINUOUS
 10
127.6614329009
 20
228.9214302487
 11
128.9293820933
 21
228.1893794411
  0
LINE
  5
21B
100
AcDbEntity
  8
0
100
AcDbLine
 62
7
  6
CONTINUOUS
 10
71.7293820933
 20
245.6214302487
 11
71.7293820933
 21
258.6214302487
  0
LINE
  5
21C
100
AcDbEntity
  8
0
100
AcDbLine
 62
7
  6
CONTINUOUS
 10
71.7293820933
 20
601.6214302487
 11
71.7293820933
 21
614.6214302487
  0
LINE
  5
21D
100
AcDbEntity
  8
0
100
AcDbLine
 62
7
  6
CONTINUOUS
 10
71.9293820933
 20
627.9214302487
 11
71.9293820933
 21
232.3214302487
  0
LINE
  5
21E
100
AcDbEntity
  8
0
100
AcDbLine
 62
7
  6
CONTINUOUS
 10
74.1293820933
 20
230.1214302487
 11
74.1293820933
 21
630.1214302487
  0
LINE
  5
21F
100
AcDbEntity
  8
0
100
AcDbLine
 62
7
  6
CONTINUOUS
 10
161.7130107596
 20
633.6386136521
 11
161.7193617295
 21
633.6459093438
  0
LINE
  5
220
100
AcDbEntity
  8
0
100
AcDbLine
 62
7
  6
CONTINUOUS
 10
94.6114300509
 20
226.6182883483
 11
94.6079194498
 21
226.6189823649
  0
LINE
  5
221
100
AcDbEntity
  8
0
100
AcDbLine
 62
7
  6
CONTINUOUS
 10
161.6114300509
 20
226.6182883483
 11
161.6079194498
 21
226.6189823649
  0
LINE
  5
222
100
AcDbEntity
  8
0
100
AcDbLine
 62
7
  6
CONTINUOUS
 10
94.6116619136
 20
226.6175012844
 11
94.608146116
 21
226.6182113803
  0
LINE
  5
223
100
AcDbEntity
  8
0
100
AcDbLine
 62
7
  6
CONTINUOUS
 10
161.6116619136
 20
226.6175012844
 11
161.608146116
 21
226.6182113803
  0
LINE
  5
224
100
AcDbEntity
  8
0
100
AcDbLine
 62
7
  6
CONTINUOUS
 10
159.8231447825
 20
226.9666545636
 11
159.8541858862
 21
226.9584618763
  0
LINE
  5
225
100
AcDbEntity
  8
0
100
AcDbLine
 62
7
  6
CONTINUOUS
 10
96.2506953857
 20
226.6243944444
 11
96.2516614918
 21
226.592660344
  0
LINE
  5
226
100
AcDbEntity
  8
0
100
AcDbLine
 62
7
  6
CONTINUOUS
 10
94.6081262044
 20
633.616580497
 11
94.6071026948
 21
633.6502001534
  0
LINE
  5
227
100
AcDbEntity
  8
0
100
AcDbLine
 62
7
  6
CONTINUOUS
 10
88.9293820933
 20
631.3214302487
 11
88.9293820933
 21
630.1214302487
  0
LINE
  5
228
100
AcDbEntity
  8
0
100
AcDbLine
 62
7
  6
CONTINUOUS
 10
88.9293820933
 20
230.1214302487
 11
88.9293820933
 21
228.9214302487
  0
LINE
  5
229
100
AcDbEntity
  8
0
100
AcDbLine
 62
7
  6
CONTINUOUS
 10
90.6793820933
 20
632.021417547
 11
90.6793820933
 21
631.7214302487
  0
LINE
  5
22A
100
AcDbEntity
  8
0
100
AcDbLine
 62
7
  6
CONTINUOUS
 10
90.6793820933
 20
228.2214429503
 11
90.6793820933
 21
228.5214302487
  0
LINE
  5
22B
100
AcDbEntity
  8
0
100
AcDbLine
 62
7
  6
CONTINUOUS
 10
94.9143820933
 20
226.965051288
 11
94.9143820933
 21
226.5973293592
  0
LINE
  5
22C
100
AcDbEntity
  8
0
100
AcDbLine
 62
7
  6
CONTINUOUS
 10
94.9143820933
 20
633.2778095873
 11
94.9143820933
 21
633.6455311382
  0
LINE
  5
22D
100
AcDbEntity
  8
0
100
AcDbLine
 62
7
  6
CONTINUOUS
 10
95.4293820899
 20
226.9553130597
 11
95.4293820892
 21
226.9666557966
  0
LINE
  5
22E
100
AcDbEntity
  8
0
100
AcDbLine
 62
7
  6
CONTINUOUS
 10
95.4293820937
 20
633.2875474918
 11
95.429382094
 21
633.2762050823
  0
LINE
  5
22F
100
AcDbEntity
  8
0
100
AcDbLine
 62
7
  6
CONTINUOUS
 10
95.9443820933
 20
633.6455311382
 11
95.9443820933
 21
633.2778095268
  0
LINE
  5
230
100
AcDbEntity
  8
0
100
AcDbLine
 62
7
  6
CONTINUOUS
 10
95.9443820933
 20
226.9650512781
 11
95.9443820933
 21
226.5973293592
  0
LINE
  5
231
100
AcDbEntity
  8
0
100
AcDbLine
 62
7
  6
CONTINUOUS
 10
100.1793820933
 20
632.021417547
 11
100.1793820933
 21
631.7214302487
  0
LINE
  5
232
100
AcDbEntity
  8
0
100
AcDbLine
 62
7
  6
CONTINUOUS
 10
100.1793820933
 20
228.2214429503
 11
100.1793820933
 21
228.5214302487
  0
LINE
  5
233
100
AcDbEntity
  8
0
100
AcDbLine
 62
7
  6
CONTINUOUS
 10
96.2515523215
 20
633.6459093438
 11
96.2516797962
 21
633.6509263913
  0
LINE
  5
234
100
AcDbEntity
  8
0
100
AcDbLine
 62
7
  6
CONTINUOUS
 10
94.6070843903
 20
226.5919341061
 11
94.6072118651
 21
226.5969511536
  0
LINE
  5
235
100
AcDbEntity
  8
0
100
AcDbLine
 62
7
  6
CONTINUOUS
 10
96.2508813874
 20
633.623870887
 11
96.2515523215
 21
633.6459093438
  0
LINE
  5
236
100
AcDbEntity
  8
0
100
AcDbLine
 62
7
  6
CONTINUOUS
 10
94.6078827992
 20
226.6189896104
 11
94.6072118651
 21
226.5969511536
  0
LINE
  5
237
100
AcDbEntity
  8
0
100
AcDbLine
 62
7
  6
CONTINUOUS
 10
544.7537808261
 20
233.3214302487
 11
546.7197457322
 21
233.5767026848
  0
LINE
  5
238
100
AcDbEntity
  8
0
100
AcDbLine
 62
7
  6
CONTINUOUS
 10
92.8791874742
 20
226.9650495158
 11
92.8231364404
 21
226.9666561675
  0
LINE
  5
239
100
AcDbEntity
  8
0
100
AcDbLine
 62
7
  6
CONTINUOUS
 10
92.8839939236
 20
226.9553893863
 11
92.9135401572
 21
226.9545440624
  0
LINE
  5
23A
100
AcDbEntity
  8
0
100
AcDbLine
 62
7
  6
CONTINUOUS
 10
92.8791874742
 20
226.9650495158
 11
92.8231348717
 21
226.9666556667
  0
LINE
  5
23B
100
AcDbEntity
  8
0
100
AcDbLine
 62
7
  6
CONTINUOUS
 10
94.7681187753
 20
226.5926643514
 11
94.7767900178
 21
226.5919341061
  0
LINE
  5
23C
100
AcDbEntity
  8
0
100
AcDbLine
 62
7
  6
CONTINUOUS
 10
161.7681187753
 20
226.5926643514
 11
161.7767900178
 21
226.5919341061
  0
LINE
  5
23D
100
AcDbEntity
  8
0
100
AcDbLine
 62
7
  6
CONTINUOUS
 10
92.8541858907
 20
226.9584618755
 11
92.8839939236
 21
226.9553893863
  0
LINE
  5
23E
100
AcDbEntity
  8
0
100
AcDbLine
 62
7
  6
CONTINUOUS
 10
159.8541858862
 20
226.9584618763
 11
159.8839939236
 21
226.9553893863
  0
LINE
  5
23F
100
AcDbEntity
  8
0
100
AcDbLine
 62
7
  6
CONTINUOUS
 10
113.9293820933
 20
228.9214302487
 11
113.9293820933
 21
230.1214302487
  0
LINE
  5
240
100
AcDbEntity
  8
0
100
AcDbLine
 62
7
  6
CONTINUOUS
 10
113.9293820933
 20
630.1214302487
 11
113.9293820933
 21
631.3214302487
  0
LWPOLYLINE
  5
241
100
AcDbEntity
  8
0
100
AcDbPolyline
 62
7
  6
CONTINUOUS
 90
3
 70
0
 10
164.9747703176
 20
226.9553893892
 10
165.0045783254
 20
226.958461878
 10
165.0356194342
 20
226.9666545665
  0
LINE
  5
242
100
AcDbEntity
  8
0
100
AcDbLine
 62
7
  6
CONTINUOUS
 10
163.0906503006
 20
226.5926647659
 11
163.1394024571
 21
226.5969511536
  0
LINE
  5
243
100
AcDbEntity
  8
0
100
AcDbLine
 62
7
  6
CONTINUOUS
 10
163.0906498068
 20
226.5926705857
 11
163.101121018
 21
226.5935594925
  0
LINE
  5
244
100
AcDbEntity
  8
0
100
AcDbLine
 62
7
  6
CONTINUOUS
 10
164.9417949629
 20
226.9544459613
 11
164.9747703176
 21
226.9553893892
  0
LINE
  5
245
100
AcDbEntity
  8
0
100
AcDbLine
 62
7
  6
CONTINUOUS
 10
165.0356234659
 20
226.9666546565
 11
164.9795767854
 21
226.965049541
  0
LINE
  5
246
100
AcDbEntity
  8
0
100
AcDbLine
 62
7
  6
CONTINUOUS
 10
165.0356293382
 20
226.9666556749
 11
164.9795767854
 21
226.965049541
  0
LINE
  5
247
100
AcDbEntity
  8
0
100
AcDbLine
 62
7
  6
CONTINUOUS
 10
97.9417949629
 20
226.9544459613
 11
97.9747703176
 21
226.9553893892
  0
LINE
  5
248
100
AcDbEntity
  8
0
100
AcDbLine
 62
7
  6
CONTINUOUS
 10
98.0356234659
 20
226.9666546565
 11
97.9795767854
 21
226.965049541
  0
LINE
  5
249
100
AcDbEntity
  8
0
100
AcDbLine
 62
7
  6
CONTINUOUS
 10
98.0356293382
 20
226.9666556749
 11
97.9795767854
 21
226.965049541
  0
LINE
  5
24A
100
AcDbEntity
  8
0
100
AcDbLine
 62
7
  6
CONTINUOUS
 10
161.9143820933
 20
226.953661894
 11
162.4250650752
 21
226.9553083281
  0
LINE
  5
24B
100
AcDbEntity
  8
0
100
AcDbLine
 62
7
  6
CONTINUOUS
 10
94.9143820933
 20
226.953661894
 11
95.4250650784
 21
226.9553083281
  0
LINE
  5
24C
100
AcDbEntity
  8
0
100
AcDbLine
 62
7
  6
CONTINUOUS
 10
167.0983241984
 20
228.0606549669
 11
162.4293820933
 21
228.0606549669
  0
LINE
  5
24D
100
AcDbEntity
  8
0
100
AcDbLine
 62
7
  6
CONTINUOUS
 10
100.0983241984
 20
228.0606549669
 11
95.4293820933
 21
228.0606549669
  0
LINE
  5
24E
100
AcDbEntity
  8
0
100
AcDbLine
 62
7
  6
CONTINUOUS
 10
162.4037283072
 20
228.0606607694
 11
157.7604573026
 21
228.0606421586
  0
LINE
  5
24F
100
AcDbEntity
  8
0
100
AcDbLine
 62
7
  6
CONTINUOUS
 10
95.4037283072
 20
228.0606607694
 11
90.7604573026
 21
228.0606421586
  0
LINE
  5
250
100
AcDbEntity
  8
0
100
AcDbLine
 62
7
  6
CONTINUOUS
 10
167.1793820933
 20
228.2214429501
 11
157.6793820933
 21
228.2214429501
  0
LINE
  5
251
100
AcDbEntity
  8
0
100
AcDbLine
 62
7
  6
CONTINUOUS
 10
100.1793820933
 20
228.2214429501
 11
90.6793820933
 21
228.2214429501
  0
LINE
  5
252
100
AcDbEntity
  8
0
100
AcDbLine
 62
7
  6
CONTINUOUS
 10
90.6793832371
 20
228.5214302487
 11
90.8327284322
 21
228.5214302487
  0
LINE
  5
253
100
AcDbEntity
  8
0
100
AcDbLine
 62
7
  6
CONTINUOUS
 10
91.3325126309
 20
228.5214302487
 11
93.0256016268
 21
228.5214302487
  0
LINE
  5
254
100
AcDbEntity
  8
0
100
AcDbLine
 62
7
  6
CONTINUOUS
 10
94.2321873917
 20
228.5214302487
 11
96.62657682
 21
228.5214302487
  0
LINE
  5
255
100
AcDbEntity
  8
0
100
AcDbLine
 62
7
  6
CONTINUOUS
 10
97.8331625724
 20
228.5214302487
 11
99.5262515849
 21
228.5214302487
  0
LINE
  5
256
100
AcDbEntity
  8
0
100
AcDbLine
 62
7
  6
CONTINUOUS
 10
100.026035749
 20
228.5214302487
 11
100.1793809495
 21
228.5214302487
  0
LINE
  5
257
100
AcDbEntity
  8
0
100
AcDbLine
 62
7
  6
CONTINUOUS
 10
157.6793832371
 20
228.5214302487
 11
157.8327284322
 21
228.5214302487
  0
LINE
  5
258
100
AcDbEntity
  8
0
100
AcDbLine
 62
7
  6
CONTINUOUS
 10
158.3325126309
 20
228.5214302487
 11
160.0256016268
 21
228.5214302487
  0
LINE
  5
259
100
AcDbEntity
  8
0
100
AcDbLine
 62
7
  6
CONTINUOUS
 10
161.2321873917
 20
228.5214302487
 11
163.62657682
 21
228.5214302487
  0
LINE
  5
25A
100
AcDbEntity
  8
0
100
AcDbLine
 62
7
  6
CONTINUOUS
 10
164.8331625724
 20
228.5214302487
 11
166.5262515849
 21
228.5214302487
  0
LINE
  5
25B
100
AcDbEntity
  8
0
100
AcDbLine
 62
7
  6
CONTINUOUS
 10
167.026035749
 20
228.5214302487
 11
167.1793809495
 21
228.5214302487
  0
LINE
  5
25C
100
AcDbEntity
  8
0
100
AcDbLine
 62
7
  6
CONTINUOUS
 10
166.5745811586
 20
228.5791684225
 11
164.7675437741
 21
228.5791684225
  0
LINE
  5
25D
100
AcDbEntity
  8
0
100
AcDbLine
 62
7
  6
CONTINUOUS
 10
163.7203861142
 20
228.5791684225
 11
161.1383780724
 21
228.5791684225
  0
LINE
  5
25E
100
AcDbEntity
  8
0
100
AcDbLine
 62
7
  6
CONTINUOUS
 10
160.0912204124
 20
228.5791684225
 11
158.2841830279
 21
228.5791684225
  0
LINE
  5
25F
100
AcDbEntity
  8
0
100
AcDbLine
 62
7
  6
CONTINUOUS
 10
99.5745811586
 20
228.5791684225
 11
97.7675437741
 21
228.5791684225
  0
LINE
  5
260
100
AcDbEntity
  8
0
100
AcDbLine
 62
7
  6
CONTINUOUS
 10
96.7203861142
 20
228.5791684225
 11
94.1383780724
 21
228.5791684225
  0
LINE
  5
261
100
AcDbEntity
  8
0
100
AcDbLine
 62
7
  6
CONTINUOUS
 10
93.0912204124
 20
228.5791684225
 11
91.2841830279
 21
228.5791684225
  0
LINE
  5
262
100
AcDbEntity
  8
0
100
AcDbLine
 62
7
  6
CONTINUOUS
 10
90.8920151832
 20
228.8214302487
 11
91.2272987701
 21
228.8214302487
  0
LINE
  5
263
100
AcDbEntity
  8
0
100
AcDbLine
 62
7
  6
CONTINUOUS
 10
93.2146595951
 20
228.8214302487
 11
94.0241057775
 21
228.8214302487
  0
LINE
  5
264
100
AcDbEntity
  8
0
100
AcDbLine
 62
7
  6
CONTINUOUS
 10
96.834658409
 20
228.8214302487
 11
97.6441045915
 21
228.8214302487
  0
LINE
  5
265
100
AcDbEntity
  8
0
100
AcDbLine
 62
7
  6
CONTINUOUS
 10
99.6314654164
 20
228.8214302487
 11
99.9667490033
 21
228.8214302487
  0
LINE
  5
266
100
AcDbEntity
  8
0
100
AcDbLine
 62
7
  6
CONTINUOUS
 10
157.8920151832
 20
228.8214302487
 11
158.2272987701
 21
228.8214302487
  0
LINE
  5
267
100
AcDbEntity
  8
0
100
AcDbLine
 62
7
  6
CONTINUOUS
 10
160.2146595951
 20
228.8214302487
 11
161.0241057775
 21
228.8214302487
  0
LINE
  5
268
100
AcDbEntity
  8
0
100
AcDbLine
 62
7
  6
CONTINUOUS
 10
163.834658409
 20
228.8214302487
 11
164.6441045914
 21
228.8214302487
  0
LINE
  5
269
100
AcDbEntity
  8
0
100
AcDbLine
 62
7
  6
CONTINUOUS
 10
166.6314654164
 20
228.8214302487
 11
166.9667490033
 21
228.8214302487
  0
LINE
  5
26A
100
AcDbEntity
  8
0
100
AcDbLine
 62
7
  6
CONTINUOUS
 10
168.9293820933
 20
228.9214302487
 11
88.9293820933
 21
228.9214302487
  0
LINE
  5
26B
100
AcDbEntity
  8
0
100
AcDbLine
 62
7
  6
CONTINUOUS
 10
512.4434842145
 20
229.9214302487
 11
499.4434842145
 21
229.9214302487
  0
LINE
  5
26C
100
AcDbEntity
  8
0
100
AcDbLine
 62
7
  6
CONTINUOUS
 10
220.4293820933
 20
229.9214302487
 11
207.4293820933
 21
229.9214302487
  0
LINE
  5
26D
100
AcDbEntity
  8
0
100
AcDbLine
 62
7
  6
CONTINUOUS
 10
226.7293820933
 20
230.1214302487
 11
74.1293820933
 21
230.1214302487
  0
LINE
  5
26E
100
AcDbEntity
  8
0
100
AcDbLine
 62
7
  6
CONTINUOUS
 10
237.9396787046
 20
230.1214302487
 11
517.9434842145
 21
230.1214302487
  0
LINE
  5
26F
100
AcDbEntity
  8
0
100
AcDbLine
 62
7
  6
CONTINUOUS
 10
226.7293820933
 20
231.1214302487
 11
74.1293820933
 21
231.1214302487
  0
LINE
  5
270
100
AcDbEntity
  8
0
100
AcDbLine
 62
7
  6
CONTINUOUS
 10
237.9396787046
 20
231.6214302487
 11
517.9434842145
 21
231.6214302487
  0
LINE
  5
271
100
AcDbEntity
  8
0
100
AcDbLine
 62
7
  6
CONTINUOUS
 10
528.4537808259
 20
232.1214302487
 11
544.7537808259
 21
232.1214302487
  0
LINE
  5
272
100
AcDbEntity
  8
0
100
AcDbLine
 62
7
  6
CONTINUOUS
 10
528.4537808259
 20
233.3214302487
 11
544.7537808258
 21
233.3214302487
  0
LINE
  5
273
100
AcDbEntity
  8
0
100
AcDbLine
 62
7
  6
CONTINUOUS
 10
520.9434842145
 20
233.6214302487
 11
517.5396787047
 21
233.6214302487
  0
LINE
  5
274
100
AcDbEntity
  8
0
100
AcDbLine
 62
7
  6
CONTINUOUS
 10
95.2516165101
 20
226.9551182227
 11
95.6056786525
 21
226.9551196836
  0
LINE
  5
275
100
AcDbEntity
  8
0
100
AcDbLine
 62
7
  6
CONTINUOUS
 10
162.2516165101
 20
226.9551182227
 11
162.6056786525
 21
226.9551196836
  0
LINE
  5
276
100
AcDbEntity
  8
0
100
AcDbLine
 62
7
  6
CONTINUOUS
 10
95.6043421396
 20
226.9551243028
 11
95.9443820933
 21
226.9536618901
  0
LINE
  5
277
100
AcDbEntity
  8
0
100
AcDbLine
 62
7
  6
CONTINUOUS
 10
162.6043421396
 20
226.9551243028
 11
162.9443820933
 21
226.9536618901
  0
LINE
  5
278
100
AcDbEntity
  8
0
100
AcDbLine
 62
7
  6
CONTINUOUS
 10
159.8839939236
 20
226.9553893863
 11
159.9135401572
 21
226.9545440624
  0
LINE
  5
279
100
AcDbEntity
  8
0
100
AcDbLine
 62
7
  6
CONTINUOUS
 10
159.8791874742
 20
226.9650495158
 11
159.8231364404
 21
226.9666561675
  0
LINE
  5
27A
100
AcDbEntity
  8
0
100
AcDbLine
 62
7
  6
CONTINUOUS
 10
159.8791874742
 20
226.9650495158
 11
159.8231348717
 21
226.9666556667
  0
LINE
  5
27B
100
AcDbEntity
  8
0
100
AcDbLine
 62
7
  6
CONTINUOUS
 10
230.3583528878
 20
249.8436664639
 11
237.9396787047
 21
248.3700060079
  0
LINE
  5
27C
100
AcDbEntity
  8
0
100
AcDbLine
 62
7
  6
CONTINUOUS
 10
231.3110000841
 20
250.6401177909
 11
237.9396787047
 21
249.3516331914
  0
LINE
  5
27D
100
AcDbEntity
  8
0
100
AcDbLine
 62
7
  6
CONTINUOUS
 10
143.9293820933
 20
631.3214302487
 11
143.9293820933
 21
630.1214302487
  0
LINE
  5
27E
100
AcDbEntity
  8
0
100
AcDbLine
 62
7
  6
CONTINUOUS
 10
143.9293820933
 20
230.1214302487
 11
143.9293820933
 21
228.9214302487
  0
LINE
  5
27F
100
AcDbEntity
  8
0
100
AcDbLine
 62
7
  6
CONTINUOUS
 10
163.250285627
 20
226.6230418629
 11
163.2451672533
 21
226.6219888897
  0
LINE
  5
280
100
AcDbEntity
  8
0
100
AcDbLine
 62
7
  6
CONTINUOUS
 10
163.2462693082
 20
226.6173334092
 11
163.2506180706
 21
226.6182113803
  0
LINE
  5
281
100
AcDbEntity
  8
0
100
AcDbLine
 62
7
  6
CONTINUOUS
 10
163.2506777578
 20
226.6243909502
 11
163.2455725119
 21
226.6233790004
  0
LINE
  5
282
100
AcDbEntity
  8
0
100
AcDbLine
 62
7
  6
CONTINUOUS
 10
163.246502292
 20
226.6181238997
 11
163.2508447367
 21
226.6189823649
  0
LINE
  5
283
100
AcDbEntity
  8
0
100
AcDbLine
 62
7
  6
CONTINUOUS
 10
97.9747703176
 20
226.9553893892
 11
98.004578337
 21
226.9584618801
  0
LINE
  5
284
100
AcDbEntity
  8
0
100
AcDbLine
 62
7
  6
CONTINUOUS
 10
96.0906503006
 20
226.5926647659
 11
96.1394024571
 21
226.5969511536
  0
LINE
  5
285
100
AcDbEntity
  8
0
100
AcDbLine
 62
7
  6
CONTINUOUS
 10
96.0906498068
 20
226.5926705857
 11
96.101121018
 21
226.5935594925
  0
LINE
  5
286
100
AcDbEntity
  8
0
100
AcDbLine
 62
7
  6
CONTINUOUS
 10
71.7293820933
 20
245.6214302487
 11
71.9293820933
 21
245.6214302487
  0
LINE
  5
287
100
AcDbEntity
  8
0
100
AcDbLine
 62
7
  6
CONTINUOUS
 10
71.7293820933
 20
258.6214302487
 11
71.9293820933
 21
258.6214302487
  0
LINE
  5
288
100
AcDbEntity
  8
0
100
AcDbLine
 62
7
  6
CONTINUOUS
 10
163.2506953857
 20
226.6243944444
 11
163.2516614918
 21
226.592660344
  0
LINE
  5
289
100
AcDbEntity
  8
0
100
AcDbLine
 62
7
  6
CONTINUOUS
 10
157.6793820933
 20
632.021417547
 11
157.6793820933
 21
631.7214302487
  0
LINE
  5
28A
100
AcDbEntity
  8
0
100
AcDbLine
 62
7
  6
CONTINUOUS
 10
157.6793820933
 20
228.2214429503
 11
157.6793820933
 21
228.5214302487
  0
LINE
  5
28B
100
AcDbEntity
  8
0
100
AcDbLine
 62
7
  6
CONTINUOUS
 10
161.9143820933
 20
226.965051288
 11
161.9143820933
 21
226.5973293592
  0
LINE
  5
28C
100
AcDbEntity
  8
0
100
AcDbLine
 62
7
  6
CONTINUOUS
 10
161.9143820933
 20
633.2778095873
 11
161.9143820933
 21
633.6455311382
  0
LINE
  5
28D
100
AcDbEntity
  8
0
100
AcDbLine
 62
7
  6
CONTINUOUS
 10
162.4293820899
 20
226.9553130597
 11
162.4293820892
 21
226.9666557966
  0
LINE
  5
28E
100
AcDbEntity
  8
0
100
AcDbLine
 62
7
  6
CONTINUOUS
 10
162.4293820937
 20
633.2875474918
 11
162.429382094
 21
633.2762050823
  0
LINE
  5
28F
100
AcDbEntity
  8
0
100
AcDbLine
 62
7
  6
CONTINUOUS
 10
162.9443820933
 20
633.6455311382
 11
162.9443820933
 21
633.2778095268
  0
LINE
  5
290
100
AcDbEntity
  8
0
100
AcDbLine
 62
7
  6
CONTINUOUS
 10
162.9443820933
 20
226.9650512781
 11
162.9443820933
 21
226.5973293592
  0
LINE
  5
291
100
AcDbEntity
  8
0
100
AcDbLine
 62
7
  6
CONTINUOUS
 10
167.1793820933
 20
632.021417547
 11
167.1793820933
 21
631.7214302487
  0
LINE
  5
292
100
AcDbEntity
  8
0
100
AcDbLine
 62
7
  6
CONTINUOUS
 10
167.1793820933
 20
228.2214429503
 11
167.1793820933
 21
228.5214302487
  0
LINE
  5
293
100
AcDbEntity
  8
0
100
AcDbLine
 62
7
  6
CONTINUOUS
 10
163.2515523215
 20
633.6459093438
 11
163.2516797962
 21
633.6509263913
  0
LINE
  5
294
100
AcDbEntity
  8
0
100
AcDbLine
 62
7
  6
CONTINUOUS
 10
161.6070843903
 20
226.5919341061
 11
161.6072118651
 21
226.5969511536
  0
LINE
  5
295
100
AcDbEntity
  8
0
100
AcDbLine
 62
7
  6
CONTINUOUS
 10
163.2508813874
 20
633.623870887
 11
163.2515523215
 21
633.6459093438
  0
LINE
  5
296
100
AcDbEntity
  8
0
100
AcDbLine
 62
7
  6
CONTINUOUS
 10
96.250285627
 20
226.6230418629
 11
96.2451672533
 21
226.6219888897
  0
LINE
  5
297
100
AcDbEntity
  8
0
100
AcDbLine
 62
7
  6
CONTINUOUS
 10
96.2462693082
 20
226.6173334092
 11
96.2506180706
 21
226.6182113803
  0
LINE
  5
298
100
AcDbEntity
  8
0
100
AcDbLine
 62
7
  6
CONTINUOUS
 10
96.2506777578
 20
226.6243909502
 11
96.2455725119
 21
226.6233790004
  0
LINE
  5
299
100
AcDbEntity
  8
0
100
AcDbLine
 62
7
  6
CONTINUOUS
 10
96.246502292
 20
226.6181238997
 11
96.2508447367
 21
226.6189823649
  0
LINE
  5
29A
100
AcDbEntity
  8
0
100
AcDbLine
 62
7
  6
CONTINUOUS
 10
161.6081262044
 20
633.616580497
 11
161.6071026948
 21
633.6502001534
  0
LINE
  5
29B
100
AcDbEntity
  8
0
100
AcDbLine
 62
7
  6
CONTINUOUS
 10
168.9293820933
 20
228.9214302487
 11
168.9293820933
 21
230.1214302487
  0
LINE
  5
29C
100
AcDbEntity
  8
0
100
AcDbLine
 62
7
  6
CONTINUOUS
 10
168.9293820933
 20
630.1214302487
 11
168.9293820933
 21
631.3214302487
  0
LINE
  5
29D
100
AcDbEntity
  8
0
100
AcDbLine
 62
7
  6
CONTINUOUS
 10
161.6078827992
 20
226.6189896104
 11
161.6072118651
 21
226.5969511536
  0
LINE
  5
29E
100
AcDbEntity
  8
0
100
AcDbLine
 62
7
  6
CONTINUOUS
 10
98.0045783475
 20
226.958461882
 11
98.0356194342
 21
226.9666545665
  0
LINE
  5
29F
100
AcDbEntity
  8
0
100
AcDbLine
 62
7
  6
CONTINUOUS
 10
521.7434842145
 20
294.1214302487
 11
520.9434842145
 21
294.1214302487
  0
LINE
  5
2A0
100
AcDbEntity
  8
0
100
AcDbLine
 62
7
  6
CONTINUOUS
 10
229.7293820933
 20
294.1214302487
 11
228.9293820933
 21
294.1214302487
  0
LINE
  5
2A1
100
AcDbEntity
  8
0
100
AcDbLine
 62
7
  6
CONTINUOUS
 10
522.4934842145
 20
294.6214302487
 11
521.9934842145
 21
294.6214302487
  0
LINE
  5
2A2
100
AcDbEntity
  8
0
100
AcDbLine
 62
7
  6
CONTINUOUS
 10
230.4793820933
 20
294.6214302487
 11
229.9793820933
 21
294.6214302487
  0
LINE
  5
2A3
100
AcDbEntity
  8
0
100
AcDbLine
 62
7
  6
CONTINUOUS
 10
522.4934842145
 20
303.6214302487
 11
521.9934842145
 21
303.6214302487
  0
LINE
  5
2A4
100
AcDbEntity
  8
0
100
AcDbLine
 62
7
  6
CONTINUOUS
 10
230.4793820933
 20
303.6214302487
 11
229.9793820933
 21
303.6214302487
  0
LINE
  5
2A5
100
AcDbEntity
  8
0
100
AcDbLine
 62
7
  6
CONTINUOUS
 10
521.7434842145
 20
304.1214302487
 11
520.9434842145
 21
304.1214302487
  0
LINE
  5
2A6
100
AcDbEntity
  8
0
100
AcDbLine
 62
7
  6
CONTINUOUS
 10
229.7293820933
 20
304.1214302487
 11
228.9293820933
 21
304.1214302487
  0
LINE
  5
2A7
100
AcDbEntity
  8
0
100
AcDbLine
 62
7
  6
CONTINUOUS
 10
522.7296977075
 20
250.4140978465
 11
527.1537808259
 21
249.6194120107
  0
LINE
  5
2A8
100
AcDbEntity
  8
0
100
AcDbLine
 62
7
  6
CONTINUOUS
 10
527.1537808259
 20
248.9139163796
 11
522.7296977075
 21
249.7738710238
  0
LINE
  5
2A9
100
AcDbEntity
  8
0
100
AcDbLine
 62
7
  6
CONTINUOUS
 10
522.7296977075
 20
250.4140978465
 11
522.4434841924
 21
250.4810468429
  0
LINE
  5
2AA
100
AcDbEntity
  8
0
100
AcDbLine
 62
7
  6
CONTINUOUS
 10
207.4293820933
 20
229.9214302487
 11
207.4293820933
 21
230.1214302487
  0
LINE
  5
2AB
100
AcDbEntity
  8
0
100
AcDbLine
 62
7
  6
CONTINUOUS
 10
220.4293820933
 20
229.9214302487
 11
220.4293820933
 21
230.1214302487
  0
LINE
  5
2AC
100
AcDbEntity
  8
0
100
AcDbLine
 62
7
  6
CONTINUOUS
 10
226.7293820933
 20
630.1214302487
 11
226.7293820933
 21
230.1214302487
  0
LINE
  5
2AD
100
AcDbEntity
  8
0
100
AcDbLine
 62
7
  6
CONTINUOUS
 10
228.9293820933
 20
232.3214302487
 11
228.9293820933
 21
627.9214302487
  0
LINE
  5
2AE
100
AcDbEntity
  8
0
100
AcDbLine
 62
7
  6
CONTINUOUS
 10
229.7293820933
 20
566.1214302487
 11
229.7293820933
 21
556.1214302487
  0
LINE
  5
2AF
100
AcDbEntity
  8
0
100
AcDbLine
 62
7
  6
CONTINUOUS
 10
229.7293820933
 20
304.1214302487
 11
229.7293820933
 21
294.1214302487
  0
LINE
  5
2B0
100
AcDbEntity
  8
0
100
AcDbLine
 62
7
  6
CONTINUOUS
 10
229.9793820933
 20
294.6214302487
 11
229.9793820933
 21
303.6214302487
  0
LINE
  5
2B1
100
AcDbEntity
  8
0
100
AcDbLine
 62
7
  6
CONTINUOUS
 10
229.9793820933
 20
556.6214302487
 11
229.9793820933
 21
565.6214302487
  0
LINE
  5
2B2
100
AcDbEntity
  8
0
100
AcDbLine
 62
7
  6
CONTINUOUS
 10
547.6923961098
 20
400.3507153397
 11
548.434842402
 21
400.5218602733
  0
LINE
  5
2B3
100
AcDbEntity
  8
0
100
AcDbLine
 62
7
  6
CONTINUOUS
 10
230.4793820933
 20
565.6214302487
 11
230.4793820933
 21
556.6214302487
  0
LINE
  5
2B4
100
AcDbEntity
  8
0
100
AcDbLine
 62
7
  6
CONTINUOUS
 10
230.4793820933
 20
303.6214302487
 11
230.4793820933
 21
294.6214302487
  0
LINE
  5
2B5
100
AcDbEntity
  8
0
100
AcDbLine
 62
7
  6
CONTINUOUS
 10
230.7293820933
 20
565.3713748371
 11
230.7293820933
 21
556.8714856603
  0
LINE
  5
2B6
100
AcDbEntity
  8
0
100
AcDbLine
 62
7
  6
CONTINUOUS
 10
230.7293820933
 20
303.3713748371
 11
230.7293820933
 21
294.8714856603
  0
LINE
  5
2B7
100
AcDbEntity
  8
0
100
AcDbLine
 62
7
  6
CONTINUOUS
 10
231.3110000841
 20
250.6401177909
 11
231.3110000841
 21
609.6027427065
  0
LINE
  5
2B8
100
AcDbEntity
  8
0
100
AcDbLine
 62
7
  6
CONTINUOUS
 10
237.9396787046
 20
230.1214302487
 11
237.9396787046
 21
630.1214302487
  0
LINE
  5
2B9
100
AcDbEntity
  8
0
100
AcDbLine
 62
7
  6
CONTINUOUS
 10
230.494776274
 20
250.5455039434
 11
230.3583528878
 21
249.8436664639
  0
LINE
  5
2BA
100
AcDbEntity
  8
0
100
AcDbLine
 62
7
  6
CONTINUOUS
 10
231.3110000841
 20
249.6584906074
 11
231.475977534
 21
250.5072260097
  0
LINE
  5
2BB
100
AcDbEntity
  8
0
100
AcDbLine
 62
7
  6
CONTINUOUS
 10
230.3583528878
 20
610.3991940335
 11
230.494776274
 21
609.697356554
  0
LINE
  5
2BC
100
AcDbEntity
  8
0
100
AcDbLine
 62
7
  6
CONTINUOUS
 10
231.4759254609
 20
609.7359023804
 11
231.3110000841
 21
610.58436989
  0
LINE
  5
2BD
100
AcDbEntity
  8
0
100
AcDbLine
 62
7
  6
CONTINUOUS
 10
96.1450656567
 20
226.6034567676
 11
96.1394024571
 21
226.5969511536
  0
LINE
  5
2BE
100
AcDbEntity
  8
0
100
AcDbLine
 62
7
  6
CONTINUOUS
 10
546.1994709213
 20
626.7337133513
 11
546.7197457322
 21
627.0980136959
  0
LINE
  5
2BF
100
AcDbEntity
  8
0
100
AcDbLine
 62
7
  6
CONTINUOUS
 10
547.6923961098
 20
400.3507153397
 11
547.1537808259
 21
400.3319064795
  0
LINE
  5
2C0
100
AcDbEntity
  8
0
100
AcDbLine
 62
7
  6
CONTINUOUS
 10
552.843547528
 20
407.1073752302
 11
552.8340550213
 21
407.1073752302
  0
LINE
  5
2C1
100
AcDbEntity
  8
0
100
AcDbLine
 62
7
  6
CONTINUOUS
 10
552.8340561512
 20
408.5359662927
 11
552.843547528
 21
408.5359662927
  0
LINE
  5
2C2
100
AcDbEntity
  8
0
100
AcDbLine
 62
7
  6
CONTINUOUS
 10
546.1994709212
 20
233.509147146
 11
546.7197457322
 21
233.1448468015
  0
LINE
  5
2C3
100
AcDbEntity
  8
0
100
AcDbLine
 62
7
  6
CONTINUOUS
 10
163.1450656567
 20
226.6034567676
 11
163.1394024571
 21
226.5969511536
  0
LINE
  5
2C4
100
AcDbEntity
  8
0
100
AcDbLine
 62
7
  6
CONTINUOUS
 10
552.843547528
 20
442.1068942047
 11
552.8340557454
 21
442.1068942047
  0
LINE
  5
2C5
100
AcDbEntity
  8
0
100
AcDbLine
 62
7
  6
CONTINUOUS
 10
552.8340554417
 20
443.5354852672
 11
552.843547528
 21
443.5354852672
  0
LINE
  5
2C6
100
AcDbEntity
  8
0
100
AcDbLine
 62
7
  6
CONTINUOUS
 10
547.1537808259
 20
450.3109540178
 11
547.6923961098
 21
450.2921451577
  0
LINE
  5
2C7
100
AcDbEntity
  8
0
100
AcDbLine
 62
7
  6
CONTINUOUS
 10
130.1973312857
 20
228.9214302487
 11
128.9293820933
 21
228.1893794411
  0
LINE
  5
2C8
100
AcDbEntity
  8
0
100
AcDbLine
 62
7
  6
CONTINUOUS
 10
547.6923961098
 20
450.2921451577
 11
548.434842402
 21
450.1210002241
  0
LINE
  5
2C9
100
AcDbEntity
  8
0
100
AcDbLine
 62
7
  6
CONTINUOUS
 10
130.1973312857
 20
631.3214302487
 11
128.9293820933
 21
632.0534810563
  0
LINE
  5
2CA
100
AcDbEntity
  8
0
100
AcDbLine
 62
7
  6
CONTINUOUS
 10
521.6178843422
 20
610.0029540529
 11
521.8557196781
 21
610.5613821155
  0
LINE
  5
2CB
100
AcDbEntity
  8
0
100
AcDbLine
 62
7
  6
CONTINUOUS
 10
522.4434841923
 20
609.7618136544
 11
522.7296977075
 21
609.8287626509
  0
LINE
  5
2CC
100
AcDbEntity
  8
0
100
AcDbLine
 62
7
  6
CONTINUOUS
 10
521.7434842145
 20
556.1214302487
 11
520.9434842145
 21
556.1214302487
  0
LINE
  5
2CD
100
AcDbEntity
  8
0
100
AcDbLine
 62
7
  6
CONTINUOUS
 10
229.7293820933
 20
556.1214302487
 11
228.9293820933
 21
556.1214302487
  0
LINE
  5
2CE
100
AcDbEntity
  8
0
100
AcDbLine
 62
7
  6
CONTINUOUS
 10
522.4934842145
 20
556.6214302487
 11
521.9934842145
 21
556.6214302487
  0
LINE
  5
2CF
100
AcDbEntity
  8
0
100
AcDbLine
 62
7
  6
CONTINUOUS
 10
230.4793820933
 20
556.6214302487
 11
229.9793820933
 21
556.6214302487
  0
LINE
  5
2D0
100
AcDbEntity
  8
0
100
AcDbLine
 62
7
  6
CONTINUOUS
 10
521.6178843422
 20
250.2399064445
 11
521.8557196781
 21
249.6814783818
  0
LINE
  5
2D1
100
AcDbEntity
  8
0
100
AcDbLine
 62
7
  6
CONTINUOUS
 10
522.7296977075
 20
610.4689894735
 11
527.1537808259
 21
611.3289441177
  0
LINE
  5
2D2
100
AcDbEntity
  8
0
100
AcDbLine
 62
7
  6
CONTINUOUS
 10
527.1537808259
 20
610.6234484867
 11
522.7296977075
 21
609.8287626509
  0
LINE
  5
2D3
100
AcDbEntity
  8
0
100
AcDbLine
 62
7
  6
CONTINUOUS
 10
522.4934842145
 20
565.6214302487
 11
521.9934842145
 21
565.6214302487
  0
LINE
  5
2D4
100
AcDbEntity
  8
0
100
AcDbLine
 62
7
  6
CONTINUOUS
 10
230.4793820933
 20
565.6214302487
 11
229.9793820933
 21
565.6214302487
  0
LINE
  5
2D5
100
AcDbEntity
  8
0
100
AcDbLine
 62
7
  6
CONTINUOUS
 10
521.7434842145
 20
566.1214302487
 11
520.9434842145
 21
566.1214302487
  0
LINE
  5
2D6
100
AcDbEntity
  8
0
100
AcDbLine
 62
7
  6
CONTINUOUS
 10
229.7293820933
 20
566.1214302487
 11
228.9293820933
 21
566.1214302487
  0
LINE
  5
2D7
100
AcDbEntity
  8
0
100
AcDbLine
 62
7
  6
CONTINUOUS
 10
98.0356194342
 20
633.2762059309
 11
98.0045783455
 21
633.2843986158
  0
LINE
  5
2D8
100
AcDbEntity
  8
0
100
AcDbLine
 62
7
  6
CONTINUOUS
 10
96.2473341356
 20
633.6245721491
 11
96.2508813874
 21
633.623870887
  0
LINE
  5
2D9
100
AcDbEntity
  8
0
100
AcDbLine
 62
7
  6
CONTINUOUS
 10
163.2473341356
 20
633.6245721491
 11
163.2508813874
 21
633.623870887
  0
LINE
  5
2DA
100
AcDbEntity
  8
0
100
AcDbLine
 62
7
  6
CONTINUOUS
 10
96.2471022729
 20
633.625359213
 11
96.2506547794
 21
633.6246416899
  0
LINE
  5
2DB
100
AcDbEntity
  8
0
100
AcDbLine
 62
7
  6
CONTINUOUS
 10
163.2471022729
 20
633.625359213
 11
163.2506547794
 21
633.6246416899
  0
LINE
  5
2DC
100
AcDbEntity
  8
0
100
AcDbLine
 62
7
  6
CONTINUOUS
 10
165.0356194342
 20
633.2762059309
 11
165.0045783472
 21
633.2843986155
  0
LINE
  5
2DD
100
AcDbEntity
  8
0
100
AcDbLine
 62
7
  6
CONTINUOUS
 10
499.4434842145
 20
229.9214302487
 11
499.4434842145
 21
230.1214302487
  0
LINE
  5
2DE
100
AcDbEntity
  8
0
100
AcDbLine
 62
7
  6
CONTINUOUS
 10
237.9396787046
 20
610.8912273059
 11
231.3110000841
 21
609.6027427065
  0
LINE
  5
2DF
100
AcDbEntity
  8
0
100
AcDbLine
 62
7
  6
CONTINUOUS
 10
71.7293820933
 20
601.6214302487
 11
71.9293820933
 21
601.6214302487
  0
LINE
  5
2E0
100
AcDbEntity
  8
0
100
AcDbLine
 62
7
  6
CONTINUOUS
 10
71.7293820933
 20
614.6214302487
 11
71.9293820933
 21
614.6214302487
  0
LINE
  5
2E1
100
AcDbEntity
  8
0
100
AcDbLine
 62
7
  6
CONTINUOUS
 10
96.0819741688
 20
633.6509263913
 11
96.0906503006
 21
633.6501957315
  0
LINE
  5
2E2
100
AcDbEntity
  8
0
100
AcDbLine
 62
7
  6
CONTINUOUS
 10
163.0819741688
 20
633.6509263913
 11
163.0906503006
 21
633.6501957315
  0
LINE
  5
2E3
100
AcDbEntity
  8
0
100
AcDbLine
 62
7
  6
CONTINUOUS
 10
98.0045783455
 20
633.2843986158
 11
97.9747703176
 21
633.2874711081
  0
LINE
  5
2E4
100
AcDbEntity
  8
0
100
AcDbLine
 62
7
  6
CONTINUOUS
 10
165.0045783472
 20
633.2843986155
 11
164.9747703176
 21
633.2874711081
  0
LINE
  5
2E5
100
AcDbEntity
  8
0
100
AcDbLine
 62
7
  6
CONTINUOUS
 10
512.4434842145
 20
229.9214302487
 11
512.4434842145
 21
230.1214302487
  0
LINE
  5
2E6
100
AcDbEntity
  8
0
100
AcDbLine
 62
7
  6
CONTINUOUS
 10
517.5396787047
 20
230.1214302487
 11
517.5396787047
 21
233.6214302487
  0
LINE
  5
2E7
100
AcDbEntity
  8
0
100
AcDbLine
 62
7
  6
CONTINUOUS
 10
517.5396787047
 20
626.6214302487
 11
517.5396787047
 21
630.1214302487
  0
LINE
  5
2E8
100
AcDbEntity
  8
0
100
AcDbLine
 62
7
  6
CONTINUOUS
 10
517.9434842145
 20
626.6214302487
 11
517.9434842145
 21
233.6214302487
  0
LINE
  5
2E9
100
AcDbEntity
  8
0
100
AcDbLine
 62
7
  6
CONTINUOUS
 10
519.4434842145
 20
233.1214302487
 11
519.4434842145
 21
233.6114302487
  0
LINE
  5
2EA
100
AcDbEntity
  8
0
100
AcDbLine
 62
7
  6
CONTINUOUS
 10
519.4434842145
 20
626.6314302487
 11
519.4434842145
 21
627.1214302487
  0
LINE
  5
2EB
100
AcDbEntity
  8
0
100
AcDbLine
 62
7
  6
CONTINUOUS
 10
520.9434842145
 20
233.1214302487
 11
520.9434842145
 21
233.6114302487
  0
LINE
  5
2EC
100
AcDbEntity
  8
0
100
AcDbLine
 62
7
  6
CONTINUOUS
 10
520.9434842145
 20
626.6314302487
 11
520.9434842145
 21
627.1214302487
  0
LINE
  5
2ED
100
AcDbEntity
  8
0
100
AcDbLine
 62
7
  6
CONTINUOUS
 10
520.9434842145
 20
233.6214302487
 11
520.9434842145
 21
626.6214302487
  0
LINE
  5
2EE
100
AcDbEntity
  8
0
100
AcDbLine
 62
7
  6
CONTINUOUS
 10
521.7434842145
 20
566.1214302487
 11
521.7434842145
 21
556.1214302487
  0
LINE
  5
2EF
100
AcDbEntity
  8
0
100
AcDbLine
 62
7
  6
CONTINUOUS
 10
521.7434842145
 20
304.1214302487
 11
521.7434842145
 21
294.1214302487
  0
LINE
  5
2F0
100
AcDbEntity
  8
0
100
AcDbLine
 62
7
  6
CONTINUOUS
 10
521.9934842145
 20
294.6214302487
 11
521.9934842145
 21
303.6214302487
  0
LINE
  5
2F1
100
AcDbEntity
  8
0
100
AcDbLine
 62
7
  6
CONTINUOUS
 10
521.9934842145
 20
556.6214302487
 11
521.9934842145
 21
565.6214302487
  0
LINE
  5
2F2
100
AcDbEntity
  8
0
100
AcDbLine
 62
7
  6
CONTINUOUS
 10
522.4934842145
 20
565.6214302487
 11
522.4934842145
 21
556.6214302487
  0
LINE
  5
2F3
100
AcDbEntity
  8
0
100
AcDbLine
 62
7
  6
CONTINUOUS
 10
522.4934842145
 20
303.6214302487
 11
522.4934842145
 21
294.6214302487
  0
LINE
  5
2F4
100
AcDbEntity
  8
0
100
AcDbLine
 62
7
  6
CONTINUOUS
 10
522.7296977075
 20
250.4140978465
 11
522.7296977075
 21
294.8714302487
  0
LINE
  5
2F5
100
AcDbEntity
  8
0
100
AcDbLine
 62
7
  6
CONTINUOUS
 10
522.7296977075
 20
303.3713748371
 11
522.7296977075
 21
556.8714302487
  0
LINE
  5
2F6
100
AcDbEntity
  8
0
100
AcDbLine
 62
7
  6
CONTINUOUS
 10
522.7296977075
 20
565.3713748371
 11
522.7296977075
 21
609.8287626509
  0
LINE
  5
2F7
100
AcDbEntity
  8
0
100
AcDbLine
 62
7
  6
CONTINUOUS
 10
522.7434842145
 20
565.3713748371
 11
522.7434842145
 21
556.8714856603
  0
LINE
  5
2F8
100
AcDbEntity
  8
0
100
AcDbLine
 62
7
  6
CONTINUOUS
 10
522.7434842145
 20
303.3713748371
 11
522.7434842145
 21
294.8714856603
  0
LINE
  5
2F9
100
AcDbEntity
  8
0
100
AcDbLine
 62
7
  6
CONTINUOUS
 10
237.9396787046
 20
611.8728544894
 11
230.3583528878
 21
610.3991940335
  0
LINE
  5
2FA
100
AcDbEntity
  8
0
100
AcDbLine
 62
7
  6
CONTINUOUS
 10
159.8231348717
 20
633.2762048307
 11
159.8791874061
 21
633.2778109581
  0
LINE
  5
2FB
100
AcDbEntity
  8
0
100
AcDbLine
 62
7
  6
CONTINUOUS
 10
159.8231364507
 20
633.2762043382
 11
159.8791874061
 21
633.2778109581
  0
LINE
  5
2FC
100
AcDbEntity
  8
0
100
AcDbLine
 62
7
  6
CONTINUOUS
 10
159.913540109
 20
633.2883164202
 11
159.8839939236
 21
633.2874711111
  0
LINE
  5
2FD
100
AcDbEntity
  8
0
100
AcDbLine
 62
7
  6
CONTINUOUS
 10
92.8231348717
 20
633.2762048307
 11
92.8791874061
 21
633.2778109581
  0
LINE
  5
2FE
100
AcDbEntity
  8
0
100
AcDbLine
 62
7
  6
CONTINUOUS
 10
92.913540109
 20
633.2883164202
 11
92.8839939236
 21
633.2874711111
  0
LINE
  5
2FF
100
AcDbEntity
  8
0
100
AcDbLine
 62
7
  6
CONTINUOUS
 10
92.8231364507
 20
633.2762043382
 11
92.8791874061
 21
633.2778109581
  0
LINE
  5
300
100
AcDbEntity
  8
0
100
AcDbLine
 62
7
  6
CONTINUOUS
 10
162.9443820933
 20
633.2891988046
 11
162.4293820937
 21
633.2875474918
  0
LINE
  5
301
100
AcDbEntity
  8
0
100
AcDbLine
 62
7
  6
CONTINUOUS
 10
95.9443820933
 20
633.2891988046
 11
95.4293820937
 21
633.2875474918
  0
LINE
  5
302
100
AcDbEntity
  8
0
100
AcDbLine
 62
7
  6
CONTINUOUS
 10
517.5396787047
 20
626.6214302487
 11
520.9434842145
 21
626.6214302487
  0
LINE
  5
303
100
AcDbEntity
  8
0
100
AcDbLine
 62
7
  6
CONTINUOUS
 10
528.4537808259
 20
626.9214302487
 11
544.7537808258
 21
626.9214302487
  0
LINE
  5
304
100
AcDbEntity
  8
0
100
AcDbLine
 62
7
  6
CONTINUOUS
 10
528.4537808259
 20
628.1214302487
 11
544.7537808259
 21
628.1214302487
  0
LINE
  5
305
100
AcDbEntity
  8
0
100
AcDbLine
 62
7
  6
CONTINUOUS
 10
237.9396787046
 20
628.6214302487
 11
517.9434842145
 21
628.6214302487
  0
LINE
  5
306
100
AcDbEntity
  8
0
100
AcDbLine
 62
7
  6
CONTINUOUS
 10
226.7293820933
 20
629.1214302487
 11
74.1293820933
 21
629.1214302487
  0
LINE
  5
307
100
AcDbEntity
  8
0
100
AcDbLine
 62
7
  6
CONTINUOUS
 10
517.9434842145
 20
630.1214302487
 11
237.9396787046
 21
630.1214302487
  0
LINE
  5
308
100
AcDbEntity
  8
0
100
AcDbLine
 62
7
  6
CONTINUOUS
 10
226.7293820933
 20
630.1214302487
 11
74.1293820933
 21
630.1214302487
  0
LINE
  5
309
100
AcDbEntity
  8
0
100
AcDbLine
 62
7
  6
CONTINUOUS
 10
88.9293820933
 20
631.3214302487
 11
168.9293820933
 21
631.3214302487
  0
LINE
  5
30A
100
AcDbEntity
  8
0
100
AcDbLine
 62
7
  6
CONTINUOUS
 10
166.9667490033
 20
631.4214302487
 11
166.6314654164
 21
631.4214302487
  0
LINE
  5
30B
100
AcDbEntity
  8
0
100
AcDbLine
 62
7
  6
CONTINUOUS
 10
164.6441045917
 20
631.4214302487
 11
163.834658409
 21
631.4214302487
  0
LINE
  5
30C
100
AcDbEntity
  8
0
100
AcDbLine
 62
7
  6
CONTINUOUS
 10
161.0241057776
 20
631.4214302487
 11
160.2146595949
 21
631.4214302487
  0
LINE
  5
30D
100
AcDbEntity
  8
0
100
AcDbLine
 62
7
  6
CONTINUOUS
 10
158.2272987702
 20
631.4214302487
 11
157.8920151832
 21
631.4214302487
  0
LINE
  5
30E
100
AcDbEntity
  8
0
100
AcDbLine
 62
7
  6
CONTINUOUS
 10
99.9667490033
 20
631.4214302487
 11
99.6314654164
 21
631.4214302487
  0
LINE
  5
30F
100
AcDbEntity
  8
0
100
AcDbLine
 62
7
  6
CONTINUOUS
 10
97.6441045917
 20
631.4214302487
 11
96.834658409
 21
631.4214302487
  0
LINE
  5
310
100
AcDbEntity
  8
0
100
AcDbLine
 62
7
  6
CONTINUOUS
 10
94.0241057776
 20
631.4214302487
 11
93.2146595949
 21
631.4214302487
  0
LINE
  5
311
100
AcDbEntity
  8
0
100
AcDbLine
 62
7
  6
CONTINUOUS
 10
91.2272987702
 20
631.4214302487
 11
90.8920151832
 21
631.4214302487
  0
LINE
  5
312
100
AcDbEntity
  8
0
100
AcDbLine
 62
7
  6
CONTINUOUS
 10
91.2841830279
 20
631.6636920749
 11
93.0912204124
 21
631.6636920749
  0
LINE
  5
313
100
AcDbEntity
  8
0
100
AcDbLine
 62
7
  6
CONTINUOUS
 10
94.1383780724
 20
631.6636920749
 11
96.7203861142
 21
631.6636920749
  0
LINE
  5
314
100
AcDbEntity
  8
0
100
AcDbLine
 62
7
  6
CONTINUOUS
 10
97.7675437741
 20
631.6636920749
 11
99.5745811587
 21
631.6636920749
  0
LINE
  5
315
100
AcDbEntity
  8
0
100
AcDbLine
 62
7
  6
CONTINUOUS
 10
158.2841830279
 20
631.6636920749
 11
160.0912204124
 21
631.6636920749
  0
LINE
  5
316
100
AcDbEntity
  8
0
100
AcDbLine
 62
7
  6
CONTINUOUS
 10
161.1383780724
 20
631.6636920749
 11
163.7203861142
 21
631.6636920749
  0
LINE
  5
317
100
AcDbEntity
  8
0
100
AcDbLine
 62
7
  6
CONTINUOUS
 10
164.7675437741
 20
631.6636920749
 11
166.5745811587
 21
631.6636920749
  0
LINE
  5
318
100
AcDbEntity
  8
0
100
AcDbLine
 62
7
  6
CONTINUOUS
 10
167.1793809495
 20
631.7214302487
 11
167.0260357544
 21
631.7214302487
  0
LINE
  5
319
100
AcDbEntity
  8
0
100
AcDbLine
 62
7
  6
CONTINUOUS
 10
166.5262515557
 20
631.7214302487
 11
164.8331625598
 21
631.7214302487
  0
LINE
  5
31A
100
AcDbEntity
  8
0
100
AcDbLine
 62
7
  6
CONTINUOUS
 10
163.6265767946
 20
631.7214302487
 11
161.2321873666
 21
631.7214302487
  0
LINE
  5
31B
100
AcDbEntity
  8
0
100
AcDbLine
 62
7
  6
CONTINUOUS
 10
160.025601614
 20
631.7214302487
 11
158.3325126017
 21
631.7214302487
  0
LINE
  5
31C
100
AcDbEntity
  8
0
100
AcDbLine
 62
7
  6
CONTINUOUS
 10
157.8327284376
 20
631.7214302487
 11
157.6793832371
 21
631.7214302487
  0
LINE
  5
31D
100
AcDbEntity
  8
0
100
AcDbLine
 62
7
  6
CONTINUOUS
 10
100.1793809495
 20
631.7214302487
 11
100.0260357544
 21
631.7214302487
  0
LINE
  5
31E
100
AcDbEntity
  8
0
100
AcDbLine
 62
7
  6
CONTINUOUS
 10
99.5262515557
 20
631.7214302487
 11
97.8331625598
 21
631.7214302487
  0
LINE
  5
31F
100
AcDbEntity
  8
0
100
AcDbLine
 62
7
  6
CONTINUOUS
 10
96.6265767946
 20
631.7214302487
 11
94.2321873666
 21
631.7214302487
  0
LINE
  5
320
100
AcDbEntity
  8
0
100
AcDbLine
 62
7
  6
CONTINUOUS
 10
93.025601614
 20
631.7214302487
 11
91.3325126017
 21
631.7214302487
  0
LINE
  5
321
100
AcDbEntity
  8
0
100
AcDbLine
 62
7
  6
CONTINUOUS
 10
90.8327284376
 20
631.7214302487
 11
90.6793832371
 21
631.7214302487
  0
LINE
  5
322
100
AcDbEntity
  8
0
100
AcDbLine
 62
7
  6
CONTINUOUS
 10
90.6793820933
 20
632.0214175473
 11
100.1793820933
 21
632.0214175473
  0
LINE
  5
323
100
AcDbEntity
  8
0
100
AcDbLine
 62
7
  6
CONTINUOUS
 10
157.6793820933
 20
632.0214175473
 11
167.1793820933
 21
632.0214175473
  0
LINE
  5
324
100
AcDbEntity
  8
0
100
AcDbLine
 62
7
  6
CONTINUOUS
 10
90.7604573011
 20
632.1822183373
 11
100.0983241984
 21
632.1822055305
  0
LINE
  5
325
100
AcDbEntity
  8
0
100
AcDbLine
 62
7
  6
CONTINUOUS
 10
157.7604573011
 20
632.1822183373
 11
167.0983241984
 21
632.1822055305
  0
LINE
  5
326
100
AcDbEntity
  8
0
100
AcDbLine
 62
7
  6
CONTINUOUS
 10
95.6073838467
 20
633.2877426836
 11
95.2530006297
 21
633.2877407576
  0
LINE
  5
327
100
AcDbEntity
  8
0
100
AcDbLine
 62
7
  6
CONTINUOUS
 10
162.6073838466
 20
633.2877426836
 11
162.2530006297
 21
633.2877407576
  0
LINE
  5
328
100
AcDbEntity
  8
0
100
AcDbLine
 62
7
  6
CONTINUOUS
 10
95.2542675379
 20
633.2877363741
 11
94.9143820933
 21
633.2891989329
  0
LINE
  5
329
100
AcDbEntity
  8
0
100
AcDbLine
 62
7
  6
CONTINUOUS
 10
162.2542675379
 20
633.2877363741
 11
161.9143820933
 21
633.2891989329
  0
LINE
  5
32A
100
AcDbEntity
  8
0
100
AcDbLine
 62
7
  6
CONTINUOUS
 10
97.9795767159
 20
633.2778109803
 11
98.0356293382
 21
633.2762048225
  0
LINE
  5
32B
100
AcDbEntity
  8
0
100
AcDbLine
 62
7
  6
CONTINUOUS
 10
97.9795767159
 20
633.2778109803
 11
98.0356234659
 21
633.2762058409
  0
LINE
  5
32C
100
AcDbEntity
  8
0
100
AcDbLine
 62
7
  6
CONTINUOUS
 10
97.9747703176
 20
633.2874711081
 11
97.9417948973
 21
633.2884145544
  0
LINE
  5
32D
100
AcDbEntity
  8
0
100
AcDbLine
 62
7
  6
CONTINUOUS
 10
164.9795767159
 20
633.2778109803
 11
165.0356293382
 21
633.2762048225
  0
LINE
  5
32E
100
AcDbEntity
  8
0
100
AcDbLine
 62
7
  6
CONTINUOUS
 10
164.9795767159
 20
633.2778109803
 11
165.0356234659
 21
633.2762058409
  0
LINE
  5
32F
100
AcDbEntity
  8
0
100
AcDbLine
 62
7
  6
CONTINUOUS
 10
164.9747703176
 20
633.2874711081
 11
164.9417948973
 21
633.2884145545
  0
LINE
  5
330
100
AcDbEntity
  8
0
100
AcDbLine
 62
7
  6
CONTINUOUS
 10
527.1537808259
 20
234.2129396944
 11
527.1537808259
 21
626.029920803
  0
LINE
  5
331
100
AcDbEntity
  8
0
100
AcDbLine
 62
7
  6
CONTINUOUS
 10
528.4537808259
 20
232.1214302487
 11
528.4537808259
 21
628.1214302487
  0
LINE
  5
332
100
AcDbEntity
  8
0
100
AcDbLine
 62
7
  6
CONTINUOUS
 10
538.9023445224
 20
232.1214302487
 11
538.9023445225
 21
628.1214302487
  0
LINE
  5
333
100
AcDbEntity
  8
0
100
AcDbLine
 62
7
  6
CONTINUOUS
 10
539.8853269756
 20
233.3214302487
 11
539.8853269756
 21
232.1214302487
  0
LINE
  5
334
100
AcDbEntity
  8
0
100
AcDbLine
 62
7
  6
CONTINUOUS
 10
539.8853269756
 20
626.9214302487
 11
539.8853269756
 21
628.1214302487
  0
LINE
  5
335
100
AcDbEntity
  8
0
100
AcDbLine
 62
7
  6
CONTINUOUS
 10
540.8683094288
 20
233.3214302487
 11
540.8683094288
 21
626.9214302487
  0
LINE
  5
336
100
AcDbEntity
  8
0
100
AcDbLine
 62
7
  6
CONTINUOUS
 10
544.7537808259
 20
628.1214302487
 11
544.7537808259
 21
626.9214302487
  0
LINE
  5
337
100
AcDbEntity
  8
0
100
AcDbLine
 62
7
  6
CONTINUOUS
 10
544.7537808259
 20
233.3214302487
 11
544.7537808259
 21
232.1214302487
  0
LINE
  5
338
100
AcDbEntity
  8
0
100
AcDbLine
 62
7
  6
CONTINUOUS
 10
161.6139099591
 20
633.6177954935
 11
161.6081262044
 21
633.616580497
  0
LINE
  5
339
100
AcDbEntity
  8
0
100
AcDbLine
 62
7
  6
CONTINUOUS
 10
161.614884581
 20
633.6211361538
 11
161.6091054562
 21
633.6199483255
  0
LINE
  5
33A
100
AcDbEntity
  8
0
100
AcDbLine
 62
7
  6
CONTINUOUS
 10
161.6124948784
 20
633.6255270882
 11
161.6081307708
 21
633.6246460123
  0
LINE
  5
33B
100
AcDbEntity
  8
0
100
AcDbLine
 62
7
  6
CONTINUOUS
 10
161.6122618946
 20
633.6247365977
 11
161.6079041289
 21
633.6238751037
  0
LWPOLYLINE
  5
33C
100
AcDbEntity
  8
0
100
AcDbPolyline
 62
7
  6
CONTINUOUS
 90
3
 70
0
 10
159.8839939236
 20
633.2874711111
 10
159.8541858973
 20
633.2843986231
 10
159.8231447825
 20
633.2762059338
  0
LWPOLYLINE
  5
33D
100
AcDbEntity
  8
0
100
AcDbPolyline
 62
7
  6
CONTINUOUS
 90
3
 70
0
 10
92.8839939236
 20
633.2874711111
 10
92.8541858941
 20
633.2843986225
 10
92.8231447825
 20
633.2762059338
  0
LINE
  5
33E
100
AcDbEntity
  8
0
100
AcDbLine
 62
7
  6
CONTINUOUS
 10
546.7197457322
 20
626.6661578126
 11
544.7537808261
 21
626.9214302487
  0
LWPOLYLINE
  5
33F
100
AcDbEntity
  8
0
100
AcDbPolyline
 62
7
  6
CONTINUOUS
 90
3
 70
0
 10
552.5126223287
 20
442.2824355167
 10
552.4677465766
 20
442.753243265
 10
552.453781137
 20
443.0729971486
  0
LWPOLYLINE
  5
340
100
AcDbEntity
  8
0
100
AcDbPolyline
 62
7
  6
CONTINUOUS
 90
3
 70
0
 10
552.8433408783
 20
442.1159835582
 10
552.756779192
 20
443.1083864181
 10
552.6451998436
 20
443.8678515566
  0
LWPOLYLINE
  5
341
100
AcDbEntity
  8
0
100
AcDbPolyline
 62
7
  6
CONTINUOUS
 90
3
 70
0
 10
552.8432772229
 20
443.5457544077
 10
552.8105606705
 20
443.9684750512
 10
552.6597533604
 20
444.9223929653
  0
LWPOLYLINE
  5
342
100
AcDbEntity
  8
0
100
AcDbPolyline
 62
7
  6
CONTINUOUS
 90
4
 70
0
 10
552.6577228806
 20
440.0627930549
 10
552.6147386991
 20
441.0681446308
 10
552.5805274056
 20
441.5568043982
 10
552.5126195621
 20
442.2825226073
  0
LINE
  5
343
100
AcDbEntity
  8
0
100
AcDbLine
 62
7
  6
CONTINUOUS
 10
552.8435364058
 20
442.1047850037
 11
552.8433409896
 21
442.1159811187
  0
LINE
  5
344
100
AcDbEntity
  8
0
100
AcDbLine
 62
7
  6
CONTINUOUS
 10
552.4537808261
 20
407.571034539
 11
552.453781124
 21
407.5697401943
  0
LINE
  5
345
100
AcDbEntity
  8
0
100
AcDbLine
 62
7
  6
CONTINUOUS
 10
546.7197457322
 20
626.6661578126
 11
546.7197457322
 21
233.5767026848
  0
LINE
  5
346
100
AcDbEntity
  8
0
100
AcDbLine
 62
7
  6
CONTINUOUS
 10
547.1537808259
 20
234.5214302487
 11
547.1537808259
 21
625.7214302487
  0
LINE
  5
347
100
AcDbEntity
  8
0
100
AcDbLine
 62
7
  6
CONTINUOUS
 10
547.6923961098
 20
450.2921451577
 11
547.6923961098
 21
447.4233015168
  0
LINE
  5
348
100
AcDbEntity
  8
0
100
AcDbLine
 62
7
  6
CONTINUOUS
 10
547.6923961098
 20
403.2195588223
 11
547.6923961098
 21
400.3507153397
  0
LINE
  5
349
100
AcDbEntity
  8
0
100
AcDbLine
 62
7
  6
CONTINUOUS
 10
548.4348480178
 20
400.5218627691
 11
548.4348480178
 21
403.3710946918
  0
LINE
  5
34A
100
AcDbEntity
  8
0
100
AcDbLine
 62
7
  6
CONTINUOUS
 10
548.4348480178
 20
447.271761427
 11
548.4348480178
 21
450.1209977283
  0
LINE
  5
34B
100
AcDbEntity
  8
0
100
AcDbLine
 62
7
  6
CONTINUOUS
 10
548.9933789908
 20
440.5518496965
 11
548.9933789908
 21
410.0910108008
  0
LINE
  5
34C
100
AcDbEntity
  8
0
100
AcDbLine
 62
7
  6
CONTINUOUS
 10
552.8340550213
 20
407.1074437725
 11
552.8340550213
 21
408.3774592844
  0
LINE
  5
34D
100
AcDbEntity
  8
0
100
AcDbLine
 62
7
  6
CONTINUOUS
 10
552.8340561512
 20
408.5359289975
 11
552.8340561512
 21
426.560441995
  0
LINE
  5
34E
100
AcDbEntity
  8
0
100
AcDbLine
 62
7
  6
CONTINUOUS
 10
552.8340557454
 20
433.6824151714
 11
552.8340557454
 21
442.1069081634
  0
LINE
  5
34F
100
AcDbEntity
  8
0
100
AcDbLine
 62
7
  6
CONTINUOUS
 10
552.8340554417
 20
442.2224382057
 11
552.8340554417
 21
443.5354824437
  0
LINE
  5
350
100
AcDbEntity
  8
0
100
AcDbLine
 62
7
  6
CONTINUOUS
 10
552.843547528
 20
407.1073752302
 11
552.843547528
 21
426.4335694864
  0
LINE
  5
351
100
AcDbEntity
  8
0
100
AcDbLine
 62
7
  6
CONTINUOUS
 10
552.843547528
 20
433.8092910109
 11
552.843547528
 21
442.1068942047
  0
LINE
  5
352
100
AcDbEntity
  8
0
100
AcDbLine
 62
7
  6
CONTINUOUS
 10
552.843547528
 20
442.1160620004
 11
552.843547528
 21
443.5354852672
  0
LINE
  5
353
100
AcDbEntity
  8
0
100
AcDbLine
 62
7
  6
CONTINUOUS
 10
552.4537810941
 20
443.0730334328
 11
552.453780826
 21
443.0718066675
  0
LINE
  5
354
100
AcDbEntity
  8
0
100
AcDbLine
 62
7
  6
CONTINUOUS
 10
552.4537808259
 20
405.5706909924
 11
552.4537809299
 21
405.5710412914
  0
LWPOLYLINE
  5
355
100
AcDbEntity
  8
0
100
AcDbPolyline
 62
7
  6
CONTINUOUS
 90
3
 70
0
 10
552.6577128769
 20
410.5800770873
 10
552.820974266
 20
425.3148960264
 10
552.6577129583
 20
440.0627847158
  0
LWPOLYLINE
  5
356
100
AcDbEntity
  8
0
100
AcDbPolyline
 62
7
  6
CONTINUOUS
 90
3
 70
0
 10
552.4537784442
 20
407.5697945716
 10
552.4675107434
 20
407.8864270241
 10
552.5126232255
 20
408.3604277997
  0
LWPOLYLINE
  5
357
100
AcDbEntity
  8
0
100
AcDbPolyline
 62
7
  6
CONTINUOUS
 90
9
 70
0
 10
552.4537928051
 20
405.5713862912
 10
552.4561318306
 20
405.6215628771
 10
552.4789206937
 20
405.8069022325
 10
552.5310624647
 20
406.1201681094
 10
552.5681998428
 20
406.329832619
 10
552.6573607945
 20
406.8489349823
 10
552.751108514
 20
407.4894717906
 10
552.8254383686
 20
408.2281114655
 10
552.8424311807
 20
408.5226387612
  0
LWPOLYLINE
  5
358
100
AcDbEntity
  8
0
100
AcDbPolyline
 62
7
  6
CONTINUOUS
 90
4
 70
0
 10
552.512619224
 20
408.3603349247
 10
552.5799026834
 20
409.0781661252
 10
552.6142320592
 20
409.5664402906
 10
552.6577229369
 20
410.5800681001
  0
LINE
  5
359
100
AcDbEntity
  8
0
100
AcDbLine
 62
7
  6
CONTINUOUS
 10
522.7296977075
 20
249.7738710238
 11
522.8496143021
 21
250.3907884218
  0
LWPOLYLINE
  5
35A
100
AcDbEntity
  8
0
100
AcDbPolyline
 62
7
  6
CONTINUOUS
 90
4
 70
0
 10
552.5755036202
 20
405.3580538613
 10
552.6592744482
 20
405.7182091394
 10
552.8099304082
 20
406.6682355904
 10
552.8432600289
 20
407.0971470094
  0
LINE
  5
35B
100
AcDbEntity
  8
0
100
AcDbLine
 62
7
  6
CONTINUOUS
 10
552.4618243805
 20
404.9455379966
 11
552.5755036202
 21
405.3580538613
  0
LINE
  5
35C
100
AcDbEntity
  8
0
100
AcDbLine
 62
7
  6
CONTINUOUS
 10
552.4640836202
 20
404.9537261247
 11
552.4427354141
 21
404.8825611517
  0
LINE
  5
35D
100
AcDbEntity
  8
0
100
AcDbLine
 62
7
  6
CONTINUOUS
 10
552.4452283136
 20
404.8901996708
 11
552.4618243805
 21
404.9455379966
  0
LINE
  5
35E
100
AcDbEntity
  8
0
100
AcDbLine
 62
7
  6
CONTINUOUS
 10
94.6139099591
 20
633.6177954935
 11
94.6081262044
 21
633.616580497
  0
LINE
  5
35F
100
AcDbEntity
  8
0
100
AcDbLine
 62
7
  6
CONTINUOUS
 10
94.614884581
 20
633.6211361538
 11
94.6091054562
 21
633.6199483255
  0
LINE
  5
360
100
AcDbEntity
  8
0
100
AcDbLine
 62
7
  6
CONTINUOUS
 10
94.6124948784
 20
633.6255270882
 11
94.6081307708
 21
633.6246460123
  0
LINE
  5
361
100
AcDbEntity
  8
0
100
AcDbLine
 62
7
  6
CONTINUOUS
 10
94.6122618946
 20
633.6247365977
 11
94.6079041289
 21
633.6238751037
  0
LINE
  5
362
100
AcDbEntity
  8
0
100
AcDbLine
 62
7
  6
CONTINUOUS
 10
552.4605485301
 20
445.7017966054
 11
552.4427023955
 21
445.7603945163
  0
LINE
  5
363
100
AcDbEntity
  8
0
100
AcDbLine
 62
7
  6
CONTINUOUS
 10
552.4483901732
 20
445.7417165591
 11
552.4611187228
 21
445.6967956908
  0
LINE
  5
364
100
AcDbEntity
  8
0
100
AcDbLine
 62
7
  6
CONTINUOUS
 10
552.57588474
 20
445.2833159061
 11
552.4605485301
 21
445.7017966054
  0
LINE
  5
365
100
AcDbEntity
  8
0
100
AcDbLine
 62
7
  6
CONTINUOUS
 10
552.6597533604
 20
444.9223929653
 11
552.57588474
 21
445.2833159061
  0
LINE
  5
366
100
AcDbEntity
  8
0
100
AcDbLine
 62
7
  6
CONTINUOUS
 10
522.849614302
 20
609.8520720757
 11
522.7296977075
 21
610.4689894735
  0
LWPOLYLINE
  5
367
100
AcDbEntity
  8
0
100
AcDbPolyline
 62
7
  6
CONTINUOUS
 90
4
 70
0
 10
552.6451998436
 20
443.8678515566
 10
552.4931840063
 20
444.7448753372
 10
552.4628970575
 20
444.9538367146
 10
552.4537904127
 20
445.0715479034
  0
LINE
  5
368
100
AcDbEntity
  8
0
100
AcDbLine
 62
7
  6
CONTINUOUS
 10
552.8433371837
 20
442.1160644286
 11
552.843259923
 21
442.1166903788
  0
ARC
  5
369
100
AcDbEntity
  8
0
100
AcDbCircle
 62
7
  6
CONTINUOUS
 10
95.4303713613
 20
143.976185273
 40
82.9904698647
100
AcDbArc
 50
90.0006829806
 51
90.3562360576
  0
ARC
  5
36A
100
AcDbEntity
  8
0
100
AcDbCircle
 62
7
  6
CONTINUOUS
 10
95.4315411011
 20
144.9861942326
 40
81.9804609276
100
AcDbArc
 50
89.6415753738
 51
90.001508921
  0
ARC
  5
36B
100
AcDbEntity
  8
0
100
AcDbCircle
 62
7
  6
CONTINUOUS
 10
74.1959012713
 20
225.0996525181
 40
26.0382069717
100
AcDbArc
 50
7.6794812907
 51
8.2177325528
  0
ARC
  5
36C
100
AcDbEntity
  8
0
100
AcDbCircle
 62
7
  6
CONTINUOUS
 10
90.8793820933
 20
228.2214429503
 40
0.2
100
AcDbArc
 50
180.0
 51
233.5080011209
  0
ARC
  5
36D
100
AcDbEntity
  8
0
100
AcDbCircle
 62
7
  6
CONTINUOUS
 10
82.1569459044
 20
232.7966471672
 40
17.920970446
100
AcDbArc
 50
346.3884847749
 51
347.1840889192
  0
ARC
  5
36E
100
AcDbEntity
  8
0
100
AcDbCircle
 62
7
  6
CONTINUOUS
 10
74.1293820933
 20
232.3214302487
 40
2.2
100
AcDbArc
 50
180.0
 51
270.0
  0
ARC
  5
36F
100
AcDbEntity
  8
0
100
AcDbCircle
 62
7
  6
CONTINUOUS
 10
95.6340371246
 20
229.5858150991
 40
3.0562125657
100
AcDbArc
 50
281.6590954441
 51
284.1908795642
  0
ARC
  5
370
100
AcDbEntity
  8
0
100
AcDbCircle
 62
7
  6
CONTINUOUS
 10
99.9793820933
 20
228.2214429503
 40
0.2
100
AcDbArc
 50
306.4919988791
 51
360.0
  0
ARC
  5
371
100
AcDbEntity
  8
0
100
AcDbCircle
 62
7
  6
CONTINUOUS
 10
97.8332071419
 20
228.6083725012
 40
0.086942264
100
AcDbArc
 50
260.6875564032
 51
269.9706030982
  0
ARC
  5
372
100
AcDbEntity
  8
0
100
AcDbCircle
 62
7
  6
CONTINUOUS
 10
108.7018203953
 20
232.7966476664
 40
17.9209726172
100
AcDbArc
 50
192.8159111383
 51
193.6115152733
  0
ARC
  5
373
100
AcDbEntity
  8
0
100
AcDbCircle
 62
7
  6
CONTINUOUS
 10
95.4293820933
 20
234.3722114987
 40
7.85078125
100
AcDbArc
 50
289.3884977495
 51
306.4919975871
  0
ARC
  5
374
100
AcDbEntity
  8
0
100
AcDbCircle
 62
7
  6
CONTINUOUS
 10
95.4293820933
 20
234.3722114987
 40
7.85078125
100
AcDbArc
 50
233.5080024152
 51
250.6115025664
  0
ARC
  5
375
100
AcDbEntity
  8
0
100
AcDbCircle
 62
7
  6
CONTINUOUS
 10
95.4293820933
 20
234.3722114987
 40
7.8338714079
100
AcDbArc
 50
277.035724314
 51
288.9979901194
  0
ARC
  5
376
100
AcDbEntity
  8
0
100
AcDbCircle
 62
7
  6
CONTINUOUS
 10
95.4293820933
 20
234.3722114987
 40
7.8338714079
100
AcDbArc
 50
251.0020081208
 51
262.964275686
  0
ARC
  5
377
100
AcDbEntity
  8
0
100
AcDbCircle
 62
7
  6
CONTINUOUS
 10
95.4297717643
 20
234.3975634027
 40
7.8328943488
100
AcDbArc
 50
264.7963670847
 51
265.1543898117
  0
ARC
  5
378
100
AcDbEntity
  8
0
100
AcDbCircle
 62
7
  6
CONTINUOUS
 10
95.7236375096
 20
232.1201249858
 40
5.6138555709
100
AcDbArc
 50
254.0857724327
 51
258.5388606509
  0
ARC
  5
379
100
AcDbEntity
  8
0
100
AcDbCircle
 62
7
  6
CONTINUOUS
 10
95.1871339325
 20
231.776127406
 40
5.2616136644
100
AcDbArc
 50
279.8871743226
 51
281.6004333559
  0
ARC
  5
37A
100
AcDbEntity
  8
0
100
AcDbCircle
 62
7
  6
CONTINUOUS
 10
95.6468591409
 20
231.7503042141
 40
5.2361530932
100
AcDbArc
 50
258.597397625
 51
259.797169323
  0
ARC
  5
37B
100
AcDbEntity
  8
0
100
AcDbCircle
 62
7
  6
CONTINUOUS
 10
95.2120281248
 20
231.749646558
 40
5.2354840352
100
AcDbArc
 50
280.2027798984
 51
281.3934058788
  0
ARC
  5
37C
100
AcDbEntity
  8
0
100
AcDbCircle
 62
7
  6
CONTINUOUS
 10
96.1675839446
 20
230.5305405422
 40
3.9395392213
100
AcDbArc
 50
266.7520628427
 51
267.4200462086
  0
ARC
  5
37D
100
AcDbEntity
  8
0
100
AcDbCircle
 62
7
  6
CONTINUOUS
 10
94.6911802421
 20
230.5305405397
 40
3.9395392188
100
AcDbArc
 50
272.5799537911
 51
273.2479371576
  0
ARC
  5
37E
100
AcDbEntity
  8
0
100
AcDbCircle
 62
7
  6
CONTINUOUS
 10
96.1672514807
 20
230.5231870899
 40
3.9321782573
100
AcDbArc
 50
267.4200625648
 51
268.0888801676
  0
ARC
  5
37F
100
AcDbEntity
  8
0
100
AcDbCircle
 62
7
  6
CONTINUOUS
 10
94.691512706
 20
230.5231870875
 40
3.9321782549
100
AcDbArc
 50
271.9111198321
 51
272.5799374353
  0
ARC
  5
380
100
AcDbEntity
  8
0
100
AcDbCircle
 62
7
  6
CONTINUOUS
 10
94.6917315974
 20
230.5166609749
 40
3.9256484725
100
AcDbArc
 50
271.2415451737
 51
271.9111033492
  0
ARC
  5
381
100
AcDbEntity
  8
0
100
AcDbCircle
 62
7
  6
CONTINUOUS
 10
96.1670325892
 20
230.5166609733
 40
3.925648471
100
AcDbArc
 50
268.0888966506
 51
268.7584548264
  0
ARC
  5
382
100
AcDbEntity
  8
0
100
AcDbCircle
 62
7
  6
CONTINUOUS
 10
94.6918153925
 20
230.496702173
 40
3.9056872634
100
AcDbArc
 50
268.0850753044
 51
268.7569128362
  0
ARC
  5
383
100
AcDbEntity
  8
0
100
AcDbCircle
 62
7
  6
CONTINUOUS
 10
96.1669487941
 20
230.4967021738
 40
3.9056872642
100
AcDbArc
 50
271.2430871638
 51
271.9149246955
  0
ARC
  5
384
100
AcDbEntity
  8
0
100
AcDbCircle
 62
7
  6
CONTINUOUS
 10
94.6917511702
 20
230.4947468
 40
3.9037308364
100
AcDbArc
 50
267.4129955208
 51
268.0850583758
  0
ARC
  5
385
100
AcDbEntity
  8
0
100
AcDbCircle
 62
7
  6
CONTINUOUS
 10
96.1670130164
 20
230.4947468
 40
3.9037308363
100
AcDbArc
 50
271.9149416242
 51
272.5870044792
  0
ARC
  5
386
100
AcDbEntity
  8
0
100
AcDbCircle
 62
7
  6
CONTINUOUS
 10
94.6917016155
 20
230.4936244403
 40
3.9026073837
100
AcDbArc
 50
266.7407876123
 51
267.412978563
  0
ARC
  5
387
100
AcDbEntity
  8
0
100
AcDbCircle
 62
7
  6
CONTINUOUS
 10
96.1670625711
 20
230.4936244412
 40
3.9026073846
100
AcDbArc
 50
272.5870214371
 51
273.2592123877
  0
ARC
  5
388
100
AcDbEntity
  8
0
100
AcDbCircle
 62
7
  6
CONTINUOUS
 10
70.1993572477
 20
241.2368012841
 40
29.3867437104
100
AcDbArc
 50
334.4863679175
 51
335.0086123392
  0
ARC
  5
389
100
AcDbEntity
  8
0
100
AcDbCircle
 62
7
  6
CONTINUOUS
 10
92.3543820933
 20
252.1214302487
 40
21.625
100
AcDbArc
 50
162.5076754749
 51
197.4923245251
  0
ARC
  5
38A
100
AcDbEntity
  8
0
100
AcDbCircle
 62
7
  6
CONTINUOUS
 10
116.6628657498
 20
225.0996521248
 40
26.0382098334
100
AcDbArc
 50
171.7822674822
 51
172.3205186264
  0
ARC
  5
38B
100
AcDbEntity
  8
0
100
AcDbCircle
 62
7
  6
CONTINUOUS
 10
141.1959012738
 20
225.0996525186
 40
26.0382069692
100
AcDbArc
 50
7.6794812902
 51
8.2177325523
  0
ARC
  5
38C
100
AcDbEntity
  8
0
100
AcDbCircle
 62
7
  6
CONTINUOUS
 10
149.1569459099
 20
232.7966471672
 40
17.9209704406
100
AcDbArc
 50
346.3884847707
 51
347.1840889155
  0
ARC
  5
38D
100
AcDbEntity
  8
0
100
AcDbCircle
 62
7
  6
CONTINUOUS
 10
120.6594146663
 20
241.2368049386
 40
29.3867522583
100
AcDbArc
 50
204.9913877538
 51
205.5136320808
  0
ARC
  5
38E
100
AcDbEntity
  8
0
100
AcDbCircle
 62
7
  6
CONTINUOUS
 10
137.1993572524
 20
241.2368012841
 40
29.3867437062
100
AcDbArc
 50
334.4863679134
 51
335.0086123352
  0
ARC
  5
38F
100
AcDbEntity
  8
0
100
AcDbCircle
 62
7
  6
CONTINUOUS
 10
239.732296327
 20
123.2098713904
 40
127.7066490602
100
AcDbArc
 50
94.0683194896
 51
94.2094195326
  0
ARC
  5
390
100
AcDbEntity
  8
0
100
AcDbCircle
 62
7
  6
CONTINUOUS
 10
162.4303713613
 20
143.976185265
 40
82.9904698727
100
AcDbArc
 50
90.0006829806
 51
90.3562360576
  0
ARC
  5
391
100
AcDbEntity
  8
0
100
AcDbCircle
 62
7
  6
CONTINUOUS
 10
162.4315411011
 20
144.9861942327
 40
81.9804609275
100
AcDbArc
 50
89.6415753738
 51
90.001508921
  0
ARC
  5
392
100
AcDbEntity
  8
0
100
AcDbCircle
 62
7
  6
CONTINUOUS
 10
187.6594146657
 20
241.2368049386
 40
29.3867522578
100
AcDbArc
 50
204.9913877542
 51
205.5136320813
  0
ARC
  5
393
100
AcDbEntity
  8
0
100
AcDbCircle
 62
7
  6
CONTINUOUS
 10
183.6628657463
 20
225.0996521249
 40
26.03820983
100
AcDbArc
 50
171.7822674814
 51
172.3205186257
  0
ARC
  5
394
100
AcDbEntity
  8
0
100
AcDbCircle
 62
7
  6
CONTINUOUS
 10
175.7018203913
 20
232.796647666
 40
17.9209726132
100
AcDbArc
 50
192.8159111398
 51
193.6115152752
  0
ARC
  5
395
100
AcDbEntity
  8
0
100
AcDbCircle
 62
7
  6
CONTINUOUS
 10
162.4293820933
 20
234.3722114987
 40
7.85078125
100
AcDbArc
 50
289.3884977495
 51
306.4919975871
  0
ARC
  5
396
100
AcDbEntity
  8
0
100
AcDbCircle
 62
7
  6
CONTINUOUS
 10
162.4293820933
 20
234.3722114987
 40
7.85078125
100
AcDbArc
 50
233.5080024152
 51
250.6115025664
  0
ARC
  5
397
100
AcDbEntity
  8
0
100
AcDbCircle
 62
7
  6
CONTINUOUS
 10
162.4293820933
 20
234.3722114987
 40
7.8338714079
100
AcDbArc
 50
277.035724314
 51
288.9979901194
  0
ARC
  5
398
100
AcDbEntity
  8
0
100
AcDbCircle
 62
7
  6
CONTINUOUS
 10
162.4293820933
 20
234.3722114987
 40
7.8338714079
100
AcDbArc
 50
251.0020081208
 51
262.964275686
  0
ARC
  5
399
100
AcDbEntity
  8
0
100
AcDbCircle
 62
7
  6
CONTINUOUS
 10
162.4297717639
 20
234.3975633979
 40
7.8328943439
100
AcDbArc
 50
264.7963670846
 51
265.1543898118
  0
ARC
  5
39A
100
AcDbEntity
  8
0
100
AcDbCircle
 62
7
  6
CONTINUOUS
 10
162.7236375096
 20
232.1201249857
 40
5.6138555709
100
AcDbArc
 50
254.0857724326
 51
258.5388606509
  0
ARC
  5
39B
100
AcDbEntity
  8
0
100
AcDbCircle
 62
7
  6
CONTINUOUS
 10
162.1871339325
 20
231.776127406
 40
5.2616136644
100
AcDbArc
 50
279.8871743226
 51
281.6004333559
  0
ARC
  5
39C
100
AcDbEntity
  8
0
100
AcDbCircle
 62
7
  6
CONTINUOUS
 10
162.6468591409
 20
231.7503042139
 40
5.236153093
100
AcDbArc
 50
258.5973976249
 51
259.797169323
  0
ARC
  5
39D
100
AcDbEntity
  8
0
100
AcDbCircle
 62
7
  6
CONTINUOUS
 10
162.2120281248
 20
231.7496465576
 40
5.2354840348
100
AcDbArc
 50
280.2027798984
 51
281.3934058789
  0
ARC
  5
39E
100
AcDbEntity
  8
0
100
AcDbCircle
 62
7
  6
CONTINUOUS
 10
161.691180242
 20
230.5305405406
 40
3.9395392197
100
AcDbArc
 50
272.5799537912
 51
273.2479371575
  0
ARC
  5
39F
100
AcDbEntity
  8
0
100
AcDbCircle
 62
7
  6
CONTINUOUS
 10
163.1675839445
 20
230.5305405404
 40
3.9395392195
100
AcDbArc
 50
266.7520628425
 51
267.4200462088
  0
ARC
  5
3A0
100
AcDbEntity
  8
0
100
AcDbCircle
 62
7
  6
CONTINUOUS
 10
161.6915127059
 20
230.5231870899
 40
3.9321782573
100
AcDbArc
 50
271.9111198323
 51
272.5799374351
  0
ARC
  5
3A1
100
AcDbEntity
  8
0
100
AcDbCircle
 62
7
  6
CONTINUOUS
 10
163.1672514807
 20
230.5231870899
 40
3.9321782573
100
AcDbArc
 50
267.4200625648
 51
268.0888801676
  0
ARC
  5
3A2
100
AcDbEntity
  8
0
100
AcDbCircle
 62
7
  6
CONTINUOUS
 10
161.6917315973
 20
230.516660975
 40
3.9256484726
100
AcDbArc
 50
271.2415451737
 51
271.9111033492
  0
ARC
  5
3A3
100
AcDbEntity
  8
0
100
AcDbCircle
 62
7
  6
CONTINUOUS
 10
163.1670325892
 20
230.5166609734
 40
3.925648471
100
AcDbArc
 50
268.0888966506
 51
268.7584548264
  0
ARC
  5
3A4
100
AcDbEntity
  8
0
100
AcDbCircle
 62
7
  6
CONTINUOUS
 10
161.6918153925
 20
230.496702173
 40
3.9056872634
100
AcDbArc
 50
268.0850753044
 51
268.7569128362
  0
ARC
  5
3A5
100
AcDbEntity
  8
0
100
AcDbCircle
 62
7
  6
CONTINUOUS
 10
163.1669487941
 20
230.4967021738
 40
3.9056872642
100
AcDbArc
 50
271.2430871638
 51
271.9149246955
  0
ARC
  5
3A6
100
AcDbEntity
  8
0
100
AcDbCircle
 62
7
  6
CONTINUOUS
 10
161.6917511702
 20
230.4947468001
 40
3.9037308364
100
AcDbArc
 50
267.4129955208
 51
268.0850583757
  0
ARC
  5
3A7
100
AcDbEntity
  8
0
100
AcDbCircle
 62
7
  6
CONTINUOUS
 10
163.1670130164
 20
230.4947467992
 40
3.9037308355
100
AcDbArc
 50
271.9149416242
 51
272.5870044793
  0
ARC
  5
3A8
100
AcDbEntity
  8
0
100
AcDbCircle
 62
7
  6
CONTINUOUS
 10
161.6917016155
 20
230.4936244404
 40
3.9026073838
100
AcDbArc
 50
266.7407876123
 51
267.412978563
  0
ARC
  5
3A9
100
AcDbEntity
  8
0
100
AcDbCircle
 62
7
  6
CONTINUOUS
 10
163.1670625711
 20
230.49362444
 40
3.9026073835
100
AcDbArc
 50
272.587021437
 51
273.2592123877
  0
ARC
  5
3AA
100
AcDbEntity
  8
0
100
AcDbCircle
 62
7
  6
CONTINUOUS
 10
162.6340371246
 20
229.5858150991
 40
3.0562125657
100
AcDbArc
 50
281.6590954441
 51
284.1908795641
  0
ARC
  5
3AB
100
AcDbEntity
  8
0
100
AcDbCircle
 62
7
  6
CONTINUOUS
 10
166.9793820933
 20
228.2214429503
 40
0.2
100
AcDbArc
 50
306.4919988791
 51
360.0
  0
ARC
  5
3AC
100
AcDbEntity
  8
0
100
AcDbCircle
 62
7
  6
CONTINUOUS
 10
157.8793820933
 20
228.2214429503
 40
0.2
100
AcDbArc
 50
180.0
 51
233.5080011209
  0
ARC
  5
3AD
100
AcDbEntity
  8
0
100
AcDbCircle
 62
7
  6
CONTINUOUS
 10
164.8332071419
 20
228.6083725012
 40
0.086942264
100
AcDbArc
 50
260.6875564028
 51
269.9706030989
  0
ARC
  5
3AE
100
AcDbEntity
  8
0
100
AcDbCircle
 62
7
  6
CONTINUOUS
 10
213.9293820933
 20
250.5464302487
 40
21.625
100
AcDbArc
 50
252.5076754749
 51
287.4923245251
  0
ARC
  5
3AF
100
AcDbEntity
  8
0
100
AcDbCircle
 62
7
  6
CONTINUOUS
 10
226.7293820933
 20
232.3214302487
 40
2.2
100
AcDbArc
 50
270.0
 51
360.0
  0
ARC
  5
3B0
100
AcDbEntity
  8
0
100
AcDbCircle
 62
7
  6
CONTINUOUS
 10
230.1293820933
 20
248.6657138438
 40
1.2
100
AcDbArc
 50
79.0
 51
180.0
  0
ARC
  5
3B1
100
AcDbEntity
  8
0
100
AcDbCircle
 62
7
  6
CONTINUOUS
 10
229.9793820933
 20
303.3714302487
 40
0.25
100
AcDbArc
 50
90.0
 51
180.0
  0
ARC
  5
3B2
100
AcDbEntity
  8
0
100
AcDbCircle
 62
7
  6
CONTINUOUS
 10
229.9793820933
 20
294.8714302487
 40
0.25
100
AcDbArc
 50
180.0
 51
270.0
  0
ARC
  5
3B3
100
AcDbEntity
  8
0
100
AcDbCircle
 62
7
  6
CONTINUOUS
 10
230.4793820933
 20
303.3714302487
 40
0.25
100
AcDbArc
 50
0.0
 51
90.0
  0
ARC
  5
3B4
100
AcDbEntity
  8
0
100
AcDbCircle
 62
7
  6
CONTINUOUS
 10
230.4793820933
 20
294.8714302487
 40
0.25
100
AcDbArc
 50
270.0
 51
360.0
  0
ARC
  5
3B5
100
AcDbEntity
  8
0
100
AcDbCircle
 62
7
  6
CONTINUOUS
 10
-38.4373459278
 20
425.5853739114
 40
591.2753873439
100
AcDbArc
 50
358.5451805088
 51
358.6757795803
  0
ARC
  5
3B6
100
AcDbEntity
  8
0
100
AcDbCircle
 62
7
  6
CONTINUOUS
 10
-38.1195836232
 20
425.0648776685
 40
590.9575398199
100
AcDbArc
 50
1.324378083
 51
1.4548851459
  0
ARC
  5
3B7
100
AcDbEntity
  8
0
100
AcDbCircle
 62
7
  6
CONTINUOUS
 10
70.1993482655
 20
619.0060549719
 40
29.3867536435
100
AcDbArc
 50
24.9913877572
 51
25.5136320594
  0
ARC
  5
3B8
100
AcDbEntity
  8
0
100
AcDbCircle
 62
7
  6
CONTINUOUS
 10
74.1958984407
 20
635.1432083706
 40
26.0382098292
100
AcDbArc
 50
351.7822674854
 51
352.3205186294
  0
ARC
  5
3B9
100
AcDbEntity
  8
0
100
AcDbCircle
 62
7
  6
CONTINUOUS
 10
82.1569437794
 20
627.44621283
 40
17.920972629
100
AcDbArc
 50
12.815911133
 51
13.6115152672
  0
ARC
  5
3BA
100
AcDbEntity
  8
0
100
AcDbCircle
 62
7
  6
CONTINUOUS
 10
74.1293820933
 20
627.9214302487
 40
2.2
100
AcDbArc
 50
90.0
 51
180.0
  0
ARC
  5
3BB
100
AcDbEntity
  8
0
100
AcDbCircle
 62
7
  6
CONTINUOUS
 10
92.3543820933
 20
608.1214302487
 40
21.625
100
AcDbArc
 50
162.5076754749
 51
197.4923245251
  0
ARC
  5
3BC
100
AcDbEntity
  8
0
100
AcDbCircle
 62
7
  6
CONTINUOUS
 10
95.4293820933
 20
625.8706489987
 40
7.85078125
100
AcDbArc
 50
53.5080024129
 51
70.6115022505
  0
ARC
  5
3BD
100
AcDbEntity
  8
0
100
AcDbCircle
 62
7
  6
CONTINUOUS
 10
95.4293820933
 20
625.8706489987
 40
7.85078125
100
AcDbArc
 50
109.3884974336
 51
126.4919975848
  0
ARC
  5
3BE
100
AcDbEntity
  8
0
100
AcDbCircle
 62
7
  6
CONTINUOUS
 10
95.4293820933
 20
625.8706489987
 40
7.8338714079
100
AcDbArc
 50
97.035724314
 51
108.9979892965
  0
ARC
  5
3BF
100
AcDbEntity
  8
0
100
AcDbCircle
 62
7
  6
CONTINUOUS
 10
95.4293820933
 20
625.8706489987
 40
7.8338714079
100
AcDbArc
 50
71.0020095898
 51
82.964275686
  0
ARC
  5
3C0
100
AcDbEntity
  8
0
100
AcDbCircle
 62
7
  6
CONTINUOUS
 10
95.4289923371
 20
625.8452961176
 40
7.8328953295
100
AcDbArc
 50
84.7963671125
 51
85.1543539026
  0
ARC
  5
3C1
100
AcDbEntity
  8
0
100
AcDbCircle
 62
7
  6
CONTINUOUS
 10
95.4297717685
 20
625.8452970467
 40
7.8328943969
100
AcDbArc
 50
94.845263152
 51
95.2036329138
  0
ARC
  5
3C2
100
AcDbEntity
  8
0
100
AcDbCircle
 62
7
  6
CONTINUOUS
 10
95.1351180187
 20
628.1227007879
 40
5.6138913379
100
AcDbArc
 50
74.0857846257
 51
78.5384622196
  0
ARC
  5
3C3
100
AcDbEntity
  8
0
100
AcDbCircle
 62
7
  6
CONTINUOUS
 10
95.211905046
 20
628.4925562849
 40
5.2361530915
100
AcDbArc
 50
78.5973976248
 51
79.7971693232
  0
ARC
  5
3C4
100
AcDbEntity
  8
0
100
AcDbCircle
 62
7
  6
CONTINUOUS
 10
95.6467360618
 20
628.4932139396
 40
5.235484035
100
AcDbArc
 50
100.2027798985
 51
101.3934058789
  0
ARC
  5
3C5
100
AcDbEntity
  8
0
100
AcDbCircle
 62
7
  6
CONTINUOUS
 10
95.6637177915
 20
628.508394149
 40
5.2192127673
100
AcDbArc
 50
99.8801332997
 51
101.5928810818
  0
ARC
  5
3C6
100
AcDbEntity
  8
0
100
AcDbCircle
 62
7
  6
CONTINUOUS
 10
94.6911802422
 20
629.7123199609
 40
3.9395392156
100
AcDbArc
 50
86.7520628422
 51
87.4200462092
  0
ARC
  5
3C7
100
AcDbEntity
  8
0
100
AcDbCircle
 62
7
  6
CONTINUOUS
 10
94.6915127058
 20
629.7196734065
 40
3.9321782583
100
AcDbArc
 50
87.4200625648
 51
88.0888801675
  0
ARC
  5
3C8
100
AcDbEntity
  8
0
100
AcDbCircle
 62
7
  6
CONTINUOUS
 10
94.6917315972
 20
629.7261995159
 40
3.9256484791
100
AcDbArc
 50
88.0888966515
 51
88.7584548259
  0
ARC
  5
3C9
100
AcDbEntity
  8
0
100
AcDbCircle
 62
7
  6
CONTINUOUS
 10
94.6918153923
 20
629.7461583283
 40
3.9056872594
100
AcDbArc
 50
91.2430871633
 51
91.9149246957
  0
ARC
  5
3CA
100
AcDbEntity
  8
0
100
AcDbCircle
 62
7
  6
CONTINUOUS
 10
94.6917511701
 20
629.7481136991
 40
3.9037308346
100
AcDbArc
 50
91.9149416242
 51
92.5870044794
  0
ARC
  5
3CB
100
AcDbEntity
  8
0
100
AcDbCircle
 62
7
  6
CONTINUOUS
 10
94.6917016153
 20
629.7492360608
 40
3.90260738
100
AcDbArc
 50
92.5870214365
 51
93.259212388
  0
ARC
  5
3CC
100
AcDbEntity
  8
0
100
AcDbCircle
 62
7
  6
CONTINUOUS
 10
95.224727062
 20
630.6570453983
 40
3.0562125658
100
AcDbArc
 50
101.6590954441
 51
104.1908795641
  0
ARC
  5
3CD
100
AcDbEntity
  8
0
100
AcDbCircle
 62
7
  6
CONTINUOUS
 10
90.8793820933
 20
632.021417547
 40
0.2
100
AcDbArc
 50
126.4919988791
 51
180.0
  0
ARC
  5
3CE
100
AcDbEntity
  8
0
100
AcDbCircle
 62
7
  6
CONTINUOUS
 10
93.025557046
 20
631.6344880051
 40
0.0869422551
100
AcDbArc
 50
80.68755632
 51
89.9706030472
  0
ARC
  5
3CF
100
AcDbEntity
  8
0
100
AcDbCircle
 62
7
  6
CONTINUOUS
 10
95.4302842959
 20
715.6112563956
 40
82.3350510349
100
AcDbArc
 50
269.9993721702
 51
270.3577555984
  0
ARC
  5
3D0
100
AcDbEntity
  8
0
100
AcDbCircle
 62
7
  6
CONTINUOUS
 10
95.425500665
 20
714.69680065
 40
81.4205953769
100
AcDbArc
 50
269.6403228299
 51
270.0027313662
  0
ARC
  5
3D1
100
AcDbEntity
  8
0
100
AcDbCircle
 62
7
  6
CONTINUOUS
 10
229.9793820933
 20
565.3714302487
 40
0.25
100
AcDbArc
 50
90.0
 51
180.0
  0
ARC
  5
3D2
100
AcDbEntity
  8
0
100
AcDbCircle
 62
7
  6
CONTINUOUS
 10
229.9793820933
 20
556.8714302487
 40
0.25
100
AcDbArc
 50
180.0
 51
270.0
  0
ARC
  5
3D3
100
AcDbEntity
  8
0
100
AcDbCircle
 62
7
  6
CONTINUOUS
 10
230.4793820933
 20
565.3714302487
 40
0.25
100
AcDbArc
 50
0.0
 51
90.0
  0
ARC
  5
3D4
100
AcDbEntity
  8
0
100
AcDbCircle
 62
7
  6
CONTINUOUS
 10
230.4793820933
 20
556.8714302487
 40
0.25
100
AcDbArc
 50
270.0
 51
360.0
  0
ARC
  5
3D5
100
AcDbEntity
  8
0
100
AcDbCircle
 62
7
  6
CONTINUOUS
 10
120.6594069492
 20
619.0060592124
 40
29.3867437201
100
AcDbArc
 50
154.4863679249
 51
155.0086123462
  0
ARC
  5
3D6
100
AcDbEntity
  8
0
100
AcDbCircle
 62
7
  6
CONTINUOUS
 10
116.662862488
 20
635.143207918
 40
26.0382065401
100
AcDbArc
 50
187.6794812827
 51
188.2177325535
  0
ARC
  5
3D7
100
AcDbEntity
  8
0
100
AcDbCircle
 62
7
  6
CONTINUOUS
 10
108.7018182924
 20
627.4462133294
 40
17.9209704561
100
AcDbArc
 50
166.3884847807
 51
167.1840889242
  0
ARC
  5
3D8
100
AcDbEntity
  8
0
100
AcDbCircle
 62
7
  6
CONTINUOUS
 10
96.1675839444
 20
629.7123199608
 40
3.9395392157
100
AcDbArc
 50
92.5799537908
 51
93.2479371578
  0
ARC
  5
3D9
100
AcDbEntity
  8
0
100
AcDbCircle
 62
7
  6
CONTINUOUS
 10
96.1672514807
 20
629.7196734066
 40
3.9321782582
100
AcDbArc
 50
91.9111198325
 51
92.5799374352
  0
ARC
  5
3DA
100
AcDbEntity
  8
0
100
AcDbCircle
 62
7
  6
CONTINUOUS
 10
96.1670325892
 20
629.7261995228
 40
3.9256484722
100
AcDbArc
 50
91.2415451736
 51
91.9111033491
  0
ARC
  5
3DB
100
AcDbEntity
  8
0
100
AcDbCircle
 62
7
  6
CONTINUOUS
 10
96.1669487942
 20
629.7461583283
 40
3.9056872594
100
AcDbArc
 50
88.0850753043
 51
88.7569128367
  0
ARC
  5
3DC
100
AcDbEntity
  8
0
100
AcDbCircle
 62
7
  6
CONTINUOUS
 10
96.1670130164
 20
629.748113699
 40
3.9037308347
100
AcDbArc
 50
87.4129955206
 51
88.0850583758
  0
ARC
  5
3DD
100
AcDbEntity
  8
0
100
AcDbCircle
 62
7
  6
CONTINUOUS
 10
96.1670625713
 20
629.749236061
 40
3.9026073799
100
AcDbArc
 50
86.740787612
 51
87.4129785635
  0
ARC
  5
3DE
100
AcDbEntity
  8
0
100
AcDbCircle
 62
7
  6
CONTINUOUS
 10
99.9793820933
 20
632.021417547
 40
0.2
100
AcDbArc
 50
0.0
 51
53.5080011209
  0
ARC
  5
3DF
100
AcDbEntity
  8
0
100
AcDbCircle
 62
7
  6
CONTINUOUS
 10
137.1993482655
 20
619.0060549719
 40
29.3867536435
100
AcDbArc
 50
24.9913877572
 51
25.5136320594
  0
ARC
  5
3E0
100
AcDbEntity
  8
0
100
AcDbCircle
 62
7
  6
CONTINUOUS
 10
162.4293820933
 20
625.8706489987
 40
7.85078125
100
AcDbArc
 50
53.5080024129
 51
70.6115022505
  0
ARC
  5
3E1
100
AcDbEntity
  8
0
100
AcDbCircle
 62
7
  6
CONTINUOUS
 10
162.4293820933
 20
625.8706489987
 40
7.85078125
100
AcDbArc
 50
109.3884974336
 51
126.4919975848
  0
ARC
  5
3E2
100
AcDbEntity
  8
0
100
AcDbCircle
 62
7
  6
CONTINUOUS
 10
162.4293820933
 20
625.8706489987
 40
7.8338714079
100
AcDbArc
 50
97.035724314
 51
108.9979892965
  0
ARC
  5
3E3
100
AcDbEntity
  8
0
100
AcDbCircle
 62
7
  6
CONTINUOUS
 10
162.4293820933
 20
625.8706489987
 40
7.8338714079
100
AcDbArc
 50
71.0020095898
 51
82.964275686
  0
ARC
  5
3E4
100
AcDbEntity
  8
0
100
AcDbCircle
 62
7
  6
CONTINUOUS
 10
162.428992338
 20
625.8452961284
 40
7.8328953187
100
AcDbArc
 50
84.7963671121
 51
85.1543539027
  0
ARC
  5
3E5
100
AcDbEntity
  8
0
100
AcDbCircle
 62
7
  6
CONTINUOUS
 10
162.4297717696
 20
625.8452970339
 40
7.8328944097
100
AcDbArc
 50
94.8452631522
 51
95.2036329134
  0
ARC
  5
3E6
100
AcDbEntity
  8
0
100
AcDbCircle
 62
7
  6
CONTINUOUS
 10
141.19589844
 20
635.1432083707
 40
26.0382098299
100
AcDbArc
 50
351.7822674854
 51
352.3205186294
  0
ARC
  5
3E7
100
AcDbEntity
  8
0
100
AcDbCircle
 62
7
  6
CONTINUOUS
 10
149.1569437805
 20
627.4462128303
 40
17.9209726278
100
AcDbArc
 50
12.815911133
 51
13.6115152673
  0
ARC
  5
3E8
100
AcDbEntity
  8
0
100
AcDbCircle
 62
7
  6
CONTINUOUS
 10
162.1351180186
 20
628.1227007877
 40
5.613891338
100
AcDbArc
 50
74.0857846258
 51
78.5384622196
  0
ARC
  5
3E9
100
AcDbEntity
  8
0
100
AcDbCircle
 62
7
  6
CONTINUOUS
 10
162.2119050458
 20
628.4925562838
 40
5.2361530926
100
AcDbArc
 50
78.597397625
 51
79.7971693231
  0
ARC
  5
3EA
100
AcDbEntity
  8
0
100
AcDbCircle
 62
7
  6
CONTINUOUS
 10
162.6467360618
 20
628.4932139397
 40
5.2354840349
100
AcDbArc
 50
100.2027798984
 51
101.3934058789
  0
ARC
  5
3EB
100
AcDbEntity
  8
0
100
AcDbCircle
 62
7
  6
CONTINUOUS
 10
162.6637177915
 20
628.508394149
 40
5.2192127674
100
AcDbArc
 50
99.8801332997
 51
101.5928810818
  0
ARC
  5
3EC
100
AcDbEntity
  8
0
100
AcDbCircle
 62
7
  6
CONTINUOUS
 10
161.6911802422
 20
629.7123199608
 40
3.9395392157
100
AcDbArc
 50
86.7520628422
 51
87.4200462092
  0
ARC
  5
3ED
100
AcDbEntity
  8
0
100
AcDbCircle
 62
7
  6
CONTINUOUS
 10
161.6915127058
 20
629.7196734065
 40
3.9321782583
100
AcDbArc
 50
87.4200625648
 51
88.0888801675
  0
ARC
  5
3EE
100
AcDbEntity
  8
0
100
AcDbCircle
 62
7
  6
CONTINUOUS
 10
161.6917315974
 20
629.7261995228
 40
3.9256484722
100
AcDbArc
 50
88.0888966509
 51
88.7584548264
  0
ARC
  5
3EF
100
AcDbEntity
  8
0
100
AcDbCircle
 62
7
  6
CONTINUOUS
 10
161.6918153923
 20
629.7461583284
 40
3.9056872593
100
AcDbArc
 50
91.2430871633
 51
91.9149246957
  0
ARC
  5
3F0
100
AcDbEntity
  8
0
100
AcDbCircle
 62
7
  6
CONTINUOUS
 10
161.6917511701
 20
629.748113699
 40
3.9037308347
100
AcDbArc
 50
91.9149416242
 51
92.5870044794
  0
ARC
  5
3F1
100
AcDbEntity
  8
0
100
AcDbCircle
 62
7
  6
CONTINUOUS
 10
161.6917016153
 20
629.7492360608
 40
3.90260738
100
AcDbArc
 50
92.5870214365
 51
93.259212388
  0
ARC
  5
3F2
100
AcDbEntity
  8
0
100
AcDbCircle
 62
7
  6
CONTINUOUS
 10
162.224727062
 20
630.6570453983
 40
3.0562125657
100
AcDbArc
 50
101.6590954441
 51
104.1908795641
  0
ARC
  5
3F3
100
AcDbEntity
  8
0
100
AcDbCircle
 62
7
  6
CONTINUOUS
 10
157.8793820933
 20
632.021417547
 40
0.2
100
AcDbArc
 50
126.4919988791
 51
180.0
  0
ARC
  5
3F4
100
AcDbEntity
  8
0
100
AcDbCircle
 62
7
  6
CONTINUOUS
 10
160.025557046
 20
631.634488005
 40
0.0869422551
100
AcDbArc
 50
80.6875563215
 51
89.9706030468
  0
ARC
  5
3F5
100
AcDbEntity
  8
0
100
AcDbCircle
 62
7
  6
CONTINUOUS
 10
162.430284296
 20
715.6112563642
 40
82.3350510036
100
AcDbArc
 50
269.9993721701
 51
270.3577555985
  0
ARC
  5
3F6
100
AcDbEntity
  8
0
100
AcDbCircle
 62
7
  6
CONTINUOUS
 10
162.425500665
 20
714.6968006499
 40
81.4205953768
100
AcDbArc
 50
269.6403228299
 51
270.0027313662
  0
ARC
  5
3F7
100
AcDbEntity
  8
0
100
AcDbCircle
 62
7
  6
CONTINUOUS
 10
187.6594069515
 20
619.0060592114
 40
29.3867437227
100
AcDbArc
 50
154.4863679249
 51
155.0086123461
  0
ARC
  5
3F8
100
AcDbEntity
  8
0
100
AcDbCircle
 62
7
  6
CONTINUOUS
 10
183.6628624932
 20
635.1432079187
 40
26.0382065453
100
AcDbArc
 50
187.6794812828
 51
188.2177325535
  0
ARC
  5
3F9
100
AcDbEntity
  8
0
100
AcDbCircle
 62
7
  6
CONTINUOUS
 10
175.7018182924
 20
627.4462133294
 40
17.9209704561
100
AcDbArc
 50
166.3884847807
 51
167.1840889242
  0
ARC
  5
3FA
100
AcDbEntity
  8
0
100
AcDbCircle
 62
7
  6
CONTINUOUS
 10
163.1675839444
 20
629.7123199607
 40
3.9395392158
100
AcDbArc
 50
92.5799537908
 51
93.2479371578
  0
ARC
  5
3FB
100
AcDbEntity
  8
0
100
AcDbCircle
 62
7
  6
CONTINUOUS
 10
163.1672514807
 20
629.7196734066
 40
3.9321782582
100
AcDbArc
 50
91.9111198325
 51
92.5799374352
  0
ARC
  5
3FC
100
AcDbEntity
  8
0
100
AcDbCircle
 62
7
  6
CONTINUOUS
 10
163.1670325892
 20
629.7261995229
 40
3.9256484721
100
AcDbArc
 50
91.2415451736
 51
91.9111033491
  0
ARC
  5
3FD
100
AcDbEntity
  8
0
100
AcDbCircle
 62
7
  6
CONTINUOUS
 10
163.1669487942
 20
629.7461583283
 40
3.9056872594
100
AcDbArc
 50
88.0850753043
 51
88.7569128367
  0
ARC
  5
3FE
100
AcDbEntity
  8
0
100
AcDbCircle
 62
7
  6
CONTINUOUS
 10
163.1670130164
 20
629.7481136991
 40
3.9037308346
100
AcDbArc
 50
87.4129955206
 51
88.0850583758
  0
ARC
  5
3FF
100
AcDbEntity
  8
0
100
AcDbCircle
 62
7
  6
CONTINUOUS
 10
163.1670625713
 20
629.7492360607
 40
3.9026073801
100
AcDbArc
 50
86.740787612
 51
87.4129785634
  0
ARC
  5
400
100
AcDbEntity
  8
0
100
AcDbCircle
 62
7
  6
CONTINUOUS
 10
226.7293820933
 20
627.9214302487
 40
2.2
100
AcDbArc
 50
0.0
 51
90.0
  0
ARC
  5
401
100
AcDbEntity
  8
0
100
AcDbCircle
 62
7
  6
CONTINUOUS
 10
230.1293820933
 20
611.5771466536
 40
1.2
100
AcDbArc
 50
180.0
 51
281.0000000026
  0
ARC
  5
402
100
AcDbEntity
  8
0
100
AcDbCircle
 62
7
  6
CONTINUOUS
 10
166.9793820933
 20
632.021417547
 40
0.2
100
AcDbArc
 50
0.0
 51
53.5080011209
  0
ARC
  5
403
100
AcDbEntity
  8
0
100
AcDbCircle
 62
7
  6
CONTINUOUS
 10
505.9434842145
 20
250.5464302487
 40
21.625
100
AcDbArc
 50
252.5076754749
 51
287.4923245251
  0
ARC
  5
404
100
AcDbEntity
  8
0
100
AcDbCircle
 62
7
  6
CONTINUOUS
 10
533.1439599655
 20
410.0627366791
 40
19.7752864152
100
AcDbArc
 50
351.0655866689
 51
351.4078702381
  0
ARC
  5
405
100
AcDbEntity
  8
0
100
AcDbCircle
 62
7
  6
CONTINUOUS
 10
531.2230676644
 20
244.0834055011
 40
11.423352218
100
AcDbArc
 50
145.0865391135
 51
145.4903800883
  0
ARC
  5
406
100
AcDbEntity
  8
0
100
AcDbCircle
 62
7
  6
CONTINUOUS
 10
542.6091397627
 20
407.8843533709
 40
10.2815561282
100
AcDbArc
 50
343.3682511832
 51
343.5889095186
  0
ARC
  5
407
100
AcDbEntity
  8
0
100
AcDbCircle
 62
7
  6
CONTINUOUS
 10
542.7829445234
 20
407.8343729602
 40
10.1007115383
100
AcDbArc
 50
343.5823272748
 51
345.3265540063
  0
ARC
  5
408
100
AcDbEntity
  8
0
100
AcDbCircle
 62
7
  6
CONTINUOUS
 10
542.9830953615
 20
407.7817834493
 40
9.8937671408
100
AcDbArc
 50
345.3275627124
 51
346.2972446015
  0
ARC
  5
409
100
AcDbEntity
  8
0
100
AcDbCircle
 62
7
  6
CONTINUOUS
 10
543.0961521467
 20
407.7541630784
 40
9.7773853606
100
AcDbArc
 50
346.297553957
 51
346.8465755978
  0
ARC
  5
40A
100
AcDbEntity
  8
0
100
AcDbCircle
 62
7
  6
CONTINUOUS
 10
543.1692719344
 20
407.7370391199
 40
9.7022872113
100
AcDbArc
 50
346.8467858575
 51
347.2723945824
  0
ARC
  5
40B
100
AcDbEntity
  8
0
100
AcDbCircle
 62
7
  6
CONTINUOUS
 10
543.297016048
 20
407.7085521567
 40
9.5714058285
100
AcDbArc
 50
347.2702569238
 51
348.2830865512
  0
ARC
  5
40C
100
AcDbEntity
  8
0
100
AcDbCircle
 62
7
  6
CONTINUOUS
 10
543.8572253507
 20
407.6024208013
 40
9.0013222758
100
AcDbArc
 50
348.2204181534
 51
353.6931172892
  0
ARC
  5
40D
100
AcDbEntity
  8
0
100
AcDbCircle
 62
7
  6
CONTINUOUS
 10
544.5709721008
 20
407.5245727968
 40
8.2833434598
100
AcDbArc
 50
353.6859867133
 51
357.04027181
  0
ARC
  5
40E
100
AcDbEntity
  8
0
100
AcDbCircle
 62
7
  6
CONTINUOUS
 10
545.4129474926
 20
407.3214302487
 40
7.4408333333
100
AcDbArc
 50
293.9615779875
 51
340.8667596539
  0
ARC
  5
40F
100
AcDbEntity
  8
0
100
AcDbCircle
 62
7
  6
CONTINUOUS
 10
546.287672315
 20
408.8627133523
 40
6.564209017
100
AcDbArc
 50
356.7429793646
 51
356.9380018621
  0
ARC
  5
410
100
AcDbEntity
  8
0
100
AcDbCircle
 62
7
  6
CONTINUOUS
 10
530.7461815274
 20
239.471777194
 40
6.5513636208
100
AcDbArc
 50
243.4864682901
 51
244.6418076526
  0
ARC
  5
411
100
AcDbEntity
  8
0
100
AcDbCircle
 62
7
  6
CONTINUOUS
 10
526.2113002163
 20
247.2739961727
 40
5.4795991869
100
AcDbArc
 50
150.8394828567
 51
151.9411527161
  0
ARC
  5
412
100
AcDbEntity
  8
0
100
AcDbCircle
 62
7
  6
CONTINUOUS
 10
517.9434842145
 20
233.1214302487
 40
3.0
100
AcDbArc
 50
270.0000000001
 51
360.0
  0
ARC
  5
413
100
AcDbEntity
  8
0
100
AcDbCircle
 62
7
  6
CONTINUOUS
 10
544.7537808259
 20
234.5214302487
 40
2.4
100
AcDbArc
 50
270.0
 51
360.0
  0
ARC
  5
414
100
AcDbEntity
  8
0
100
AcDbCircle
 62
7
  6
CONTINUOUS
 10
522.4434842145
 20
248.3014302487
 40
1.5
100
AcDbArc
 50
79.0
 51
180.0
  0
ARC
  5
415
100
AcDbEntity
  8
0
100
AcDbCircle
 62
7
  6
CONTINUOUS
 10
517.9434842145
 20
233.1214302487
 40
1.5
100
AcDbArc
 50
270.0000000002
 51
360.0
  0
ARC
  5
416
100
AcDbEntity
  8
0
100
AcDbCircle
 62
7
  6
CONTINUOUS
 10
528.4537808259
 20
233.4214302487
 40
1.3
100
AcDbArc
 50
157.182926172
 51
270.0
  0
ARC
  5
417
100
AcDbEntity
  8
0
100
AcDbCircle
 62
7
  6
CONTINUOUS
 10
553.6142493259
 20
405.4803858967
 40
1.1722126047
100
AcDbArc
 50
175.4080633236
 51
176.6269464103
  0
ARC
  5
418
100
AcDbEntity
  8
0
100
AcDbCircle
 62
7
  6
CONTINUOUS
 10
521.9934842145
 20
303.3714302487
 40
0.25
100
AcDbArc
 50
90.0
 51
180.0
  0
ARC
  5
419
100
AcDbEntity
  8
0
100
AcDbCircle
 62
7
  6
CONTINUOUS
 10
521.9934842145
 20
294.8714302487
 40
0.25
100
AcDbArc
 50
180.0
 51
270.0
  0
ARC
  5
41A
100
AcDbEntity
  8
0
100
AcDbCircle
 62
7
  6
CONTINUOUS
 10
522.4934842145
 20
303.3714302487
 40
0.25
100
AcDbArc
 50
0.0
 51
90.0
  0
ARC
  5
41B
100
AcDbEntity
  8
0
100
AcDbCircle
 62
7
  6
CONTINUOUS
 10
522.4934842145
 20
294.8714302487
 40
0.25
100
AcDbArc
 50
270.0
 51
360.0
  0
ARC
  5
41C
100
AcDbEntity
  8
0
100
AcDbCircle
 62
7
  6
CONTINUOUS
 10
552.643547528
 20
408.5359662927
 40
0.2
100
AcDbArc
 50
356.1534866721
 51
360.0
  0
ARC
  5
41D
100
AcDbEntity
  8
0
100
AcDbCircle
 62
7
  6
CONTINUOUS
 10
552.6435475279
 20
407.1073752302
 40
0.2
100
AcDbArc
 50
357.0682264469
 51
359.9999999996
  0
ARC
  5
41E
100
AcDbEntity
  8
0
100
AcDbCircle
 62
7
  6
CONTINUOUS
 10
533.1183621049
 20
440.579737001
 40
19.800636531
100
AcDbArc
 50
8.1777612077
 51
9.1480570863
  0
ARC
  5
41F
100
AcDbEntity
  8
0
100
AcDbCircle
 62
7
  6
CONTINUOUS
 10
536.6690825191
 20
441.0949213233
 40
16.2127400262
100
AcDbArc
 50
6.799439104
 51
8.160535312
  0
ARC
  5
420
100
AcDbEntity
  8
0
100
AcDbCircle
 62
7
  6
CONTINUOUS
 10
531.2230676941
 20
616.1594550165
 40
11.4233522539
100
AcDbArc
 50
214.5096199114
 51
214.9134608848
  0
ARC
  5
421
100
AcDbEntity
  8
0
100
AcDbCircle
 62
7
  6
CONTINUOUS
 10
542.7218037429
 20
442.7916660051
 40
10.1641185326
100
AcDbArc
 50
14.6379188297
 51
16.2961078693
  0
ARC
  5
422
100
AcDbEntity
  8
0
100
AcDbCircle
 62
7
  6
CONTINUOUS
 10
542.9833044408
 20
442.8611401703
 40
9.8935488554
100
AcDbArc
 50
13.3623509483
 51
14.6313434215
  0
ARC
  5
423
100
AcDbEntity
  8
0
100
AcDbCircle
 62
7
  6
CONTINUOUS
 10
543.2375731029
 20
442.9219536064
 40
9.6321092651
100
AcDbArc
 50
11.3494948673
 51
13.3599513202
  0
ARC
  5
424
100
AcDbEntity
  8
0
100
AcDbCircle
 62
7
  6
CONTINUOUS
 10
543.3846381997
 20
442.9887028555
 40
9.4726250621
100
AcDbArc
 50
16.2953197883
 51
16.7704706588
  0
ARC
  5
425
100
AcDbEntity
  8
0
100
AcDbCircle
 62
7
  6
CONTINUOUS
 10
543.6200283909
 20
442.9985692171
 40
9.2420554527
100
AcDbArc
 50
8.478085024
 51
11.3504073998
  0
ARC
  5
426
100
AcDbEntity
  8
0
100
AcDbCircle
 62
7
  6
CONTINUOUS
 10
545.4129474926
 20
443.3214302487
 40
7.4408333333
100
AcDbArc
 50
19.1334460691
 51
66.0384220125
  0
ARC
  5
427
100
AcDbEntity
  8
0
100
AcDbCircle
 62
7
  6
CONTINUOUS
 10
545.9201799798
 20
441.7552819473
 40
6.9325069242
100
AcDbArc
 50
2.9883228712
 51
3.9853193236
  0
ARC
  5
428
100
AcDbEntity
  8
0
100
AcDbCircle
 62
7
  6
CONTINUOUS
 10
530.7565211898
 20
620.7511180037
 40
6.5738386547
100
AcDbArc
 50
115.3457220758
 51
116.4859354654
  0
ARC
  5
429
100
AcDbEntity
  8
0
100
AcDbCircle
 62
7
  6
CONTINUOUS
 10
517.9434842145
 20
627.1214302487
 40
3.0
100
AcDbArc
 50
0.0
 51
89.9999999999
  0
ARC
  5
42A
100
AcDbEntity
  8
0
100
AcDbCircle
 62
7
  6
CONTINUOUS
 10
544.7537808259
 20
625.7214302487
 40
2.4
100
AcDbArc
 50
0.0
 51
90.0
  0
ARC
  5
42B
100
AcDbEntity
  8
0
100
AcDbCircle
 62
7
  6
CONTINUOUS
 10
517.9434842145
 20
627.1214302487
 40
1.5
100
AcDbArc
 50
0.0
 51
89.9999999998
  0
ARC
  5
42C
100
AcDbEntity
  8
0
100
AcDbCircle
 62
7
  6
CONTINUOUS
 10
522.4434842145
 20
611.9414302487
 40
1.5
100
AcDbArc
 50
180.0
 51
281.0
  0
ARC
  5
42D
100
AcDbEntity
  8
0
100
AcDbCircle
 62
7
  6
CONTINUOUS
 10
528.4537808259
 20
626.8214302487
 40
1.3
100
AcDbArc
 50
90.0
 51
202.6749639481
  0
ARC
  5
42E
100
AcDbEntity
  8
0
100
AcDbCircle
 62
7
  6
CONTINUOUS
 10
551.9847305596
 20
426.4330982147
 40
0.8588193317
100
AcDbArc
 50
0.0314521563
 51
8.5271966372
  0
ARC
  5
42F
100
AcDbEntity
  8
0
100
AcDbCircle
 62
7
  6
CONTINUOUS
 10
551.9847312087
 20
433.8097621985
 40
0.8588186817
100
AcDbArc
 50
351.4726178975
 51
359.9685534999
  0
ARC
  5
430
100
AcDbEntity
  8
0
100
AcDbCircle
 62
7
  6
CONTINUOUS
 10
521.9934842145
 20
565.3714302487
 40
0.25
100
AcDbArc
 50
90.0
 51
180.0
  0
ARC
  5
431
100
AcDbEntity
  8
0
100
AcDbCircle
 62
7
  6
CONTINUOUS
 10
521.9934842145
 20
556.8714302487
 40
0.25
100
AcDbArc
 50
180.0
 51
270.0
  0
ARC
  5
432
100
AcDbEntity
  8
0
100
AcDbCircle
 62
7
  6
CONTINUOUS
 10
522.4934842145
 20
565.3714302487
 40
0.25
100
AcDbArc
 50
0.0
 51
90.0
  0
ARC
  5
433
100
AcDbEntity
  8
0
100
AcDbCircle
 62
7
  6
CONTINUOUS
 10
522.4934842145
 20
556.8714302487
 40
0.25
100
AcDbArc
 50
270.0
 51
360.0
  0
ARC
  5
434
100
AcDbEntity
  8
0
100
AcDbCircle
 62
7
  6
CONTINUOUS
 10
552.643547528
 20
443.5354852672
 40
0.2
100
AcDbArc
 50
0.0
 51
2.943800935
  0
SPLINE
  5
435
100
AcDbEntity
  8
0
100
AcDbSpline
 62
7
  6
CONTINUOUS
 70
0
 71
3
 72
9
 73
5
 74
0
 42
0.0000001
 43
0.0000001
 44
0.0000000001
 40
0.0
 40
0.0
 40
0.0
 40
0.0
 40
0.24494781
 40
1.0
 40
1.0
 40
1.0
 40
1.0
 10
94.6091054562
 20
633.6199483255
 30
0.0
 10
94.562029872
 20
633.6102455355
 30
0.0
 10
94.3703810469
 20
633.5680524875
 30
0.0
 10
94.18097492
 20
633.5158119749
 30
0.0
 10
94.0396176123
 20
633.4714302487
 30
0.0
  0
LINE
  5
436
100
AcDbEntity
  8
0
100
AcDbLine
 62
7
  6
CONTINUOUS
 10
94.7767900178
 20
633.6509263913
 11
94.772520176
 21
633.6505627974
  0
LINE
  5
437
100
AcDbEntity
  8
0
100
AcDbLine
 62
7
  6
CONTINUOUS
 10
94.772520176
 20
633.6505627974
 11
94.7681660487
 21
633.6502001534
  0
LINE
  5
438
100
AcDbEntity
  8
0
100
AcDbLine
 62
7
  6
CONTINUOUS
 10
97.7488237171
 20
631.6636888478
 11
97.6441045917
 21
631.4214302487
  0
SPLINE
  5
439
100
AcDbEntity
  8
0
100
AcDbSpline
 62
7
  6
CONTINUOUS
 70
0
 71
3
 72
13
 73
9
 74
0
 42
0.0000001
 43
0.0000001
 44
0.0000000001
 40
0.0
 40
0.0
 40
0.0
 40
0.0
 40
0.3432278109
 40
0.6631249526
 40
0.7948520846
 40
0.8970038041
 40
0.9650950091
 40
1.0
 40
1.0
 40
1.0
 40
1.0
 10
93.2146641887
 20
631.4214219741
 30
0.0
 10
93.2200097209
 20
631.4090434305
 30
0.0
 10
93.2310443528
 20
631.3854428294
 30
0.0
 10
93.246021542
 20
631.3579560736
 30
0.0
 10
93.2576871756
 20
631.3396662307
 30
0.0
 10
93.2647580416
 20
631.3299568253
 30
0.0
 10
93.2699987928
 20
631.324181579
 30
0.0
 10
93.273524138
 20
631.3214302487
 30
0.0
 10
93.2748953533
 20
631.3214302487
 30
0.0
  0
SPLINE
  5
43A
100
AcDbEntity
  8
0
100
AcDbSpline
 62
7
  6
CONTINUOUS
 70
0
 71
3
 72
9
 73
5
 74
0
 42
0.0000001
 43
0.0000001
 44
0.0000000001
 40
0.0
 40
0.0
 40
0.0
 40
0.0
 40
0.5178513115
 40
1.0
 40
1.0
 40
1.0
 40
1.0
 10
90.8920178451
 20
631.4214219719
 30
0.0
 10
90.8957197275
 20
631.3957887059
 30
0.0
 10
90.9185040259
 20
631.3476129144
 30
0.0
 10
90.9680391236
 20
631.3214302487
 30
0.0
 10
90.9921527296
 20
631.3214302487
 30
0.0
  0
LINE
  5
43B
100
AcDbEntity
  8
0
100
AcDbLine
 62
7
  6
CONTINUOUS
 10
93.1099404579
 20
631.6636888743
 11
93.2146595949
 21
631.4214302487
  0
SPLINE
  5
43C
100
AcDbEntity
  8
0
100
AcDbSpline
 62
7
  6
CONTINUOUS
 70
0
 71
3
 72
9
 73
5
 74
0
 42
0.0000001
 43
0.0000001
 44
0.0000000001
 40
0.0
 40
0.0
 40
0.0
 40
0.0
 40
0.5162242643
 40
1.0
 40
1.0
 40
1.0
 40
1.0
 10
93.1099404579
 20
631.6636888743
 30
0.0
 10
93.103570167
 20
631.6784026818
 30
0.0
 10
93.0842164154
 20
631.7045352014
 30
0.0
 10
93.0544542294
 20
631.7178566221
 30
0.0
 10
93.0396258805
 20
631.720284413
 30
0.0
  0
SPLINE
  5
43D
100
AcDbEntity
  8
0
100
AcDbSpline
 62
7
  6
CONTINUOUS
 70
0
 71
3
 72
11
 73
7
 74
0
 42
0.0000001
 43
0.0000001
 44
0.0000000001
 40
0.0
 40
0.0
 40
0.0
 40
0.0
 40
0.3749431122
 40
0.6693349398
 40
0.8723871189
 40
1.0
 40
1.0
 40
1.0
 40
1.0
 10
90.8581895189
 20
631.6636888734
 30
0.0
 10
90.8570892387
 20
631.6718487983
 30
0.0
 10
90.8545224002
 20
631.6863532079
 30
0.0
 10
90.8485856886
 20
631.7046736196
 30
0.0
 10
90.8422765559
 20
631.716880597
 30
0.0
 10
90.8355309276
 20
631.7214302487
 30
0.0
 10
90.8327285417
 20
631.7214302487
 30
0.0
  0
SPLINE
  5
43E
100
AcDbEntity
  8
0
100
AcDbSpline
 62
7
  6
CONTINUOUS
 70
0
 71
3
 72
11
 73
7
 74
0
 42
0.0000001
 43
0.0000001
 44
0.0000000001
 40
0.0
 40
0.0
 40
0.0
 40
0.0
 40
0.1275888878
 40
0.3306783971
 40
0.6250780715
 40
1.0
 40
1.0
 40
1.0
 40
1.0
 10
100.0260357536
 20
631.7214302487
 30
0.0
 10
100.0232338747
 20
631.7214302487
 30
0.0
 10
100.0164868419
 20
631.7168824851
 30
0.0
 10
100.0101798418
 20
631.704672678
 30
0.0
 10
100.0042405342
 20
631.6863531204
 30
0.0
 10
100.0016748899
 20
631.6718483687
 30
0.0
 10
100.0005746641
 20
631.6636888469
 30
0.0
  0
SPLINE
  5
43F
100
AcDbEntity
  8
0
100
AcDbSpline
 62
7
  6
CONTINUOUS
 70
0
 71
3
 72
8
 73
4
 74
0
 42
0.0000001
 43
0.0000001
 44
0.0000000001
 40
0.0
 40
0.0
 40
0.0
 40
0.0
 40
1.0
 40
1.0
 40
1.0
 40
1.0
 10
97.8331626017
 20
631.7214302487
 30
0.0
 10
97.8213904132
 20
631.7214302487
 30
0.0
 10
97.8093955595
 20
631.7189268601
 30
0.0
 10
97.7985756885
 20
631.7142884536
 30
0.0
  0
SPLINE
  5
440
100
AcDbEntity
  8
0
100
AcDbSpline
 62
7
  6
CONTINUOUS
 70
0
 71
3
 72
9
 73
5
 74
0
 42
0.0000001
 43
0.0000001
 44
0.0000000001
 40
0.0
 40
0.0
 40
0.0
 40
0.0
 40
0.4868868792
 40
1.0
 40
1.0
 40
1.0
 40
1.0
 10
97.7985756885
 20
631.7142884536
 30
0.0
 10
97.7877982719
 20
631.7096682471
 30
0.0
 10
97.7674056347
 20
631.6956206236
 30
0.0
 10
97.7537335049
 20
631.6750292518
 30
0.0
 10
97.7488237171
 20
631.6636888478
 30
0.0
  0
SPLINE
  5
441
100
AcDbEntity
  8
0
100
AcDbSpline
 62
7
  6
CONTINUOUS
 70
0
 71
3
 72
11
 73
7
 74
0
 42
0.0000001
 43
0.0000001
 44
0.0000000001
 40
0.0
 40
0.0
 40
0.0
 40
0.0
 40
0.3193142592
 40
0.5890740093
 40
0.809832532
 40
1.0
 40
1.0
 40
1.0
 40
1.0
 10
99.5745829935
 20
631.6636888734
 30
0.0
 10
99.5725688875
 20
631.6720028778
 30
0.0
 10
99.5675838518
 20
631.6870937237
 30
0.0
 10
99.5564027134
 20
631.7059449368
 30
0.0
 10
99.5424625451
 20
631.718348809
 30
0.0
 10
99.5313462035
 20
631.7214302487
 30
0.0
 10
99.5262515809
 20
631.7214302487
 30
0.0
  0
SPLINE
  5
442
100
AcDbEntity
  8
0
100
AcDbSpline
 62
7
  6
CONTINUOUS
 70
0
 71
3
 72
11
 73
7
 74
0
 42
0.0000001
 43
0.0000001
 44
0.0000000001
 40
0.0
 40
0.0
 40
0.0
 40
0.0
 40
0.1901444182
 40
0.4109319627
 40
0.6807057904
 40
1.0
 40
1.0
 40
1.0
 40
1.0
 10
91.3325126461
 20
631.7214302487
 30
0.0
 10
91.3274186208
 20
631.7214302487
 30
0.0
 10
91.3163012385
 20
631.7183511368
 30
0.0
 10
91.3023630746
 20
631.7059433933
 30
0.0
 10
91.2911785415
 20
631.6870940658
 30
0.0
 10
91.2861951741
 20
631.6720023623
 30
0.0
 10
91.2841811867
 20
631.6636888469
 30
0.0
  0
SPLINE
  5
443
100
AcDbEntity
  8
0
100
AcDbSpline
 62
7
  6
CONTINUOUS
 70
0
 71
3
 72
11
 73
7
 74
0
 42
0.0000001
 43
0.0000001
 44
0.0000000001
 40
0.0
 40
0.0
 40
0.0
 40
0.0
 40
0.2456827548
 40
0.4872285469
 40
0.7365302467
 40
1.0
 40
1.0
 40
1.0
 40
1.0
 10
99.631466247
 20
631.4214219715
 30
0.0
 10
99.6341755202
 20
631.4095184096
 30
0.0
 10
99.6354500932
 20
631.3845880077
 30
0.0
 10
99.6205262259
 20
631.3495177386
 30
0.0
 10
99.5892614123
 20
631.3259992257
 30
0.0
 10
99.5633212869
 20
631.3214302487
 30
0.0
 10
99.5502294631
 20
631.3214302487
 30
0.0
  0
SPLINE
  5
444
100
AcDbEntity
  8
0
100
AcDbSpline
 62
7
  6
CONTINUOUS
 70
0
 71
3
 72
9
 73
5
 74
0
 42
0.0000001
 43
0.0000001
 44
0.0000000001
 40
0.0
 40
0.0
 40
0.0
 40
0.0
 40
0.5031323346
 40
1.0
 40
1.0
 40
1.0
 40
1.0
 10
96.7203888507
 20
631.6636888734
 30
0.0
 10
96.7121021087
 20
631.6810455147
 30
0.0
 10
96.6846263562
 20
631.7111807294
 30
0.0
 10
96.645570744
 20
631.7214302487
 30
0.0
 10
96.6265768406
 20
631.7214302487
 30
0.0
  0
SPLINE
  5
445
100
AcDbEntity
  8
0
100
AcDbSpline
 62
7
  6
CONTINUOUS
 70
0
 71
3
 72
9
 73
5
 74
0
 42
0.0000001
 43
0.0000001
 44
0.0000000001
 40
0.0
 40
0.0
 40
0.0
 40
0.0
 40
0.4968650115
 40
1.0
 40
1.0
 40
1.0
 40
1.0
 10
94.2321874246
 20
631.7214302487
 30
0.0
 10
94.2131937156
 20
631.7214302487
 30
0.0
 10
94.1741391731
 20
631.7111788413
 30
0.0
 10
94.1466620683
 20
631.6810454948
 30
0.0
 10
94.1383753232
 20
631.6636888469
 30
0.0
  0
SPLINE
  5
446
100
AcDbEntity
  8
0
100
AcDbSpline
 62
7
  6
CONTINUOUS
 70
0
 71
3
 72
11
 73
7
 74
0
 42
0.0000001
 43
0.0000001
 44
0.0000000001
 40
0.0
 40
0.0
 40
0.0
 40
0.0
 40
0.3270584763
 40
0.6056971041
 40
0.8138036877
 40
1.0
 40
1.0
 40
1.0
 40
1.0
 10
96.8346622451
 20
631.4214219725
 30
0.0
 10
96.8401339894
 20
631.4096874556
 30
0.0
 10
96.8483942165
 20
631.3869294495
 30
0.0
 10
96.8528411227
 20
631.3549287998
 30
0.0
 10
96.8440585426
 20
631.327037331
 30
0.0
 10
96.8271275963
 20
631.3214302487
 30
0.0
 10
96.8197564839
 20
631.3214302487
 30
0.0
  0
SPLINE
  5
447
100
AcDbEntity
  8
0
100
AcDbSpline
 62
7
  6
CONTINUOUS
 70
0
 71
3
 72
9
 73
5
 74
0
 42
0.0000001
 43
0.0000001
 44
0.0000000001
 40
0.0
 40
0.0
 40
0.0
 40
0.0
 40
0.2461010597
 40
1.0
 40
1.0
 40
1.0
 40
1.0
 10
96.674434803
 20
633.5214302487
 30
0.0
 10
96.6406277502
 20
633.5343238806
 30
0.0
 10
96.502218587
 20
633.5839665183
 30
0.0
 10
96.3599221386
 20
633.6226395379
 30
0.0
 10
96.2515523215
 20
633.6459093438
 30
0.0
  0
SPLINE
  5
448
100
AcDbEntity
  8
0
100
AcDbSpline
 62
7
  6
CONTINUOUS
 70
0
 71
3
 72
9
 73
5
 74
0
 42
0.0000001
 43
0.0000001
 44
0.0000000001
 40
0.0
 40
0.0
 40
0.0
 40
0.0
 40
0.2542301673
 40
1.0
 40
1.0
 40
1.0
 40
1.0
 10
94.4754871846
 20
633.6199957612
 30
0.0
 10
94.4376319001
 20
633.6104169419
 30
0.0
 10
94.2894862888
 20
633.5698352324
 30
0.0
 10
94.1445479204
 20
633.5173700931
 30
0.0
 10
94.0396176123
 20
633.4714302487
 30
0.0
  0
SPLINE
  5
449
100
AcDbEntity
  8
0
100
AcDbSpline
 62
7
  6
CONTINUOUS
 70
0
 71
3
 72
9
 73
5
 74
0
 42
0.0000001
 43
0.0000001
 44
0.0000000001
 40
0.0
 40
0.0
 40
0.0
 40
0.0
 40
0.24494781
 40
1.0
 40
1.0
 40
1.0
 40
1.0
 10
161.6091054562
 20
633.6199483255
 30
0.0
 10
161.562029872
 20
633.6102455355
 30
0.0
 10
161.3703810469
 20
633.5680524875
 30
0.0
 10
161.18097492
 20
633.5158119749
 30
0.0
 10
161.0396176123
 20
633.4714302487
 30
0.0
  0
LINE
  5
44A
100
AcDbEntity
  8
0
100
AcDbLine
 62
7
  6
CONTINUOUS
 10
161.7767900178
 20
633.6509263913
 11
161.772520176
 21
633.6505627974
  0
LINE
  5
44B
100
AcDbEntity
  8
0
100
AcDbLine
 62
7
  6
CONTINUOUS
 10
161.772520176
 20
633.6505627974
 11
161.7681660487
 21
633.6502001534
  0
LINE
  5
44C
100
AcDbEntity
  8
0
100
AcDbLine
 62
7
  6
CONTINUOUS
 10
164.7488237171
 20
631.6636888478
 11
164.6441045917
 21
631.4214302487
  0
SPLINE
  5
44D
100
AcDbEntity
  8
0
100
AcDbSpline
 62
7
  6
CONTINUOUS
 70
0
 71
3
 72
13
 73
9
 74
0
 42
0.0000001
 43
0.0000001
 44
0.0000000001
 40
0.0
 40
0.0
 40
0.0
 40
0.0
 40
0.3432278109
 40
0.6631249526
 40
0.7948520846
 40
0.8970038041
 40
0.9650950091
 40
1.0
 40
1.0
 40
1.0
 40
1.0
 10
160.2146641887
 20
631.4214219741
 30
0.0
 10
160.2200097209
 20
631.4090434305
 30
0.0
 10
160.2310443528
 20
631.3854428294
 30
0.0
 10
160.246021542
 20
631.3579560736
 30
0.0
 10
160.2576871756
 20
631.3396662307
 30
0.0
 10
160.2647580416
 20
631.3299568253
 30
0.0
 10
160.2699987928
 20
631.324181579
 30
0.0
 10
160.273524138
 20
631.3214302487
 30
0.0
 10
160.2748953533
 20
631.3214302487
 30
0.0
  0
SPLINE
  5
44E
100
AcDbEntity
  8
0
100
AcDbSpline
 62
7
  6
CONTINUOUS
 70
0
 71
3
 72
9
 73
5
 74
0
 42
0.0000001
 43
0.0000001
 44
0.0000000001
 40
0.0
 40
0.0
 40
0.0
 40
0.0
 40
0.5178513115
 40
1.0
 40
1.0
 40
1.0
 40
1.0
 10
157.8920178451
 20
631.4214219719
 30
0.0
 10
157.8957197275
 20
631.3957887059
 30
0.0
 10
157.9185040259
 20
631.3476129144
 30
0.0
 10
157.9680391236
 20
631.3214302487
 30
0.0
 10
157.9921527296
 20
631.3214302487
 30
0.0
  0
LINE
  5
44F
100
AcDbEntity
  8
0
100
AcDbLine
 62
7
  6
CONTINUOUS
 10
160.1099404579
 20
631.6636888743
 11
160.2146595949
 21
631.4214302487
  0
SPLINE
  5
450
100
AcDbEntity
  8
0
100
AcDbSpline
 62
7
  6
CONTINUOUS
 70
0
 71
3
 72
9
 73
5
 74
0
 42
0.0000001
 43
0.0000001
 44
0.0000000001
 40
0.0
 40
0.0
 40
0.0
 40
0.0
 40
0.5162242643
 40
1.0
 40
1.0
 40
1.0
 40
1.0
 10
160.1099404579
 20
631.6636888743
 30
0.0
 10
160.103570167
 20
631.6784026818
 30
0.0
 10
160.0842164154
 20
631.7045352014
 30
0.0
 10
160.0544542294
 20
631.7178566221
 30
0.0
 10
160.0396258805
 20
631.720284413
 30
0.0
  0
SPLINE
  5
451
100
AcDbEntity
  8
0
100
AcDbSpline
 62
7
  6
CONTINUOUS
 70
0
 71
3
 72
11
 73
7
 74
0
 42
0.0000001
 43
0.0000001
 44
0.0000000001
 40
0.0
 40
0.0
 40
0.0
 40
0.0
 40
0.3749431122
 40
0.6693349398
 40
0.8723871189
 40
1.0
 40
1.0
 40
1.0
 40
1.0
 10
157.8581895189
 20
631.6636888734
 30
0.0
 10
157.8570892387
 20
631.6718487983
 30
0.0
 10
157.8545224002
 20
631.6863532079
 30
0.0
 10
157.8485856886
 20
631.7046736196
 30
0.0
 10
157.8422765559
 20
631.716880597
 30
0.0
 10
157.8355309276
 20
631.7214302487
 30
0.0
 10
157.8327285417
 20
631.7214302487
 30
0.0
  0
SPLINE
  5
452
100
AcDbEntity
  8
0
100
AcDbSpline
 62
7
  6
CONTINUOUS
 70
0
 71
3
 72
11
 73
7
 74
0
 42
0.0000001
 43
0.0000001
 44
0.0000000001
 40
0.0
 40
0.0
 40
0.0
 40
0.0
 40
0.1275888878
 40
0.3306783971
 40
0.6250780715
 40
1.0
 40
1.0
 40
1.0
 40
1.0
 10
167.0260357536
 20
631.7214302487
 30
0.0
 10
167.0232338747
 20
631.7214302487
 30
0.0
 10
167.0164868419
 20
631.7168824851
 30
0.0
 10
167.0101798418
 20
631.704672678
 30
0.0
 10
167.0042405342
 20
631.6863531204
 30
0.0
 10
167.0016748899
 20
631.6718483687
 30
0.0
 10
167.0005746641
 20
631.6636888469
 30
0.0
  0
SPLINE
  5
453
100
AcDbEntity
  8
0
100
AcDbSpline
 62
7
  6
CONTINUOUS
 70
0
 71
3
 72
8
 73
4
 74
0
 42
0.0000001
 43
0.0000001
 44
0.0000000001
 40
0.0
 40
0.0
 40
0.0
 40
0.0
 40
1.0
 40
1.0
 40
1.0
 40
1.0
 10
164.8331626017
 20
631.7214302487
 30
0.0
 10
164.8213904132
 20
631.7214302487
 30
0.0
 10
164.8093955595
 20
631.7189268601
 30
0.0
 10
164.7985756885
 20
631.7142884536
 30
0.0
  0
SPLINE
  5
454
100
AcDbEntity
  8
0
100
AcDbSpline
 62
7
  6
CONTINUOUS
 70
0
 71
3
 72
9
 73
5
 74
0
 42
0.0000001
 43
0.0000001
 44
0.0000000001
 40
0.0
 40
0.0
 40
0.0
 40
0.0
 40
0.4868868792
 40
1.0
 40
1.0
 40
1.0
 40
1.0
 10
164.7985756885
 20
631.7142884536
 30
0.0
 10
164.7877982719
 20
631.7096682471
 30
0.0
 10
164.7674056347
 20
631.6956206236
 30
0.0
 10
164.7537335049
 20
631.6750292518
 30
0.0
 10
164.7488237171
 20
631.6636888478
 30
0.0
  0
SPLINE
  5
455
100
AcDbEntity
  8
0
100
AcDbSpline
 62
7
  6
CONTINUOUS
 70
0
 71
3
 72
11
 73
7
 74
0
 42
0.0000001
 43
0.0000001
 44
0.0000000001
 40
0.0
 40
0.0
 40
0.0
 40
0.0
 40
0.3193142592
 40
0.5890740093
 40
0.809832532
 40
1.0
 40
1.0
 40
1.0
 40
1.0
 10
166.5745829935
 20
631.6636888734
 30
0.0
 10
166.5725688875
 20
631.6720028778
 30
0.0
 10
166.5675838518
 20
631.6870937237
 30
0.0
 10
166.5564027134
 20
631.7059449368
 30
0.0
 10
166.5424625451
 20
631.718348809
 30
0.0
 10
166.5313462035
 20
631.7214302487
 30
0.0
 10
166.5262515809
 20
631.7214302487
 30
0.0
  0
SPLINE
  5
456
100
AcDbEntity
  8
0
100
AcDbSpline
 62
7
  6
CONTINUOUS
 70
0
 71
3
 72
11
 73
7
 74
0
 42
0.0000001
 43
0.0000001
 44
0.0000000001
 40
0.0
 40
0.0
 40
0.0
 40
0.0
 40
0.1901444182
 40
0.4109319627
 40
0.6807057904
 40
1.0
 40
1.0
 40
1.0
 40
1.0
 10
158.3325126461
 20
631.7214302487
 30
0.0
 10
158.3274186208
 20
631.7214302487
 30
0.0
 10
158.3163012385
 20
631.7183511368
 30
0.0
 10
158.3023630746
 20
631.7059433933
 30
0.0
 10
158.2911785415
 20
631.6870940658
 30
0.0
 10
158.2861951741
 20
631.6720023623
 30
0.0
 10
158.2841811867
 20
631.6636888469
 30
0.0
  0
SPLINE
  5
457
100
AcDbEntity
  8
0
100
AcDbSpline
 62
7
  6
CONTINUOUS
 70
0
 71
3
 72
11
 73
7
 74
0
 42
0.0000001
 43
0.0000001
 44
0.0000000001
 40
0.0
 40
0.0
 40
0.0
 40
0.0
 40
0.2456827548
 40
0.4872285469
 40
0.7365302467
 40
1.0
 40
1.0
 40
1.0
 40
1.0
 10
166.631466247
 20
631.4214219715
 30
0.0
 10
166.6341755202
 20
631.4095184096
 30
0.0
 10
166.6354500932
 20
631.3845880077
 30
0.0
 10
166.6205262259
 20
631.3495177386
 30
0.0
 10
166.5892614123
 20
631.3259992257
 30
0.0
 10
166.5633212869
 20
631.3214302487
 30
0.0
 10
166.5502294631
 20
631.3214302487
 30
0.0
  0
SPLINE
  5
458
100
AcDbEntity
  8
0
100
AcDbSpline
 62
7
  6
CONTINUOUS
 70
0
 71
3
 72
9
 73
5
 74
0
 42
0.0000001
 43
0.0000001
 44
0.0000000001
 40
0.0
 40
0.0
 40
0.0
 40
0.0
 40
0.5031323346
 40
1.0
 40
1.0
 40
1.0
 40
1.0
 10
163.7203888507
 20
631.6636888734
 30
0.0
 10
163.7121021087
 20
631.6810455147
 30
0.0
 10
163.6846263562
 20
631.7111807294
 30
0.0
 10
163.645570744
 20
631.7214302487
 30
0.0
 10
163.6265768406
 20
631.7214302487
 30
0.0
  0
SPLINE
  5
459
100
AcDbEntity
  8
0
100
AcDbSpline
 62
7
  6
CONTINUOUS
 70
0
 71
3
 72
9
 73
5
 74
0
 42
0.0000001
 43
0.0000001
 44
0.0000000001
 40
0.0
 40
0.0
 40
0.0
 40
0.0
 40
0.4968650115
 40
1.0
 40
1.0
 40
1.0
 40
1.0
 10
161.2321874246
 20
631.7214302487
 30
0.0
 10
161.2131937156
 20
631.7214302487
 30
0.0
 10
161.1741391731
 20
631.7111788413
 30
0.0
 10
161.1466620683
 20
631.6810454948
 30
0.0
 10
161.1383753232
 20
631.6636888469
 30
0.0
  0
SPLINE
  5
45A
100
AcDbEntity
  8
0
100
AcDbSpline
 62
7
  6
CONTINUOUS
 70
0
 71
3
 72
11
 73
7
 74
0
 42
0.0000001
 43
0.0000001
 44
0.0000000001
 40
0.0
 40
0.0
 40
0.0
 40
0.0
 40
0.3270584763
 40
0.6056971041
 40
0.8138036877
 40
1.0
 40
1.0
 40
1.0
 40
1.0
 10
163.8346622451
 20
631.4214219725
 30
0.0
 10
163.8401339894
 20
631.4096874556
 30
0.0
 10
163.8483942165
 20
631.3869294495
 30
0.0
 10
163.8528411227
 20
631.3549287998
 30
0.0
 10
163.8440585426
 20
631.327037331
 30
0.0
 10
163.8271275963
 20
631.3214302487
 30
0.0
 10
163.8197564839
 20
631.3214302487
 30
0.0
  0
SPLINE
  5
45B
100
AcDbEntity
  8
0
100
AcDbSpline
 62
7
  6
CONTINUOUS
 70
0
 71
3
 72
9
 73
5
 74
0
 42
0.0000001
 43
0.0000001
 44
0.0000000001
 40
0.0
 40
0.0
 40
0.0
 40
0.0
 40
0.2461010597
 40
1.0
 40
1.0
 40
1.0
 40
1.0
 10
163.674434803
 20
633.5214302487
 30
0.0
 10
163.6406277502
 20
633.5343238806
 30
0.0
 10
163.502218587
 20
633.5839665183
 30
0.0
 10
163.3599221386
 20
633.6226395379
 30
0.0
 10
163.2515523215
 20
633.6459093438
 30
0.0
  0
SPLINE
  5
45C
100
AcDbEntity
  8
0
100
AcDbSpline
 62
7
  6
CONTINUOUS
 70
0
 71
3
 72
9
 73
5
 74
0
 42
0.0000001
 43
0.0000001
 44
0.0000000001
 40
0.0
 40
0.0
 40
0.0
 40
0.0
 40
0.2542301673
 40
1.0
 40
1.0
 40
1.0
 40
1.0
 10
161.4754871846
 20
633.6199957612
 30
0.0
 10
161.4376319001
 20
633.6104169419
 30
0.0
 10
161.2894862888
 20
633.5698352324
 30
0.0
 10
161.1445479204
 20
633.5173700931
 30
0.0
 10
161.0396176123
 20
633.4714302487
 30
0.0
  0
LINE
  5
45D
100
AcDbEntity
  8
0
100
AcDbLine
 62
7
  6
CONTINUOUS
 10
163.0819741688
 20
226.5919341061
 11
163.0862440133
 21
226.5922976928
  0
LINE
  5
45E
100
AcDbEntity
  8
0
100
AcDbLine
 62
7
  6
CONTINUOUS
 10
163.0862440133
 20
226.5922976928
 11
163.0905981378
 21
226.592660344
  0
LINE
  5
45F
100
AcDbEntity
  8
0
100
AcDbLine
 62
7
  6
CONTINUOUS
 10
164.7488237293
 20
228.5791716222
 11
164.6441045914
 21
228.8214302487
  0
SPLINE
  5
460
100
AcDbEntity
  8
0
100
AcDbSpline
 62
7
  6
CONTINUOUS
 70
0
 71
3
 72
11
 73
7
 74
0
 42
0.0000001
 43
0.0000001
 44
0.0000000001
 40
0.0
 40
0.0
 40
0.0
 40
0.0
 40
0.1275888879
 40
0.3306783971
 40
0.6250780714
 40
1.0
 40
1.0
 40
1.0
 40
1.0
 10
157.832728433
 20
228.5214302487
 30
0.0
 10
157.8355303119
 20
228.5214302487
 30
0.0
 10
157.8422773446
 20
228.5259780122
 30
0.0
 10
157.8485843447
 20
228.5381878193
 30
0.0
 10
157.8545236523
 20
228.5565073769
 30
0.0
 10
157.8570892966
 20
228.5710121285
 30
0.0
 10
157.8581895224
 20
228.5791716503
 30
0.0
  0
LINE
  5
461
100
AcDbEntity
  8
0
100
AcDbLine
 62
7
  6
CONTINUOUS
 10
160.1099404688
 20
228.5791716486
 11
160.2146595951
 21
228.8214302487
  0
SPLINE
  5
462
100
AcDbEntity
  8
0
100
AcDbSpline
 62
7
  6
CONTINUOUS
 70
0
 71
3
 72
13
 73
9
 74
0
 42
0.0000001
 43
0.0000001
 44
0.0000000001
 40
0.0
 40
0.0
 40
0.0
 40
0.0
 40
0.3432132658
 40
0.6631193934
 40
0.7948470623
 40
0.8969966875
 40
0.9650895353
 40
1.0
 40
1.0
 40
1.0
 40
1.0
 10
164.6440999815
 20
228.8214385616
 30
0.0
 10
164.6387546869
 20
228.8338165548
 30
0.0
 10
164.627720129
 20
228.8574168801
 30
0.0
 10
164.612743094
 20
228.884903452
 30
0.0
 10
164.6010776405
 20
228.9031936273
 30
0.0
 10
164.5940067725
 20
228.912903157
 30
0.0
 10
164.5887656277
 20
228.9186780057
 30
0.0
 10
164.5852404068
 20
228.9214302487
 30
0.0
 10
164.5838689794
 20
228.9214302487
 30
0.0
  0
SPLINE
  5
463
100
AcDbEntity
  8
0
100
AcDbSpline
 62
7
  6
CONTINUOUS
 70
0
 71
3
 72
9
 73
5
 74
0
 42
0.0000001
 43
0.0000001
 44
0.0000000001
 40
0.0
 40
0.0
 40
0.0
 40
0.0
 40
0.5178479041
 40
1.0
 40
1.0
 40
1.0
 40
1.0
 10
166.9667463359
 20
228.821438566
 30
0.0
 10
166.9630444997
 20
228.8470715116
 30
0.0
 10
166.9402605405
 20
228.8952468328
 30
0.0
 10
166.8907260252
 20
228.9214302487
 30
0.0
 10
166.8666123915
 20
228.9214302487
 30
0.0
  0
SPLINE
  5
464
100
AcDbEntity
  8
0
100
AcDbSpline
 62
7
  6
CONTINUOUS
 70
0
 71
3
 72
11
 73
7
 74
0
 42
0.0000001
 43
0.0000001
 44
0.0000000001
 40
0.0
 40
0.0
 40
0.0
 40
0.0
 40
0.3749431078
 40
0.6693349335
 40
0.872387117
 40
1.0
 40
1.0
 40
1.0
 40
1.0
 10
167.0005746677
 20
228.5791716239
 30
0.0
 10
167.0016749479
 20
228.5710116992
 30
0.0
 10
167.0042417863
 20
228.5565072899
 30
0.0
 10
167.0101784978
 20
228.5381868784
 30
0.0
 10
167.0164876302
 20
228.5259799012
 30
0.0
 10
167.0232332582
 20
228.5214302487
 30
0.0
 10
167.0260356441
 20
228.5214302487
 30
0.0
  0
SPLINE
  5
465
100
AcDbEntity
  8
0
100
AcDbSpline
 62
7
  6
CONTINUOUS
 70
0
 71
3
 72
9
 73
5
 74
0
 42
0.0000001
 43
0.0000001
 44
0.0000000001
 40
0.0
 40
0.0
 40
0.0
 40
0.0
 40
0.5162242644
 40
1.0
 40
1.0
 40
1.0
 40
1.0
 10
164.7488237293
 20
228.5791716222
 30
0.0
 10
164.7551940201
 20
228.5644578148
 30
0.0
 10
164.7745477717
 20
228.5383252956
 30
0.0
 10
164.8043099573
 20
228.5250038753
 30
0.0
 10
164.8191383061
 20
228.5225760845
 30
0.0
  0
SPLINE
  5
466
100
AcDbEntity
  8
0
100
AcDbSpline
 62
7
  6
CONTINUOUS
 70
0
 71
3
 72
8
 73
4
 74
0
 42
0.0000001
 43
0.0000001
 44
0.0000000001
 40
0.0
 40
0.0
 40
0.0
 40
0.0
 40
1.0
 40
1.0
 40
1.0
 40
1.0
 10
160.0256015848
 20
228.5214302487
 30
0.0
 10
160.0373737734
 20
228.5214302487
 30
0.0
 10
160.0493686271
 20
228.5239336373
 30
0.0
 10
160.0601884981
 20
228.5285720438
 30
0.0
  0
SPLINE
  5
467
100
AcDbEntity
  8
0
100
AcDbSpline
 62
7
  6
CONTINUOUS
 70
0
 71
3
 72
9
 73
5
 74
0
 42
0.0000001
 43
0.0000001
 44
0.0000000001
 40
0.0
 40
0.0
 40
0.0
 40
0.0
 40
0.4868868793
 40
1.0
 40
1.0
 40
1.0
 40
1.0
 10
160.0601884981
 20
228.5285720438
 30
0.0
 10
160.0709659145
 20
228.5331922502
 30
0.0
 10
160.0913585514
 20
228.5472398734
 30
0.0
 10
160.1050306811
 20
228.5678312448
 30
0.0
 10
160.1099404688
 20
228.5791716486
 30
0.0
  0
SPLINE
  5
468
100
AcDbEntity
  8
0
100
AcDbSpline
 62
7
  6
CONTINUOUS
 70
0
 71
3
 72
9
 73
5
 74
0
 42
0.0000001
 43
0.0000001
 44
0.0000000001
 40
0.0
 40
0.0
 40
0.0
 40
0.0
 40
0.2550944233
 40
1.0
 40
1.0
 40
1.0
 40
1.0
 10
163.8191465742
 20
226.7714302487
 30
0.0
 10
163.7714412092
 20
226.7564522721
 30
0.0
 10
163.5837440658
 20
226.699959523
 30
0.0
 10
163.3932862777
 20
226.6525330596
 30
0.0
 10
163.250285627
 20
226.6230418629
 30
0.0
  0
SPLINE
  5
469
100
AcDbEntity
  8
0
100
AcDbSpline
 62
7
  6
CONTINUOUS
 70
0
 71
3
 72
11
 73
7
 74
0
 42
0.0000001
 43
0.0000001
 44
0.0000000001
 40
0.0
 40
0.0
 40
0.0
 40
0.0
 40
0.1901444183
 40
0.4109319628
 40
0.6807057903
 40
1.0
 40
1.0
 40
1.0
 40
1.0
 10
166.5262515405
 20
228.5214302487
 30
0.0
 10
166.5313455657
 20
228.5214302487
 30
0.0
 10
166.5424629481
 20
228.5245093606
 30
0.0
 10
166.556401112
 20
228.5369171041
 30
0.0
 10
166.5675856451
 20
228.5557664315
 30
0.0
 10
166.5725690124
 20
228.5708581349
 30
0.0
 10
166.5745829999
 20
228.5791716503
 30
0.0
  0
SPLINE
  5
46A
100
AcDbEntity
  8
0
100
AcDbSpline
 62
7
  6
CONTINUOUS
 70
0
 71
3
 72
9
 73
5
 74
0
 42
0.0000001
 43
0.0000001
 44
0.0000000001
 40
0.0
 40
0.0
 40
0.0
 40
0.0
 40
0.5031323346
 40
1.0
 40
1.0
 40
1.0
 40
1.0
 10
161.138375336
 20
228.5791716239
 30
0.0
 10
161.146662078
 20
228.5618149824
 30
0.0
 10
161.1741378311
 20
228.5316797672
 30
0.0
 10
161.2131934439
 20
228.5214302487
 30
0.0
 10
161.2321873476
 20
228.5214302487
 30
0.0
  0
SPLINE
  5
46B
100
AcDbEntity
  8
0
100
AcDbSpline
 62
7
  6
CONTINUOUS
 70
0
 71
3
 72
9
 73
5
 74
0
 42
0.0000001
 43
0.0000001
 44
0.0000000001
 40
0.0
 40
0.0
 40
0.0
 40
0.0
 40
0.4968650115
 40
1.0
 40
1.0
 40
1.0
 40
1.0
 10
163.6265767619
 20
228.5214302487
 30
0.0
 10
163.6455704709
 20
228.5214302487
 30
0.0
 10
163.6846250134
 20
228.5316816561
 30
0.0
 10
163.7121021182
 20
228.5618150025
 30
0.0
 10
163.7203888633
 20
228.5791716504
 30
0.0
  0
SPLINE
  5
46C
100
AcDbEntity
  8
0
100
AcDbSpline
 62
7
  6
CONTINUOUS
 70
0
 71
3
 72
11
 73
7
 74
0
 42
0.0000001
 43
0.0000001
 44
0.0000000001
 40
0.0
 40
0.0
 40
0.0
 40
0.0
 40
0.3193142593
 40
0.5890740093
 40
0.8098325319
 40
1.0
 40
1.0
 40
1.0
 40
1.0
 10
158.2841811931
 20
228.5791716239
 30
0.0
 10
158.2861952991
 20
228.5708576195
 30
0.0
 10
158.2911803348
 20
228.5557667736
 30
0.0
 10
158.3023614732
 20
228.5369155606
 30
0.0
 10
158.3163016415
 20
228.5245116883
 30
0.0
 10
158.3274179831
 20
228.5214302487
 30
0.0
 10
158.3325126057
 20
228.5214302487
 30
0.0
  0
SPLINE
  5
46D
100
AcDbEntity
  8
0
100
AcDbSpline
 62
7
  6
CONTINUOUS
 70
0
 71
3
 72
11
 73
7
 74
0
 42
0.0000001
 43
0.0000001
 44
0.0000000001
 40
0.0
 40
0.0
 40
0.0
 40
0.0
 40
0.2456844674
 40
0.4872316467
 40
0.7365321675
 40
1.0
 40
1.0
 40
1.0
 40
1.0
 10
158.2272979395
 20
228.8214385257
 30
0.0
 10
158.2245888548
 20
228.8333412594
 30
0.0
 10
158.2233141032
 20
228.8582697121
 30
0.0
 10
158.2382348523
 20
228.8933381833
 30
0.0
 10
158.2694949484
 20
228.9168567216
 30
0.0
 10
158.2954323848
 20
228.9214302487
 30
0.0
 10
158.3085231111
 20
228.9214302487
 30
0.0
  0
SPLINE
  5
46E
100
AcDbEntity
  8
0
100
AcDbSpline
 62
7
  6
CONTINUOUS
 70
0
 71
3
 72
11
 73
7
 74
0
 42
0.0000001
 43
0.0000001
 44
0.0000000001
 40
0.0
 40
0.0
 40
0.0
 40
0.0
 40
0.3270465001
 40
0.6056947861
 40
0.8137977748
 40
1.0
 40
1.0
 40
1.0
 40
1.0
 10
161.0241019225
 20
228.8214385654
 30
0.0
 10
161.0186303609
 20
228.8331726905
 30
0.0
 10
161.0103704556
 20
228.8559307267
 30
0.0
 10
161.0059228287
 20
228.8879312031
 30
0.0
 10
161.0147056673
 20
228.915823217
 30
0.0
 10
161.0316368573
 20
228.9214302487
 30
0.0
 10
161.0390082275
 20
228.9214302487
 30
0.0
  0
SPLINE
  5
46F
100
AcDbEntity
  8
0
100
AcDbSpline
 62
7
  6
CONTINUOUS
 70
0
 71
3
 72
9
 73
5
 74
0
 42
0.0000001
 43
0.0000001
 44
0.0000000001
 40
0.0
 40
0.0
 40
0.0
 40
0.0
 40
0.2461010597
 40
1.0
 40
1.0
 40
1.0
 40
1.0
 10
161.1843293836
 20
226.7214302487
 30
0.0
 10
161.2181364364
 20
226.7085366168
 30
0.0
 10
161.3565455996
 20
226.6588939791
 30
0.0
 10
161.498842048
 20
226.6202209595
 30
0.0
 10
161.6072118651
 20
226.5969511536
 30
0.0
  0
SPLINE
  5
470
100
AcDbEntity
  8
0
100
AcDbSpline
 62
7
  6
CONTINUOUS
 70
0
 71
3
 72
9
 73
5
 74
0
 42
0.0000001
 43
0.0000001
 44
0.0000000001
 40
0.0
 40
0.0
 40
0.0
 40
0.0
 40
0.2542301673
 40
1.0
 40
1.0
 40
1.0
 40
1.0
 10
163.383277002
 20
226.6228647362
 30
0.0
 10
163.4211322865
 20
226.6324435555
 30
0.0
 10
163.5692778977
 20
226.673025265
 30
0.0
 10
163.7142162662
 20
226.7254904042
 30
0.0
 10
163.8191465742
 20
226.7714302487
 30
0.0
  0
LINE
  5
471
100
AcDbEntity
  8
0
100
AcDbLine
 62
7
  6
CONTINUOUS
 10
162.4293820933
 20
228.0606497645
 11
162.4037283072
 21
228.0606607694
  0
LINE
  5
472
100
AcDbEntity
  8
0
100
AcDbLine
 62
7
  6
CONTINUOUS
 10
96.0819741688
 20
226.5919341061
 11
96.0862440133
 21
226.5922976928
  0
LINE
  5
473
100
AcDbEntity
  8
0
100
AcDbLine
 62
7
  6
CONTINUOUS
 10
96.0862440133
 20
226.5922976928
 11
96.0905981378
 21
226.592660344
  0
LINE
  5
474
100
AcDbEntity
  8
0
100
AcDbLine
 62
7
  6
CONTINUOUS
 10
97.7488237293
 20
228.5791716221
 11
97.6441045915
 21
228.8214302487
  0
SPLINE
  5
475
100
AcDbEntity
  8
0
100
AcDbSpline
 62
7
  6
CONTINUOUS
 70
0
 71
3
 72
11
 73
7
 74
0
 42
0.0000001
 43
0.0000001
 44
0.0000000001
 40
0.0
 40
0.0
 40
0.0
 40
0.0
 40
0.1275888879
 40
0.3306783971
 40
0.6250780714
 40
1.0
 40
1.0
 40
1.0
 40
1.0
 10
90.832728433
 20
228.5214302487
 30
0.0
 10
90.8355303119
 20
228.5214302487
 30
0.0
 10
90.8422773446
 20
228.5259780122
 30
0.0
 10
90.8485843447
 20
228.5381878193
 30
0.0
 10
90.8545236523
 20
228.5565073769
 30
0.0
 10
90.8570892966
 20
228.5710121286
 30
0.0
 10
90.8581895224
 20
228.5791716504
 30
0.0
  0
LINE
  5
476
100
AcDbEntity
  8
0
100
AcDbLine
 62
7
  6
CONTINUOUS
 10
93.1099404688
 20
228.5791716486
 11
93.2146595951
 21
228.8214302487
  0
SPLINE
  5
477
100
AcDbEntity
  8
0
100
AcDbSpline
 62
7
  6
CONTINUOUS
 70
0
 71
3
 72
13
 73
9
 74
0
 42
0.0000001
 43
0.0000001
 44
0.0000000001
 40
0.0
 40
0.0
 40
0.0
 40
0.0
 40
0.3432132659
 40
0.6631193935
 40
0.7948470624
 40
0.8969966876
 40
0.9650895353
 40
1.0
 40
1.0
 40
1.0
 40
1.0
 10
97.6440999814
 20
228.8214385617
 30
0.0
 10
97.6387546869
 20
228.833816555
 30
0.0
 10
97.6277201289
 20
228.8574168802
 30
0.0
 10
97.612743094
 20
228.884903452
 30
0.0
 10
97.6010776405
 20
228.9031936274
 30
0.0
 10
97.5940067725
 20
228.912903157
 30
0.0
 10
97.5887656277
 20
228.9186780057
 30
0.0
 10
97.5852404068
 20
228.9214302487
 30
0.0
 10
97.5838689794
 20
228.9214302487
 30
0.0
  0
SPLINE
  5
478
100
AcDbEntity
  8
0
100
AcDbSpline
 62
7
  6
CONTINUOUS
 70
0
 71
3
 72
9
 73
5
 74
0
 42
0.0000001
 43
0.0000001
 44
0.0000000001
 40
0.0
 40
0.0
 40
0.0
 40
0.0
 40
0.5178479041
 40
1.0
 40
1.0
 40
1.0
 40
1.0
 10
99.9667463359
 20
228.8214385659
 30
0.0
 10
99.9630444997
 20
228.8470715115
 30
0.0
 10
99.9402605406
 20
228.8952468327
 30
0.0
 10
99.8907260252
 20
228.9214302487
 30
0.0
 10
99.8666123915
 20
228.9214302487
 30
0.0
  0
SPLINE
  5
479
100
AcDbEntity
  8
0
100
AcDbSpline
 62
7
  6
CONTINUOUS
 70
0
 71
3
 72
11
 73
7
 74
0
 42
0.0000001
 43
0.0000001
 44
0.0000000001
 40
0.0
 40
0.0
 40
0.0
 40
0.0
 40
0.3749431078
 40
0.6693349335
 40
0.872387117
 40
1.0
 40
1.0
 40
1.0
 40
1.0
 10
100.0005746677
 20
228.5791716239
 30
0.0
 10
100.0016749479
 20
228.5710116992
 30
0.0
 10
100.0042417863
 20
228.5565072899
 30
0.0
 10
100.0101784978
 20
228.5381868784
 30
0.0
 10
100.0164876302
 20
228.5259799012
 30
0.0
 10
100.0232332582
 20
228.5214302487
 30
0.0
 10
100.0260356441
 20
228.5214302487
 30
0.0
  0
SPLINE
  5
47A
100
AcDbEntity
  8
0
100
AcDbSpline
 62
7
  6
CONTINUOUS
 70
0
 71
3
 72
9
 73
5
 74
0
 42
0.0000001
 43
0.0000001
 44
0.0000000001
 40
0.0
 40
0.0
 40
0.0
 40
0.0
 40
0.5162242644
 40
1.0
 40
1.0
 40
1.0
 40
1.0
 10
97.7488237293
 20
228.5791716221
 30
0.0
 10
97.7551940201
 20
228.5644578147
 30
0.0
 10
97.7745477717
 20
228.5383252955
 30
0.0
 10
97.8043099574
 20
228.5250038753
 30
0.0
 10
97.8191383061
 20
228.5225760845
 30
0.0
  0
SPLINE
  5
47B
100
AcDbEntity
  8
0
100
AcDbSpline
 62
7
  6
CONTINUOUS
 70
0
 71
3
 72
8
 73
4
 74
0
 42
0.0000001
 43
0.0000001
 44
0.0000000001
 40
0.0
 40
0.0
 40
0.0
 40
0.0
 40
1.0
 40
1.0
 40
1.0
 40
1.0
 10
93.0256015848
 20
228.5214302487
 30
0.0
 10
93.0373737734
 20
228.5214302487
 30
0.0
 10
93.0493686271
 20
228.5239336373
 30
0.0
 10
93.0601884981
 20
228.5285720438
 30
0.0
  0
SPLINE
  5
47C
100
AcDbEntity
  8
0
100
AcDbSpline
 62
7
  6
CONTINUOUS
 70
0
 71
3
 72
9
 73
5
 74
0
 42
0.0000001
 43
0.0000001
 44
0.0000000001
 40
0.0
 40
0.0
 40
0.0
 40
0.0
 40
0.4868868793
 40
1.0
 40
1.0
 40
1.0
 40
1.0
 10
93.0601884981
 20
228.5285720438
 30
0.0
 10
93.0709659145
 20
228.5331922502
 30
0.0
 10
93.0913585514
 20
228.5472398734
 30
0.0
 10
93.1050306811
 20
228.5678312448
 30
0.0
 10
93.1099404688
 20
228.5791716486
 30
0.0
  0
SPLINE
  5
47D
100
AcDbEntity
  8
0
100
AcDbSpline
 62
7
  6
CONTINUOUS
 70
0
 71
3
 72
9
 73
5
 74
0
 42
0.0000001
 43
0.0000001
 44
0.0000000001
 40
0.0
 40
0.0
 40
0.0
 40
0.0
 40
0.2550944233
 40
1.0
 40
1.0
 40
1.0
 40
1.0
 10
96.8191465742
 20
226.7714302487
 30
0.0
 10
96.7714412092
 20
226.7564522721
 30
0.0
 10
96.5837440658
 20
226.699959523
 30
0.0
 10
96.3932862777
 20
226.6525330596
 30
0.0
 10
96.250285627
 20
226.6230418629
 30
0.0
  0
SPLINE
  5
47E
100
AcDbEntity
  8
0
100
AcDbSpline
 62
7
  6
CONTINUOUS
 70
0
 71
3
 72
11
 73
7
 74
0
 42
0.0000001
 43
0.0000001
 44
0.0000000001
 40
0.0
 40
0.0
 40
0.0
 40
0.0
 40
0.1901444183
 40
0.4109319627
 40
0.6807057904
 40
1.0
 40
1.0
 40
1.0
 40
1.0
 10
99.5262515405
 20
228.5214302487
 30
0.0
 10
99.5313455658
 20
228.5214302487
 30
0.0
 10
99.5424629481
 20
228.5245093606
 30
0.0
 10
99.556401112
 20
228.5369171041
 30
0.0
 10
99.5675856451
 20
228.5557664316
 30
0.0
 10
99.5725690124
 20
228.570858135
 30
0.0
 10
99.5745829999
 20
228.5791716504
 30
0.0
  0
SPLINE
  5
47F
100
AcDbEntity
  8
0
100
AcDbSpline
 62
7
  6
CONTINUOUS
 70
0
 71
3
 72
9
 73
5
 74
0
 42
0.0000001
 43
0.0000001
 44
0.0000000001
 40
0.0
 40
0.0
 40
0.0
 40
0.0
 40
0.5031323346
 40
1.0
 40
1.0
 40
1.0
 40
1.0
 10
94.138375336
 20
228.5791716239
 30
0.0
 10
94.146662078
 20
228.5618149824
 30
0.0
 10
94.1741378311
 20
228.5316797672
 30
0.0
 10
94.2131934439
 20
228.5214302487
 30
0.0
 10
94.2321873476
 20
228.5214302487
 30
0.0
  0
SPLINE
  5
480
100
AcDbEntity
  8
0
100
AcDbSpline
 62
7
  6
CONTINUOUS
 70
0
 71
3
 72
9
 73
5
 74
0
 42
0.0000001
 43
0.0000001
 44
0.0000000001
 40
0.0
 40
0.0
 40
0.0
 40
0.0
 40
0.4968650115
 40
1.0
 40
1.0
 40
1.0
 40
1.0
 10
96.6265767619
 20
228.5214302487
 30
0.0
 10
96.6455704709
 20
228.5214302487
 30
0.0
 10
96.6846250135
 20
228.5316816561
 30
0.0
 10
96.7121021182
 20
228.5618150025
 30
0.0
 10
96.7203888633
 20
228.5791716504
 30
0.0
  0
SPLINE
  5
481
100
AcDbEntity
  8
0
100
AcDbSpline
 62
7
  6
CONTINUOUS
 70
0
 71
3
 72
11
 73
7
 74
0
 42
0.0000001
 43
0.0000001
 44
0.0000000001
 40
0.0
 40
0.0
 40
0.0
 40
0.0
 40
0.3193142592
 40
0.5890740093
 40
0.809832532
 40
1.0
 40
1.0
 40
1.0
 40
1.0
 10
91.2841811931
 20
228.5791716239
 30
0.0
 10
91.2861952991
 20
228.5708576195
 30
0.0
 10
91.2911803348
 20
228.5557667737
 30
0.0
 10
91.3023614732
 20
228.5369155606
 30
0.0
 10
91.3163016415
 20
228.5245116883
 30
0.0
 10
91.3274179831
 20
228.5214302487
 30
0.0
 10
91.3325126057
 20
228.5214302487
 30
0.0
  0
SPLINE
  5
482
100
AcDbEntity
  8
0
100
AcDbSpline
 62
7
  6
CONTINUOUS
 70
0
 71
3
 72
11
 73
7
 74
0
 42
0.0000001
 43
0.0000001
 44
0.0000000001
 40
0.0
 40
0.0
 40
0.0
 40
0.0
 40
0.2456844674
 40
0.4872316467
 40
0.7365321675
 40
1.0
 40
1.0
 40
1.0
 40
1.0
 10
91.2272979395
 20
228.8214385258
 30
0.0
 10
91.2245888548
 20
228.8333412595
 30
0.0
 10
91.2233141032
 20
228.8582697121
 30
0.0
 10
91.2382348523
 20
228.8933381833
 30
0.0
 10
91.2694949484
 20
228.9168567216
 30
0.0
 10
91.2954323849
 20
228.9214302487
 30
0.0
 10
91.3085231111
 20
228.9214302487
 30
0.0
  0
SPLINE
  5
483
100
AcDbEntity
  8
0
100
AcDbSpline
 62
7
  6
CONTINUOUS
 70
0
 71
3
 72
11
 73
7
 74
0
 42
0.0000001
 43
0.0000001
 44
0.0000000001
 40
0.0
 40
0.0
 40
0.0
 40
0.0
 40
0.3270465001
 40
0.6056947861
 40
0.8137977748
 40
1.0
 40
1.0
 40
1.0
 40
1.0
 10
94.0241019225
 20
228.8214385654
 30
0.0
 10
94.0186303609
 20
228.8331726905
 30
0.0
 10
94.0103704556
 20
228.8559307268
 30
0.0
 10
94.0059228287
 20
228.8879312031
 30
0.0
 10
94.0147056673
 20
228.915823217
 30
0.0
 10
94.0316368573
 20
228.9214302487
 30
0.0
 10
94.0390082275
 20
228.9214302487
 30
0.0
  0
SPLINE
  5
484
100
AcDbEntity
  8
0
100
AcDbSpline
 62
7
  6
CONTINUOUS
 70
0
 71
3
 72
9
 73
5
 74
0
 42
0.0000001
 43
0.0000001
 44
0.0000000001
 40
0.0
 40
0.0
 40
0.0
 40
0.0
 40
0.2461010597
 40
1.0
 40
1.0
 40
1.0
 40
1.0
 10
94.1843293836
 20
226.7214302487
 30
0.0
 10
94.2181364364
 20
226.7085366168
 30
0.0
 10
94.3565455996
 20
226.6588939791
 30
0.0
 10
94.498842048
 20
226.6202209595
 30
0.0
 10
94.6072118651
 20
226.5969511536
 30
0.0
  0
SPLINE
  5
485
100
AcDbEntity
  8
0
100
AcDbSpline
 62
7
  6
CONTINUOUS
 70
0
 71
3
 72
9
 73
5
 74
0
 42
0.0000001
 43
0.0000001
 44
0.0000000001
 40
0.0
 40
0.0
 40
0.0
 40
0.0
 40
0.2542301673
 40
1.0
 40
1.0
 40
1.0
 40
1.0
 10
96.383277002
 20
226.6228647362
 30
0.0
 10
96.4211322865
 20
226.6324435555
 30
0.0
 10
96.5692778977
 20
226.673025265
 30
0.0
 10
96.7142162662
 20
226.7254904042
 30
0.0
 10
96.8191465742
 20
226.7714302487
 30
0.0
  0
LINE
  5
486
100
AcDbEntity
  8
0
100
AcDbLine
 62
7
  6
CONTINUOUS
 10
95.4293820933
 20
228.0606497645
 11
95.4037283072
 21
228.0606607694
  0
SPLINE
  5
487
100
AcDbEntity
  8
0
100
AcDbSpline
 62
7
  6
CONTINUOUS
 70
0
 71
3
 72
10
 73
6
 74
0
 42
0.0000001
 43
0.0000001
 44
0.0000000001
 40
0.0
 40
0.0
 40
0.0
 40
0.0
 40
0.5882061623
 40
0.8245691972
 40
1.0
 40
1.0
 40
1.0
 40
1.0
 10
552.843265442
 20
443.5460055603
 30
0.0
 10
552.8272350183
 20
443.8433223835
 30
0.0
 10
552.7791765746
 20
444.2599218246
 30
0.0
 10
552.6643712307
 20
444.7531811391
 30
0.0
 10
552.6015156069
 20
444.9523680413
 30
0.0
 10
552.569085845
 20
445.0350374291
 30
0.0
  0
SPLINE
  5
488
100
AcDbEntity
  8
0
100
AcDbSpline
 62
7
  6
CONTINUOUS
 70
0
 71
3
 72
18
 73
14
 74
0
 42
0.0000001
 43
0.0000001
 44
0.0000000001
 40
0.0
 40
0.0
 40
0.0
 40
0.0
 40
0.2351477332
 40
0.412401355
 40
0.5324621742
 40
0.5724830116
 40
0.6012063208
 40
0.6229506435
 40
0.6458256944
 40
0.676686019
 40
0.7182720445
 40
0.8360891125
 40
1.0
 40
1.0
 40
1.0
 40
1.0
 10
552.569085845
 20
445.0350374291
 30
0.0
 10
552.5593210943
 20
445.0599295626
 30
0.0
 10
552.5412270095
 20
445.1032712199
 30
0.0
 10
552.5139361365
 20
445.1572548585
 30
0.0
 10
552.4930768274
 20
445.1898487974
 30
0.0
 10
552.4777903596
 20
445.2049978685
 30
0.0
 10
552.4688320041
 20
445.2105151088
 30
0.0
 10
552.4598594379
 20
445.2106377164
 30
0.0
 10
552.4530993494
 20
445.2044722552
 30
0.0
 10
552.4486634465
 20
445.194493232
 30
0.0
 10
552.4437374978
 20
445.1733396516
 30
0.0
 10
552.4420617879
 20
445.1364214235
 30
0.0
 10
552.4433325079
 20
445.1044268301
 30
0.0
 10
552.4445448659
 20
445.0858278206
 30
0.0
  0
SPLINE
  5
489
100
AcDbEntity
  8
0
100
AcDbSpline
 62
7
  6
CONTINUOUS
 70
0
 71
3
 72
9
 73
5
 74
0
 42
0.0000001
 43
0.0000001
 44
0.0000000001
 40
0.0
 40
0.0
 40
0.0
 40
0.0
 40
0.2298779561
 40
1.0
 40
1.0
 40
1.0
 40
1.0
 10
552.4445448659
 20
445.0858278206
 30
0.0
 10
552.4449188421
 20
445.0800905827
 30
0.0
 10
552.4467407839
 20
445.0551455281
 30
0.0
 10
552.4492348311
 20
445.0302530817
 30
0.0
 10
552.4513818532
 20
445.0111118097
 30
0.0
  0
SPLINE
  5
48A
100
AcDbEntity
  8
0
100
AcDbSpline
 62
7
  6
CONTINUOUS
 70
0
 71
3
 72
8
 73
4
 74
0
 42
0.0000001
 43
0.0000001
 44
0.0000000001
 40
0.0
 40
0.0
 40
0.0
 40
0.0
 40
1.0
 40
1.0
 40
1.0
 40
1.0
 10
552.8432659221
 20
442.1166082331
 30
0.0
 10
552.8430539997
 20
442.1140967603
 30
0.0
 10
552.8410474846
 20
442.1119020994
 30
0.0
 10
552.8391072584
 20
442.1102933952
 30
0.0
  0
SPLINE
  5
48B
100
AcDbEntity
  8
0
100
AcDbSpline
 62
7
  6
CONTINUOUS
 70
0
 71
3
 72
9
 73
5
 74
0
 42
0.0000001
 43
0.0000001
 44
0.0000000001
 40
0.0
 40
0.0
 40
0.0
 40
0.0
 40
0.4672657458
 40
1.0
 40
1.0
 40
1.0
 40
1.0
 10
552.8391072584
 20
442.1102933952
 30
0.0
 10
552.8383758391
 20
442.1096869518
 30
0.0
 10
552.8367308305
 20
442.1084846996
 30
0.0
 10
552.8349895202
 20
442.1074309207
 30
0.0
 10
552.8340452663
 20
442.1069000518
 30
0.0
  0
LINE
  5
48C
100
AcDbEntity
  8
0
100
AcDbLine
 62
7
  6
CONTINUOUS
 10
552.8340551505
 20
443.5354823757
 11
552.8335431047
 21
443.545087112
  0
SPLINE
  5
48D
100
AcDbEntity
  8
0
100
AcDbSpline
 62
7
  6
CONTINUOUS
 70
0
 71
3
 72
24
 73
20
 74
0
 42
0.0000001
 43
0.0000001
 44
0.0000000001
 40
0.0
 40
0.0
 40
0.0
 40
0.0
 40
0.2287548467
 40
0.4407552385
 40
0.5374128881
 40
0.6261795353
 40
0.7057881866
 40
0.7751472941
 40
0.8334468565
 40
0.8800578489
 40
0.9148377273
 40
0.9379321444
 40
0.9454380238
 40
0.9507313855
 40
0.9548652754
 40
0.9596356547
 40
0.9662601152
 40
0.9751476306
 40
1.0
 40
1.0
 40
1.0
 40
1.0
 10
552.8335431047
 20
443.545087112
 30
0.0
 10
552.8263569293
 20
443.6780608948
 30
0.0
 10
552.8048316091
 20
443.9339055799
 30
0.0
 10
552.7608936323
 20
444.2438549576
 30
0.0
 10
552.7173361308
 20
444.4711141214
 30
0.0
 10
552.6832648115
 20
444.6216229873
 30
0.0
 10
552.6481673926
 20
444.7555192812
 30
0.0
 10
552.6133054466
 20
444.8710743472
 30
0.0
 10
552.5799884428
 20
444.9669030558
 30
0.0
 10
552.5493922143
 20
445.0423785421
 30
0.0
 10
552.5224609872
 20
445.0968090306
 30
0.0
 10
552.5018715518
 20
445.1293340337
 30
0.0
 10
552.4868236039
 20
445.1438384558
 30
0.0
 10
552.4778558472
 20
445.1487901627
 30
0.0
 10
552.4689810831
 20
445.1474771925
 30
0.0
 10
552.4629868819
 20
445.1400181252
 30
0.0
 10
552.4589253144
 20
445.1289340581
 30
0.0
 10
552.4545632237
 20
445.1057370483
 30
0.0
 10
552.4540163228
 20
445.0860265896
 30
0.0
 10
552.4540019608
 20
445.0715589871
 30
0.0
  0
SPLINE
  5
48E
100
AcDbEntity
  8
0
100
AcDbSpline
 62
7
  6
CONTINUOUS
 70
0
 71
3
 72
8
 73
4
 74
0
 42
0.0000001
 43
0.0000001
 44
0.0000000001
 40
0.0
 40
0.0
 40
0.0
 40
0.0
 40
1.0
 40
1.0
 40
1.0
 40
1.0
 10
552.5125866809
 20
442.2825197044
 30
0.0
 10
552.5114823526
 20
442.2924416489
 30
0.0
 10
552.5086854048
 20
442.3022999504
 30
0.0
 10
552.5044644898
 20
442.3113469609
 30
0.0
  0
SPLINE
  5
48F
100
AcDbEntity
  8
0
100
AcDbSpline
 62
7
  6
CONTINUOUS
 70
0
 71
3
 72
9
 73
5
 74
0
 42
0.0000001
 43
0.0000001
 44
0.0000000001
 40
0.0
 40
0.0
 40
0.0
 40
0.0
 40
0.1465409028
 40
1.0
 40
1.0
 40
1.0
 40
1.0
 10
552.6575857812
 20
440.0627901143
 30
0.0
 10
552.6575602373
 20
440.0633937467
 30
0.0
 10
552.6554778908
 20
440.067267985
 30
0.0
 10
552.6508239869
 20
440.0681853658
 30
0.0
 10
552.6474474167
 20
440.0691754037
 30
0.0
  0
SPLINE
  5
490
100
AcDbEntity
  8
0
100
AcDbSpline
 62
7
  6
CONTINUOUS
 70
0
 71
3
 72
9
 73
5
 74
0
 42
0.0000001
 43
0.0000001
 44
0.0000000001
 40
0.0
 40
0.0
 40
0.0
 40
0.0
 40
0.1465930325
 40
1.0
 40
1.0
 40
1.0
 40
1.0
 10
552.6575959623
 20
410.5800715749
 30
0.0
 10
552.6575720624
 20
410.5794681411
 30
0.0
 10
552.6555009498
 20
410.57559102
 30
0.0
 10
552.6508469258
 20
410.5746727902
 30
0.0
 10
552.6474736023
 20
410.5736823898
 30
0.0
  0
SPLINE
  5
491
100
AcDbEntity
  8
0
100
AcDbSpline
 62
7
  6
CONTINUOUS
 70
0
 71
3
 72
8
 73
4
 74
0
 42
0.0000001
 43
0.0000001
 44
0.0000000001
 40
0.0
 40
0.0
 40
0.0
 40
0.0
 40
1.0
 40
1.0
 40
1.0
 40
1.0
 10
552.51258023
 20
408.3603403875
 30
0.0
 10
552.5114675056
 20
408.3504134529
 30
0.0
 10
552.5086605495
 20
408.3405514796
 30
0.0
 10
552.504428851
 20
408.3315030039
 30
0.0
  0
SPLINE
  5
492
100
AcDbEntity
  8
0
100
AcDbSpline
 62
7
  6
CONTINUOUS
 70
0
 71
3
 72
20
 73
16
 74
0
 42
0.0000001
 43
0.0000001
 44
0.0000000001
 40
0.0
 40
0.0
 40
0.0
 40
0.0
 40
0.0559109082
 40
0.1041194813
 40
0.1437431151
 40
0.1738806988
 40
0.194620951
 40
0.202700212
 40
0.2108076032
 40
0.2326731965
 40
0.2680336382
 40
0.3852128062
 40
0.5581295509
 40
0.7692078034
 40
1.0
 40
1.0
 40
1.0
 40
1.0
 10
552.4537931799
 20
407.569866046
 30
0.0
 10
552.4538108448
 20
407.538382119
 30
0.0
 10
552.4548543708
 20
407.4797225626
 30
0.0
 10
552.4604840735
 20
407.3989911297
 30
0.0
 10
552.4704806546
 20
407.3330203403
 30
0.0
 10
552.484513595
 20
407.2842777501
 30
0.0
 10
552.5024197067
 20
407.2543444534
 30
0.0
 10
552.5217764412
 20
407.2448827931
 30
0.0
 10
552.544006954
 20
407.2462907553
 30
0.0
 10
552.5739006208
 20
407.2715264621
 30
0.0
 10
552.6267338405
 20
407.3537316059
 30
0.0
 10
552.6904878676
 20
407.5280400494
 30
0.0
 10
552.7557509958
 20
407.8021869228
 30
0.0
 10
552.8068271177
 20
408.1452493599
 30
0.0
 10
552.826559156
 20
408.3933860001
 30
0.0
 10
552.8333912178
 20
408.5231674431
 30
0.0
  0
LINE
  5
493
100
AcDbEntity
  8
0
100
AcDbLine
 62
7
  6
CONTINUOUS
 10
552.8333912178
 20
408.5231674431
 11
552.8340513364
 21
408.5359274484
  0
SPLINE
  5
494
100
AcDbEntity
  8
0
100
AcDbSpline
 62
7
  6
CONTINUOUS
 70
0
 71
3
 72
11
 73
7
 74
0
 42
0.0000001
 43
0.0000001
 44
0.0000000001
 40
0.0
 40
0.0
 40
0.0
 40
0.0
 40
0.1787779999
 40
0.3950309256
 40
0.6690930841
 40
1.0
 40
1.0
 40
1.0
 40
1.0
 10
547.6923775313
 20
403.2195585109
 30
0.0
 10
547.6923648847
 20
403.261598438
 30
0.0
 10
547.6624025218
 20
403.3554836719
 30
0.0
 10
547.544191945
 20
403.4654079089
 30
0.0
 10
547.3702899461
 20
403.5522618574
 30
0.0
 10
547.2330662926
 20
403.5920950168
 30
0.0
 10
547.1572902516
 20
403.6097839614
 30
0.0
  0
SPLINE
  5
495
100
AcDbEntity
  8
0
100
AcDbSpline
 62
7
  6
CONTINUOUS
 70
0
 71
3
 72
8
 73
4
 74
0
 42
0.0000001
 43
0.0000001
 44
0.0000000001
 40
0.0
 40
0.0
 40
0.0
 40
0.0
 40
1.0
 40
1.0
 40
1.0
 40
1.0
 10
547.6923961004
 20
403.2196013328
 30
0.0
 10
547.9448579191
 20
403.2274132516
 30
0.0
 10
548.1997949975
 20
403.2786448061
 30
0.0
 10
548.4348411423
 20
403.3711180771
 30
0.0
  0
SPLINE
  5
496
100
AcDbEntity
  8
0
100
AcDbSpline
 62
7
  6
CONTINUOUS
 70
0
 71
3
 72
11
 73
7
 74
0
 42
0.0000001
 43
0.0000001
 44
0.0000000001
 40
0.0
 40
0.0
 40
0.0
 40
0.0
 40
0.2342535325
 40
0.4798220859
 40
0.7356841994
 40
1.0
 40
1.0
 40
1.0
 40
1.0
 10
547.1554089559
 20
405.8264181615
 30
0.0
 10
547.4645362607
 20
406.0398413087
 30
0.0
 10
548.0207144558
 20
406.5942248194
 30
0.0
 10
548.5918920551
 20
407.6398239559
 30
0.0
 10
548.9248473923
 20
408.8307831985
 30
0.0
 10
548.9933796017
 20
409.6671589419
 30
0.0
 10
548.9933801129
 20
410.0910112325
 30
0.0
  0
SPLINE
  5
497
100
AcDbEntity
  8
0
100
AcDbSpline
 62
7
  6
CONTINUOUS
 70
0
 71
3
 72
11
 73
7
 74
0
 42
0.0000001
 43
0.0000001
 44
0.0000000001
 40
0.0
 40
0.0
 40
0.0
 40
0.0
 40
0.2643157819
 40
0.5201778845
 40
0.7657464445
 40
1.0
 40
1.0
 40
1.0
 40
1.0
 10
548.993380108
 20
440.5518492647
 30
0.0
 10
548.9933796005
 20
440.9757010623
 30
0.0
 10
548.9248475504
 20
441.8120758389
 30
0.0
 10
548.5918930165
 20
443.0030338377
 30
0.0
 10
548.0207168098
 20
444.0486322371
 30
0.0
 10
547.4645399611
 20
444.6030158574
 30
0.0
 10
547.1554133267
 20
444.816439318
 30
0.0
  0
SPLINE
  5
498
100
AcDbEntity
  8
0
100
AcDbSpline
 62
7
  6
CONTINUOUS
 70
0
 71
3
 72
12
 73
8
 74
0
 42
0.0000001
 43
0.0000001
 44
0.0000000001
 40
0.0
 40
0.0
 40
0.0
 40
0.0
 40
0.317196696
 40
0.596584932
 40
0.7177712414
 40
0.825012407
 40
1.0
 40
1.0
 40
1.0
 40
1.0
 10
547.176249864
 20
446.3292290785
 30
0.0
 10
547.33752781
 20
446.3876025085
 30
0.0
 10
547.6353347301
 20
446.5135430192
 30
0.0
 10
547.9718245688
 20
446.710434849
 30
0.0
 10
548.1865561728
 20
446.8827237332
 30
0.0
 10
548.3383474328
 20
447.039596312
 30
0.0
 10
548.4135476894
 20
447.1795282121
 30
0.0
 10
548.4349368607
 20
447.271699519
 30
0.0
  0
SPLINE
  5
499
100
AcDbEntity
  8
0
100
AcDbSpline
 62
7
  6
CONTINUOUS
 70
0
 71
3
 72
8
 73
4
 74
0
 42
0.0000001
 43
0.0000001
 44
0.0000000001
 40
0.0
 40
0.0
 40
0.0
 40
0.0
 40
1.0
 40
1.0
 40
1.0
 40
1.0
 10
548.4348411437
 20
447.2717371796
 30
0.0
 10
548.199795107
 20
447.3642111458
 30
0.0
 10
547.9448580492
 20
447.4154435216
 30
0.0
 10
547.6923961007
 20
447.423256229
 30
0.0
  0
SPLINE
  5
49A
100
AcDbEntity
  8
0
100
AcDbSpline
 62
7
  6
CONTINUOUS
 70
0
 71
3
 72
11
 73
7
 74
0
 42
0.0000001
 43
0.0000001
 44
0.0000000001
 40
0.0
 40
0.0
 40
0.0
 40
0.0
 40
0.3309070988
 40
0.6049694281
 40
0.8212223183
 40
1.0
 40
1.0
 40
1.0
 40
1.0
 10
547.1572857086
 20
447.03307548
 30
0.0
 10
547.2330623116
 20
447.0507643795
 30
0.0
 10
547.3702870096
 20
447.09059749
 30
0.0
 10
547.544190421
 20
447.1774515001
 30
0.0
 10
547.6624021199
 20
447.2873759923
 30
0.0
 10
547.6923648467
 20
447.3812617091
 30
0.0
 10
547.6923775345
 20
447.4233018284
 30
0.0
  0
SPLINE
  5
49B
100
AcDbEntity
  8
0
100
AcDbSpline
 62
7
  6
CONTINUOUS
 70
0
 71
3
 72
20
 73
16
 74
0
 42
0.0000001
 43
0.0000001
 44
0.0000000001
 40
0.0
 40
0.0
 40
0.0
 40
0.0
 40
0.2303942295
 40
0.4414475523
 40
0.6147958778
 40
0.7326090089
 40
0.7682866526
 40
0.7903502116
 40
0.7984676002
 40
0.8064898529
 40
0.8270129411
 40
0.8569138559
 40
0.8963107451
 40
0.9443015441
 40
1.0
 40
1.0
 40
1.0
 40
1.0
 10
552.8340562509
 20
442.1069086928
 30
0.0
 10
552.8274136267
 20
442.2374644034
 30
0.0
 10
552.8079951195
 20
442.4872863413
 30
0.0
 10
552.757219828
 20
442.8330581833
 30
0.0
 10
552.6919472939
 20
443.1100271237
 30
0.0
 10
552.627961233
 20
443.2865576045
 30
0.0
 10
552.5748110166
 20
443.370215008
 30
0.0
 10
552.5448383401
 20
443.3961765002
 30
0.0
 10
552.5223952571
 20
443.3980951877
 30
0.0
 10
552.5028364417
 20
443.3889840695
 30
0.0
 10
552.4847169985
 20
443.3591385844
 30
0.0
 10
552.4706024764
 20
443.3104350568
 30
0.0
 10
552.4605237817
 20
443.2443459785
 30
0.0
 10
552.4548587394
 20
443.16337521
 30
0.0
 10
552.4538099226
 20
443.1045125656
 30
0.0
 10
552.4537934249
 20
443.0729095313
 30
0.0
  0
SPLINE
  5
49C
100
AcDbEntity
  8
0
100
AcDbSpline
 62
7
  6
CONTINUOUS
 70
0
 71
3
 72
9
 73
5
 74
0
 42
0.0000001
 43
0.0000001
 44
0.0000000001
 40
0.0
 40
0.0
 40
0.0
 40
0.0
 40
0.2547728469
 40
1.0
 40
1.0
 40
1.0
 40
1.0
 10
552.8359233462
 20
442.2370972061
 30
0.0
 10
552.833961875
 20
442.2652125969
 30
0.0
 10
552.8255658996
 20
442.3755165286
 30
0.0
 10
552.8142950738
 20
442.4856100191
 30
0.0
 10
552.8039921904
 20
442.5674029219
 30
0.0
  0
SPLINE
  5
49D
100
AcDbEntity
  8
0
100
AcDbSpline
 62
7
  6
CONTINUOUS
 70
0
 71
3
 72
20
 73
16
 74
0
 42
0.0000001
 43
0.0000001
 44
0.0000000001
 40
0.0
 40
0.0
 40
0.0
 40
0.0
 40
0.2411792923
 40
0.3489059645
 40
0.4451320937
 40
0.52770423
 40
0.5951556383
 40
0.6468027224
 40
0.68320509
 40
0.7070003518
 40
0.7253037866
 40
0.7483574707
 40
0.7806180737
 40
0.8736137275
 40
1.0
 40
1.0
 40
1.0
 40
1.0
 10
552.8039921904
 20
442.5674029219
 30
0.0
 10
552.7905695926
 20
442.6739627262
 30
0.0
 10
552.7665820031
 20
442.8276587123
 30
0.0
 10
552.7239263925
 20
443.0213000986
 30
0.0
 10
552.6906663129
 20
443.1445277788
 30
0.0
 10
552.6560651657
 20
443.2487111307
 30
0.0
 10
552.621660841
 20
443.3316425235
 30
0.0
 10
552.5884293588
 20
443.3929715125
 30
0.0
 10
552.5581232126
 20
443.43199472
 30
0.0
 10
552.5276061237
 20
443.4537295981
 30
0.0
 10
552.4962356893
 20
443.4466354908
 30
0.0
 10
552.4772173138
 20
443.4177950829
 30
0.0
 10
552.4557038134
 20
443.3556861223
 30
0.0
 10
552.4436010027
 20
443.2428743751
 30
0.0
 10
552.4422176482
 20
443.1454902219
 30
0.0
 10
552.4430175517
 20
443.089213629
 30
0.0
  0
SPLINE
  5
49E
100
AcDbEntity
  8
0
100
AcDbSpline
 62
7
  6
CONTINUOUS
 70
0
 71
3
 72
9
 73
5
 74
0
 42
0.0000001
 43
0.0000001
 44
0.0000000001
 40
0.0
 40
0.0
 40
0.0
 40
0.0
 40
0.4547549367
 40
1.0
 40
1.0
 40
1.0
 40
1.0
 10
552.4430175517
 20
443.089213629
 30
0.0
 10
552.4446994787
 20
442.9708829482
 30
0.0
 10
552.4618391295
 20
442.7109618285
 30
0.0
 10
552.4886716909
 20
442.4521395001
 30
0.0
 10
552.5044581704
 20
442.3111291891
 30
0.0
  0
LINE
  5
49F
100
AcDbEntity
  8
0
100
AcDbLine
 62
7
  6
CONTINUOUS
 10
552.5044639663
 20
442.3113517215
 11
552.5070396211
 21
442.2866547969
  0
SPLINE
  5
4A0
100
AcDbEntity
  8
0
100
AcDbSpline
 62
7
  6
CONTINUOUS
 70
0
 71
3
 72
9
 73
5
 74
0
 42
0.0000001
 43
0.0000001
 44
0.0000000001
 40
0.0
 40
0.0
 40
0.0
 40
0.0
 40
0.2231731647
 40
1.0
 40
1.0
 40
1.0
 40
1.0
 10
552.5070396211
 20
442.2866547969
 30
0.0
 10
552.5240972947
 20
442.1222246338
 30
0.0
 10
552.5927536031
 20
441.3846622584
 30
0.0
 10
552.6333128097
 20
440.6444290743
 30
0.0
 10
552.6474737151
 20
440.0691791754
 30
0.0
  0
SPLINE
  5
4A1
100
AcDbEntity
  8
0
100
AcDbSpline
 62
7
  6
CONTINUOUS
 70
0
 71
3
 72
9
 73
5
 74
0
 42
0.0000001
 43
0.0000001
 44
0.0000000001
 40
0.0
 40
0.0
 40
0.0
 40
0.0
 40
0.4996316054
 40
1.0
 40
1.0
 40
1.0
 40
1.0
 10
552.6800912705
 20
438.7235018849
 30
0.0
 10
552.7303476324
 20
436.5472671679
 30
0.0
 10
552.8014967319
 20
432.1908533381
 30
0.0
 10
552.8180687302
 20
427.8339693116
 30
0.0
 10
552.8188789199
 20
425.6539444581
 30
0.0
  0
LINE
  5
4A2
100
AcDbEntity
  8
0
100
AcDbLine
 62
7
  6
CONTINUOUS
 10
552.8188789199
 20
425.6539444581
 11
552.8188699868
 21
424.9657350277
  0
SPLINE
  5
4A3
100
AcDbEntity
  8
0
100
AcDbSpline
 62
7
  6
CONTINUOUS
 70
0
 71
3
 72
9
 73
5
 74
0
 42
0.0000001
 43
0.0000001
 44
0.0000000001
 40
0.0
 40
0.0
 40
0.0
 40
0.0
 40
0.5003685183
 40
1.0
 40
1.0
 40
1.0
 40
1.0
 10
552.8188699868
 20
424.9657350277
 30
0.0
 10
552.8180040997
 20
422.7898547894
 30
0.0
 10
552.801346888
 20
418.4412555275
 30
0.0
 10
552.7302836798
 20
414.093126385
 30
0.0
 10
552.680129185
 20
411.9210299851
 30
0.0
  0
SPLINE
  5
4A4
100
AcDbEntity
  8
0
100
AcDbSpline
 62
7
  6
CONTINUOUS
 70
0
 71
3
 72
9
 73
5
 74
0
 42
0.0000001
 43
0.0000001
 44
0.0000000001
 40
0.0
 40
0.0
 40
0.0
 40
0.0
 40
0.2675382686
 40
1.0
 40
1.0
 40
1.0
 40
1.0
 10
552.6474736547
 20
410.573684561
 30
0.0
 10
552.6425948487
 20
410.3755588492
 30
0.0
 10
552.6159592585
 20
409.6352489383
 30
0.0
 10
552.5630261054
 20
408.8958094743
 30
0.0
 10
552.5070297713
 20
408.3561170315
 30
0.0
  0
LINE
  5
4A5
100
AcDbEntity
  8
0
100
AcDbLine
 62
7
  6
CONTINUOUS
 10
552.5070297713
 20
408.3561170315
 11
552.5044632102
 21
408.3315117078
  0
SPLINE
  5
4A6
100
AcDbEntity
  8
0
100
AcDbSpline
 62
7
  6
CONTINUOUS
 70
0
 71
3
 72
8
 73
4
 74
0
 42
0.0000001
 43
0.0000001
 44
0.0000000001
 40
0.0
 40
0.0
 40
0.0
 40
0.0
 40
1.0
 40
1.0
 40
1.0
 40
1.0
 10
552.834056808
 20
408.5359384741
 30
0.0
 10
552.837209856
 20
408.5343301938
 30
0.0
 10
552.8408548732
 20
408.5323792661
 30
0.0
 10
552.8421766878
 20
408.52909581
 30
0.0
  0
SPLINE
  5
4A7
100
AcDbEntity
  8
0
100
AcDbSpline
 62
7
  6
CONTINUOUS
 70
0
 71
3
 72
9
 73
5
 74
0
 42
0.0000001
 43
0.0000001
 44
0.0000000001
 40
0.0
 40
0.0
 40
0.0
 40
0.0
 40
0.4163070998
 40
1.0
 40
1.0
 40
1.0
 40
1.0
 10
552.8421766878
 20
408.52909581
 30
0.0
 10
552.8425199165
 20
408.5282432119
 30
0.0
 10
552.8429783253
 20
408.5260549225
 30
0.0
 10
552.8430282992
 20
408.5238437686
 30
0.0
 10
552.8430061345
 20
408.5225553257
 30
0.0
  0
LINE
  5
4A8
100
AcDbEntity
  8
0
100
AcDbLine
 62
7
  6
CONTINUOUS
 10
552.8340550213
 20
407.1074437725
 11
552.8335140174
 21
407.0979359152
  0
SPLINE
  5
4A9
100
AcDbEntity
  8
0
100
AcDbSpline
 62
7
  6
CONTINUOUS
 70
0
 71
3
 72
23
 73
19
 74
0
 42
0.0000001
 43
0.0000001
 44
0.0000000001
 40
0.0
 40
0.0
 40
0.0
 40
0.0
 40
0.2274939947
 40
0.4391568125
 40
0.624525332
 40
0.7043291289
 40
0.7740127435
 40
0.8326884638
 40
0.8796000619
 40
0.9145310546
 40
0.9377971397
 40
0.9453664681
 40
0.9507062698
 40
0.9548648284
 40
0.9596288836
 40
0.9662402469
 40
0.9751235934
 40
1.0
 40
1.0
 40
1.0
 40
1.0
 10
552.8335140174
 20
407.0979359152
 30
0.0
 10
552.8259140318
 20
406.9657194811
 30
0.0
 10
552.8053328025
 20
406.7107432703
 30
0.0
 10
552.7542598845
 20
406.3505591487
 30
0.0
 10
552.6980880798
 20
406.078489354
 30
0.0
 10
552.6488265784
 20
405.8898499706
 30
0.0
 10
552.6139482796
 20
405.7737539987
 30
0.0
 10
552.5805459765
 20
405.6773364443
 30
0.0
 10
552.5498493056
 20
405.6013821738
 30
0.0
 10
552.5227458684
 20
405.5466216343
 30
0.0
 10
552.5020561693
 20
405.5139115688
 30
0.0
 10
552.4869644579
 20
405.4992133117
 30
0.0
 10
552.4779867409
 20
405.4941475453
 30
0.0
 10
552.4690544487
 20
405.4952898942
 30
0.0
 10
552.4629181936
 20
405.5026501147
 30
0.0
 10
552.4587883262
 20
405.5137049035
 30
0.0
 10
552.4543346884
 20
405.5368865745
 30
0.0
 10
552.4537861375
 20
405.5566162492
 30
0.0
 10
552.4537822297
 20
405.5710979453
 30
0.0
  0
SPLINE
  5
4AA
100
AcDbEntity
  8
0
100
AcDbSpline
 62
7
  6
CONTINUOUS
 70
0
 71
3
 72
8
 73
4
 74
0
 42
0.0000001
 43
0.0000001
 44
0.0000000001
 40
0.0
 40
0.0
 40
0.0
 40
0.0
 40
1.0
 40
1.0
 40
1.0
 40
1.0
 10
552.8340075257
 20
407.1073809019
 30
0.0
 10
552.837178335
 20
407.1055377927
 30
0.0
 10
552.8404907995
 20
407.1033412777
 30
0.0
 10
552.8423027594
 20
407.1001525656
 30
0.0
  0
SPLINE
  5
4AB
100
AcDbEntity
  8
0
100
AcDbSpline
 62
7
  6
CONTINUOUS
 70
0
 71
3
 72
9
 73
5
 74
0
 42
0.0000001
 43
0.0000001
 44
0.0000000001
 40
0.0
 40
0.0
 40
0.0
 40
0.0
 40
0.5222432618
 40
1.0
 40
1.0
 40
1.0
 40
1.0
 10
552.8423027594
 20
407.1001525656
 30
0.0
 10
552.8426016012
 20
407.0996266597
 30
0.0
 10
552.8430782916
 20
407.0985579089
 30
0.0
 10
552.8432519161
 20
407.0973936715
 30
0.0
 10
552.8432473611
 20
407.0968403333
 30
0.0
  0
SPLINE
  5
4AC
100
AcDbEntity
  8
0
100
AcDbSpline
 62
7
  6
CONTINUOUS
 70
0
 71
3
 72
8
 73
4
 74
0
 42
0.0000001
 43
0.0000001
 44
0.0000000001
 40
0.0
 40
0.0
 40
0.0
 40
0.0
 40
1.0
 40
1.0
 40
1.0
 40
1.0
 10
552.8432636584
 20
443.5460222074
 30
0.0
 10
552.8432867481
 20
443.5433285526
 30
0.0
 10
552.8412010931
 20
443.5408208869
 30
0.0
 10
552.8391645291
 20
443.5390577316
 30
0.0
  0
SPLINE
  5
4AD
100
AcDbEntity
  8
0
100
AcDbSpline
 62
7
  6
CONTINUOUS
 70
0
 71
3
 72
9
 73
5
 74
0
 42
0.0000001
 43
0.0000001
 44
0.0000000001
 40
0.0
 40
0.0
 40
0.0
 40
0.0
 40
0.4672273806
 40
1.0
 40
1.0
 40
1.0
 40
1.0
 10
552.8391645291
 20
443.5390577316
 30
0.0
 10
552.8384273577
 20
443.5384195254
 30
0.0
 10
552.8367626866
 20
443.5371534137
 30
0.0
 10
552.834992678
 20
443.5360437931
 30
0.0
 10
552.8340315206
 20
443.5354848989
 30
0.0
  0
LINE
  5
4AE
100
AcDbEntity
  8
0
100
AcDbLine
 62
7
  6
CONTINUOUS
 10
552.476731005
 20
445.6466106769
 11
552.4775722636
 21
445.6437329951
  0
SPLINE
  5
4AF
100
AcDbEntity
  8
0
100
AcDbSpline
 62
7
  6
CONTINUOUS
 70
0
 71
3
 72
9
 73
5
 74
0
 42
0.0000001
 43
0.0000001
 44
0.0000000001
 40
0.0
 40
0.0
 40
0.0
 40
0.0
 40
0.2398108434
 40
1.0
 40
1.0
 40
1.0
 40
1.0
 10
552.7610896784
 20
444.3611357403
 30
0.0
 10
552.7707278047
 20
444.2963458749
 30
0.0
 10
552.8079656758
 20
444.025749488
 30
0.0
 10
552.8325767928
 20
443.7533711629
 30
0.0
 10
552.843265442
 20
443.5460055603
 30
0.0
  0
SPLINE
  5
4B0
100
AcDbEntity
  8
0
100
AcDbSpline
 62
7
  6
CONTINUOUS
 70
0
 71
3
 72
22
 73
18
 74
0
 42
0.0000001
 43
0.0000001
 44
0.0000000001
 40
0.0
 40
0.0
 40
0.0
 40
0.0
 40
0.2308061556
 40
0.440595512
 40
0.5319745485
 40
0.6109399888
 40
0.6753265548
 40
0.7239609577
 40
0.7571015141
 40
0.7775035736
 40
0.7855376054
 40
0.7941197881
 40
0.816885906
 40
0.8493196901
 40
0.8912601203
 40
0.941801933
 40
1.0
 40
1.0
 40
1.0
 40
1.0
 10
552.8412782723
 20
408.4897670078
 30
0.0
 10
552.8336135546
 20
408.3550799874
 30
0.0
 10
552.8113615396
 20
408.098337815
 30
0.0
 10
552.7628812629
 20
407.7907928398
 30
0.0
 10
552.7123384548
 20
407.5743495511
 30
0.0
 10
552.6734275531
 20
407.4426450458
 30
0.0
 10
552.6340558876
 20
407.3375526276
 30
0.0
 10
552.5953799432
 20
407.2607537783
 30
0.0
 10
552.5610458684
 20
407.2123806763
 30
0.0
 10
552.5287631833
 20
407.1904232213
 30
0.0
 10
552.5063477287
 20
407.1933401313
 30
0.0
 10
552.4871782066
 20
407.2072181803
 30
0.0
 10
552.4698986859
 20
407.2416868025
 30
0.0
 10
552.4561266955
 20
407.2966262321
 30
0.0
 10
552.4471001071
 20
407.3693230903
 30
0.0
 10
552.4426425951
 20
407.4572775888
 30
0.0
 10
552.4425325617
 20
407.5208694013
 30
0.0
 10
552.4430300539
 20
407.5548822147
 30
0.0
  0
SPLINE
  5
4B1
100
AcDbEntity
  8
0
100
AcDbSpline
 62
7
  6
CONTINUOUS
 70
0
 71
3
 72
9
 73
5
 74
0
 42
0.0000001
 43
0.0000001
 44
0.0000000001
 40
0.0
 40
0.0
 40
0.0
 40
0.0
 40
0.4549295942
 40
1.0
 40
1.0
 40
1.0
 40
1.0
 10
552.4430300539
 20
407.5548822147
 30
0.0
 10
552.4447584763
 20
407.6730519066
 30
0.0
 10
552.4619117863
 20
407.9325159843
 30
0.0
 10
552.4886887875
 20
408.1908897479
 30
0.0
 10
552.5044417761
 20
408.3316100104
 30
0.0
  0
SPLINE
  5
4B2
100
AcDbEntity
  8
0
100
AcDbSpline
 62
7
  6
CONTINUOUS
 70
0
 71
3
 72
10
 73
6
 74
0
 42
0.0000001
 43
0.0000001
 44
0.0000000001
 40
0.0
 40
0.0
 40
0.0
 40
0.0
 40
0.5934761507
 40
0.82883257
 40
1.0
 40
1.0
 40
1.0
 40
1.0
 10
552.8432661912
 20
407.0968703841
 30
0.0
 10
552.8268025311
 20
406.7924709667
 30
0.0
 10
552.7773320637
 20
406.3674632426
 30
0.0
 10
552.6583688204
 20
405.8675238783
 30
0.0
 10
552.5939987964
 20
405.6683715632
 30
0.0
 10
552.5607567215
 20
405.5869763196
 30
0.0
  0
SPLINE
  5
4B3
100
AcDbEntity
  8
0
100
AcDbSpline
 62
7
  6
CONTINUOUS
 70
0
 71
3
 72
15
 73
11
 74
0
 42
0.0000001
 43
0.0000001
 44
0.0000000001
 40
0.0
 40
0.0
 40
0.0
 40
0.0
 40
0.2426763351
 40
0.4299465392
 40
0.5630020754
 40
0.6456616704
 40
0.6936022632
 40
0.7537466523
 40
0.8546112072
 40
1.0
 40
1.0
 40
1.0
 40
1.0
 10
552.5607567215
 20
405.5869763196
 30
0.0
 10
552.5523050813
 20
405.5662819643
 30
0.0
 10
552.5364536917
 20
405.5300567239
 30
0.0
 10
552.5129547464
 20
405.4834758811
 30
0.0
 10
552.4920450265
 20
405.4532388843
 30
0.0
 10
552.4761729872
 20
405.433710667
 30
0.0
 10
552.4556863523
 20
405.4315866238
 30
0.0
 10
552.4467441819
 20
405.4521623507
 30
0.0
 10
552.4430704288
 20
405.478893396
 30
0.0
 10
552.4425736825
 20
405.5020572139
 30
0.0
 10
552.4427671762
 20
405.5154480286
 30
0.0
  0
SPLINE
  5
4B4
100
AcDbEntity
  8
0
100
AcDbSpline
 62
7
  6
CONTINUOUS
 70
0
 71
3
 72
13
 73
9
 74
0
 42
0.0000001
 43
0.0000001
 44
0.0000000001
 40
0.0
 40
0.0
 40
0.0
 40
0.0
 40
0.0668747794
 40
0.1557425269
 40
0.266147988
 40
0.3950621846
 40
0.6906954169
 40
1.0
 40
1.0
 40
1.0
 40
1.0
 10
552.647471678
 20
410.5736798305
 30
0.0
 10
552.5744445084
 20
410.5350466329
 30
0.0
 10
552.3948028321
 20
410.4636919401
 30
0.0
 10
552.0780892021
 20
410.3746547251
 30
0.0
 10
551.680486629
 20
410.2936752135
 30
0.0
 10
551.0268008668
 20
410.1952353421
 30
0.0
 10
550.1227646217
 20
410.1167680915
 30
0.0
 10
549.3754838701
 20
410.0933669018
 30
0.0
 10
548.993378907
 20
410.0910077158
 30
0.0
  0
SPLINE
  5
4B5
100
AcDbEntity
  8
0
100
AcDbSpline
 62
7
  6
CONTINUOUS
 70
0
 71
3
 72
11
 73
7
 74
0
 42
0.0000001
 43
0.0000001
 44
0.0000000001
 40
0.0
 40
0.0
 40
0.0
 40
0.0
 40
0.2505213961
 40
0.5008388189
 40
0.7507467996
 40
1.0
 40
1.0
 40
1.0
 40
1.0
 10
548.4348480179
 20
403.3710870097
 30
0.0
 10
548.9316890129
 20
403.6090318343
 30
0.0
 10
549.8719109699
 20
404.2044293121
 30
0.0
 10
551.0445886267
 20
405.3837975463
 30
0.0
 10
551.9452353122
 20
406.7771106822
 30
0.0
 10
552.3517431411
 20
407.8052193157
 30
0.0
 10
552.5044417761
 20
408.3316100104
 30
0.0
  0
SPLINE
  5
4B6
100
AcDbEntity
  8
0
100
AcDbSpline
 62
7
  6
CONTINUOUS
 70
0
 71
3
 72
11
 73
7
 74
0
 42
0.0000001
 43
0.0000001
 44
0.0000000001
 40
0.0
 40
0.0
 40
0.0
 40
0.0
 40
0.3172921446
 40
0.5969814463
 40
0.8249811424
 40
1.0
 40
1.0
 40
1.0
 40
1.0
 10
547.1689168991
 20
404.3175807307
 30
0.0
 10
547.3307959101
 20
404.2584565227
 30
0.0
 10
547.6297749117
 20
404.1313510135
 30
0.0
 10
548.0191184169
 20
403.9051365707
 30
0.0
 10
548.3012120153
 20
403.6623188585
 30
0.0
 10
548.4178907646
 20
403.4646597785
 30
0.0
 10
548.4349431369
 20
403.3711396455
 30
0.0
  0
SPLINE
  5
4B7
100
AcDbEntity
  8
0
100
AcDbSpline
 62
7
  6
CONTINUOUS
 70
0
 71
3
 72
11
 73
7
 74
0
 42
0.0000001
 43
0.0000001
 44
0.0000000001
 40
0.0
 40
0.0
 40
0.0
 40
0.0
 40
0.2492555445
 40
0.4991632616
 40
0.7494800664
 40
1.0
 40
1.0
 40
1.0
 40
1.0
 10
552.5044581704
 20
442.3111291891
 30
0.0
 10
552.3517591521
 20
442.8375353789
 30
0.0
 10
551.9452870103
 20
443.8656846266
 30
0.0
 10
551.0446157107
 20
445.2590248069
 30
0.0
 10
549.8719312632
 20
446.4384192329
 30
0.0
 10
548.9316950211
 20
447.0338245835
 30
0.0
 10
548.4348480178
 20
447.2717722994
 30
0.0
  0
SPLINE
  5
4B8
100
AcDbEntity
  8
0
100
AcDbSpline
 62
7
  6
CONTINUOUS
 70
0
 71
3
 72
13
 73
9
 74
0
 42
0.0000001
 43
0.0000001
 44
0.0000000001
 40
0.0
 40
0.0
 40
0.0
 40
0.0
 40
0.3093058691
 40
0.6049393327
 40
0.7338532599
 40
0.8442583041
 40
0.9331255999
 40
1.0
 40
1.0
 40
1.0
 40
1.0
 10
548.993378907
 20
440.551851495
 30
0.0
 10
549.3754854705
 20
440.5494922345
 30
0.0
 10
550.1227681172
 20
440.5260907846
 30
0.0
 10
551.0268058969
 20
440.4476229835
 30
0.0
 10
551.6804910616
 20
440.349182767
 30
0.0
 10
552.0780922069
 20
440.2682032332
 30
0.0
 10
552.3948042976
 20
440.1791661926
 30
0.0
 10
552.5744449644
 20
440.1078117537
 30
0.0
 10
552.6474717158
 20
440.0691787623
 30
0.0
  0
SPLINE
  5
4B9
100
AcDbEntity
  8
0
100
AcDbSpline
 62
7
  6
CONTINUOUS
 70
0
 71
3
 72
8
 73
4
 74
0
 42
0.0000001
 43
0.0000001
 44
0.0000000001
 40
0.0
 40
0.0
 40
0.0
 40
0.0
 40
1.0
 40
1.0
 40
1.0
 40
1.0
 10
552.4427671762
 20
405.5154480286
 30
0.0
 10
552.4429305959
 20
405.52675756
 30
0.0
 10
552.4434080483
 20
405.5380637679
 30
0.0
 10
552.4440674511
 20
405.5493552423
 30
0.0
  0
SPLINE
  5
4BA
100
AcDbEntity
  8
0
100
AcDbSpline
 62
7
  6
CONTINUOUS
 70
0
 71
3
 72
9
 73
5
 74
0
 42
0.0000001
 43
0.0000001
 44
0.0000000001
 40
0.0
 40
0.0
 40
0.0
 40
0.0
 40
0.199456441
 40
1.0
 40
1.0
 40
1.0
 40
1.0
 10
552.4457993418
 20
405.5742316498
 30
0.0
 10
552.4477120318
 20
405.5982077802
 30
0.0
 10
552.4603962206
 20
405.7181615624
 30
0.0
 10
552.4800792929
 20
405.837220879
 30
0.0
 10
552.4962363883
 20
405.9323961365
 30
0.0
  0
SPLINE
  5
4BB
100
AcDbEntity
  8
0
100
AcDbSpline
 62
7
  6
CONTINUOUS
 70
0
 71
3
 72
9
 73
5
 74
0
 42
0.0000001
 43
0.0000001
 44
0.0000000001
 40
0.0
 40
0.0
 40
0.0
 40
0.0
 40
0.4521091015
 40
1.0
 40
1.0
 40
1.0
 40
1.0
 10
552.4962363883
 20
405.9323961365
 30
0.0
 10
552.5233477208
 20
406.0920986065
 30
0.0
 10
552.5881221534
 20
406.4444936821
 30
0.0
 10
552.6488295292
 20
406.7976357355
 30
0.0
 10
552.6793081736
 20
406.9915604886
 30
0.0
  0
SPLINE
  5
4BC
100
AcDbEntity
  8
0
100
AcDbSpline
 62
7
  6
CONTINUOUS
 70
0
 71
3
 72
9
 73
5
 74
0
 42
0.0000001
 43
0.0000001
 44
0.0000000001
 40
0.0
 40
0.0
 40
0.0
 40
0.0
 40
0.2366780455
 40
1.0
 40
1.0
 40
1.0
 40
1.0
 10
552.6973066036
 20
407.1083182838
 30
0.0
 10
552.7137610116
 20
407.2172507285
 30
0.0
 10
552.7792320279
 20
407.6780694912
 30
0.0
 10
552.8247757293
 20
408.1420555684
 30
0.0
 10
552.8417956437
 20
408.4969564431
 30
0.0
  0
LINE
  5
4BD
100
AcDbEntity
  8
0
100
AcDbLine
 62
7
  6
CONTINUOUS
 10
552.8417956437
 20
408.4969564431
 11
552.8425097347
 21
408.5120761888
  0
SPLINE
  5
4BE
100
AcDbEntity
  8
0
100
AcDbSpline
 62
7
  6
CONTINUOUS
 70
0
 71
3
 72
10
 73
6
 74
0
 42
0.0000001
 43
0.0000001
 44
0.0000000001
 40
0.0
 40
0.0
 40
0.0
 40
0.0
 40
0.1798990964
 40
0.4131745695
 40
1.0
 40
1.0
 40
1.0
 40
1.0
 10
552.4513818532
 20
445.0111118097
 30
0.0
 10
552.460081112
 20
444.9335556087
 30
0.0
 10
552.4875376257
 20
444.756330991
 30
0.0
 10
552.5633119304
 20
444.3292356501
 30
0.0
 10
552.6267191665
 20
443.9791064654
 30
0.0
 10
552.6671504523
 20
443.7277651425
 30
0.0
  0
SPLINE
  5
4BF
100
AcDbEntity
  8
0
100
AcDbSpline
 62
7
  6
CONTINUOUS
 70
0
 71
3
 72
9
 73
5
 74
0
 42
0.0000001
 43
0.0000001
 44
0.0000000001
 40
0.0
 40
0.0
 40
0.0
 40
0.0
 40
0.2436295171
 40
1.0
 40
1.0
 40
1.0
 40
1.0
 10
552.7677929487
 20
443.0144164816
 30
0.0
 10
552.7764178786
 20
442.941756908
 30
0.0
 10
552.8095928258
 20
442.6432662555
 30
0.0
 10
552.832873312
 20
442.3436148933
 30
0.0
 10
552.8432599446
 20
442.11669038
 30
0.0
  0
SPLINE
  5
4C0
100
AcDbEntity
  8
0
100
AcDbSpline
 62
7
  6
CONTINUOUS
 70
0
 71
3
 72
9
 73
5
 74
0
 42
0.0000001
 43
0.0000001
 44
0.0000000001
 40
0.0
 40
0.0
 40
0.0
 40
0.0
 40
0.2131101208
 40
1.0
 40
1.0
 40
1.0
 40
1.0
 10
527.1537808699
 20
626.0299215114
 30
0.0
 10
527.1537769492
 20
626.0553546203
 30
0.0
 10
527.1738362178
 20
626.1752549774
 30
0.0
 10
527.2622076371
 20
626.2702275914
 30
0.0
 10
527.3333168365
 20
626.3315665542
 30
0.0
  0
SPLINE
  5
4C1
100
AcDbEntity
  8
0
100
AcDbSpline
 62
7
  6
CONTINUOUS
 70
0
 71
3
 72
9
 73
5
 74
0
 42
0.0000001
 43
0.0000001
 44
0.0000000001
 40
0.0
 40
0.0
 40
0.0
 40
0.0
 40
0.2137196808
 40
1.0
 40
1.0
 40
1.0
 40
1.0
 10
527.3333168365
 20
626.3315665542
 30
0.0
 10
527.3645199572
 20
626.3584824395
 30
0.0
 10
527.5181522374
 20
626.4755433974
 30
0.0
 10
527.6890787861
 20
626.5673006635
 30
0.0
 10
527.8247329989
 20
626.6349919539
 30
0.0
  0
SPLINE
  5
4C2
100
AcDbEntity
  8
0
100
AcDbSpline
 62
7
  6
CONTINUOUS
 70
0
 71
3
 72
8
 73
4
 74
0
 42
0.0000001
 43
0.0000001
 44
0.0000000001
 40
0.0
 40
0.0
 40
0.0
 40
0.0
 40
1.0
 40
1.0
 40
1.0
 40
1.0
 10
527.9423976909
 20
626.6921670349
 30
0.0
 10
528.082365429
 20
626.7585654467
 30
0.0
 10
528.2241718614
 20
626.821051003
 30
0.0
 10
528.3661070292
 20
626.8831326021
 30
0.0
  0
LINE
  5
4C3
100
AcDbEntity
  8
0
100
AcDbLine
 62
7
  6
CONTINUOUS
 10
528.3661070292
 20
626.8831326021
 11
528.4537808259
 21
626.9214302487
  0
SPLINE
  5
4C4
100
AcDbEntity
  8
0
100
AcDbSpline
 62
7
  6
CONTINUOUS
 70
0
 71
3
 72
9
 73
5
 74
0
 42
0.0000001
 43
0.0000001
 44
0.0000000001
 40
0.0
 40
0.0
 40
0.0
 40
0.0
 40
0.2138811308
 40
1.0
 40
1.0
 40
1.0
 40
1.0
 10
527.1537808111
 20
234.2129636424
 30
0.0
 10
527.1537778203
 20
234.1879113962
 30
0.0
 10
527.173101446
 20
234.0702375456
 30
0.0
 10
527.2588573619
 20
233.9763164466
 30
0.0
 10
527.3281801255
 20
233.9157114292
 30
0.0
  0
SPLINE
  5
4C5
100
AcDbEntity
  8
0
100
AcDbSpline
 62
7
  6
CONTINUOUS
 70
0
 71
3
 72
9
 73
5
 74
0
 42
0.0000001
 43
0.0000001
 44
0.0000000001
 40
0.0
 40
0.0
 40
0.0
 40
0.0
 40
0.2130788568
 40
1.0
 40
1.0
 40
1.0
 40
1.0
 10
527.3281801255
 20
233.9157114292
 30
0.0
 10
527.3592847607
 20
233.8885183853
 30
0.0
 10
527.5132254654
 20
233.7700432328
 30
0.0
 10
527.6850985979
 20
233.6776220166
 30
0.0
 10
527.8215927972
 20
233.6094273195
 30
0.0
  0
SPLINE
  5
4C6
100
AcDbEntity
  8
0
100
AcDbSpline
 62
7
  6
CONTINUOUS
 70
0
 71
3
 72
8
 73
4
 74
0
 42
0.0000001
 43
0.0000001
 44
0.0000000001
 40
0.0
 40
0.0
 40
0.0
 40
0.0
 40
1.0
 40
1.0
 40
1.0
 40
1.0
 10
527.9403905566
 20
233.5516503102
 30
0.0
 10
528.0809200772
 20
233.4849457853
 30
0.0
 10
528.2233073264
 20
233.4221923419
 30
0.0
 10
528.3658263606
 20
233.3598516275
 30
0.0
  0
LINE
  5
4C7
100
AcDbEntity
  8
0
100
AcDbLine
 62
7
  6
CONTINUOUS
 10
528.3658263606
 20
233.3598516275
 11
528.4537808259
 21
233.3214302487
  0
SPLINE
  5
4C8
100
AcDbEntity
  8
0
100
AcDbSpline
 62
7
  6
CONTINUOUS
 70
0
 71
3
 72
9
 73
5
 74
0
 42
0.0000001
 43
0.0000001
 44
0.0000000001
 40
0.0
 40
0.0
 40
0.0
 40
0.0
 40
0.2753276969
 40
1.0
 40
1.0
 40
1.0
 40
1.0
 10
546.7197457322
 20
233.5767026848
 30
0.0
 10
546.7649412066
 20
233.6274781115
 30
0.0
 10
546.9223467672
 20
233.8171010494
 30
0.0
 10
547.0506516829
 20
234.0358058109
 30
0.0
 10
547.1041982643
 20
234.2065210607
 30
0.0
  0
SPLINE
  5
4C9
100
AcDbEntity
  8
0
100
AcDbSpline
 62
7
  6
CONTINUOUS
 70
0
 71
3
 72
8
 73
4
 74
0
 42
0.0000001
 43
0.0000001
 44
0.0000000001
 40
0.0
 40
0.0
 40
0.0
 40
0.0
 40
1.0
 40
1.0
 40
1.0
 40
1.0
 10
547.1041982643
 20
234.2065210607
 30
0.0
 10
547.1360009817
 20
234.3079133197
 30
0.0
 10
547.1537808259
 20
234.415167353
 30
0.0
 10
547.1537808259
 20
234.5214302487
 30
0.0
  0
SPLINE
  5
4CA
100
AcDbEntity
  8
0
100
AcDbSpline
 62
7
  6
CONTINUOUS
 70
0
 71
3
 72
9
 73
5
 74
0
 42
0.0000001
 43
0.0000001
 44
0.0000000001
 40
0.0
 40
0.0
 40
0.0
 40
0.0
 40
0.2255111035
 40
1.0
 40
1.0
 40
1.0
 40
1.0
 10
547.1537808259
 20
625.7214302487
 30
0.0
 10
547.1537808259
 20
625.8006970026
 30
0.0
 10
547.1106288651
 20
626.1534311761
 30
0.0
 10
546.900744611
 20
626.4628123358
 30
0.0
 10
546.7197457322
 20
626.6661578126
 30
0.0
  0
LINE
  5
4CB
100
AcDbEntity
  8
0
100
AcDbLine
 62
7
  6
CONTINUOUS
 10
230.9302401198
 20
609.6298319157
 11
230.672030711
 21
609.6481399249
  0
LINE
  5
4CC
100
AcDbEntity
  8
0
100
AcDbLine
 62
7
  6
CONTINUOUS
 10
230.672030711
 20
609.6481399249
 11
230.565354054
 21
609.6557766631
  0
LINE
  5
4CD
100
AcDbEntity
  8
0
100
AcDbLine
 62
7
  6
CONTINUOUS
 10
230.565354054
 20
609.6557766631
 11
230.3583528878
 21
609.670838534
  0
SPLINE
  5
4CE
100
AcDbEntity
  8
0
100
AcDbSpline
 62
7
  6
CONTINUOUS
 70
0
 71
3
 72
9
 73
5
 74
0
 42
0.0000001
 43
0.0000001
 44
0.0000000001
 40
0.0
 40
0.0
 40
0.0
 40
0.0
 40
0.2209683891
 40
1.0
 40
1.0
 40
1.0
 40
1.0
 10
229.1090311806
 20
249.3011498837
 30
0.0
 10
229.1555801605
 20
249.3849084213
 30
0.0
 10
229.3969788446
 20
249.7469943708
 30
0.0
 10
229.7191351523
 20
250.0460575237
 30
0.0
 10
229.977030343
 20
250.2642786789
 30
0.0
  0
SPLINE
  5
4CF
100
AcDbEntity
  8
0
100
AcDbSpline
 62
7
  6
CONTINUOUS
 70
0
 71
3
 72
8
 73
4
 74
0
 42
0.0000001
 43
0.0000001
 44
0.0000000001
 40
0.0
 40
0.0
 40
0.0
 40
0.0
 40
1.0
 40
1.0
 40
1.0
 40
1.0
 10
229.977030343
 20
250.2642786789
 30
0.0
 10
230.1017195843
 20
250.3697859984
 30
0.0
 10
230.229325489
 20
250.4718664257
 30
0.0
 10
230.3583528878
 20
250.5720219634
 30
0.0
  0
SPLINE
  5
4D0
100
AcDbEntity
  8
0
100
AcDbSpline
 62
7
  6
CONTINUOUS
 70
0
 71
3
 72
9
 73
5
 74
0
 42
0.0000001
 43
0.0000001
 44
0.0000000001
 40
0.0
 40
0.0
 40
0.0
 40
0.0
 40
0.2612451868
 40
1.0
 40
1.0
 40
1.0
 40
1.0
 10
230.3583528878
 20
609.670838534
 30
0.0
 10
230.2910991752
 20
609.723043196
 30
0.0
 10
230.0353552169
 20
609.9249191811
 30
0.0
 10
229.7871018811
 20
610.1372236508
 30
0.0
 10
229.6156840488
 20
610.3062745739
 30
0.0
  0
SPLINE
  5
4D1
100
AcDbEntity
  8
0
100
AcDbSpline
 62
7
  6
CONTINUOUS
 70
0
 71
3
 72
9
 73
5
 74
0
 42
0.0000001
 43
0.0000001
 44
0.0000000001
 40
0.0
 40
0.0
 40
0.0
 40
0.0
 40
0.2712396921
 40
1.0
 40
1.0
 40
1.0
 40
1.0
 10
229.6156840488
 20
610.3062745739
 30
0.0
 10
229.5632803742
 20
610.3579546672
 30
0.0
 10
229.3747435028
 20
610.5527389153
 30
0.0
 10
229.2050915816
 20
610.7688630295
 30
0.0
 10
229.1090311806
 20
610.9417106137
 30
0.0
  0
LINE
  5
4D2
100
AcDbEntity
  8
0
100
AcDbLine
 62
7
  6
CONTINUOUS
 10
230.672030711
 20
250.5947205725
 11
230.9302401198
 21
250.6130285816
  0
SPLINE
  5
4D3
100
AcDbEntity
  8
0
100
AcDbSpline
 62
7
  6
CONTINUOUS
 70
0
 71
3
 72
9
 73
5
 74
0
 42
0.0000001
 43
0.0000001
 44
0.0000000001
 40
0.0
 40
0.0
 40
0.0
 40
0.0
 40
0.3732338897
 40
1.0
 40
1.0
 40
1.0
 40
1.0
 10
228.9293820933
 20
627.9214302487
 30
0.0
 10
228.9293820933
 20
628.0452097258
 30
0.0
 10
228.6842871444
 20
628.3361945281
 30
0.0
 10
228.3925708251
 20
628.4720187523
 30
0.0
 10
228.2042941913
 20
628.5600989301
 30
0.0
  0
SPLINE
  5
4D4
100
AcDbEntity
  8
0
100
AcDbSpline
 62
7
  6
CONTINUOUS
 70
0
 71
3
 72
9
 73
5
 74
0
 42
0.0000001
 43
0.0000001
 44
0.0000000001
 40
0.0
 40
0.0
 40
0.0
 40
0.0
 40
0.2306028034
 40
1.0
 40
1.0
 40
1.0
 40
1.0
 10
228.2042941913
 20
628.5600989301
 30
0.0
 10
228.1515403229
 20
628.5847784138
 30
0.0
 10
227.9209658841
 20
628.6879385942
 30
0.0
 10
227.6853140335
 20
628.7793003795
 30
0.0
 10
227.5031249907
 20
628.8468823652
 30
0.0
  0
SPLINE
  5
4D5
100
AcDbEntity
  8
0
100
AcDbSpline
 62
7
  6
CONTINUOUS
 70
0
 71
3
 72
8
 73
4
 74
0
 42
0.0000001
 43
0.0000001
 44
0.0000000001
 40
0.0
 40
0.0
 40
0.0
 40
0.0
 40
1.0
 40
1.0
 40
1.0
 40
1.0
 10
227.5031249907
 20
628.8468823652
 30
0.0
 10
227.2465398163
 20
628.9420611712
 30
0.0
 10
226.9879083995
 20
629.031657726
 30
0.0
 10
226.7293820933
 20
629.1214302487
 30
0.0
  0
SPLINE
  5
4D6
100
AcDbEntity
  8
0
100
AcDbSpline
 62
7
  6
CONTINUOUS
 70
0
 71
3
 72
8
 73
4
 74
0
 42
0.0000001
 43
0.0000001
 44
0.0000000001
 40
0.0
 40
0.0
 40
0.0
 40
0.0
 40
1.0
 40
1.0
 40
1.0
 40
1.0
 10
226.7293820933
 20
231.1214302487
 30
0.0
 10
226.9879071537
 20
231.2112023387
 30
0.0
 10
227.2465373234
 20
231.3007984611
 30
0.0
 10
227.5031212811
 20
231.395976755
 30
0.0
  0
SPLINE
  5
4D7
100
AcDbEntity
  8
0
100
AcDbSpline
 62
7
  6
CONTINUOUS
 70
0
 71
3
 72
9
 73
5
 74
0
 42
0.0000001
 43
0.0000001
 44
0.0000000001
 40
0.0
 40
0.0
 40
0.0
 40
0.0
 40
0.280647631
 40
1.0
 40
1.0
 40
1.0
 40
1.0
 10
227.5031212811
 20
231.395976755
 30
0.0
 10
227.5954977001
 20
231.4302432386
 30
0.0
 10
227.9232347325
 20
231.5554471562
 30
0.0
 10
228.2480951541
 20
231.6929824118
 30
0.0
 10
228.4678099487
 20
231.8174958847
 30
0.0
  0
SPLINE
  5
4D8
100
AcDbEntity
  8
0
100
AcDbSpline
 62
7
  6
CONTINUOUS
 70
0
 71
3
 72
9
 73
5
 74
0
 42
0.0000001
 43
0.0000001
 44
0.0000000001
 40
0.0
 40
0.0
 40
0.0
 40
0.0
 40
0.3371579402
 40
1.0
 40
1.0
 40
1.0
 40
1.0
 10
228.4678099487
 20
231.8174958847
 30
0.0
 10
228.5358040991
 20
231.8560285097
 30
0.0
 10
228.7260207666
 20
231.9723337534
 30
0.0
 10
228.9293820933
 20
232.1677829139
 30
0.0
 10
228.9293820933
 20
232.3214302487
 30
0.0
  0
SPLINE
  5
4D9
100
AcDbEntity
  8
0
100
AcDbSpline
 62
7
  6
CONTINUOUS
 70
0
 71
3
 72
9
 73
5
 74
0
 42
0.0000001
 43
0.0000001
 44
0.0000000001
 40
0.0
 40
0.0
 40
0.0
 40
0.0
 40
0.3732338897
 40
1.0
 40
1.0
 40
1.0
 40
1.0
 10
71.9293820933
 20
232.3214302487
 30
0.0
 10
71.9293820933
 20
232.1976507716
 30
0.0
 10
72.1744770422
 20
231.9066659692
 30
0.0
 10
72.4661933615
 20
231.7708417451
 30
0.0
 10
72.6544699953
 20
231.6827615673
 30
0.0
  0
SPLINE
  5
4DA
100
AcDbEntity
  8
0
100
AcDbSpline
 62
7
  6
CONTINUOUS
 70
0
 71
3
 72
9
 73
5
 74
0
 42
0.0000001
 43
0.0000001
 44
0.0000000001
 40
0.0
 40
0.0
 40
0.0
 40
0.0
 40
0.2306028034
 40
1.0
 40
1.0
 40
1.0
 40
1.0
 10
72.6544699953
 20
231.6827615673
 30
0.0
 10
72.7072238637
 20
231.6580820836
 30
0.0
 10
72.9377983025
 20
231.5549219032
 30
0.0
 10
73.173450153
 20
231.4635601179
 30
0.0
 10
73.3556391959
 20
231.3959781322
 30
0.0
  0
SPLINE
  5
4DB
100
AcDbEntity
  8
0
100
AcDbSpline
 62
7
  6
CONTINUOUS
 70
0
 71
3
 72
8
 73
4
 74
0
 42
0.0000001
 43
0.0000001
 44
0.0000000001
 40
0.0
 40
0.0
 40
0.0
 40
0.0
 40
1.0
 40
1.0
 40
1.0
 40
1.0
 10
73.3556391959
 20
231.3959781322
 30
0.0
 10
73.6122243703
 20
231.3007993261
 30
0.0
 10
73.870855787
 20
231.2112027714
 30
0.0
 10
74.1293820933
 20
231.1214302487
 30
0.0
  0
SPLINE
  5
4DC
100
AcDbEntity
  8
0
100
AcDbSpline
 62
7
  6
CONTINUOUS
 70
0
 71
3
 72
8
 73
4
 74
0
 42
0.0000001
 43
0.0000001
 44
0.0000000001
 40
0.0
 40
0.0
 40
0.0
 40
0.0
 40
1.0
 40
1.0
 40
1.0
 40
1.0
 10
74.1293820933
 20
629.1214302487
 30
0.0
 10
73.8708570329
 20
629.0316581586
 30
0.0
 10
73.6122268632
 20
628.9420620363
 30
0.0
 10
73.3556429055
 20
628.8468837423
 30
0.0
  0
SPLINE
  5
4DD
100
AcDbEntity
  8
0
100
AcDbSpline
 62
7
  6
CONTINUOUS
 70
0
 71
3
 72
9
 73
5
 74
0
 42
0.0000001
 43
0.0000001
 44
0.0000000001
 40
0.0
 40
0.0
 40
0.0
 40
0.0
 40
0.280647631
 40
1.0
 40
1.0
 40
1.0
 40
1.0
 10
73.3556429055
 20
628.8468837423
 30
0.0
 10
73.2632664864
 20
628.8126172588
 30
0.0
 10
72.9355294541
 20
628.6874133412
 30
0.0
 10
72.6106690325
 20
628.5498780855
 30
0.0
 10
72.3909542378
 20
628.4253646127
 30
0.0
  0
SPLINE
  5
4DE
100
AcDbEntity
  8
0
100
AcDbSpline
 62
7
  6
CONTINUOUS
 70
0
 71
3
 72
9
 73
5
 74
0
 42
0.0000001
 43
0.0000001
 44
0.0000000001
 40
0.0
 40
0.0
 40
0.0
 40
0.0
 40
0.3371579403
 40
1.0
 40
1.0
 40
1.0
 40
1.0
 10
72.3909542378
 20
628.4253646127
 30
0.0
 10
72.3229600874
 20
628.3868319877
 30
0.0
 10
72.13274342
 20
628.270526744
 30
0.0
 10
71.9293820933
 20
628.0750775835
 30
0.0
 10
71.9293820933
 20
627.9214302487
 30
0.0
  0
LINE
  5
4DF
100
AcDbEntity
  8
0
100
AcDbLine
 62
7
  6
CONTINUOUS
 10
231.311000084
 20
609.6027427065
 11
230.9302401198
 21
609.6298319157
  0
LINE
  5
4E0
100
AcDbEntity
  8
0
100
AcDbLine
 62
7
  6
CONTINUOUS
 10
230.9302401198
 20
250.6130285816
 11
231.311000084
 21
250.6401177909
  0
SPLINE
  5
4E1
100
AcDbEntity
  8
0
100
AcDbSpline
 62
7
  6
CONTINUOUS
 70
0
 71
3
 72
9
 73
5
 74
0
 42
0.0000001
 43
0.0000001
 44
0.0000000001
 40
0.0
 40
0.0
 40
0.0
 40
0.0
 40
0.2396456247
 40
1.0
 40
1.0
 40
1.0
 40
1.0
 10
520.9434842145
 20
248.3114302487
 30
0.0
 10
520.9434842145
 20
248.4400107184
 30
0.0
 10
520.9837016194
 20
248.9770827376
 30
0.0
 10
521.1839000448
 20
249.4914390209
 30
0.0
 10
521.3757460326
 20
249.8514800205
 30
0.0
  0
SPLINE
  5
4E2
100
AcDbEntity
  8
0
100
AcDbSpline
 62
7
  6
CONTINUOUS
 70
0
 71
3
 72
8
 73
4
 74
0
 42
0.0000001
 43
0.0000001
 44
0.0000000001
 40
0.0
 40
0.0
 40
0.0
 40
0.0
 40
1.0
 40
1.0
 40
1.0
 40
1.0
 10
521.4261960776
 20
249.9439747552
 30
0.0
 10
521.5433848884
 20
250.1540692155
 30
0.0
 10
521.6735875208
 20
250.3570020544
 30
0.0
 10
521.8098704231
 20
250.5552440029
 30
0.0
  0
SPLINE
  5
4E3
100
AcDbEntity
  8
0
100
AcDbSpline
 62
7
  6
CONTINUOUS
 70
0
 71
3
 72
9
 73
5
 74
0
 42
0.0000001
 43
0.0000001
 44
0.0000000001
 40
0.0
 40
0.0
 40
0.0
 40
0.0
 40
0.7564478791
 40
1.0
 40
1.0
 40
1.0
 40
1.0
 10
521.8098704231
 20
609.6876164944
 30
0.0
 10
521.6917157545
 20
609.8594884706
 30
0.0
 10
521.5416695248
 20
610.0912761489
 30
0.0
 10
521.4073245116
 20
610.3321165471
 30
0.0
 10
521.3757460326
 20
610.3913804768
 30
0.0
  0
SPLINE
  5
4E4
100
AcDbEntity
  8
0
100
AcDbSpline
 62
7
  6
CONTINUOUS
 70
0
 71
3
 72
9
 73
5
 74
0
 42
0.0000001
 43
0.0000001
 44
0.0000000001
 40
0.0
 40
0.0
 40
0.0
 40
0.0
 40
0.2584705869
 40
1.0
 40
1.0
 40
1.0
 40
1.0
 10
521.3757460326
 20
610.3913804768
 30
0.0
 10
521.3419271703
 20
610.4548489764
 30
0.0
 10
521.2161757179
 20
610.7029902
 30
0.0
 10
521.112843482
 20
610.9631969406
 30
0.0
 10
521.0558128082
 20
611.1614800205
 30
0.0
  0
SPLINE
  5
4E5
100
AcDbEntity
  8
0
100
AcDbSpline
 62
7
  6
CONTINUOUS
 70
0
 71
3
 72
8
 73
4
 74
0
 42
0.0000001
 43
0.0000001
 44
0.0000000001
 40
0.0
 40
0.0
 40
0.0
 40
0.0
 40
1.0
 40
1.0
 40
1.0
 40
1.0
 10
521.0558128082
 20
611.1614800205
 30
0.0
 10
520.9841195848
 20
611.4107415526
 30
0.0
 10
520.9434842145
 20
611.67206327
 30
0.0
 10
520.9434842145
 20
611.9314302487
 30
0.0
  0
SPLINE
  5
4E6
100
AcDbEntity
  8
0
100
AcDbSpline
 62
7
  6
CONTINUOUS
 70
0
 71
3
 72
9
 73
5
 74
0
 42
0.0000001
 43
0.0000001
 44
0.0000000001
 40
0.0
 40
0.0
 40
0.0
 40
0.0
 40
0.2413915432
 40
1.0
 40
1.0
 40
1.0
 40
1.0
 10
521.8557196781
 20
609.6214302487
 30
0.0
 10
521.9028628344
 20
609.6333413511
 30
0.0
 10
522.0984144879
 20
609.6816814327
 30
0.0
 10
522.2946424515
 20
609.7272156884
 30
0.0
 10
522.4434841879
 20
609.7618136727
 30
0.0
  0
SPLINE
  5
4E7
100
AcDbEntity
  8
0
100
AcDbSpline
 62
7
  6
CONTINUOUS
 70
0
 71
3
 72
9
 73
5
 74
0
 42
0.0000001
 43
0.0000001
 44
0.0000000001
 40
0.0
 40
0.0
 40
0.0
 40
0.0
 40
0.7586084568
 40
1.0
 40
1.0
 40
1.0
 40
1.0
 10
522.443484188
 20
250.4810468246
 30
0.0
 10
522.2946424515
 20
250.5156448089
 30
0.0
 10
522.098414488
 20
250.5611790646
 30
0.0
 10
521.9028628344
 20
250.6095191462
 30
0.0
 10
521.8557196781
 20
250.6214302487
 30
0.0
  0
ENDSEC
  0
SECTION
  2
OBJECTS
  0
DICTIONARY
  5
C
100
AcDbDictionary
280
0
281
1
  3
ACAD_GROUP
350
D
  3
ACAD_MLINESTYLE
350
17
  3
ACAD_LAYOUT
350
1A
  3
ACAD_PLOTSETTINGS
350
19
  3
ACAD_PLOTSTYLENAME
350
E
  0
DICTIONARY
  5
D
102
{ACAD_REACTORS
330
C
102
}
100
AcDbDictionary
280
0
281
1
  0
ACDBDICTIONARYWDFLT
  5
E
102
{ACAD_REACTORS
330
C
102
}
100
AcDbDictionary
281
1
  3
Normal
350
F
100
AcDbDictionaryWithDefault
340
F
  0
DICTIONARY
  5
17
102
{ACAD_REACTORS
330
C
102
}
100
AcDbDictionary
280
0
281
1
  3
Standard
350
18
  0
DICTIONARY
  5
19
102
{ACAD_REACTORS
330
C
102
}
100
AcDbDictionary
281
1
  0
DICTIONARY
  5
1A
102
{ACAD_REACTORS
330
C
102
}
100
AcDbDictionary
281
1
  3
Model
350
4E8
  3
Layout1
350
4E9
  0
ACDBPLACEHOLDER
  5
F
102
{ACAD_REACTORS
330
E
102
}
  0
MLINESTYLE
  5
18
102
{ACAD_REACTORS
330
17
102
}
100
AcDbMlineStyle
  2
STANDARD
 70
0
  3

 62
256
 51
90.0
 52
90.0
 71
2
 49
0.5
 62
256
  6
BYLAYER
 49
-0.5
 62
256
  6
BYLAYER
  0
LAYOUT
  5
4E8
102
{ACAD_REACTORS
330
1A
102
}
100
AcDbPlotSettings
  1

  2
none_device
  4

  6

 40
0.0
 41
0.0
 42
0.0
 43
0.0
 44
210.0
 45
297.0
 46
0.0
 47
0.0
 48
0.0
 49
0.0
140
0.0
141
0.0
142
1.0
143
1.0
 70
1024
 72
1
 73
0
 74
0
  7

 75
0
147
1.0
148
0.0
149
0.0
100
AcDbLayout
  1
Model
 70
0
 71
0
 10
0.0
 20
0.0
 11
210.0
 21
297.0
 12
0.0
 22
0.0
 32
0.0
 14
0.0
 24
0.0
 34
0.0
 15
0.0
 25
0.0
 35
0.0
146
0.0
 13
0.0
 23
0.0
 33
0.0
 16
1.0
 26
0.0
 36
0.0
 17
0.0
 27
1.0
 37
0.0
 76
0
330
210
345
0
346
0
  0
LAYOUT
  5
4E9
102
{ACAD_REACTORS
330
1A
102
}
100
AcDbPlotSettings
  1

  2
none_device
  4

  6

 40
0.0
 41
0.0
 42
0.0
 43
0.0
 44
210.0
 45
297.0
 46
0.0
 47
0.0
 48
0.0
 49
0.0
140
0.0
141
0.0
142
1.0
143
1.0
 70
0
 72
1
 73
0
 74
0
  7

 75
0
147
1.0
148
0.0
149
0.0
100
AcDbLayout
  1
Layout1
 70
0
 71
1
 10
0.0
 20
0.0
 11
210.0
 21
297.0
 12
0.0
 22
0.0
 32
0.0
 14
0.0
 24
0.0
 34
0.0
 15
0.0
 25
0.0
 35
0.0
146
0.0
 13
0.0
 23
0.0
 33
0.0
 16
1.0
 26
0.0
 36
0.0
 17
0.0
 27
1.0
 37
0.0
 76
0
330
211
345
0
346
0
  0
ENDSEC
  0
EOF
